  0
SECTION
  2
HEADER
  9
$ACADVER
  1
AC1018
  9
$HANDSEED
  5
FFFFFF
  9
$EXTMAX
 10
7565331.20399999991
 20
5718004.7209999999
 30
1000000.00
  9
$EXTMIN
 10
7565160.86400000006
 20
5717807.60800000001
 30
0.00
  9
$LIMMIN
 10
7565160.86400000006
 20
5717807.60800000001
  9
$LIMMAX
 10
7565331.20399999991
 20
5718004.7209999999
  9
$DIMASZ
 40
2.5
  9
$DIMGAP
 40
0.625
  9
$INSUNITS
 70
6
  9
$MEASUREMENT
 70
1
  9
$DIMEXO
 40
0.625
  9
$DIMTXT
 40
2.5
  9
$DIMSTYLE
  2
Standard
  9
$PLIMMIN
 10
0.0
 20
0.0
  9
$PLIMMAX
 10
210.0
 20
297.0
  9
$DIMEXE
 40
1.25
  9
$TEXTSIZE
 40
2.5
  9
$TEXTSTYLE
  7
Standard
  9
$LWDISPLAY
290
1
  9
$TDCREATE
 40
45940.815885278
  9
$TDUCREATE
 40
45940.732551944
  9
$TDUPDATE
 40
45940.815885278
  9
$TDUUPDATE
 40
45940.732551944
  9
$TDINDWG
 40
0.0
  9
$TDUSRTIMER
 40
0.0
  9
$USRTIMER
 70
1
  0
ENDSEC
  0
SECTION
  2
TABLES
  0
TABLE
  2
VPORT
  5
1
100
AcDbSymbolTable
 70
1
  0
VPORT
  5
2
100
AcDbSymbolTableRecord
100
AcDbViewportTableRecord
  2
*ACTIVE
 70
0
 10
0.0
 20
0.0
 11
1.0
 21
1.0
 12
7565246.034
 22
5717906.164
 13
0.0
 23
0.0
 14
1.0
 24
1.0
 15
0.0
 25
0.0
 16
0.0
 26
0.0
 36
1.0
 17
0.0
 27
0.0
 37
0.0
 40
197.113
 41
0.864
 42
50.0
 43
0.0
 44
0.0
 50
0.0
 51
0.0
 71
0
 72
100
 73
1
 74
1
 75
0
 76
0
 77
0
 78
0
  0
ENDTAB
  0
TABLE
  2
LTYPE
  5
3
100
AcDbSymbolTable
 70
3
  0
LTYPE
  5
4
100
AcDbSymbolTableRecord
100
AcDbLinetypeTableRecord
  2
ByBlock
 70
0
  3

 72
65
 73
0
 40
0.0
  0
LTYPE
  5
5
100
AcDbSymbolTableRecord
100
AcDbLinetypeTableRecord
  2
ByLayer
 70
0
  3

 72
65
 73
0
 40
0.0
  0
LTYPE
  5
6
100
AcDbSymbolTableRecord
100
AcDbLinetypeTableRecord
  2
CONTINUOUS
 70
0
  3
Solid line
 72
65
 73
0
 40
0.0
  0
ENDTAB
  0
TABLE
  2
LAYER
  5
7
100
AcDbSymbolTable
 70
6
  0
LAYER
  5
8
100
AcDbSymbolTableRecord
100
AcDbLayerTableRecord
  2
0
 70
0
420
0
  6
CONTINUOUS
370
18
390
9
  0
LAYER
  5
A
100
AcDbSymbolTableRecord
100
AcDbLayerTableRecord
  2
czolowki
 70
0
420
0
  6
CONTINUOUS
370
18
390
9
  0
LAYER
  5
B
100
AcDbSymbolTableRecord
100
AcDbLayerTableRecord
  2
Dzialki
 70
0
420
32768
  6
CONTINUOUS
370
18
390
9
  0
LAYER
  5
C
100
AcDbSymbolTableRecord
100
AcDbLayerTableRecord
  2
Numery_dzialek
 70
0
420
8421504
  6
CONTINUOUS
370
18
390
9
  0
LAYER
  5
D
100
AcDbSymbolTableRecord
100
AcDbLayerTableRecord
  2
Obrys_bud
 70
0
420
13762770
  6
CONTINUOUS
370
25
390
9
  0
LAYER
  5
E
100
AcDbSymbolTableRecord
100
AcDbLayerTableRecord
  2
Osie
 70
0
420
16711680
  6
CONTINUOUS
370
18
390
9
  0
ENDTAB
  0
TABLE
  2
STYLE
  5
F
100
AcDbSymbolTable
 70
2
  0
STYLE
  5
10
100
AcDbSymbolTableRecord
100
AcDbTextStyleTableRecord
  2
STANDARD
 70
0
 40
0.0
 41
1.0
 50
0.0
 71
0
  3
simplex.shx
  4

  0
STYLE
  5
11
100
AcDbSymbolTableRecord
100
AcDbTextStyleTableRecord
  2
STANDARD_ITALIC
 70
0
 40
0.0
 41
1.0
 50
15.0
 71
0
  3
simplex.shx
  4

  0
ENDTAB
  0
TABLE
  2
VIEW
  5
12
100
AcDbSymbolTable
 70
0
  0
ENDTAB
  0
TABLE
  2
UCS
  5
13
100
AcDbSymbolTable
 70
0
  0
ENDTAB
  0
TABLE
  2
APPID
  5
14
100
AcDbSymbolTable
 70
1
  0
APPID
  5
15
100
AcDbSymbolTableRecord
100
AcDbRegAppTableRecord
  2
ACAD
 70
0
  0
ENDTAB
  0
TABLE
  2
DIMSTYLE
  5
16
100
AcDbSymbolTable
 70
1
100
AcDbDimStyleTable
  0
DIMSTYLE
105
17
100
AcDbSymbolTableRecord
100
AcDbDimStyleTableRecord
  2
Standard
 70
0
340
10
  0
ENDTAB
  0
TABLE
  2
BLOCK_RECORD
  5
18
100
AcDbSymbolTable
 70
2
  0
BLOCK_RECORD
  5
19
100
AcDbSymbolTableRecord
100
AcDbBlockTableRecord
  2
*Model_Space
340
1A
  0
BLOCK_RECORD
  5
1B
100
AcDbSymbolTableRecord
100
AcDbBlockTableRecord
  2
*Paper_Space
340
1C
  0
ENDTAB
  0
ENDSEC
  0
SECTION
  2
BLOCKS
  0
BLOCK
  5
1D
100
AcDbEntity
  8
0
100
AcDbBlockBegin
  2
*Model_Space
 70
0
 10
0.0
 20
0.0
 30
0.0
  3
*Model_Space
  1

  0
ENDBLK
  5
1E
100
AcDbEntity
  8
0
100
AcDbBlockEnd
  0
BLOCK
  5
1F
100
AcDbEntity
 67
1
  8
0
100
AcDbBlockBegin
  2
*Paper_Space
 70
0
 10
0.0
 20
0.0
 30
0.0
  3
*Paper_Space
  1

  0
ENDBLK
  5
20
100
AcDbEntity
 67
1
  8
0
100
AcDbBlockEnd
  0
ENDSEC
  0
SECTION
  2
ENTITIES
  0
POLYLINE
  5
21
100
AcDbEntity
  8
Dzialki
  6
CONTINUOUS
370
18
100
AcDb2dPolyline
 66
1
 70
128
  0
VERTEX
  5
22
100
AcDbEntity
  8
Dzialki
100
AcDbVertex
100
AcDb2dVertex
 10
7565194.13626654074
 20
5718004.7209583763
  0
VERTEX
  5
23
100
AcDbEntity
  8
Dzialki
100
AcDbVertex
100
AcDb2dVertex
 10
7565246.51000000071
 20
5717940.16999999993
  0
SEQEND
  5
24
100
AcDbEntity
  8
Dzialki
  0
POLYLINE
  5
25
100
AcDbEntity
  8
Dzialki
  6
CONTINUOUS
370
18
100
AcDb2dPolyline
 66
1
 70
128
  0
VERTEX
  5
26
100
AcDbEntity
  8
Dzialki
100
AcDbVertex
100
AcDb2dVertex
 10
7565246.51000000071
 20
5717940.16999999993
  0
VERTEX
  5
27
100
AcDbEntity
  8
Dzialki
100
AcDbVertex
100
AcDb2dVertex
 10
7565254.67615341674
 20
5717946.78617852833
  0
SEQEND
  5
28
100
AcDbEntity
  8
Dzialki
  0
POLYLINE
  5
29
100
AcDbEntity
  8
Dzialki
  6
CONTINUOUS
370
18
100
AcDb2dPolyline
 66
1
 70
128
  0
VERTEX
  5
2A
100
AcDbEntity
  8
Dzialki
100
AcDbVertex
100
AcDb2dVertex
 10
7565306.0999999987
 20
5717885.49000000022
  0
VERTEX
  5
2B
100
AcDbEntity
  8
Dzialki
100
AcDbVertex
100
AcDb2dVertex
 10
7565290.33356504701
 20
5717904.94372110907
  0
SEQEND
  5
2C
100
AcDbEntity
  8
Dzialki
  0
POLYLINE
  5
2D
100
AcDbEntity
  8
Dzialki
  6
CONTINUOUS
370
18
100
AcDb2dPolyline
 66
1
 70
128
  0
VERTEX
  5
2E
100
AcDbEntity
  8
Dzialki
100
AcDbVertex
100
AcDb2dVertex
 10
7565246.51000000071
 20
5717940.16999999993
  0
VERTEX
  5
2F
100
AcDbEntity
  8
Dzialki
100
AcDbVertex
100
AcDb2dVertex
 10
7565291.8900000006
 20
5717884.24000000022
  0
SEQEND
  5
30
100
AcDbEntity
  8
Dzialki
  0
POLYLINE
  5
31
100
AcDbEntity
  8
Dzialki
  6
CONTINUOUS
370
18
100
AcDb2dPolyline
 66
1
 70
128
  0
VERTEX
  5
32
100
AcDbEntity
  8
Dzialki
100
AcDbVertex
100
AcDb2dVertex
 10
7565291.8900000006
 20
5717884.24000000022
  0
VERTEX
  5
33
100
AcDbEntity
  8
Dzialki
100
AcDbVertex
100
AcDb2dVertex
 10
7565306.0999999987
 20
5717885.49000000022
  0
SEQEND
  5
34
100
AcDbEntity
  8
Dzialki
  0
POLYLINE
  5
35
100
AcDbEntity
  8
Dzialki
  6
CONTINUOUS
370
18
100
AcDb2dPolyline
 66
1
 70
128
  0
VERTEX
  5
36
100
AcDbEntity
  8
Dzialki
100
AcDbVertex
100
AcDb2dVertex
 10
7565306.0999999987
 20
5717885.49000000022
  0
VERTEX
  5
37
100
AcDbEntity
  8
Dzialki
100
AcDbVertex
100
AcDb2dVertex
 10
7565306.85513104219
 20
5717885.55636543594
  0
SEQEND
  5
38
100
AcDbEntity
  8
Dzialki
  0
POLYLINE
  5
39
100
AcDbEntity
  8
Dzialki
  6
CONTINUOUS
370
18
100
AcDb2dPolyline
 66
1
 70
128
  0
VERTEX
  5
3A
100
AcDbEntity
  8
Dzialki
100
AcDbVertex
100
AcDb2dVertex
 10
7565229.54000000004
 20
5717889.93999999948
  0
VERTEX
  5
3B
100
AcDbEntity
  8
Dzialki
100
AcDbVertex
100
AcDb2dVertex
 10
7565160.86430502217
 20
5717974.58786115237
  0
SEQEND
  5
3C
100
AcDbEntity
  8
Dzialki
  0
POLYLINE
  5
3D
100
AcDbEntity
  8
Dzialki
  6
CONTINUOUS
370
18
100
AcDb2dPolyline
 66
1
 70
128
  0
VERTEX
  5
3E
100
AcDbEntity
  8
Dzialki
100
AcDbVertex
100
AcDb2dVertex
 10
7565187.18387449533
 20
5717887.0241452409
  0
VERTEX
  5
3F
100
AcDbEntity
  8
Dzialki
100
AcDbVertex
100
AcDb2dVertex
 10
7565229.54000000004
 20
5717889.93999999948
  0
SEQEND
  5
40
100
AcDbEntity
  8
Dzialki
  0
POLYLINE
  5
41
100
AcDbEntity
  8
Dzialki
  6
CONTINUOUS
370
18
100
AcDb2dPolyline
 66
1
 70
128
  0
VERTEX
  5
42
100
AcDbEntity
  8
Dzialki
100
AcDbVertex
100
AcDb2dVertex
 10
7565230.56999999937
 20
5717927.25
  0
VERTEX
  5
43
100
AcDbEntity
  8
Dzialki
100
AcDbVertex
100
AcDb2dVertex
 10
7565178.90476755984
 20
5717990.92639326211
  0
SEQEND
  5
44
100
AcDbEntity
  8
Dzialki
  0
POLYLINE
  5
45
100
AcDbEntity
  8
Dzialki
  6
CONTINUOUS
370
18
100
AcDb2dPolyline
 66
1
 70
128
  0
VERTEX
  5
46
100
AcDbEntity
  8
Dzialki
100
AcDbVertex
100
AcDb2dVertex
 10
7565189.66224861424
 20
5717884.0062009776
  0
VERTEX
  5
47
100
AcDbEntity
  8
Dzialki
100
AcDbVertex
100
AcDb2dVertex
 10
7565232.06000000238
 20
5717886.81999999937
  0
SEQEND
  5
48
100
AcDbEntity
  8
Dzialki
  0
POLYLINE
  5
49
100
AcDbEntity
  8
Dzialki
  6
CONTINUOUS
370
18
100
AcDb2dPolyline
 66
1
 70
128
  0
VERTEX
  5
4A
100
AcDbEntity
  8
Dzialki
100
AcDbVertex
100
AcDb2dVertex
 10
7565232.06000000238
 20
5717886.81999999937
  0
VERTEX
  5
4B
100
AcDbEntity
  8
Dzialki
100
AcDbVertex
100
AcDb2dVertex
 10
7565248.26999999862
 20
5717885.08999999985
  0
SEQEND
  5
4C
100
AcDbEntity
  8
Dzialki
  0
POLYLINE
  5
4D
100
AcDbEntity
  8
Dzialki
  6
CONTINUOUS
370
18
100
AcDb2dPolyline
 66
1
 70
128
  0
VERTEX
  5
4E
100
AcDbEntity
  8
Dzialki
100
AcDbVertex
100
AcDb2dVertex
 10
7565248.26999999862
 20
5717885.08999999985
  0
VERTEX
  5
4F
100
AcDbEntity
  8
Dzialki
100
AcDbVertex
100
AcDb2dVertex
 10
7565264.02000000048
 20
5717886.01999999862
  0
SEQEND
  5
50
100
AcDbEntity
  8
Dzialki
  0
POLYLINE
  5
51
100
AcDbEntity
  8
Dzialki
  6
CONTINUOUS
370
18
100
AcDb2dPolyline
 66
1
 70
128
  0
VERTEX
  5
52
100
AcDbEntity
  8
Dzialki
100
AcDbVertex
100
AcDb2dVertex
 10
7565264.02000000048
 20
5717886.01999999862
  0
VERTEX
  5
53
100
AcDbEntity
  8
Dzialki
100
AcDbVertex
100
AcDb2dVertex
 10
7565230.56999999937
 20
5717927.25
  0
SEQEND
  5
54
100
AcDbEntity
  8
Dzialki
  0
POLYLINE
  5
55
100
AcDbEntity
  8
Dzialki
  6
CONTINUOUS
370
18
100
AcDb2dPolyline
 66
1
 70
128
  0
VERTEX
  5
56
100
AcDbEntity
  8
Dzialki
100
AcDbVertex
100
AcDb2dVertex
 10
7565230.56999999937
 20
5717927.25
  0
VERTEX
  5
57
100
AcDbEntity
  8
Dzialki
100
AcDbVertex
100
AcDb2dVertex
 10
7565246.51000000071
 20
5717940.16999999993
  0
SEQEND
  5
58
100
AcDbEntity
  8
Dzialki
  0
POLYLINE
  5
59
100
AcDbEntity
  8
Dzialki
  6
CONTINUOUS
370
18
100
AcDb2dPolyline
 66
1
 70
128
  0
VERTEX
  5
5A
100
AcDbEntity
  8
Dzialki
100
AcDbVertex
100
AcDb2dVertex
 10
7565200.69141360372
 20
5717870.57586173248
  0
VERTEX
  5
5B
100
AcDbEntity
  8
Dzialki
100
AcDbVertex
100
AcDb2dVertex
 10
7565291.8900000006
 20
5717884.24000000022
  0
SEQEND
  5
5C
100
AcDbEntity
  8
Dzialki
  0
POLYLINE
  5
5D
100
AcDbEntity
  8
Dzialki
  6
CONTINUOUS
370
18
100
AcDb2dPolyline
 66
1
 70
128
  0
VERTEX
  5
5E
100
AcDbEntity
  8
Dzialki
100
AcDbVertex
100
AcDb2dVertex
 10
7565331.20448012743
 20
5717856.98343891837
  0
VERTEX
  5
5F
100
AcDbEntity
  8
Dzialki
100
AcDbVertex
100
AcDb2dVertex
 10
7565329.87999999989
 20
5717856.14999999944
  0
SEQEND
  5
60
100
AcDbEntity
  8
Dzialki
  0
POLYLINE
  5
61
100
AcDbEntity
  8
Dzialki
  6
CONTINUOUS
370
18
100
AcDb2dPolyline
 66
1
 70
128
  0
VERTEX
  5
62
100
AcDbEntity
  8
Dzialki
100
AcDbVertex
100
AcDb2dVertex
 10
7565329.87999999989
 20
5717856.14999999944
  0
VERTEX
  5
63
100
AcDbEntity
  8
Dzialki
100
AcDbVertex
100
AcDb2dVertex
 10
7565319.81000000052
 20
5717849.8200000003
  0
SEQEND
  5
64
100
AcDbEntity
  8
Dzialki
  0
POLYLINE
  5
65
100
AcDbEntity
  8
Dzialki
  6
CONTINUOUS
370
18
100
AcDb2dPolyline
 66
1
 70
128
  0
VERTEX
  5
66
100
AcDbEntity
  8
Dzialki
100
AcDbVertex
100
AcDb2dVertex
 10
7565319.81000000052
 20
5717849.8200000003
  0
VERTEX
  5
67
100
AcDbEntity
  8
Dzialki
100
AcDbVertex
100
AcDb2dVertex
 10
7565300.86000000034
 20
5717837.9000000013
  0
SEQEND
  5
68
100
AcDbEntity
  8
Dzialki
  0
POLYLINE
  5
69
100
AcDbEntity
  8
Dzialki
  6
CONTINUOUS
370
18
100
AcDb2dPolyline
 66
1
 70
128
  0
VERTEX
  5
6A
100
AcDbEntity
  8
Dzialki
100
AcDbVertex
100
AcDb2dVertex
 10
7565300.86000000034
 20
5717837.9000000013
  0
VERTEX
  5
6B
100
AcDbEntity
  8
Dzialki
100
AcDbVertex
100
AcDb2dVertex
 10
7565252.40175841562
 20
5717807.60758861061
  0
SEQEND
  5
6C
100
AcDbEntity
  8
Dzialki
  0
POLYLINE
  5
6D
100
AcDbEntity
  8
Dzialki
  6
CONTINUOUS
370
18
100
AcDb2dPolyline
 66
1
 70
128
  0
VERTEX
  5
6E
100
AcDbEntity
  8
Dzialki
100
AcDbVertex
100
AcDb2dVertex
 10
7565319.81000000052
 20
5717849.8200000003
  0
VERTEX
  5
6F
100
AcDbEntity
  8
Dzialki
100
AcDbVertex
100
AcDb2dVertex
 10
7565317.41999999993
 20
5717852.76999999862
  0
SEQEND
  5
70
100
AcDbEntity
  8
Dzialki
  0
POLYLINE
  5
71
100
AcDbEntity
  8
Dzialki
  6
CONTINUOUS
370
18
100
AcDb2dPolyline
 66
1
 70
128
  0
VERTEX
  5
72
100
AcDbEntity
  8
Dzialki
100
AcDbVertex
100
AcDb2dVertex
 10
7565317.41999999993
 20
5717852.76999999862
  0
VERTEX
  5
73
100
AcDbEntity
  8
Dzialki
100
AcDbVertex
100
AcDb2dVertex
 10
7565248.815298995
 20
5717811.9748609066
  0
SEQEND
  5
74
100
AcDbEntity
  8
Dzialki
  0
POLYLINE
  5
75
100
AcDbEntity
  8
Dzialki
  6
CONTINUOUS
370
18
100
AcDb2dPolyline
 66
1
 70
128
  0
VERTEX
  5
76
100
AcDbEntity
  8
Dzialki
100
AcDbVertex
100
AcDb2dVertex
 10
7565317.41999999993
 20
5717852.76999999862
  0
VERTEX
  5
77
100
AcDbEntity
  8
Dzialki
100
AcDbVertex
100
AcDb2dVertex
 10
7565291.8900000006
 20
5717884.24000000022
  0
SEQEND
  5
78
100
AcDbEntity
  8
Dzialki
  0
POLYLINE
  5
79
100
AcDbEntity
  8
Dzialki
  6
CONTINUOUS
370
18
100
AcDb2dPolyline
 66
1
 70
128
  0
VERTEX
  5
7A
100
AcDbEntity
  8
Dzialki
100
AcDbVertex
100
AcDb2dVertex
 10
7565329.87999999989
 20
5717856.14999999944
  0
VERTEX
  5
7B
100
AcDbEntity
  8
Dzialki
100
AcDbVertex
100
AcDb2dVertex
 10
7565327.42000000086
 20
5717859.18999999948
  0
SEQEND
  5
7C
100
AcDbEntity
  8
Dzialki
  0
POLYLINE
  5
7D
100
AcDbEntity
  8
Dzialki
  6
CONTINUOUS
370
18
100
AcDb2dPolyline
 66
1
 70
128
  0
VERTEX
  5
7E
100
AcDbEntity
  8
Dzialki
100
AcDbVertex
100
AcDb2dVertex
 10
7565327.42000000086
 20
5717859.18999999948
  0
VERTEX
  5
7F
100
AcDbEntity
  8
Dzialki
100
AcDbVertex
100
AcDb2dVertex
 10
7565317.41999999993
 20
5717852.76999999862
  0
SEQEND
  5
80
100
AcDbEntity
  8
Dzialki
  0
POLYLINE
  5
81
100
AcDbEntity
  8
Dzialki
  6
CONTINUOUS
370
18
100
AcDb2dPolyline
 66
1
 70
128
  0
VERTEX
  5
82
100
AcDbEntity
  8
Dzialki
100
AcDbVertex
100
AcDb2dVertex
 10
7565327.42000000086
 20
5717859.18999999948
  0
VERTEX
  5
83
100
AcDbEntity
  8
Dzialki
100
AcDbVertex
100
AcDb2dVertex
 10
7565306.0999999987
 20
5717885.49000000022
  0
SEQEND
  5
84
100
AcDbEntity
  8
Dzialki
  0
POLYLINE
  5
85
100
AcDbEntity
  8
Dzialki
  6
CONTINUOUS
370
18
100
AcDb2dPolyline
 66
1
 70
128
  0
VERTEX
  5
86
100
AcDbEntity
  8
Dzialki
100
AcDbVertex
100
AcDb2dVertex
 10
7565328.65117134526
 20
5717859.97963828128
  0
VERTEX
  5
87
100
AcDbEntity
  8
Dzialki
100
AcDbVertex
100
AcDb2dVertex
 10
7565327.42000000086
 20
5717859.18999999948
  0
SEQEND
  5
88
100
AcDbEntity
  8
Dzialki
  0
POLYLINE
  5
89
100
AcDbEntity
  8
Obrys_bud
  6
CONTINUOUS
370
25
100
AcDb2dPolyline
 66
1
 70
129
  0
VERTEX
  5
8A
100
AcDbEntity
  8
Obrys_bud
100
AcDbVertex
100
AcDb2dVertex
 10
7565221.62100015115
 20
5717910.72350786719
  0
VERTEX
  5
8B
100
AcDbEntity
  8
Obrys_bud
100
AcDbVertex
100
AcDb2dVertex
 10
7565211.50225924142
 20
5717923.19486234058
  0
VERTEX
  5
8C
100
AcDbEntity
  8
Obrys_bud
100
AcDbVertex
100
AcDb2dVertex
 10
7565218.02525909059
 20
5717928.48735447321
  0
VERTEX
  5
8D
100
AcDbEntity
  8
Obrys_bud
100
AcDbVertex
100
AcDb2dVertex
 10
7565228.14444141369
 20
5717916.01575506665
  0
SEQEND
  5
8E
100
AcDbEntity
  8
Obrys_bud
  0
POLYLINE
  5
8F
100
AcDbEntity
  8
Osie
  6
CONTINUOUS
370
18
100
AcDb2dPolyline
 66
1
 70
128
  0
VERTEX
  5
90
100
AcDbEntity
  8
Osie
100
AcDbVertex
100
AcDb2dVertex
 10
7565228.03146756906
 20
5717916.0277206162
  0
VERTEX
  5
91
100
AcDbEntity
  8
Osie
100
AcDbVertex
100
AcDb2dVertex
 10
7565218.01328022778
 20
5717928.37447566353
  0
SEQEND
  5
92
100
AcDbEntity
  8
Osie
  0
POLYLINE
  5
93
100
AcDbEntity
  8
Osie
  6
CONTINUOUS
370
18
100
AcDb2dPolyline
 66
1
 70
128
  0
VERTEX
  5
94
100
AcDbEntity
  8
Osie
100
AcDbVertex
100
AcDb2dVertex
 10
7565218.01328022778
 20
5717928.37447566353
  0
VERTEX
  5
95
100
AcDbEntity
  8
Osie
100
AcDbVertex
100
AcDb2dVertex
 10
7565211.61453243159
 20
5717923.18327938393
  0
SEQEND
  5
96
100
AcDbEntity
  8
Osie
  0
POLYLINE
  5
97
100
AcDbEntity
  8
Osie
  6
CONTINUOUS
370
18
100
AcDb2dPolyline
 66
1
 70
128
  0
VERTEX
  5
98
100
AcDbEntity
  8
Osie
100
AcDbVertex
100
AcDb2dVertex
 10
7565211.61453243159
 20
5717923.18327938393
  0
VERTEX
  5
99
100
AcDbEntity
  8
Osie
100
AcDbVertex
100
AcDb2dVertex
 10
7565221.63271977287
 20
5717910.8365243366
  0
SEQEND
  5
9A
100
AcDbEntity
  8
Osie
  0
POLYLINE
  5
9B
100
AcDbEntity
  8
Osie
  6
CONTINUOUS
370
18
100
AcDb2dPolyline
 66
1
 70
128
  0
VERTEX
  5
9C
100
AcDbEntity
  8
Osie
100
AcDbVertex
100
AcDb2dVertex
 10
7565221.63271977287
 20
5717910.8365243366
  0
VERTEX
  5
9D
100
AcDbEntity
  8
Osie
100
AcDbVertex
100
AcDb2dVertex
 10
7565228.03146756906
 20
5717916.0277206162
  0
SEQEND
  5
9E
100
AcDbEntity
  8
Osie
  0
POLYLINE
  5
9F
100
AcDbEntity
  8
Osie
  6
CONTINUOUS
370
18
100
AcDb2dPolyline
 66
1
 70
128
  0
VERTEX
  5
A0
100
AcDbEntity
  8
Osie
100
AcDbVertex
100
AcDb2dVertex
 10
7565218.38192504458
 20
5717914.84400781523
  0
VERTEX
  5
A1
100
AcDbEntity
  8
Osie
100
AcDbVertex
100
AcDb2dVertex
 10
7565224.77992504463
 20
5717920.03500781488
  0
SEQEND
  5
A2
100
AcDbEntity
  8
Osie
  0
POLYLINE
  5
A3
100
AcDbEntity
  8
Osie
  6
CONTINUOUS
370
18
100
AcDb2dPolyline
 66
1
 70
128
  0
VERTEX
  5
A4
100
AcDbEntity
  8
Osie
100
AcDbVertex
100
AcDb2dVertex
 10
7565216.71228383668
 20
5717916.90187035594
  0
VERTEX
  5
A5
100
AcDbEntity
  8
Osie
100
AcDbVertex
100
AcDb2dVertex
 10
7565223.11028383672
 20
5717922.09287035558
  0
SEQEND
  5
A6
100
AcDbEntity
  8
Osie
  0
POLYLINE
  5
A7
100
AcDbEntity
  8
Osie
  6
CONTINUOUS
370
18
100
AcDb2dPolyline
 66
1
 70
128
  0
VERTEX
  5
A8
100
AcDbEntity
  8
Osie
100
AcDbVertex
100
AcDb2dVertex
 10
7565214.30548028368
 20
5717919.86829862278
  0
VERTEX
  5
A9
100
AcDbEntity
  8
Osie
100
AcDbVertex
100
AcDb2dVertex
 10
7565220.70348028373
 20
5717925.05929862242
  0
SEQEND
  5
AA
100
AcDbEntity
  8
Osie
  0
POLYLINE
  5
AB
100
AcDbEntity
  8
Osie
  6
CONTINUOUS
370
18
100
AcDb2dPolyline
 66
1
 70
128
  0
VERTEX
  5
AC
100
AcDbEntity
  8
Osie
100
AcDbVertex
100
AcDb2dVertex
 10
7565215.49278685637
 20
5717931.48020760901
  0
VERTEX
  5
AD
100
AcDbEntity
  8
Osie
100
AcDbVertex
100
AcDb2dVertex
 10
7565209.09478685632
 20
5717926.28920760937
  0
SEQEND
  5
AE
100
AcDbEntity
  8
Osie
  0
POLYLINE
  5
AF
100
AcDbEntity
  8
Osie
  6
CONTINUOUS
370
18
100
AcDb2dPolyline
 66
1
 70
128
  0
VERTEX
  5
B0
100
AcDbEntity
  8
Osie
100
AcDbVertex
100
AcDb2dVertex
 10
7565226.4934946429
 20
5717914.7804114148
  0
VERTEX
  5
B1
100
AcDbEntity
  8
Osie
100
AcDbVertex
100
AcDb2dVertex
 10
7565216.47549464274
 20
5717927.12641141471
  0
SEQEND
  5
B2
100
AcDbEntity
  8
Osie
  0
POLYLINE
  5
B3
100
AcDbEntity
  8
Osie
  6
CONTINUOUS
370
18
100
AcDb2dPolyline
 66
1
 70
128
  0
VERTEX
  5
B4
100
AcDbEntity
  8
Osie
100
AcDbVertex
100
AcDb2dVertex
 10
7565228.8541089287
 20
5717916.69590095989
  0
VERTEX
  5
B5
100
AcDbEntity
  8
Osie
100
AcDbVertex
100
AcDb2dVertex
 10
7565218.83610892855
 20
5717929.0419009598
  0
SEQEND
  5
B6
100
AcDbEntity
  8
Osie
  0
TEXT
  5
B7
100
AcDbEntity
  8
czolowki
370
15
100
AcDbText
 39
0.15
 10
7565219.43673418555
 20
5717926.71440882143
 40
0.23
  1
-5.159-
 50
-50.90
 41
0.66
  7
STANDARD
 72
1
 11
7565219.6268593045
 21
5717926.36153986305
100
AcDbText
 73
1
  0
TEXT
  5
B8
100
AcDbEntity
  8
czolowki
370
15
100
AcDbText
 39
0.15
 10
7565221.8972341856
 20
5717923.68240882177
 40
0.23
  1
-2.650-
 50
-50.90
 41
0.66
  7
STANDARD
 72
1
 11
7565222.08735930454
 21
5717923.32953986339
100
AcDbText
 73
1
  0
TEXT
  5
B9
100
AcDbEntity
  8
czolowki
370
15
100
AcDbText
 39
0.15
 10
7565223.93573418539
 20
5717921.17040882166
 40
0.23
  1
-3.820-
 50
-50.90
 41
0.66
  7
STANDARD
 72
1
 11
7565224.12585930433
 21
5717920.81753986329
100
AcDbText
 73
1
  0
TEXT
  5
BA
100
AcDbEntity
  8
czolowki
370
15
100
AcDbText
 39
0.15
 10
7565226.48483385425
 20
5717918.02976044547
 40
0.23
  1
-4.270-
 50
-51.00
 41
0.66
  7
STANDARD
 72
1
 11
7565226.67434281111
 21
5717917.6765601933
100
AcDbText
 73
1
  0
TEXT
  5
BB
100
AcDbEntity
  8
czolowki
370
15
100
AcDbText
 39
0.15
 10
7565216.91005131509
 20
5717927.53659348935
 40
0.23
  1
-1.981-
 50
-320.90
 41
0.66
  7
STANDARD
 72
1
 11
7565217.26292027347
 21
5717927.72671860829
100
AcDbText
 73
1
  0
TEXT
  5
BC
100
AcDbEntity
  8
czolowki
370
15
100
AcDbText
 39
0.15
 10
7565213.71105131507
 20
5717924.94109348953
 40
0.23
  1
-6.258-
 50
-320.90
 41
0.66
  7
STANDARD
 72
1
 11
7565214.06392027345
 21
5717925.13121860847
100
AcDbText
 73
1
  0
TEXT
  5
BD
100
AcDbEntity
  8
czolowki
370
15
100
AcDbText
 39
0.15
 10
7565212.74659348931
 20
5717921.85944868438
 40
0.23
  1
-4.269-
 50
-50.90
 41
0.66
  7
STANDARD
 72
1
 11
7565212.93671860825
 21
5717921.506579726
100
AcDbText
 73
1
  0
TEXT
  5
BE
100
AcDbEntity
  8
czolowki
370
15
100
AcDbText
 39
0.15
 10
7565215.29509348981
 20
5717918.71894868463
 40
0.23
  1
-3.820-
 50
-50.90
 41
0.66
  7
STANDARD
 72
1
 11
7565215.48521860875
 21
5717918.36607972626
100
AcDbText
 73
1
  0
TEXT
  5
BF
100
AcDbEntity
  8
czolowki
370
15
100
AcDbText
 39
0.15
 10
7565217.3335934896
 20
5717916.20694868453
 40
0.23
  1
-2.650-
 50
-50.90
 41
0.66
  7
STANDARD
 72
1
 11
7565217.52371860854
 21
5717915.85407972615
100
AcDbText
 73
1
  0
TEXT
  5
C0
100
AcDbEntity
  8
czolowki
370
15
100
AcDbText
 39
0.15
 10
7565219.79409348965
 20
5717913.17444868479
 40
0.23
  1
-5.160-
 50
-50.90
 41
0.66
  7
STANDARD
 72
1
 11
7565219.98421860859
 21
5717912.82157972641
100
AcDbText
 73
1
  0
TEXT
  5
C1
100
AcDbEntity
  8
czolowki
370
15
100
AcDbText
 39
0.15
 10
7565224.65409348905
 20
5717917.11744868476
 40
0.23
  1
-5.160-
 50
-50.90
 41
0.66
  7
STANDARD
 72
1
 11
7565224.84421860799
 21
5717916.76457972638
100
AcDbText
 73
1
  0
TEXT
  5
C2
100
AcDbEntity
  8
czolowki
370
15
100
AcDbText
 39
0.15
 10
7565222.19359348901
 20
5717920.1499486845
 40
0.23
  1
-2.650-
 50
-50.90
 41
0.66
  7
STANDARD
 72
1
 11
7565222.38371860795
 21
5717919.79707972612
100
AcDbText
 73
1
  0
TEXT
  5
C3
100
AcDbEntity
  8
czolowki
370
15
100
AcDbText
 39
0.15
 10
7565220.15509348922
 20
5717922.6619486846
 40
0.23
  1
-3.820-
 50
-50.90
 41
0.66
  7
STANDARD
 72
1
 11
7565220.34521860816
 21
5717922.30907972623
100
AcDbText
 73
1
  0
TEXT
  5
C4
100
AcDbEntity
  8
czolowki
370
15
100
AcDbText
 39
0.15
 10
7565217.60659348965
 20
5717925.80244868435
 40
0.23
  1
-4.269-
 50
-50.90
 41
0.66
  7
STANDARD
 72
1
 11
7565217.79671860859
 21
5717925.44957972597
100
AcDbText
 73
1
  0
TEXT
  5
C5
100
AcDbEntity
  8
czolowki
370
15
100
AcDbText
 39
0.15
 10
7565219.6000513155
 20
5717924.22159348987
 40
0.23
  1
-1.981-
 50
-320.90
 41
0.66
  7
STANDARD
 72
1
 11
7565219.95292027388
 21
5717924.41171860881
100
AcDbText
 73
1
  0
TEXT
  5
C6
100
AcDbEntity
  8
czolowki
370
15
100
AcDbText
 39
0.15
 10
7565222.00705131516
 20
5717921.25559348986
 40
0.23
  1
-1.981-
 50
-320.90
 41
0.66
  7
STANDARD
 72
1
 11
7565222.35992027354
 21
5717921.4457186088
100
AcDbText
 73
1
  0
TEXT
  5
C7
100
AcDbEntity
  8
czolowki
370
15
100
AcDbText
 39
0.15
 10
7565223.67705131508
 20
5717919.19759348966
 40
0.23
  1
-1.981-
 50
-320.90
 41
0.66
  7
STANDARD
 72
1
 11
7565224.02992027346
 21
5717919.3877186086
100
AcDbText
 73
1
  0
TEXT
  5
C8
100
AcDbEntity
  8
czolowki
370
15
100
AcDbText
 39
0.15
 10
7565226.92805131525
 20
5717915.19059348945
 40
0.23
  1
-1.981-
 50
-320.90
 41
0.66
  7
STANDARD
 72
1
 11
7565227.28092027362
 21
5717915.38071860839
100
AcDbText
 73
1
  0
TEXT
  5
C9
100
AcDbEntity
  8
czolowki
370
15
100
AcDbText
 39
0.15
 10
7565223.72905131523
 20
5717912.59509348962
 40
0.23
  1
-6.258-
 50
-320.90
 41
0.66
  7
STANDARD
 72
1
 11
7565224.0819202736
 21
5717912.78521860857
100
AcDbText
 73
1
  0
TEXT
  5
CA
100
AcDbEntity
  8
czolowki
370
15
100
AcDbText
 39
0.15
 10
7565220.47805131506
 20
5717916.60209348891
 40
0.23
  1
-6.258-
 50
-320.90
 41
0.66
  7
STANDARD
 72
1
 11
7565220.83092027344
 21
5717916.79221860785
100
AcDbText
 73
1
  0
TEXT
  5
CB
100
AcDbEntity
  8
czolowki
370
15
100
AcDbText
 39
0.15
 10
7565218.80805131514
 20
5717918.6600934891
 40
0.23
  1
-6.258-
 50
-320.90
 41
0.66
  7
STANDARD
 72
1
 11
7565219.16092027351
 21
5717918.85021860804
100
AcDbText
 73
1
  0
TEXT
  5
CC
100
AcDbEntity
  8
czolowki
370
15
100
AcDbText
 39
0.15
 10
7565216.40105131455
 20
5717921.62609348912
 40
0.23
  1
-6.258-
 50
-320.90
 41
0.66
  7
STANDARD
 72
1
 11
7565216.75392027292
 21
5717921.81621860806
100
AcDbText
 73
1
  0
TEXT
  5
CD
100
AcDbEntity
  8
Numery_dzialek
370
20
100
AcDbText
 39
0.20
 10
7565273.42999999784
 20
5717911.45999999996
 40
0.30
  1
13-18/2
 50
0.00
 41
0.66
  7
STANDARD
 72
0
 11
7565273.42999999784
 21
5717911.75999999978
100
AcDbText
 73
3
  0
TEXT
  5
CE
100
AcDbEntity
  8
Numery_dzialek
370
20
100
AcDbText
 39
0.20
 10
7565257.24000000209
 20
5717904.02000000048
 40
0.30
  1
13-138/8
 50
0.00
 41
0.66
  7
STANDARD
 72
0
 11
7565257.24000000209
 21
5717904.3200000003
100
AcDbText
 73
3
  0
TEXT
  5
CF
100
AcDbEntity
  8
Numery_dzialek
370
20
100
AcDbText
 39
0.20
 10
7565287.86999999639
 20
5717834.24999999721
 40
0.30
  1
13-17/11
 50
0.00
 41
0.66
  7
STANDARD
 72
0
 11
7565287.86999999639
 21
5717834.54999999702
100
AcDbText
 73
3
  0
TEXT
  5
D0
100
AcDbEntity
  8
Numery_dzialek
370
20
100
AcDbText
 39
0.20
 10
7565264.75880000088
 20
5717855.89907910023
 40
0.30
  1
13-17/12
 50
0.00
 41
0.66
  7
STANDARD
 72
0
 11
7565264.75880000088
 21
5717856.19907910004
100
AcDbText
 73
3
  0
TEXT
  5
D1
100
AcDbEntity
  8
Numery_dzialek
370
20
100
AcDbText
 39
0.20
 10
7565320.57999999635
 20
5717854.14999999758
 40
0.30
  1
13-19/1
 50
0.00
 41
0.66
  7
STANDARD
 72
0
 11
7565320.57999999635
 21
5717854.44999999739
100
AcDbText
 73
3
  0
TEXT
  5
D2
100
AcDbEntity
  8
Numery_dzialek
370
20
100
AcDbText
 39
0.20
 10
7565311.5527303787
 20
5717867.23575295042
 40
0.30
  1
13-19/2
 50
0.00
 41
0.66
  7
STANDARD
 72
0
 11
7565311.5527303787
 21
5717867.53575295024
100
AcDbText
 73
3
  0
TEXT
  5
D3
100
AcDbEntity
  8
Numery_dzialek
370
20
100
AcDbText
 39
0.20
 10
7565223.94060496706
 20
5717975.22678422835
 40
0.30
  1
13-18/1
 50
0.00
 41
0.66
  7
STANDARD
 72
0
 11
7565223.94060496706
 21
5717975.52678422816
100
AcDbText
 73
3
  0
TEXT
  5
D4
100
AcDbEntity
  8
Numery_dzialek
370
20
100
AcDbText
 39
0.20
 10
7565294.65999999642
 20
5717892.66999999713
 40
0.30
  1
13-20/1
 50
0.00
 41
0.66
  7
STANDARD
 72
0
 11
7565294.65999999642
 21
5717892.96999999695
100
AcDbText
 73
3
  0
TEXT
  5
D5
100
AcDbEntity
  8
Numery_dzialek
370
20
100
AcDbText
 39
0.20
 10
7565178.07704488374
 20
5717925.31550159771
 40
0.30
  1
13-138/4
 50
0.00
 41
0.66
  7
STANDARD
 72
0
 11
7565178.07704488374
 21
5717925.61550159752
100
AcDbText
 73
3
  0
TEXT
  5
D6
100
AcDbEntity
  8
Numery_dzialek
370
20
100
AcDbText
 39
0.20
 10
7565213.45279954001
 20
5717931.54721280839
 40
0.30
  1
13-138/5
 50
0.00
 41
0.66
  7
STANDARD
 72
0
 11
7565213.45279954001
 21
5717931.84721280821
100
AcDbText
 73
3
  0
TEXT
  5
D7
100
AcDbEntity
  8
Numery_dzialek
370
20
100
AcDbText
 39
0.20
 10
7565212.53025850002
 20
5717965.46683791094
 40
0.30
  1
13-138/7
 50
0.00
 41
0.66
  7
STANDARD
 72
0
 11
7565212.53025850002
 21
5717965.76683791075
100
AcDbText
 73
3
  0
TEXT
  5
D8
100
AcDbEntity
  8
Numery_dzialek
370
20
100
AcDbText
 39
0.20
 10
7565294.48496316839
 20
5717822.33132136334
 40
0.30
  1
13-383/2
 50
0.00
 41
0.66
  7
STANDARD
 72
0
 11
7565294.48496316839
 21
5717822.63132136315
100
AcDbText
 73
3
  0
TEXT
  5
D9
100
AcDbEntity
  8
Numery_dzialek
370
20
100
AcDbText
 39
0.20
 10
7565324.75999999605
 20
5717856.90999999736
 40
0.30
  1
13-21/3
 50
0.00
 41
0.66
  7
STANDARD
 72
0
 11
7565324.75999999605
 21
5717857.20999999717
100
AcDbText
 73
3
  0
TEXT
  5
DA
100
AcDbEntity
  8
Numery_dzialek
370
20
100
AcDbText
 39
0.20
 10
7565313.12999999616
 20
5717870.75999999698
 40
0.30
  1
13-21/4
 50
0.00
 41
0.66
  7
STANDARD
 72
0
 11
7565313.12999999616
 21
5717871.0599999968
100
AcDbText
 73
3
  0
TEXT
  5
DB
100
AcDbEntity
  8
Obrys_bud
370
15
100
AcDbText
 39
0.15
 10
7565219.43343185913
 20
5717919.83860225882
 40
0.23
  1
-18.124-
 50
-23.30
 41
0.66
  7
STANDARD
 72
1
 11
7565219.81706681848
 21
5717919.59172330424
100
AcDbText
 73
1
  0
TEXT
  5
DC
100
AcDbEntity
  8
Obrys_bud
370
15
100
AcDbText
 39
0.15
 10
7565219.83105419297
 20
5717919.21112202574
 40
0.23
  1
-18.123-
 50
-78.60
 41
0.66
  7
STANDARD
 72
1
 11
7565219.84647965804
 21
5717918.75517569669
100
AcDbText
 73
1
  0
TEXT
  5
DD
100
AcDbEntity
  8
Obrys_bud
370
15
100
AcDbText
 39
0.15
 10
7565231.29934353847
 20
5717918.61373863742
 40
0.23
  1
-8.961-
 50
-321.40
 41
0.66
  7
STANDARD
 72
1
 11
7565231.65385819413
 21
5717918.80077719316
100
AcDbText
 73
1
  0
TEXT
  5
DE
100
AcDbEntity
  8
Obrys_bud
370
15
100
AcDbText
 39
0.15
 10
7565221.12858178094
 20
5717931.14705381729
 40
0.23
  1
-8.962-
 50
-320.20
 41
0.66
  7
STANDARD
 72
1
 11
7565221.47910164576
 21
5717931.34147574753
100
AcDbText
 73
1
  0
TEXT
  5
DF
100
AcDbEntity
  8
Obrys_bud
370
15
100
AcDbText
 39
0.15
 10
7565232.64133385383
 20
5717924.80176044628
 40
0.23
  1
-7.200-
 50
-51.00
 41
0.66
  7
STANDARD
 72
1
 11
7565232.83084281068
 21
5717924.44856019411
100
AcDbText
 73
1
  0
TEXT
  5
E0
100
AcDbEntity
  8
Obrys_bud
370
15
100
AcDbText
 39
0.15
 10
7565214.42009117827
 20
5717925.63923418522
 40
0.23
  1
-8.400-
 50
-320.90
 41
0.66
  7
STANDARD
 72
1
 11
7565214.77296013664
 21
5717925.82935930416
100
AcDbText
 73
1
  0
TEXT
  5
E1
100
AcDbEntity
  8
Obrys_bud
370
15
100
AcDbText
 39
0.15
 10
7565216.32425867114
 20
5717917.34656143188
 40
0.23
  1
-16.060-
 50
-50.90
 41
0.66
  7
STANDARD
 72
1
 11
7565216.54985930398
 21
5717916.95003986359
100
AcDbText
 73
1
  0
TEXT
  5
E2
100
AcDbEntity
  8
Obrys_bud
370
15
100
AcDbText
 39
0.15
 10
7565224.94643172901
 20
5717912.98767140228
 40
0.23
  1
-8.400-
 50
-320.90
 41
0.66
  7
STANDARD
 72
1
 11
7565225.29930068739
 21
5717913.17779652122
100
AcDbText
 73
1
  0
TEXT
  5
E3
100
AcDbEntity
  8
Obrys_bud
370
15
100
AcDbText
 39
0.15
 10
7565222.84725867119
 20
5717922.63856143132
 40
0.23
  1
-16.060-
 50
-50.90
 41
0.66
  7
STANDARD
 72
1
 11
7565223.07285930403
 21
5717922.24203986302
100
AcDbText
 73
1
  0
POLYLINE
  5
E4
100
AcDbEntity
  8
Numery_dzialek
  6
CONTINUOUS
370
13
100
AcDb2dPolyline
 66
1
 70
128
  0
VERTEX
  5
E5
100
AcDbEntity
  8
Numery_dzialek
100
AcDbVertex
100
AcDb2dVertex
 10
7565294.65999999642
 20
5717892.59499999695
  0
VERTEX
  5
E6
100
AcDbEntity
  8
Numery_dzialek
100
AcDbVertex
100
AcDb2dVertex
 10
7565296.04917304404
 20
5717892.59499999695
  0
VERTEX
  5
E7
100
AcDbEntity
  8
Numery_dzialek
100
AcDbVertex
100
AcDb2dVertex
 10
7565301.60999999661
 20
5717891.39999999758
  0
SEQEND
  5
E8
100
AcDbEntity
  8
Numery_dzialek
  0
POLYLINE
  5
E9
100
AcDbEntity
  8
Numery_dzialek
  6
CONTINUOUS
370
13
100
AcDb2dPolyline
 66
1
 70
128
  0
VERTEX
  5
EA
100
AcDbEntity
  8
Numery_dzialek
100
AcDbVertex
100
AcDb2dVertex
 10
7565324.75999999605
 20
5717856.83499999717
  0
VERTEX
  5
EB
100
AcDbEntity
  8
Numery_dzialek
100
AcDbVertex
100
AcDb2dVertex
 10
7565326.14917304367
 20
5717856.83499999717
  0
VERTEX
  5
EC
100
AcDbEntity
  8
Numery_dzialek
100
AcDbVertex
100
AcDb2dVertex
 10
7565328.96999999601
 20
5717858.32999999728
  0
SEQEND
  5
ED
100
AcDbEntity
  8
Numery_dzialek
  0
POLYLINE
  5
EE
100
AcDbEntity
  8
Numery_dzialek
  6
CONTINUOUS
370
13
100
AcDb2dPolyline
 66
1
 70
128
  0
VERTEX
  5
EF
100
AcDbEntity
  8
Numery_dzialek
100
AcDbVertex
100
AcDb2dVertex
 10
7565313.12999999616
 20
5717870.6849999968
  0
VERTEX
  5
F0
100
AcDbEntity
  8
Numery_dzialek
100
AcDbVertex
100
AcDb2dVertex
 10
7565314.51917304378
 20
5717870.6849999968
  0
VERTEX
  5
F1
100
AcDbEntity
  8
Numery_dzialek
100
AcDbVertex
100
AcDb2dVertex
 10
7565317.75999999605
 20
5717871.86999999732
  0
SEQEND
  5
F2
100
AcDbEntity
  8
Numery_dzialek
  0
ENDSEC
  0
SECTION
  2
OBJECTS
  0
DICTIONARY
  5
F3
330
0
100
AcDbDictionary
280
0
281
1
  3
ACAD_GROUP
350
F4
  3
ACAD_LAYOUT
350
F5
  3
ACAD_MLINESTYLE
350
F6
  3
ACAD_PLOTSETTINGS
350
F7
  3
ACAD_PLOTSTYLENAME
350
F8
  0
DICTIONARY
  5
F4
102
{ACAD_REACTORS
330
F3
102
}
330
F3
100
AcDbDictionary
280
0
281
1
  0
DICTIONARY
  5
F5
102
{ACAD_REACTORS
330
F3
102
}
330
F3
100
AcDbDictionary
280
0
281
1
  3
Layout
350
1C
  3
Model
350
1A
  0
DICTIONARY
  5
F6
102
{ACAD_REACTORS
330
F3
102
}
330
F3
100
AcDbDictionary
280
0
281
1
  3
Standard
350
F9
  0
DICTIONARY
  5
F7
102
{ACAD_REACTORS
330
F3
102
}
330
F3
100
AcDbDictionary
280
0
281
1
  0
ACDBDICTIONARYWDFLT
  5
F8
102
{ACAD_REACTORS
330
F3
102
}
330
F3
100
AcDbDictionary
281
1
  3
Normal
350
9
100
AcDbDictionaryWithDefault
340
9
  0
LAYOUT
  5
1C
100
AcDbPlotSettings
  1

  2

  4

  6

 40
0.0
 41
0.0
 42
0.0
 43
0.0
 44
0.0
 45
0.0
 46
0.0
 47
0.0
 48
0.0
 49
0.0
140
0.0
141
0.0
142
1.0
143
1.0
 70
688
 72
1
 73
0
 74
5
  7

 75
0
147
1.0
148
0.0
149
0.0
100
AcDbLayout
  1
Layout
 70
1
 71
1
 10
0.0
 20
0.0
 11
420.0
 21
297.0
 12
0.0
 22
0.0
 32
0.0
 14
100000000000000000000.0
 24
100000000000000000000.0
 34
100000000000000000000.0
 15
-100000000000000000000.0
 25
-100000000000000000000.0
 35
-100000000000000000000.0
146
0.0
 13
0.0
 23
0.0
 33
0.0
 16
1.0
 26
0.0
 36
0.0
 17
0.0
 27
1.0
 37
0.0
 76
0
330
1B
  0
LAYOUT
  5
1A
100
AcDbPlotSettings
  1

  2

  4

  6

 40
0.0
 41
0.0
 42
0.0
 43
0.0
 44
0.0
 45
0.0
 46
0.0
 47
0.0
 48
0.0
 49
0.0
140
0.0
141
0.0
142
1.0
143
1.0
 70
1712
 72
1
 73
0
 74
0
  7

 75
0
147
1.0
148
0.0
149
0.0
100
AcDbLayout
  1
Model
 70
1
 71
0
 10
0.0
 20
0.0
 11
12.0
 21
9.0
 12
0.0
 22
0.0
 32
0.0
 14
0.0
 24
0.0
 34
0.0
 15
0.0
 25
0.0
 35
0.0
146
0.0
 13
0.0
 23
0.0
 33
0.0
 16
1.0
 26
0.0
 36
0.0
 17
0.0
 27
1.0
 37
0.0
 76
0
330
19
  0
MLINESTYLE
  5
F9
102
{ACAD_REACTORS
330
F6
102
}
330
F6
100
AcDbMlineStyle
  2
Standard
 70
0
  3

 62
256
 51
90.0
 52
90.0
  2
Standard
 71
2
 49
0.5
 62
256
  6
ByLayer
 49
-0.5
 62
256
  6
ByLayer
  0
ACDBPLACEHOLDER
  5
9
  0
ENDSEC
  0
EOF
