  0
SECTION
  2
HEADER
  9
$ACADVER
  1
AC1018
  9
$HANDSEED
  5
FFFFFF
  9
$EXTMAX
 10
8385462.91999999992
 20
5681936.20999999996
 30
1000000.00
  9
$EXTMIN
 10
8385344.83999999985
 20
5681795.16000000015
 30
0.00
  9
$LIMMIN
 10
8385344.83999999985
 20
5681795.16000000015
  9
$LIMMAX
 10
8385462.91999999992
 20
5681936.20999999996
  9
$DIMASZ
 40
2.5
  9
$DIMGAP
 40
0.625
  9
$INSUNITS
 70
6
  9
$MEASUREMENT
 70
1
  9
$DIMEXO
 40
0.625
  9
$DIMTXT
 40
2.5
  9
$DIMSTYLE
  2
Standard
  9
$PLIMMIN
 10
0.0
 20
0.0
  9
$PLIMMAX
 10
210.0
 20
297.0
  9
$DIMEXE
 40
1.25
  9
$TEXTSIZE
 40
2.5
  9
$TEXTSTYLE
  7
Standard
  9
$LWDISPLAY
290
1
  9
$TDCREATE
 40
45719.608015498
  9
$TDUCREATE
 40
45719.566348831
  9
$TDUPDATE
 40
45719.608015498
  9
$TDUUPDATE
 40
45719.566348831
  9
$TDINDWG
 40
0.0
  9
$TDUSRTIMER
 40
0.0
  9
$USRTIMER
 70
1
  0
ENDSEC
  0
SECTION
  2
CLASSES
  0
CLASS
  1
WIPEOUT
  2
AcDbWipeout
  3
WipeOut
 90
127
 91
1
280
0
281
1
  0
CLASS
  1
WIPEOUTVARIABLES
  2
AcDbWipeoutVariables
  3
WipeOut
 90
0
 91
1
280
0
281
0
  0
ENDSEC
  0
SECTION
  2
TABLES
  0
TABLE
  2
VPORT
  5
1
100
AcDbSymbolTable
 70
1
  0
VPORT
  5
2
100
AcDbSymbolTableRecord
100
AcDbViewportTableRecord
  2
*ACTIVE
 70
0
 10
0.0
 20
0.0
 11
1.0
 21
1.0
 12
8385403.88
 22
5681865.69
 13
0.0
 23
0.0
 14
1.0
 24
1.0
 15
0.0
 25
0.0
 16
0.0
 26
0.0
 36
1.0
 17
0.0
 27
0.0
 37
0.0
 40
141.05
 41
0.84
 42
50.0
 43
0.0
 44
0.0
 50
0.0
 51
0.0
 71
0
 72
100
 73
1
 74
1
 75
0
 76
0
 77
0
 78
0
  0
ENDTAB
  0
TABLE
  2
LTYPE
  5
3
100
AcDbSymbolTable
 70
3
  0
LTYPE
  5
4
100
AcDbSymbolTableRecord
100
AcDbLinetypeTableRecord
  2
ByBlock
 70
0
  3

 72
65
 73
0
 40
0.0
  0
LTYPE
  5
5
100
AcDbSymbolTableRecord
100
AcDbLinetypeTableRecord
  2
ByLayer
 70
0
  3

 72
65
 73
0
 40
0.0
  0
LTYPE
  5
6
100
AcDbSymbolTableRecord
100
AcDbLinetypeTableRecord
  2
CONTINUOUS
 70
0
  3
Solid line
 72
65
 73
0
 40
0.0
  0
LTYPE
  5
8
100
AcDbSymbolTableRecord
100
AcDbLinetypeTableRecord
  2
L_0_02
 70
0
  3
Dzialka_ewidencyjna (MLineStyle)
 72
65
 73
0
 40
0.0
  0
LTYPE
  5
9
100
AcDbSymbolTableRecord
100
AcDbLinetypeTableRecord
  2
L_0_03
 70
0
  3
Uzytek_gruntowy
 72
65
 73
2
 40
1.0
 49
0.5
 74
0
 49
-0.5
 74
0
  0
LTYPE
  5
A
100
AcDbSymbolTableRecord
100
AcDbLinetypeTableRecord
  2
L_0_06
 70
0
  3
Granica_konturu_klasyfikacyjnego_Krawedz_chodnika
 72
65
 73
2
 40
2.0
 49
1.5
 74
0
 49
-0.5
 74
0
  0
LTYPE
  5
B
100
AcDbSymbolTableRecord
100
AcDbLinetypeTableRecord
  2
L_0_0D
 70
0
  3
Powiat
 72
65
 73
4
 40
3.0
 49
2.0
 74
0
 49
-0.5
 74
0
 49
0.0
 74
0
 49
-0.5
 74
0
  0
LTYPE
  5
C
100
AcDbSymbolTableRecord
100
AcDbLinetypeTableRecord
  2
L_0_4E
 70
0
  3
L_0_4E
 72
65
 73
2
 40
2.5
 49
1.5
 74
0
 49
-1.0
 74
0
  0
ENDTAB
  0
TABLE
  2
LAYER
  5
D
100
AcDbSymbolTable
 70
2
  0
LAYER
  5
E
100
AcDbSymbolTableRecord
100
AcDbLayerTableRecord
  2
0
 70
0
 62
7
  6
CONTINUOUS
370
18
390
F
  0
LAYER
  5
10
100
AcDbSymbolTableRecord
100
AcDbLayerTableRecord
  2
Dzialki_motycz
 70
0
 62
7
  6
CONTINUOUS
370
18
390
F
  0
ENDTAB
  0
TABLE
  2
STYLE
  5
11
100
AcDbSymbolTable
 70
2
  0
STYLE
  5
12
100
AcDbSymbolTableRecord
100
AcDbTextStyleTableRecord
  2
STANDARD
 70
0
 40
0.0
 41
1.0
 50
0.0
 71
0
  3
simplex.shx
  4

  0
STYLE
  5
13
100
AcDbSymbolTableRecord
100
AcDbTextStyleTableRecord
  2
STANDARD_ITALIC
 70
0
 40
0.0
 41
1.0
 50
15.0
 71
0
  3
simplex.shx
  4

  0
ENDTAB
  0
TABLE
  2
VIEW
  5
14
100
AcDbSymbolTable
 70
0
  0
ENDTAB
  0
TABLE
  2
UCS
  5
15
100
AcDbSymbolTable
 70
0
  0
ENDTAB
  0
TABLE
  2
APPID
  5
16
100
AcDbSymbolTable
 70
1
  0
APPID
  5
17
100
AcDbSymbolTableRecord
100
AcDbRegAppTableRecord
  2
ACAD
 70
0
  0
ENDTAB
  0
TABLE
  2
DIMSTYLE
  5
18
100
AcDbSymbolTable
 70
1
100
AcDbDimStyleTable
  0
DIMSTYLE
105
19
100
AcDbSymbolTableRecord
100
AcDbDimStyleTableRecord
  2
Standard
 70
0
340
12
  0
ENDTAB
  0
TABLE
  2
BLOCK_RECORD
  5
1A
100
AcDbSymbolTable
 70
6
  0
BLOCK_RECORD
  5
1B
100
AcDbSymbolTableRecord
100
AcDbBlockTableRecord
  2
*Model_Space
340
1C
  0
BLOCK_RECORD
  5
1D
100
AcDbSymbolTableRecord
100
AcDbBlockTableRecord
  2
*Paper_Space
340
1E
  0
BLOCK_RECORD
  5
1F
100
AcDbSymbolTableRecord
100
AcDbBlockTableRecord
  2
EGBP04_03
340
20
  0
BLOCK_RECORD
  5
21
100
AcDbSymbolTableRecord
100
AcDbBlockTableRecord
  2
RTPW01
340
22
  0
BLOCK_RECORD
  5
23
100
AcDbSymbolTableRecord
100
AcDbBlockTableRecord
  2
L_0_02_1
340
24
  0
BLOCK_RECORD
  5
25
100
AcDbSymbolTableRecord
100
AcDbBlockTableRecord
  2
L_0_02_2
340
26
  0
ENDTAB
  0
ENDSEC
  0
SECTION
  2
BLOCKS
  0
BLOCK
  5
27
100
AcDbEntity
  8
0
100
AcDbBlockBegin
  2
*Model_Space
 70
0
 10
0.0
 20
0.0
 30
0.0
  3
*Model_Space
  1

  0
ENDBLK
  5
28
100
AcDbEntity
  8
0
100
AcDbBlockEnd
  0
BLOCK
  5
29
100
AcDbEntity
 67
1
  8
0
100
AcDbBlockBegin
  2
*Paper_Space
 70
0
 10
0.0
 20
0.0
 30
0.0
  3
*Paper_Space
  1

  0
ENDBLK
  5
2A
100
AcDbEntity
 67
1
  8
0
100
AcDbBlockEnd
  0
BLOCK
  5
20
100
AcDbEntity
  8
0
100
AcDbBlockBegin
 62
0
370
13
  2
EGBP04_03
 70
0
 10
0
 20
0
 30
0
  3
EGBP04_03
  0
HATCH
  5
2B
100
AcDbEntity
  8
0
  6
CONTINUOUS
 62
0
370
13
100
AcDbHatch
 10
0.0
 20
0.0
 30
0.0
210
0.0
220
0.0
230
1.0
  2
SOLID
 70
1
 71
1
 91
1
 92
3
 72
1
 73
1
 93
2
 10
0.0
 20
-0.1
 42
1.0
 10
0.0
 20
0.1
 42
1.0
 97
0
 75
0
 76
1
 98
0
  0
CIRCLE
  5
2C
100
AcDbEntity
  8
0
  6
CONTINUOUS
 62
0
370
13
100
AcDbCircle
 10
0.0
 20
-0.0
 40
0.1
  0
ENDBLK
  5
2D
100
AcDbEntity
  8
0
100
AcDbBlockEnd
  0
BLOCK
  5
22
100
AcDbEntity
  8
0
100
AcDbBlockBegin
 62
0
370
13
  2
RTPW01
 70
0
 10
0
 20
0
 30
0
  3
RTPW01
  0
HATCH
  5
2E
100
AcDbEntity
  8
0
  6
CONTINUOUS
 62
0
370
13
100
AcDbHatch
 10
0.0
 20
0.0
 30
0.0
210
0.0
220
0.0
230
1.0
  2
SOLID
 70
1
 71
1
 91
1
 92
3
 72
1
 73
1
 93
2
 10
0.0
 20
-0.090553851381
 42
1.0
 10
0.0
 20
0.090553851381
 42
1.0
 97
0
 75
0
 76
1
 98
0
  0
CIRCLE
  5
2F
100
AcDbEntity
  8
0
  6
CONTINUOUS
 62
0
370
13
100
AcDbCircle
 10
0.0
 20
-0.0
 40
0.090553851381
  0
ENDBLK
  5
30
100
AcDbEntity
  8
0
100
AcDbBlockEnd
  0
BLOCK
  5
24
100
AcDbEntity
  8
0
100
AcDbBlockBegin
 62
0
370
13
  2
L_0_02_1
 70
0
 10
0
 20
0
 30
0
  3
L_0_02_1
  0
POINT
  5
31
100
AcDbEntity
  8
0
100
AcDbPoint
 62
0
 10
0.0
 20
0.0
 30
0.00
  0
ENDBLK
  5
32
100
AcDbEntity
  8
0
100
AcDbBlockEnd
  0
BLOCK
  5
26
100
AcDbEntity
  8
0
100
AcDbBlockBegin
 62
0
370
13
  2
L_0_02_2
 70
0
 10
0
 20
0
 30
0
  3
L_0_02_2
  0
POINT
  5
33
100
AcDbEntity
  8
0
100
AcDbPoint
 62
0
 10
-0.0
 20
-0.0
 30
0.00
  0
ENDBLK
  5
34
100
AcDbEntity
  8
0
100
AcDbBlockEnd
  0
ENDSEC
  0
SECTION
  2
ENTITIES
  0
POLYLINE
  5
35
100
AcDbEntity
  8
Dzialki_motycz
  6
CONTINUOUS
370
18
100
AcDb2dPolyline
 66
1
 70
128
  0
VERTEX
  5
36
100
AcDbEntity
  8
Dzialki_motycz
100
AcDbVertex
100
AcDb2dVertex
 10
8385346.96999999974
 20
5681908.24000000022
  0
VERTEX
  5
37
100
AcDbEntity
  8
Dzialki_motycz
100
AcDbVertex
100
AcDb2dVertex
 10
8385462.91999999992
 20
5681936.20999999996
  0
SEQEND
  5
38
100
AcDbEntity
  8
Dzialki_motycz
  0
POLYLINE
  5
39
100
AcDbEntity
  8
Dzialki_motycz
  6
CONTINUOUS
370
18
100
AcDb2dPolyline
 66
1
 70
128
  0
VERTEX
  5
3A
100
AcDbEntity
  8
Dzialki_motycz
100
AcDbVertex
100
AcDb2dVertex
 10
8385462.91999999992
 20
5681936.20999999996
  0
VERTEX
  5
3B
100
AcDbEntity
  8
Dzialki_motycz
100
AcDbVertex
100
AcDb2dVertex
 10
8385429.66999999993
 20
5681905.15000000037
  0
SEQEND
  5
3C
100
AcDbEntity
  8
Dzialki_motycz
  0
POLYLINE
  5
3D
100
AcDbEntity
  8
Dzialki_motycz
  6
CONTINUOUS
370
18
100
AcDb2dPolyline
 66
1
 70
128
  0
VERTEX
  5
3E
100
AcDbEntity
  8
Dzialki_motycz
100
AcDbVertex
100
AcDb2dVertex
 10
8385429.66999999993
 20
5681905.15000000037
  0
VERTEX
  5
3F
100
AcDbEntity
  8
Dzialki_motycz
100
AcDbVertex
100
AcDb2dVertex
 10
8385346.96999999974
 20
5681908.24000000022
  0
SEQEND
  5
40
100
AcDbEntity
  8
Dzialki_motycz
  0
POLYLINE
  5
41
100
AcDbEntity
  8
Dzialki_motycz
  6
CONTINUOUS
370
18
100
AcDb2dPolyline
 66
1
 70
128
  0
VERTEX
  5
42
100
AcDbEntity
  8
Dzialki_motycz
100
AcDbVertex
100
AcDb2dVertex
 10
8385346.96999999974
 20
5681908.24000000022
  0
VERTEX
  5
43
100
AcDbEntity
  8
Dzialki_motycz
100
AcDbVertex
100
AcDb2dVertex
 10
8385344.83999999985
 20
5681894.90000000037
  0
SEQEND
  5
44
100
AcDbEntity
  8
Dzialki_motycz
  0
POLYLINE
  5
45
100
AcDbEntity
  8
Dzialki_motycz
  6
CONTINUOUS
370
18
100
AcDb2dPolyline
 66
1
 70
128
  0
VERTEX
  5
46
100
AcDbEntity
  8
Dzialki_motycz
100
AcDbVertex
100
AcDb2dVertex
 10
8385344.83999999985
 20
5681894.90000000037
  0
VERTEX
  5
47
100
AcDbEntity
  8
Dzialki_motycz
100
AcDbVertex
100
AcDb2dVertex
 10
8385345.34999999963
 20
5681864.8200000003
  0
SEQEND
  5
48
100
AcDbEntity
  8
Dzialki_motycz
  0
POLYLINE
  5
49
100
AcDbEntity
  8
Dzialki_motycz
  6
CONTINUOUS
370
18
100
AcDb2dPolyline
 66
1
 70
128
  0
VERTEX
  5
4A
100
AcDbEntity
  8
Dzialki_motycz
100
AcDbVertex
100
AcDb2dVertex
 10
8385345.34999999963
 20
5681864.8200000003
  0
VERTEX
  5
4B
100
AcDbEntity
  8
Dzialki_motycz
100
AcDbVertex
100
AcDb2dVertex
 10
8385391.00999999978
 20
5681865.4299999997
  0
SEQEND
  5
4C
100
AcDbEntity
  8
Dzialki_motycz
  0
POLYLINE
  5
4D
100
AcDbEntity
  8
Dzialki_motycz
  6
CONTINUOUS
370
18
100
AcDb2dPolyline
 66
1
 70
128
  0
VERTEX
  5
4E
100
AcDbEntity
  8
Dzialki_motycz
100
AcDbVertex
100
AcDb2dVertex
 10
8385391.00999999978
 20
5681865.4299999997
  0
VERTEX
  5
4F
100
AcDbEntity
  8
Dzialki_motycz
100
AcDbVertex
100
AcDb2dVertex
 10
8385390.41000000015
 20
5681869.29999999981
  0
SEQEND
  5
50
100
AcDbEntity
  8
Dzialki_motycz
  0
POLYLINE
  5
51
100
AcDbEntity
  8
Dzialki_motycz
  6
CONTINUOUS
370
18
100
AcDb2dPolyline
 66
1
 70
128
  0
VERTEX
  5
52
100
AcDbEntity
  8
Dzialki_motycz
100
AcDbVertex
100
AcDb2dVertex
 10
8385390.41000000015
 20
5681869.29999999981
  0
VERTEX
  5
53
100
AcDbEntity
  8
Dzialki_motycz
100
AcDbVertex
100
AcDb2dVertex
 10
8385429.66999999993
 20
5681905.15000000037
  0
SEQEND
  5
54
100
AcDbEntity
  8
Dzialki_motycz
  0
POLYLINE
  5
55
100
AcDbEntity
  8
Dzialki_motycz
  6
CONTINUOUS
370
18
100
AcDb2dPolyline
 66
1
 70
128
  0
VERTEX
  5
56
100
AcDbEntity
  8
Dzialki_motycz
100
AcDbVertex
100
AcDb2dVertex
 10
8385345.34999999963
 20
5681864.8200000003
  0
VERTEX
  5
57
100
AcDbEntity
  8
Dzialki_motycz
100
AcDbVertex
100
AcDb2dVertex
 10
8385345.11000000034
 20
5681803.23000000045
  0
SEQEND
  5
58
100
AcDbEntity
  8
Dzialki_motycz
  0
POLYLINE
  5
59
100
AcDbEntity
  8
Dzialki_motycz
  6
CONTINUOUS
370
18
100
AcDb2dPolyline
 66
1
 70
128
  0
VERTEX
  5
5A
100
AcDbEntity
  8
Dzialki_motycz
100
AcDbVertex
100
AcDb2dVertex
 10
8385345.11000000034
 20
5681803.23000000045
  0
VERTEX
  5
5B
100
AcDbEntity
  8
Dzialki_motycz
100
AcDbVertex
100
AcDb2dVertex
 10
8385404.36000000034
 20
5681795.16000000015
  0
SEQEND
  5
5C
100
AcDbEntity
  8
Dzialki_motycz
  0
POLYLINE
  5
5D
100
AcDbEntity
  8
Dzialki_motycz
  6
CONTINUOUS
370
18
100
AcDb2dPolyline
 66
1
 70
128
  0
VERTEX
  5
5E
100
AcDbEntity
  8
Dzialki_motycz
100
AcDbVertex
100
AcDb2dVertex
 10
8385404.36000000034
 20
5681795.16000000015
  0
VERTEX
  5
5F
100
AcDbEntity
  8
Dzialki_motycz
100
AcDbVertex
100
AcDb2dVertex
 10
8385391.00999999978
 20
5681865.4299999997
  0
SEQEND
  5
60
100
AcDbEntity
  8
Dzialki_motycz
  0
ENDSEC
  0
SECTION
  2
OBJECTS
  0
DICTIONARY
  5
61
330
0
100
AcDbDictionary
280
0
281
1
  3
ACAD_GROUP
350
62
  3
ACAD_LAYOUT
350
63
  3
ACAD_MLINESTYLE
350
64
  3
ACAD_PLOTSETTINGS
350
65
  3
ACAD_PLOTSTYLENAME
350
66
  0
DICTIONARY
  5
62
102
{ACAD_REACTORS
330
61
102
}
330
61
100
AcDbDictionary
280
0
281
1
  0
DICTIONARY
  5
63
102
{ACAD_REACTORS
330
61
102
}
330
61
100
AcDbDictionary
280
0
281
1
  3
Layout
350
1E
  3
Model
350
1C
  0
DICTIONARY
  5
64
102
{ACAD_REACTORS
330
61
102
}
330
61
100
AcDbDictionary
280
0
281
1
  3
Standard
350
67
  3
L_0_02
350
7
  0
DICTIONARY
  5
65
102
{ACAD_REACTORS
330
61
102
}
330
61
100
AcDbDictionary
280
0
281
1
  0
ACDBDICTIONARYWDFLT
  5
66
102
{ACAD_REACTORS
330
61
102
}
330
61
100
AcDbDictionary
281
1
  3
Normal
350
F
100
AcDbDictionaryWithDefault
340
F
  0
LAYOUT
  5
1E
100
AcDbPlotSettings
  1

  2

  4

  6

 40
0.0
 41
0.0
 42
0.0
 43
0.0
 44
0.0
 45
0.0
 46
0.0
 47
0.0
 48
0.0
 49
0.0
140
0.0
141
0.0
142
1.0
143
1.0
 70
688
 72
1
 73
0
 74
5
  7

 75
0
147
1.0
148
0.0
149
0.0
100
AcDbLayout
  1
Layout
 70
1
 71
1
 10
0.0
 20
0.0
 11
420.0
 21
297.0
 12
0.0
 22
0.0
 32
0.0
 14
100000000000000000000.0
 24
100000000000000000000.0
 34
100000000000000000000.0
 15
-100000000000000000000.0
 25
-100000000000000000000.0
 35
-100000000000000000000.0
146
0.0
 13
0.0
 23
0.0
 33
0.0
 16
1.0
 26
0.0
 36
0.0
 17
0.0
 27
1.0
 37
0.0
 76
0
330
1D
  0
LAYOUT
  5
1C
100
AcDbPlotSettings
  1

  2

  4

  6

 40
0.0
 41
0.0
 42
0.0
 43
0.0
 44
0.0
 45
0.0
 46
0.0
 47
0.0
 48
0.0
 49
0.0
140
0.0
141
0.0
142
1.0
143
1.0
 70
1712
 72
1
 73
0
 74
0
  7

 75
0
147
1.0
148
0.0
149
0.0
100
AcDbLayout
  1
Model
 70
1
 71
0
 10
0.0
 20
0.0
 11
12.0
 21
9.0
 12
0.0
 22
0.0
 32
0.0
 14
0.0
 24
0.0
 34
0.0
 15
0.0
 25
0.0
 35
0.0
146
0.0
 13
0.0
 23
0.0
 33
0.0
 16
1.0
 26
0.0
 36
0.0
 17
0.0
 27
1.0
 37
0.0
 76
0
330
1B
  0
MLINESTYLE
  5
67
102
{ACAD_REACTORS
330
64
102
}
330
64
100
AcDbMlineStyle
  2
Standard
 70
0
  3

 62
256
 51
90.0
 52
90.0
  2
Standard
 71
2
 49
0.5
 62
256
  6
ByLayer
 49
-0.5
 62
256
  6
ByLayer
  0
MLINESTYLE
  5
7
100
AcDbMlineStyle
  2
L_0_02
 70
0
  3

 51
90.0
 52
90.0
 71
1
 49
0.0
 62
256
  6
CONTINUOUS
  0
ACDBPLACEHOLDER
  5
F
  0
ENDSEC
  0
EOF
