  0
SECTION
  2
HEADER
  9
$ACADVER
  1
AC1027
  9
$ACADMAINTVER
 70
     8
  9
$DWGCODEPAGE
  3
ANSI_1250
  9
$REQUIREDVERSIONS
160
                 0
  9
$INSBASE
 10
0.0
 20
0.0
 30
0.0
  9
$EXTMIN
 10
7565732.719999998
 20
5721152.27
 30
0.0
  9
$EXTMAX
 10
7567728.99
 20
5722880.19
 30
0.0
  9
$LIMMIN
 10
7565732.719999998
 20
5721152.27
  9
$LIMMAX
 10
7567728.99
 20
5722880.19
  9
$ORTHOMODE
 70
     0
  9
$REGENMODE
 70
     1
  9
$FILLMODE
 70
     1
  9
$QTEXTMODE
 70
     0
  9
$MIRRTEXT
 70
     0
  9
$LTSCALE
 40
1.0
  9
$ATTMODE
 70
     1
  9
$TEXTSIZE
 40
0.2
  9
$TRACEWID
 40
0.05
  9
$TEXTSTYLE
  7
STANDARD
  9
$CLAYER
  8
0
  9
$CELTYPE
  6
CONTINUOUS
  9
$CECOLOR
 62
   256
  9
$CELTSCALE
 40
1.0
  9
$DISPSILH
 70
     0
  9
$DIMSCALE
 40
1.0
  9
$DIMASZ
 40
2.5
  9
$DIMEXO
 40
0.625
  9
$DIMDLI
 40
0.38
  9
$DIMRND
 40
0.0
  9
$DIMDLE
 40
0.0
  9
$DIMEXE
 40
1.25
  9
$DIMTP
 40
0.0
  9
$DIMTM
 40
0.0
  9
$DIMTXT
 40
2.5
  9
$DIMCEN
 40
0.09
  9
$DIMTSZ
 40
0.0
  9
$DIMTOL
 70
     0
  9
$DIMLIM
 70
     0
  9
$DIMTIH
 70
     1
  9
$DIMTOH
 70
     1
  9
$DIMSE1
 70
     0
  9
$DIMSE2
 70
     0
  9
$DIMTAD
 70
     0
  9
$DIMZIN
 70
     0
  9
$DIMBLK
  1

  9
$DIMASO
 70
     1
  9
$DIMSHO
 70
     1
  9
$DIMPOST
  1

  9
$DIMAPOST
  1

  9
$DIMALT
 70
     0
  9
$DIMALTD
 70
     2
  9
$DIMALTF
 40
25.4
  9
$DIMLFAC
 40
1.0
  9
$DIMTOFL
 70
     0
  9
$DIMTVP
 40
0.0
  9
$DIMTIX
 70
     0
  9
$DIMSOXD
 70
     0
  9
$DIMSAH
 70
     0
  9
$DIMBLK1
  1

  9
$DIMBLK2
  1

  9
$DIMSTYLE
  2
Standard
  9
$DIMCLRD
 70
     0
  9
$DIMCLRE
 70
     0
  9
$DIMCLRT
 70
     0
  9
$DIMTFAC
 40
1.0
  9
$DIMGAP
 40
0.625
  9
$DIMJUST
 70
     0
  9
$DIMSD1
 70
     0
  9
$DIMSD2
 70
     0
  9
$DIMTOLJ
 70
     1
  9
$DIMTZIN
 70
     0
  9
$DIMALTZ
 70
     0
  9
$DIMALTTZ
 70
     0
  9
$DIMUPT
 70
     0
  9
$DIMDEC
 70
     4
  9
$DIMTDEC
 70
     4
  9
$DIMALTU
 70
     2
  9
$DIMALTTD
 70
     2
  9
$DIMTXSTY
  7
STANDARD
  9
$DIMAUNIT
 70
     0
  9
$DIMADEC
 70
     0
  9
$DIMALTRND
 40
0.0
  9
$DIMAZIN
 70
     0
  9
$DIMDSEP
 70
    46
  9
$DIMATFIT
 70
     3
  9
$DIMFRAC
 70
     0
  9
$DIMLDRBLK
  1

  9
$DIMLUNIT
 70
     2
  9
$DIMLWD
 70
    -2
  9
$DIMLWE
 70
    -2
  9
$DIMTMOVE
 70
     0
  9
$DIMFXL
 40
1.0
  9
$DIMFXLON
 70
     0
  9
$DIMJOGANG
 40
0.7853981633974483
  9
$DIMTFILL
 70
     0
  9
$DIMTFILLCLR
 70
     0
  9
$DIMARCSYM
 70
     0
  9
$DIMLTYPE
  6

  9
$DIMLTEX1
  6

  9
$DIMLTEX2
  6

  9
$DIMTXTDIRECTION
 70
     0
  9
$LUNITS
 70
     2
  9
$LUPREC
 70
     4
  9
$SKETCHINC
 40
0.1
  9
$FILLETRAD
 40
0.0
  9
$AUNITS
 70
     0
  9
$AUPREC
 70
     0
  9
$MENU
  1

  9
$ELEVATION
 40
0.0
  9
$PELEVATION
 40
0.0
  9
$THICKNESS
 40
0.0
  9
$LIMCHECK
 70
     0
  9
$CHAMFERA
 40
0.0
  9
$CHAMFERB
 40
0.0
  9
$CHAMFERC
 40
0.0
  9
$CHAMFERD
 40
0.0
  9
$SKPOLY
 70
     0
  9
$TDCREATE
 40
2305814.531407546
  9
$TDUCREATE
 40
45313.489740880
  9
$TDUPDATE
 40
2460332.539532084
  9
$TDUUPDATE
 40
2460332.497865417
  9
$TDINDWG
 40
0.007748148
  9
$TDUSRTIMER
 40
0.007747789
  9
$USRTIMER
 70
     1
  9
$ANGBASE
 50
0.0
  9
$ANGDIR
 70
     0
  9
$PDMODE
 70
     0
  9
$PDSIZE
 40
0.0
  9
$PLINEWID
 40
0.0
  9
$SPLFRAME
 70
     0
  9
$SPLINETYPE
 70
     6
  9
$SPLINESEGS
 70
     8
  9
$HANDSEED
  5
10001B4
  9
$SURFTAB1
 70
     6
  9
$SURFTAB2
 70
     6
  9
$SURFTYPE
 70
     6
  9
$SURFU
 70
     6
  9
$SURFV
 70
     6
  9
$UCSBASE
  2

  9
$UCSNAME
  2

  9
$UCSORG
 10
0.0
 20
0.0
 30
0.0
  9
$UCSXDIR
 10
1.0
 20
0.0
 30
0.0
  9
$UCSYDIR
 10
0.0
 20
1.0
 30
0.0
  9
$UCSORTHOREF
  2

  9
$UCSORTHOVIEW
 70
     0
  9
$UCSORGTOP
 10
0.0
 20
0.0
 30
0.0
  9
$UCSORGBOTTOM
 10
0.0
 20
0.0
 30
0.0
  9
$UCSORGLEFT
 10
0.0
 20
0.0
 30
0.0
  9
$UCSORGRIGHT
 10
0.0
 20
0.0
 30
0.0
  9
$UCSORGFRONT
 10
0.0
 20
0.0
 30
0.0
  9
$UCSORGBACK
 10
0.0
 20
0.0
 30
0.0
  9
$PUCSBASE
  2

  9
$PUCSNAME
  2

  9
$PUCSORG
 10
0.0
 20
0.0
 30
0.0
  9
$PUCSXDIR
 10
1.0
 20
0.0
 30
0.0
  9
$PUCSYDIR
 10
0.0
 20
1.0
 30
0.0
  9
$PUCSORTHOREF
  2

  9
$PUCSORTHOVIEW
 70
     0
  9
$PUCSORGTOP
 10
0.0
 20
0.0
 30
0.0
  9
$PUCSORGBOTTOM
 10
0.0
 20
0.0
 30
0.0
  9
$PUCSORGLEFT
 10
0.0
 20
0.0
 30
0.0
  9
$PUCSORGRIGHT
 10
0.0
 20
0.0
 30
0.0
  9
$PUCSORGFRONT
 10
0.0
 20
0.0
 30
0.0
  9
$PUCSORGBACK
 10
0.0
 20
0.0
 30
0.0
  9
$USERI1
 70
     0
  9
$USERI2
 70
     0
  9
$USERI3
 70
     0
  9
$USERI4
 70
     0
  9
$USERI5
 70
     0
  9
$USERR1
 40
0.0
  9
$USERR2
 40
0.0
  9
$USERR3
 40
0.0
  9
$USERR4
 40
0.0
  9
$USERR5
 40
0.0
  9
$WORLDVIEW
 70
     1
  9
$SHADEDGE
 70
     3
  9
$SHADEDIF
 70
    70
  9
$TILEMODE
 70
     1
  9
$MAXACTVP
 70
    64
  9
$PINSBASE
 10
0.0
 20
0.0
 30
0.0
  9
$PLIMCHECK
 70
     0
  9
$PEXTMIN
 10
1.000000000000000E+20
 20
1.000000000000000E+20
 30
1.000000000000000E+20
  9
$PEXTMAX
 10
-1.000000000000000E+20
 20
-1.000000000000000E+20
 30
-1.000000000000000E+20
  9
$PLIMMIN
 10
0.0
 20
0.0
  9
$PLIMMAX
 10
210.0
 20
297.0
  9
$UNITMODE
 70
     0
  9
$VISRETAIN
 70
     1
  9
$PLINEGEN
 70
     0
  9
$PSLTSCALE
 70
     1
  9
$TREEDEPTH
 70
  3020
  9
$CMLSTYLE
  2
Standard
  9
$CMLJUST
 70
     0
  9
$CMLSCALE
 40
1.0
  9
$PROXYGRAPHICS
 70
     1
  9
$MEASUREMENT
 70
     0
  9
$CELWEIGHT
370
    -1
  9
$ENDCAPS
280
     0
  9
$JOINSTYLE
280
     0
  9
$LWDISPLAY
290
     1
  9
$INSUNITS
 70
     6
  9
$HYPERLINKBASE
  1

  9
$STYLESHEET
  1

  9
$XEDIT
290
     0
  9
$CEPSNTYPE
380
     0
  9
$PSTYLEMODE
290
     1
  9
$FINGERPRINTGUID
  2
{8DF0F54A-2364-443A-A996-5C1A69AD47D5}
  9
$VERSIONGUID
  2
{75653288-4971-4601-826A-D0D9AAACF34D}
  9
$EXTNAMES
290
     1
  9
$PSVPSCALE
 40
0.0
  9
$OLESTARTUP
290
     0
  9
$SORTENTS
280
   127
  9
$INDEXCTL
280
     0
  9
$HIDETEXT
280
     1
  9
$XCLIPFRAME
280
     2
  9
$HALOGAP
280
     0
  9
$OBSCOLOR
 70
   257
  9
$OBSLTYPE
280
     0
  9
$INTERSECTIONDISPLAY
280
     0
  9
$INTERSECTIONCOLOR
 70
   257
  9
$DIMASSOC
280
     2
  9
$PROJECTNAME
  1

  9
$CAMERADISPLAY
290
     0
  9
$LENSLENGTH
 40
50.0
  9
$CAMERAHEIGHT
 40
0.0
  9
$STEPSPERSEC
 40
2.0
  9
$STEPSIZE
 40
6.0
  9
$3DDWFPREC
 40
2.0
  9
$PSOLWIDTH
 40
0.25
  9
$PSOLHEIGHT
 40
4.0
  9
$LOFTANG1
 40
1.570796326794896
  9
$LOFTANG2
 40
1.570796326794896
  9
$LOFTMAG1
 40
0.0
  9
$LOFTMAG2
 40
0.0
  9
$LOFTPARAM
 70
     7
  9
$LOFTNORMALS
280
     1
  9
$LATITUDE
 40
0.0
  9
$LONGITUDE
 40
0.0
  9
$NORTHDIRECTION
 40
0.0
  9
$TIMEZONE
 70
 -8000
  9
$LIGHTGLYPHDISPLAY
280
     1
  9
$TILEMODELIGHTSYNCH
280
     1
  9
$CMATERIAL
347
1000000
  9
$SOLIDHIST
280
     1
  9
$SHOWHIST
280
     1
  9
$DWFFRAME
280
     2
  9
$DGNFRAME
280
     0
  9
$REALWORLDSCALE
290
     1
  9
$INTERFERECOLOR
 62
     1
  9
$CSHADOW
280
     0
  9
$SHADOWPLANELOCATION
 40
0.0
  0
ENDSEC
  0
SECTION
  2
CLASSES
  0
CLASS
  1
WIPEOUT
  2
AcDbWipeout
  3
WipeOut
 90
      127
 91
        0
280
     0
281
     1
  0
CLASS
  1
WIPEOUTVARIABLES
  2
AcDbWipeoutVariables
  3
WipeOut
 90
        0
 91
        0
280
     0
281
     0
  0
CLASS
  1
ACDBDICTIONARYWDFLT
  2
AcDbDictionaryWithDefault
  3
ObjectDBX Classes
 90
    32768
 91
        1
280
     0
281
     0
  0
CLASS
  1
MATERIAL
  2
AcDbMaterial
  3
ObjectDBX Classes
 90
        0
 91
        3
280
     0
281
     0
  0
CLASS
  1
VISUALSTYLE
  2
AcDbVisualStyle
  3
ObjectDBX Classes
 90
     4095
 91
       24
280
     0
281
     0
  0
CLASS
  1
TABLESTYLE
  2
AcDbTableStyle
  3
ObjectDBX Classes
 90
     2047
 91
        1
280
     0
281
     0
  0
CLASS
  1
MLEADERSTYLE
  2
AcDbMLeaderStyle
  3
ACDB_MLEADERSTYLE_CLASS
 90
     4095
 91
        1
280
     0
281
     0
  0
CLASS
  1
SCALE
  2
AcDbScale
  3
ObjectDBX Classes
 90
     1153
 91
       17
280
     0
281
     0
  0
CLASS
  1
SORTENTSTABLE
  2
AcDbSortentsTable
  3
ObjectDBX Classes
 90
        0
 91
        1
280
     0
281
     0
  0
CLASS
  1
DICTIONARYVAR
  2
AcDbDictionaryVar
  3
ObjectDBX Classes
 90
        0
 91
        4
280
     0
281
     0
  0
ENDSEC
  0
SECTION
  2
TABLES
  0
TABLE
  2
VPORT
  5
1
330
0
100
AcDbSymbolTable
 70
     1
  0
VPORT
  5
2
330
1
100
AcDbSymbolTableRecord
100
AcDbViewportTableRecord
  2
*ACTIVE
 70
     0
 10
0.0
 20
0.0
 11
1.0
 21
1.0
 12
7566523.023162259
 22
5722338.614966531
 13
0.0
 23
0.0
 14
1.0
 24
1.0
 15
0.0
 25
0.0
 16
0.0
 26
0.0
 36
1.0
 17
0.0
 27
0.0
 37
0.0
 40
2246.296000000005
 41
1.500709219858156
 42
50.0
 43
0.0
 44
0.0
 50
0.0
 51
0.0
 71
     0
 72
   100
 73
     1
 74
     1
 75
     0
 76
     0
 77
     0
 78
     0
281
     0
 65
     1
110
0.0
120
0.0
130
0.0
111
1.0
121
0.0
131
0.0
112
0.0
122
1.0
132
0.0
 79
     0
146
0.0
348
1000008
 60
     3
 61
     5
292
     1
282
     1
141
0.0
142
0.0
 63
   256
  0
ENDTAB
  0
TABLE
  2
LTYPE
  5
3
330
0
100
AcDbSymbolTable
 70
     5
  0
LTYPE
  5
4
330
3
100
AcDbSymbolTableRecord
100
AcDbLinetypeTableRecord
  2
ByBlock
 70
     0
  3

 72
    65
 73
     0
 40
0.0
  0
LTYPE
  5
5
330
3
100
AcDbSymbolTableRecord
100
AcDbLinetypeTableRecord
  2
ByLayer
 70
     0
  3

 72
    65
 73
     0
 40
0.0
  0
LTYPE
  5
6
330
3
100
AcDbSymbolTableRecord
100
AcDbLinetypeTableRecord
  2
CONTINUOUS
 70
     0
  3
Solid line
 72
    65
 73
     0
 40
0.0
  0
LTYPE
  5
8
330
3
100
AcDbSymbolTableRecord
100
AcDbLinetypeTableRecord
  2
L_0_02
 70
     0
  3
Dzialka_ewidencyjna (MLineStyle)
 72
    65
 73
     0
 40
0.0
  0
LTYPE
  5
9
330
3
100
AcDbSymbolTableRecord
100
AcDbLinetypeTableRecord
  2
L_0_03
 70
     0
  3
Uzytek_gruntowy
 72
    65
 73
     2
 40
1.0
 49
0.5
 74
     0
 49
-0.5
 74
     0
  0
LTYPE
  5
A
330
3
100
AcDbSymbolTableRecord
100
AcDbLinetypeTableRecord
  2
L_0_06
 70
     0
  3
Granica_konturu_klasyfikacyjnego_Krawedz_chodnika
 72
    65
 73
     2
 40
2.0
 49
1.5
 74
     0
 49
-0.5
 74
     0
  0
LTYPE
  5
B
330
3
100
AcDbSymbolTableRecord
100
AcDbLinetypeTableRecord
  2
L_0_0A
 70
     0
  3
Gmina
 72
    65
 73
     4
 40
2.5
 49
1.5
 74
     0
 49
-0.5
 74
     0
 49
0.0
 74
     0
 49
-0.5
 74
     0
  0
ENDTAB
  0
TABLE
  2
LAYER
  5
C
330
0
100
AcDbSymbolTable
 70
     4
  0
LAYER
  5
D
330
C
100
AcDbSymbolTableRecord
100
AcDbLayerTableRecord
  2
0
 70
     0
 62
     7
  6
CONTINUOUS
370
    18
390
E
347
1000002
348
0
  0
LAYER
  5
F
330
C
100
AcDbSymbolTableRecord
100
AcDbLayerTableRecord
  2
ewns_dzialki
 70
     0
 62
     7
  6
CONTINUOUS
370
    18
390
E
347
1000002
348
0
  0
LAYER
  5
10
330
C
100
AcDbSymbolTableRecord
100
AcDbLayerTableRecord
  2
os
 70
     0
 62
     1
  6
L_0_0A
370
    25
390
E
347
1000002
348
0
  0
LAYER
  5
11
330
C
100
AcDbSymbolTableRecord
100
AcDbLayerTableRecord
  2
ROBOCZA
 70
     0
 62
   202
  6
CONTINUOUS
370
    18
390
E
347
1000002
348
0
  0
ENDTAB
  0
TABLE
  2
STYLE
  5
12
330
0
100
AcDbSymbolTable
 70
     2
  0
STYLE
  5
13
330
12
100
AcDbSymbolTableRecord
100
AcDbTextStyleTableRecord
  2
STANDARD
 70
     0
 40
0.0
 41
1.0
 50
0.0
 71
     0
 42
0.2
  3
simplex.shx
  4

  0
STYLE
  5
14
330
12
100
AcDbSymbolTableRecord
100
AcDbTextStyleTableRecord
  2
STANDARD_ITALIC
 70
     0
 40
0.0
 41
1.0
 50
15.0
 71
     0
 42
0.2
  3
simplex.shx
  4

  0
ENDTAB
  0
TABLE
  2
VIEW
  5
15
330
0
100
AcDbSymbolTable
 70
     0
  0
ENDTAB
  0
TABLE
  2
UCS
  5
16
330
0
100
AcDbSymbolTable
 70
     0
  0
ENDTAB
  0
TABLE
  2
APPID
  5
17
330
0
100
AcDbSymbolTable
 70
     1
  0
APPID
  5
18
330
17
100
AcDbSymbolTableRecord
100
AcDbRegAppTableRecord
  2
ACAD
 70
     0
  0
ENDTAB
  0
TABLE
  2
DIMSTYLE
  5
19
330
0
100
AcDbSymbolTable
 70
     1
100
AcDbDimStyleTable
 71
     0
  0
DIMSTYLE
105
1A
330
19
100
AcDbSymbolTableRecord
100
AcDbDimStyleTableRecord
  2
Standard
 70
     0
340
13
  0
ENDTAB
  0
TABLE
  2
BLOCK_RECORD
  5
1B
330
0
100
AcDbSymbolTable
 70
     2
  0
BLOCK_RECORD
  5
1C
102
{ACAD_XDICTIONARY
360
1000034
102
}
330
1B
100
AcDbSymbolTableRecord
100
AcDbBlockTableRecord
  2
*MODEL_SPACE
340
1D
 70
     0
280
     1
281
     0
  0
BLOCK_RECORD
  5
1E
330
1B
100
AcDbSymbolTableRecord
100
AcDbBlockTableRecord
  2
*PAPER_SPACE
340
1F
 70
     0
280
     1
281
     0
  0
BLOCK_RECORD
  5
20
330
1B
100
AcDbSymbolTableRecord
100
AcDbBlockTableRecord
  2
L_0_02_1
340
0
 70
     0
280
     1
281
     0
  0
BLOCK_RECORD
  5
22
330
1B
100
AcDbSymbolTableRecord
100
AcDbBlockTableRecord
  2
L_0_02_2
340
0
 70
     0
280
     1
281
     0
  0
ENDTAB
  0
ENDSEC
  0
SECTION
  2
BLOCKS
  0
BLOCK
  5
24
330
1C
100
AcDbEntity
  8
0
100
AcDbBlockBegin
  2
*MODEL_SPACE
 70
     0
 10
0.0
 20
0.0
 30
0.0
  3
*MODEL_SPACE
  1

  0
ENDBLK
  5
25
330
1C
100
AcDbEntity
  8
0
100
AcDbBlockEnd
  0
BLOCK
  5
26
330
1E
100
AcDbEntity
 67
     1
  8
0
100
AcDbBlockBegin
  2
*PAPER_SPACE
 70
     0
 10
0.0
 20
0.0
 30
0.0
  3
*PAPER_SPACE
  1

  0
ENDBLK
  5
27
330
1E
100
AcDbEntity
 67
     1
  8
0
100
AcDbBlockEnd
  0
BLOCK
  5
21
330
20
100
AcDbEntity
  8
0
 62
     0
370
    13
100
AcDbBlockBegin
  2
L_0_02_1
 70
     0
 10
0.0
 20
0.0
 30
0.0
  3
L_0_02_1
  1

  0
POINT
  5
28
330
20
100
AcDbEntity
  8
0
 62
     0
100
AcDbPoint
 10
0.0
 20
0.0
 30
0.0
  0
ENDBLK
  5
29
330
20
100
AcDbEntity
  8
0
100
AcDbBlockEnd
  0
BLOCK
  5
23
330
22
100
AcDbEntity
  8
0
 62
     0
370
    13
100
AcDbBlockBegin
  2
L_0_02_2
 70
     0
 10
0.0
 20
0.0
 30
0.0
  3
L_0_02_2
  1

  0
POINT
  5
2A
330
22
100
AcDbEntity
  8
0
 62
     0
100
AcDbPoint
 10
0.0
 20
0.0
 30
0.0
  0
ENDBLK
  5
2B
330
22
100
AcDbEntity
  8
0
100
AcDbBlockEnd
  0
ENDSEC
  0
SECTION
  2
ENTITIES
  0
LINE
  5
1000036
330
1C
100
AcDbEntity
  8
ewns_dzialki
  6
Continuous
370
    18
100
AcDbLine
 10
7566782.780000001
 20
5722259.14
 30
0.0
 11
7566800.03
 21
5722259.710000001
 31
0.0
  0
LINE
  5
1000037
330
1C
100
AcDbEntity
  8
ewns_dzialki
  6
Continuous
370
    18
100
AcDbLine
 10
7566800.03
 20
5722259.710000001
 30
0.0
 11
7566820.859999999
 21
5722260.38
 31
0.0
  0
LINE
  5
1000038
330
1C
100
AcDbEntity
  8
ewns_dzialki
  6
Continuous
370
    18
100
AcDbLine
 10
7566820.859999999
 20
5722260.38
 30
0.0
 11
7566942.0
 21
5722264.34
 31
0.0
  0
LINE
  5
1000039
330
1C
100
AcDbEntity
  8
ewns_dzialki
  6
Continuous
370
    18
100
AcDbLine
 10
7566942.0
 20
5722264.34
 30
0.0
 11
7566962.049999999
 21
5722262.94
 31
0.0
  0
LINE
  5
100003A
330
1C
100
AcDbEntity
  8
ewns_dzialki
  6
Continuous
370
    18
100
AcDbLine
 10
7566962.049999999
 20
5722262.94
 30
0.0
 11
7566989.5
 21
5722264.019999999
 31
0.0
  0
LINE
  5
100003B
330
1C
100
AcDbEntity
  8
ewns_dzialki
  6
Continuous
370
    18
100
AcDbLine
 10
7566989.5
 20
5722264.019999999
 30
0.0
 11
7567014.009999999
 21
5722262.11
 31
0.0
  0
LINE
  5
100003C
330
1C
100
AcDbEntity
  8
ewns_dzialki
  6
Continuous
370
    18
100
AcDbLine
 10
7567014.009999999
 20
5722262.11
 30
0.0
 11
7567027.799999999
 21
5722261.32
 31
0.0
  0
LINE
  5
100003D
330
1C
100
AcDbEntity
  8
ewns_dzialki
  6
Continuous
370
    18
100
AcDbLine
 10
7567027.799999999
 20
5722261.32
 30
0.0
 11
7567043.259999999
 21
5722260.41
 31
0.0
  0
LINE
  5
100003E
330
1C
100
AcDbEntity
  8
ewns_dzialki
  6
Continuous
370
    18
100
AcDbLine
 10
7567043.259999999
 20
5722260.41
 30
0.0
 11
7567063.169999999
 21
5722260.53
 31
0.0
  0
LINE
  5
100003F
330
1C
100
AcDbEntity
  8
ewns_dzialki
  6
Continuous
370
    18
100
AcDbLine
 10
7567063.169999999
 20
5722260.53
 30
0.0
 11
7567077.2
 21
5722262.54
 31
0.0
  0
LINE
  5
1000040
330
1C
100
AcDbEntity
  8
ewns_dzialki
  6
Continuous
370
    18
100
AcDbLine
 10
7567077.2
 20
5722262.54
 30
0.0
 11
7567082.59
 21
5722264.459999999
 31
0.0
  0
LINE
  5
1000041
330
1C
100
AcDbEntity
  8
ewns_dzialki
  6
Continuous
370
    18
100
AcDbLine
 10
7567082.59
 20
5722264.459999999
 30
0.0
 11
7567084.67
 21
5722255.650000001
 31
0.0
  0
LINE
  5
1000042
330
1C
100
AcDbEntity
  8
ewns_dzialki
  6
Continuous
370
    18
100
AcDbLine
 10
7567084.67
 20
5722255.650000001
 30
0.0
 11
7567079.009999998
 21
5722254.750000001
 31
0.0
  0
LINE
  5
1000043
330
1C
100
AcDbEntity
  8
ewns_dzialki
  6
Continuous
370
    18
100
AcDbLine
 10
7567079.009999998
 20
5722254.750000001
 30
0.0
 11
7567054.53
 21
5722253.92
 31
0.0
  0
LINE
  5
1000044
330
1C
100
AcDbEntity
  8
ewns_dzialki
  6
Continuous
370
    18
100
AcDbLine
 10
7567054.53
 20
5722253.92
 30
0.0
 11
7567035.679999999
 21
5722254.519999999
 31
0.0
  0
LINE
  5
1000045
330
1C
100
AcDbEntity
  8
ewns_dzialki
  6
Continuous
370
    18
100
AcDbLine
 10
7567035.679999999
 20
5722254.519999999
 30
0.0
 11
7567017.730000001
 21
5722255.650000001
 31
0.0
  0
LINE
  5
1000046
330
1C
100
AcDbEntity
  8
ewns_dzialki
  6
Continuous
370
    18
100
AcDbLine
 10
7567017.730000001
 20
5722255.650000001
 30
0.0
 11
7566991.610000001
 21
5722257.059999999
 31
0.0
  0
LINE
  5
1000047
330
1C
100
AcDbEntity
  8
ewns_dzialki
  6
Continuous
370
    18
100
AcDbLine
 10
7566991.610000001
 20
5722257.059999999
 30
0.0
 11
7566960.54
 21
5722256.32
 31
0.0
  0
LINE
  5
1000048
330
1C
100
AcDbEntity
  8
ewns_dzialki
  6
Continuous
370
    18
100
AcDbLine
 10
7566960.54
 20
5722256.32
 30
0.0
 11
7566760.07
 21
5722251.15
 31
0.0
  0
LINE
  5
1000049
330
1C
100
AcDbEntity
  8
ewns_dzialki
  6
Continuous
370
    18
100
AcDbLine
 10
7566760.07
 20
5722251.15
 30
0.0
 11
7566677.009999999
 21
5722247.400000001
 31
0.0
  0
LINE
  5
100004A
330
1C
100
AcDbEntity
  8
ewns_dzialki
  6
Continuous
370
    18
100
AcDbLine
 10
7566677.009999999
 20
5722247.400000001
 30
0.0
 11
7566668.13
 21
5722247.519999999
 31
0.0
  0
LINE
  5
100004B
330
1C
100
AcDbEntity
  8
ewns_dzialki
  6
Continuous
370
    18
100
AcDbLine
 10
7566668.13
 20
5722247.519999999
 30
0.0
 11
7566652.55
 21
5722246.25
 31
0.0
  0
LINE
  5
100004C
330
1C
100
AcDbEntity
  8
ewns_dzialki
  6
Continuous
370
    18
100
AcDbLine
 10
7566652.55
 20
5722246.25
 30
0.0
 11
7566643.389999999
 21
5722245.08
 31
0.0
  0
LINE
  5
100004D
330
1C
100
AcDbEntity
  8
ewns_dzialki
  6
Continuous
370
    18
100
AcDbLine
 10
7566643.389999999
 20
5722245.08
 30
0.0
 11
7566627.08
 21
5722242.630000001
 31
0.0
  0
LINE
  5
100004E
330
1C
100
AcDbEntity
  8
ewns_dzialki
  6
Continuous
370
    18
100
AcDbLine
 10
7566627.08
 20
5722242.630000001
 30
0.0
 11
7566624.28
 21
5722250.169999999
 31
0.0
  0
LINE
  5
100004F
330
1C
100
AcDbEntity
  8
ewns_dzialki
  6
Continuous
370
    18
100
AcDbLine
 10
7566624.28
 20
5722250.169999999
 30
0.0
 11
7566641.09
 21
5722252.48
 31
0.0
  0
LINE
  5
1000050
330
1C
100
AcDbEntity
  8
ewns_dzialki
  6
Continuous
370
    18
100
AcDbLine
 10
7566641.09
 20
5722252.48
 30
0.0
 11
7566652.849999999
 21
5722253.72
 31
0.0
  0
LINE
  5
1000051
330
1C
100
AcDbEntity
  8
ewns_dzialki
  6
Continuous
370
    18
100
AcDbLine
 10
7566652.849999999
 20
5722253.72
 30
0.0
 11
7566663.559999999
 21
5722254.48
 31
0.0
  0
LINE
  5
1000052
330
1C
100
AcDbEntity
  8
ewns_dzialki
  6
Continuous
370
    18
100
AcDbLine
 10
7566663.559999999
 20
5722254.48
 30
0.0
 11
7566675.759999999
 21
5722255.650000001
 31
0.0
  0
LINE
  5
1000053
330
1C
100
AcDbEntity
  8
ewns_dzialki
  6
Continuous
370
    18
100
AcDbLine
 10
7566675.759999999
 20
5722255.650000001
 30
0.0
 11
7566746.59
 21
5722257.97
 31
0.0
  0
LINE
  5
1000054
330
1C
100
AcDbEntity
  8
ewns_dzialki
  6
Continuous
370
    18
100
AcDbLine
 10
7566746.59
 20
5722257.97
 30
0.0
 11
7566782.780000001
 21
5722259.14
 31
0.0
  0
LINE
  5
100005A
330
1C
100
AcDbEntity
  8
ewns_dzialki
  6
Continuous
370
    18
100
AcDbLine
 10
7567064.37
 20
5722317.88
 30
0.0
 11
7567077.2
 21
5722262.54
 31
0.0
  0
LINE
  5
100005B
330
1C
100
AcDbEntity
  8
ewns_dzialki
  6
Continuous
370
    18
100
AcDbLine
 10
7567077.2
 20
5722262.54
 30
0.0
 11
7567063.169999999
 21
5722260.53
 31
0.0
  0
LINE
  5
100005C
330
1C
100
AcDbEntity
  8
ewns_dzialki
  6
Continuous
370
    18
100
AcDbLine
 10
7567063.169999999
 20
5722260.53
 30
0.0
 11
7567043.259999999
 21
5722260.41
 31
0.0
  0
LINE
  5
100005D
330
1C
100
AcDbEntity
  8
ewns_dzialki
  6
Continuous
370
    18
100
AcDbLine
 10
7567043.259999999
 20
5722260.41
 30
0.0
 11
7567027.799999999
 21
5722261.32
 31
0.0
  0
LINE
  5
100005E
330
1C
100
AcDbEntity
  8
ewns_dzialki
  6
Continuous
370
    18
100
AcDbLine
 10
7567027.799999999
 20
5722261.32
 30
0.0
 11
7567014.009999999
 21
5722262.11
 31
0.0
  0
LINE
  5
100005F
330
1C
100
AcDbEntity
  8
ewns_dzialki
  6
Continuous
370
    18
100
AcDbLine
 10
7567014.009999999
 20
5722262.11
 30
0.0
 11
7566989.5
 21
5722264.019999999
 31
0.0
  0
LINE
  5
1000060
330
1C
100
AcDbEntity
  8
ewns_dzialki
  6
Continuous
370
    18
100
AcDbLine
 10
7566989.5
 20
5722264.019999999
 30
0.0
 11
7566962.049999999
 21
5722262.94
 31
0.0
  0
LINE
  5
1000061
330
1C
100
AcDbEntity
  8
ewns_dzialki
  6
Continuous
370
    18
100
AcDbLine
 10
7566962.049999999
 20
5722262.94
 30
0.0
 11
7566945.12
 21
5722308.389999999
 31
0.0
  0
LINE
  5
1000062
330
1C
100
AcDbEntity
  8
ewns_dzialki
  6
Continuous
370
    18
100
AcDbLine
 10
7566945.12
 20
5722308.389999999
 30
0.0
 11
7566971.839999999
 21
5722318.200000001
 31
0.0
  0
LINE
  5
1000063
330
1C
100
AcDbEntity
  8
ewns_dzialki
  6
Continuous
370
    18
100
AcDbLine
 10
7566971.839999999
 20
5722318.200000001
 30
0.0
 11
7566985.05
 21
5722287.02
 31
0.0
  0
LINE
  5
1000064
330
1C
100
AcDbEntity
  8
ewns_dzialki
  6
Continuous
370
    18
100
AcDbLine
 10
7566985.05
 20
5722287.02
 30
0.0
 11
7567064.37
 21
5722317.88
 31
0.0
  0
LINE
  5
1000065
330
1C
100
AcDbEntity
  8
ewns_dzialki
  6
Continuous
370
    18
100
AcDbLine
 10
7566985.05
 20
5722287.02
 30
0.0
 11
7566971.839999999
 21
5722318.200000001
 31
0.0
  0
LINE
  5
1000066
330
1C
100
AcDbEntity
  8
ewns_dzialki
  6
Continuous
370
    18
100
AcDbLine
 10
7566971.839999999
 20
5722318.200000001
 30
0.0
 11
7566945.12
 21
5722308.389999999
 31
0.0
  0
LINE
  5
1000067
330
1C
100
AcDbEntity
  8
ewns_dzialki
  6
Continuous
370
    18
100
AcDbLine
 10
7566945.12
 20
5722308.389999999
 30
0.0
 11
7566932.389999999
 21
5722342.599999999
 31
0.0
  0
LINE
  5
1000068
330
1C
100
AcDbEntity
  8
ewns_dzialki
  6
Continuous
370
    18
100
AcDbLine
 10
7566932.389999999
 20
5722342.599999999
 30
0.0
 11
7567049.03
 21
5722384.059999999
 31
0.0
  0
LINE
  5
1000069
330
1C
100
AcDbEntity
  8
ewns_dzialki
  6
Continuous
370
    18
100
AcDbLine
 10
7567049.03
 20
5722384.059999999
 30
0.0
 11
7567064.37
 21
5722317.88
 31
0.0
  0
LINE
  5
100006A
330
1C
100
AcDbEntity
  8
ewns_dzialki
  6
Continuous
370
    18
100
AcDbLine
 10
7567064.37
 20
5722317.88
 30
0.0
 11
7566985.05
 21
5722287.02
 31
0.0
  0
LINE
  5
100006B
330
1C
100
AcDbEntity
  8
ewns_dzialki
  6
Continuous
370
    18
100
AcDbLine
 10
7566932.389999999
 20
5722342.599999999
 30
0.0
 11
7566928.55
 21
5722352.9
 31
0.0
  0
LINE
  5
100006C
330
1C
100
AcDbEntity
  8
ewns_dzialki
  6
Continuous
370
    18
100
AcDbLine
 10
7566928.55
 20
5722352.9
 30
0.0
 11
7566912.769999999
 21
5722395.269999999
 31
0.0
  0
LINE
  5
100006E
330
1C
100
AcDbEntity
  8
ewns_dzialki
  6
Continuous
370
    18
100
AcDbLine
 10
7567036.9
 20
5722436.37
 30
0.0
 11
7567049.03
 21
5722384.059999999
 31
0.0
  0
LINE
  5
100006F
330
1C
100
AcDbEntity
  8
ewns_dzialki
  6
Continuous
370
    18
100
AcDbLine
 10
7567049.03
 20
5722384.059999999
 30
0.0
 11
7566932.389999999
 21
5722342.599999999
 31
0.0
  0
LINE
  5
1000076
330
1C
100
AcDbEntity
  8
ewns_dzialki
  6
Continuous
370
    18
100
AcDbLine
 10
7566352.37
 20
5722139.419999999
 30
0.0
 11
7566434.599999999
 21
5722171.62
 31
0.0
  0
LINE
  5
1000077
330
1C
100
AcDbEntity
  8
ewns_dzialki
  6
Continuous
370
    18
100
AcDbLine
 10
7566434.599999999
 20
5722171.62
 30
0.0
 11
7566446.519999999
 21
5722140.6
 31
0.0
  0
LINE
  5
1000078
330
1C
100
AcDbEntity
  8
ewns_dzialki
  6
Continuous
370
    18
100
AcDbLine
 10
7566446.519999999
 20
5722140.6
 30
0.0
 11
7566364.120000001
 21
5722108.669999999
 31
0.0
  0
LINE
  5
1000079
330
1C
100
AcDbEntity
  8
ewns_dzialki
  6
Continuous
370
    18
100
AcDbLine
 10
7567064.37
 20
5722317.88
 30
0.0
 11
7567049.03
 21
5722384.059999999
 31
0.0
  0
LINE
  5
100007A
330
1C
100
AcDbEntity
  8
ewns_dzialki
  6
Continuous
370
    18
100
AcDbLine
 10
7567049.03
 20
5722384.059999999
 30
0.0
 11
7567036.9
 21
5722436.37
 31
0.0
  0
LINE
  5
1000088
330
1C
100
AcDbEntity
  8
ewns_dzialki
  6
Continuous
370
    18
100
AcDbLine
 10
7567043.65
 20
5722426.809999999
 30
0.0
 11
7567052.849999998
 21
5722389.8
 31
0.0
  0
LINE
  5
1000089
330
1C
100
AcDbEntity
  8
ewns_dzialki
  6
Continuous
370
    18
100
AcDbLine
 10
7567052.849999998
 20
5722389.8
 30
0.0
 11
7567082.59
 21
5722264.459999999
 31
0.0
  0
LINE
  5
100008A
330
1C
100
AcDbEntity
  8
ewns_dzialki
  6
Continuous
370
    18
100
AcDbLine
 10
7567082.59
 20
5722264.459999999
 30
0.0
 11
7567077.2
 21
5722262.54
 31
0.0
  0
LINE
  5
100008B
330
1C
100
AcDbEntity
  8
ewns_dzialki
  6
Continuous
370
    18
100
AcDbLine
 10
7567077.2
 20
5722262.54
 30
0.0
 11
7567064.37
 21
5722317.88
 31
0.0
  0
LINE
  5
100008C
330
1C
100
AcDbEntity
  8
ewns_dzialki
  6
Continuous
370
    18
100
AcDbLine
 10
7566794.37
 20
5722331.719999999
 30
0.0
 11
7566928.55
 21
5722352.9
 31
0.0
  0
LINE
  5
100008D
330
1C
100
AcDbEntity
  8
ewns_dzialki
  6
Continuous
370
    18
100
AcDbLine
 10
7566928.55
 20
5722352.9
 30
0.0
 11
7566932.389999999
 21
5722342.599999999
 31
0.0
  0
LINE
  5
100008E
330
1C
100
AcDbEntity
  8
ewns_dzialki
  6
Continuous
370
    18
100
AcDbLine
 10
7566932.389999999
 20
5722342.599999999
 30
0.0
 11
7566945.12
 21
5722308.389999999
 31
0.0
  0
LINE
  5
100008F
330
1C
100
AcDbEntity
  8
ewns_dzialki
  6
Continuous
370
    18
100
AcDbLine
 10
7566945.12
 20
5722308.389999999
 30
0.0
 11
7566962.049999999
 21
5722262.94
 31
0.0
  0
LINE
  5
1000090
330
1C
100
AcDbEntity
  8
ewns_dzialki
  6
Continuous
370
    18
100
AcDbLine
 10
7566962.049999999
 20
5722262.94
 30
0.0
 11
7566942.0
 21
5722264.34
 31
0.0
  0
LINE
  5
1000091
330
1C
100
AcDbEntity
  8
ewns_dzialki
  6
Continuous
370
    18
100
AcDbLine
 10
7566942.0
 20
5722264.34
 30
0.0
 11
7566820.859999999
 21
5722260.38
 31
0.0
  0
LINE
  5
1000092
330
1C
100
AcDbEntity
  8
ewns_dzialki
  6
Continuous
370
    18
100
AcDbLine
 10
7566820.859999999
 20
5722260.38
 30
0.0
 11
7566794.37
 21
5722331.719999999
 31
0.0
  0
LINE
  5
1000093
330
1C
100
AcDbEntity
  8
ewns_dzialki
  6
Continuous
370
    18
100
AcDbLine
 10
7566446.519999999
 20
5722140.6
 30
0.0
 11
7566434.599999999
 21
5722171.62
 31
0.0
  0
LINE
  5
1000094
330
1C
100
AcDbEntity
  8
ewns_dzialki
  6
Continuous
370
    18
100
AcDbLine
 10
7566434.599999999
 20
5722171.62
 30
0.0
 11
7566520.610000001
 21
5722205.85
 31
0.0
  0
LINE
  5
1000095
330
1C
100
AcDbEntity
  8
ewns_dzialki
  6
Continuous
370
    18
100
AcDbLine
 10
7566520.610000001
 20
5722205.85
 30
0.0
 11
7566575.12
 21
5722061.499999999
 31
0.0
  0
LINE
  5
1000096
330
1C
100
AcDbEntity
  8
ewns_dzialki
  6
Continuous
370
    18
100
AcDbLine
 10
7566575.12
 20
5722061.499999999
 30
0.0
 11
7566489.389999999
 21
5722029.110000001
 31
0.0
  0
LINE
  5
1000097
330
1C
100
AcDbEntity
  8
ewns_dzialki
  6
Continuous
370
    18
100
AcDbLine
 10
7566489.389999999
 20
5722029.110000001
 30
0.0
 11
7566450.75
 21
5722129.61
 31
0.0
  0
LINE
  5
1000098
330
1C
100
AcDbEntity
  8
ewns_dzialki
  6
Continuous
370
    18
100
AcDbLine
 10
7566450.75
 20
5722129.61
 30
0.0
 11
7566446.519999999
 21
5722140.6
 31
0.0
  0
LINE
  5
1000099
330
1C
100
AcDbEntity
  8
ewns_dzialki
  6
Continuous
370
    18
100
AcDbLine
 10
7566642.240000001
 20
5722345.82
 30
0.0
 11
7566675.019999999
 21
5722258.04
 31
0.0
  0
LINE
  5
100009A
330
1C
100
AcDbEntity
  8
ewns_dzialki
  6
Continuous
370
    18
100
AcDbLine
 10
7566675.019999999
 20
5722258.04
 30
0.0
 11
7566675.759999999
 21
5722255.650000001
 31
0.0
  0
LINE
  5
100009B
330
1C
100
AcDbEntity
  8
ewns_dzialki
  6
Continuous
370
    18
100
AcDbLine
 10
7566675.759999999
 20
5722255.650000001
 30
0.0
 11
7566663.559999999
 21
5722254.48
 31
0.0
  0
LINE
  5
100009C
330
1C
100
AcDbEntity
  8
ewns_dzialki
  6
Continuous
370
    18
100
AcDbLine
 10
7566663.559999999
 20
5722254.48
 30
0.0
 11
7566652.849999999
 21
5722253.72
 31
0.0
  0
LINE
  5
100009D
330
1C
100
AcDbEntity
  8
ewns_dzialki
  6
Continuous
370
    18
100
AcDbLine
 10
7566652.849999999
 20
5722253.72
 30
0.0
 11
7566641.09
 21
5722252.48
 31
0.0
  0
LINE
  5
100009E
330
1C
100
AcDbEntity
  8
ewns_dzialki
  6
Continuous
370
    18
100
AcDbLine
 10
7566641.09
 20
5722252.48
 30
0.0
 11
7566624.28
 21
5722250.169999999
 31
0.0
  0
LINE
  5
100009F
330
1C
100
AcDbEntity
  8
ewns_dzialki
  6
Continuous
370
    18
100
AcDbLine
 10
7566624.28
 20
5722250.169999999
 30
0.0
 11
7566621.75
 21
5722256.57
 31
0.0
  0
LINE
  5
10000A0
330
1C
100
AcDbEntity
  8
ewns_dzialki
  6
Continuous
370
    18
100
AcDbLine
 10
7566621.75
 20
5722256.57
 30
0.0
 11
7566592.589999999
 21
5722326.709999999
 31
0.0
  0
LINE
  5
10000A1
330
1C
100
AcDbEntity
  8
ewns_dzialki
  6
Continuous
370
    18
100
AcDbLine
 10
7566592.589999999
 20
5722326.709999999
 30
0.0
 11
7566642.240000001
 21
5722345.82
 31
0.0
  0
LINE
  5
10000A2
330
1C
100
AcDbEntity
  8
ewns_dzialki
  6
Continuous
370
    18
100
AcDbLine
 10
7566559.360000001
 20
5722221.000000001
 30
0.0
 11
7566548.86
 21
5722216.79
 31
0.0
  0
LINE
  5
10000A3
330
1C
100
AcDbEntity
  8
ewns_dzialki
  6
Continuous
370
    18
100
AcDbLine
 10
7566548.86
 20
5722216.79
 30
0.0
 11
7566534.86
 21
5722211.18
 31
0.0
  0
LINE
  5
10000A4
330
1C
100
AcDbEntity
  8
ewns_dzialki
  6
Continuous
370
    18
100
AcDbLine
 10
7566534.86
 20
5722211.18
 30
0.0
 11
7566532.82
 21
5722218.41
 31
0.0
  0
LINE
  5
10000A5
330
1C
100
AcDbEntity
  8
ewns_dzialki
  6
Continuous
370
    18
100
AcDbLine
 10
7566532.82
 20
5722218.41
 30
0.0
 11
7566557.44
 21
5722227.83
 31
0.0
  0
LINE
  5
10000A6
330
1C
100
AcDbEntity
  8
ewns_dzialki
  6
Continuous
370
    18
100
AcDbLine
 10
7566557.44
 20
5722227.83
 30
0.0
 11
7566621.42
 21
5722249.780000001
 31
0.0
  0
LINE
  5
10000A7
330
1C
100
AcDbEntity
  8
ewns_dzialki
  6
Continuous
370
    18
100
AcDbLine
 10
7566621.42
 20
5722249.780000001
 30
0.0
 11
7566624.28
 21
5722250.169999999
 31
0.0
  0
LINE
  5
10000A8
330
1C
100
AcDbEntity
  8
ewns_dzialki
  6
Continuous
370
    18
100
AcDbLine
 10
7566624.28
 20
5722250.169999999
 30
0.0
 11
7566627.08
 21
5722242.630000001
 31
0.0
  0
LINE
  5
10000A9
330
1C
100
AcDbEntity
  8
ewns_dzialki
  6
Continuous
370
    18
100
AcDbLine
 10
7566627.08
 20
5722242.630000001
 30
0.0
 11
7566623.79
 21
5722242.139999999
 31
0.0
  0
LINE
  5
10000AA
330
1C
100
AcDbEntity
  8
ewns_dzialki
  6
Continuous
370
    18
100
AcDbLine
 10
7566623.79
 20
5722242.139999999
 30
0.0
 11
7566614.000000001
 21
5722238.74
 31
0.0
  0
LINE
  5
10000AB
330
1C
100
AcDbEntity
  8
ewns_dzialki
  6
Continuous
370
    18
100
AcDbLine
 10
7566614.000000001
 20
5722238.74
 30
0.0
 11
7566599.59
 21
5722233.74
 31
0.0
  0
LINE
  5
10000AC
330
1C
100
AcDbEntity
  8
ewns_dzialki
  6
Continuous
370
    18
100
AcDbLine
 10
7566599.59
 20
5722233.74
 30
0.0
 11
7566559.360000001
 21
5722221.000000001
 31
0.0
  0
LINE
  5
10000AE
330
1C
100
AcDbEntity
  8
ewns_dzialki
  6
Continuous
370
    18
100
AcDbLine
 10
7566629.889999999
 20
5721916.46
 30
0.0
 11
7566575.12
 21
5722061.499999999
 31
0.0
  0
LINE
  5
10000AF
330
1C
100
AcDbEntity
  8
ewns_dzialki
  6
Continuous
370
    18
100
AcDbLine
 10
7566575.12
 20
5722061.499999999
 30
0.0
 11
7566520.610000001
 21
5722205.85
 31
0.0
  0
LINE
  5
10000B0
330
1C
100
AcDbEntity
  8
ewns_dzialki
  6
Continuous
370
    18
100
AcDbLine
 10
7566520.610000001
 20
5722205.85
 30
0.0
 11
7566525.99
 21
5722207.62
 31
0.0
  0
LINE
  5
10000B1
330
1C
100
AcDbEntity
  8
ewns_dzialki
  6
Continuous
370
    18
100
AcDbLine
 10
7566525.99
 20
5722207.62
 30
0.0
 11
7566533.019999999
 21
5722188.570000001
 31
0.0
  0
LINE
  5
10000B2
330
1C
100
AcDbEntity
  8
ewns_dzialki
  6
Continuous
370
    18
100
AcDbLine
 10
7566533.019999999
 20
5722188.570000001
 30
0.0
 11
7566556.5
 21
5722124.990000001
 31
0.0
  0
LINE
  5
10000B3
330
1C
100
AcDbEntity
  8
ewns_dzialki
  6
Continuous
370
    18
100
AcDbLine
 10
7566556.5
 20
5722124.990000001
 30
0.0
 11
7566599.82
 21
5722007.69
 31
0.0
  0
LINE
  5
10000B4
330
1C
100
AcDbEntity
  8
ewns_dzialki
  6
Continuous
370
    18
100
AcDbLine
 10
7566599.82
 20
5722007.69
 30
0.0
 11
7566621.559999998
 21
5721948.809999999
 31
0.0
  0
LINE
  5
10000B5
330
1C
100
AcDbEntity
  8
ewns_dzialki
  6
Continuous
370
    18
100
AcDbLine
 10
7566621.559999998
 20
5721948.809999999
 30
0.0
 11
7566623.179999999
 21
5721944.559999999
 31
0.0
  0
LINE
  5
10000B6
330
1C
100
AcDbEntity
  8
ewns_dzialki
  6
Continuous
370
    18
100
AcDbLine
 10
7566623.179999999
 20
5721944.559999999
 30
0.0
 11
7566634.099999999
 21
5721918.04
 31
0.0
  0
LINE
  5
10000B7
330
1C
100
AcDbEntity
  8
ewns_dzialki
  6
Continuous
370
    18
100
AcDbLine
 10
7566634.099999999
 20
5721918.04
 30
0.0
 11
7566654.759999998
 21
5721861.85
 31
0.0
  0
LINE
  5
10000B8
330
1C
100
AcDbEntity
  8
ewns_dzialki
  6
Continuous
370
    18
100
AcDbLine
 10
7566654.759999998
 20
5721861.85
 30
0.0
 11
7566664.08
 21
5721837.42
 31
0.0
  0
LINE
  5
10000C6
330
1C
100
AcDbEntity
  8
ewns_dzialki
  6
Continuous
370
    18
100
AcDbLine
 10
7566667.849999999
 20
5722142.629999999
 30
0.0
 11
7566657.120000001
 21
5722140.930000001
 31
0.0
  0
LINE
  5
10000C7
330
1C
100
AcDbEntity
  8
ewns_dzialki
  6
Continuous
370
    18
100
AcDbLine
 10
7566657.120000001
 20
5722140.930000001
 30
0.0
 11
7566638.740000001
 21
5722138.03
 31
0.0
  0
LINE
  5
10000C8
330
1C
100
AcDbEntity
  8
ewns_dzialki
  6
Continuous
370
    18
100
AcDbLine
 10
7566638.740000001
 20
5722138.03
 30
0.0
 11
7566624.66
 21
5722135.79
 31
0.0
  0
LINE
  5
10000C9
330
1C
100
AcDbEntity
  8
ewns_dzialki
  6
Continuous
370
    18
100
AcDbLine
 10
7566624.66
 20
5722135.79
 30
0.0
 11
7566584.200000001
 21
5722129.38
 31
0.0
  0
LINE
  5
10000CA
330
1C
100
AcDbEntity
  8
ewns_dzialki
  6
Continuous
370
    18
100
AcDbLine
 10
7566584.200000001
 20
5722129.38
 30
0.0
 11
7566557.4
 21
5722196.610000001
 31
0.0
  0
LINE
  5
10000CB
330
1C
100
AcDbEntity
  8
ewns_dzialki
  6
Continuous
370
    18
100
AcDbLine
 10
7566557.4
 20
5722196.610000001
 30
0.0
 11
7566605.08
 21
5722212.329999999
 31
0.0
  0
LINE
  5
10000CC
330
1C
100
AcDbEntity
  8
ewns_dzialki
  6
Continuous
370
    18
100
AcDbLine
 10
7566605.08
 20
5722212.329999999
 30
0.0
 11
7566619.519999999
 21
5722216.25
 31
0.0
  0
LINE
  5
10000CD
330
1C
100
AcDbEntity
  8
ewns_dzialki
  6
Continuous
370
    18
100
AcDbLine
 10
7566619.519999999
 20
5722216.25
 30
0.0
 11
7566635.59
 21
5722219.72
 31
0.0
  0
LINE
  5
10000CE
330
1C
100
AcDbEntity
  8
ewns_dzialki
  6
Continuous
370
    18
100
AcDbLine
 10
7566635.59
 20
5722219.72
 30
0.0
 11
7566667.849999999
 21
5722142.629999999
 31
0.0
  0
LINE
  5
10000CF
330
1C
100
AcDbEntity
  8
ewns_dzialki
  6
Continuous
370
    18
100
AcDbLine
 10
7566667.849999999
 20
5722142.629999999
 30
0.0
 11
7566635.59
 21
5722219.72
 31
0.0
  0
LINE
  5
10000D0
330
1C
100
AcDbEntity
  8
ewns_dzialki
  6
Continuous
370
    18
100
AcDbLine
 10
7566635.59
 20
5722219.72
 30
0.0
 11
7566637.280000001
 21
5722220.089999999
 31
0.0
  0
LINE
  5
10000D1
330
1C
100
AcDbEntity
  8
ewns_dzialki
  6
Continuous
370
    18
100
AcDbLine
 10
7566637.280000001
 20
5722220.089999999
 30
0.0
 11
7566646.57
 21
5722220.929999999
 31
0.0
  0
LINE
  5
10000D2
330
1C
100
AcDbEntity
  8
ewns_dzialki
  6
Continuous
370
    18
100
AcDbLine
 10
7566646.57
 20
5722220.929999999
 30
0.0
 11
7566678.9
 21
5722222.610000001
 31
0.0
  0
LINE
  5
10000D3
330
1C
100
AcDbEntity
  8
ewns_dzialki
  6
Continuous
370
    18
100
AcDbLine
 10
7566678.9
 20
5722222.610000001
 30
0.0
 11
7566809.650000001
 21
5722228.900000001
 31
0.0
  0
LINE
  5
10000D4
330
1C
100
AcDbEntity
  8
ewns_dzialki
  6
Continuous
370
    18
100
AcDbLine
 10
7566809.650000001
 20
5722228.900000001
 30
0.0
 11
7566815.33
 21
5722165.99
 31
0.0
  0
LINE
  5
10000D5
330
1C
100
AcDbEntity
  8
ewns_dzialki
  6
Continuous
370
    18
100
AcDbLine
 10
7566815.33
 20
5722165.99
 30
0.0
 11
7566684.78
 21
5722145.31
 31
0.0
  0
LINE
  5
10000D6
330
1C
100
AcDbEntity
  8
ewns_dzialki
  6
Continuous
370
    18
100
AcDbLine
 10
7566684.78
 20
5722145.31
 30
0.0
 11
7566667.849999999
 21
5722142.629999999
 31
0.0
  0
LINE
  5
10000D7
330
1C
100
AcDbEntity
  8
ewns_dzialki
  6
Continuous
370
    18
100
AcDbLine
 10
7566533.019999999
 20
5722188.570000001
 30
0.0
 11
7566557.4
 21
5722196.610000001
 31
0.0
  0
LINE
  5
10000D8
330
1C
100
AcDbEntity
  8
ewns_dzialki
  6
Continuous
370
    18
100
AcDbLine
 10
7566557.4
 20
5722196.610000001
 30
0.0
 11
7566584.200000001
 21
5722129.38
 31
0.0
  0
LINE
  5
10000D9
330
1C
100
AcDbEntity
  8
ewns_dzialki
  6
Continuous
370
    18
100
AcDbLine
 10
7566584.200000001
 20
5722129.38
 30
0.0
 11
7566556.5
 21
5722124.990000001
 31
0.0
  0
LINE
  5
10000DA
330
1C
100
AcDbEntity
  8
ewns_dzialki
  6
Continuous
370
    18
100
AcDbLine
 10
7566556.5
 20
5722124.990000001
 30
0.0
 11
7566533.019999999
 21
5722188.570000001
 31
0.0
  0
LINE
  5
10000DB
330
1C
100
AcDbEntity
  8
ewns_dzialki
  6
Continuous
370
    18
100
AcDbLine
 10
7566559.360000001
 20
5722221.000000001
 30
0.0
 11
7566599.59
 21
5722233.74
 31
0.0
  0
LINE
  5
10000DC
330
1C
100
AcDbEntity
  8
ewns_dzialki
  6
Continuous
370
    18
100
AcDbLine
 10
7566599.59
 20
5722233.74
 30
0.0
 11
7566614.000000001
 21
5722238.74
 31
0.0
  0
LINE
  5
10000DD
330
1C
100
AcDbEntity
  8
ewns_dzialki
  6
Continuous
370
    18
100
AcDbLine
 10
7566614.000000001
 20
5722238.74
 30
0.0
 11
7566623.79
 21
5722242.139999999
 31
0.0
  0
LINE
  5
10000DE
330
1C
100
AcDbEntity
  8
ewns_dzialki
  6
Continuous
370
    18
100
AcDbLine
 10
7566623.79
 20
5722242.139999999
 30
0.0
 11
7566627.08
 21
5722242.630000001
 31
0.0
  0
LINE
  5
10000DF
330
1C
100
AcDbEntity
  8
ewns_dzialki
  6
Continuous
370
    18
100
AcDbLine
 10
7566627.08
 20
5722242.630000001
 30
0.0
 11
7566635.59
 21
5722219.72
 31
0.0
  0
LINE
  5
10000E0
330
1C
100
AcDbEntity
  8
ewns_dzialki
  6
Continuous
370
    18
100
AcDbLine
 10
7566635.59
 20
5722219.72
 30
0.0
 11
7566619.519999999
 21
5722216.25
 31
0.0
  0
LINE
  5
10000E1
330
1C
100
AcDbEntity
  8
ewns_dzialki
  6
Continuous
370
    18
100
AcDbLine
 10
7566619.519999999
 20
5722216.25
 30
0.0
 11
7566605.08
 21
5722212.329999999
 31
0.0
  0
LINE
  5
10000E2
330
1C
100
AcDbEntity
  8
ewns_dzialki
  6
Continuous
370
    18
100
AcDbLine
 10
7566605.08
 20
5722212.329999999
 30
0.0
 11
7566557.4
 21
5722196.610000001
 31
0.0
  0
LINE
  5
10000E3
330
1C
100
AcDbEntity
  8
ewns_dzialki
  6
Continuous
370
    18
100
AcDbLine
 10
7566557.4
 20
5722196.610000001
 30
0.0
 11
7566548.86
 21
5722216.79
 31
0.0
  0
LINE
  5
10000E4
330
1C
100
AcDbEntity
  8
ewns_dzialki
  6
Continuous
370
    18
100
AcDbLine
 10
7566548.86
 20
5722216.79
 30
0.0
 11
7566559.360000001
 21
5722221.000000001
 31
0.0
  0
LINE
  5
10000E5
330
1C
100
AcDbEntity
  8
ewns_dzialki
  6
Continuous
370
    18
100
AcDbLine
 10
7567090.42
 20
5722208.769999999
 30
0.0
 11
7566938.46
 21
5722185.500000001
 31
0.0
  0
LINE
  5
10000E6
330
1C
100
AcDbEntity
  8
ewns_dzialki
  6
Continuous
370
    18
100
AcDbLine
 10
7566938.46
 20
5722185.500000001
 30
0.0
 11
7566815.33
 21
5722165.99
 31
0.0
  0
LINE
  5
10000E7
330
1C
100
AcDbEntity
  8
ewns_dzialki
  6
Continuous
370
    18
100
AcDbLine
 10
7566815.33
 20
5722165.99
 30
0.0
 11
7566809.650000001
 21
5722228.900000001
 31
0.0
  0
LINE
  5
10000E8
330
1C
100
AcDbEntity
  8
ewns_dzialki
  6
Continuous
370
    18
100
AcDbLine
 10
7566809.650000001
 20
5722228.900000001
 30
0.0
 11
7566678.9
 21
5722222.610000001
 31
0.0
  0
LINE
  5
10000E9
330
1C
100
AcDbEntity
  8
ewns_dzialki
  6
Continuous
370
    18
100
AcDbLine
 10
7566678.9
 20
5722222.610000001
 30
0.0
 11
7566646.57
 21
5722220.929999999
 31
0.0
  0
LINE
  5
10000EA
330
1C
100
AcDbEntity
  8
ewns_dzialki
  6
Continuous
370
    18
100
AcDbLine
 10
7566646.57
 20
5722220.929999999
 30
0.0
 11
7566637.280000001
 21
5722220.089999999
 31
0.0
  0
LINE
  5
10000EB
330
1C
100
AcDbEntity
  8
ewns_dzialki
  6
Continuous
370
    18
100
AcDbLine
 10
7566637.280000001
 20
5722220.089999999
 30
0.0
 11
7566635.59
 21
5722219.72
 31
0.0
  0
LINE
  5
10000EC
330
1C
100
AcDbEntity
  8
ewns_dzialki
  6
Continuous
370
    18
100
AcDbLine
 10
7566635.59
 20
5722219.72
 30
0.0
 11
7566627.08
 21
5722242.630000001
 31
0.0
  0
LINE
  5
10000ED
330
1C
100
AcDbEntity
  8
ewns_dzialki
  6
Continuous
370
    18
100
AcDbLine
 10
7566627.08
 20
5722242.630000001
 30
0.0
 11
7566643.389999999
 21
5722245.08
 31
0.0
  0
LINE
  5
10000EE
330
1C
100
AcDbEntity
  8
ewns_dzialki
  6
Continuous
370
    18
100
AcDbLine
 10
7566643.389999999
 20
5722245.08
 30
0.0
 11
7566652.55
 21
5722246.25
 31
0.0
  0
LINE
  5
10000EF
330
1C
100
AcDbEntity
  8
ewns_dzialki
  6
Continuous
370
    18
100
AcDbLine
 10
7566652.55
 20
5722246.25
 30
0.0
 11
7566668.13
 21
5722247.519999999
 31
0.0
  0
LINE
  5
10000F0
330
1C
100
AcDbEntity
  8
ewns_dzialki
  6
Continuous
370
    18
100
AcDbLine
 10
7566668.13
 20
5722247.519999999
 30
0.0
 11
7566677.009999999
 21
5722247.400000001
 31
0.0
  0
LINE
  5
10000F1
330
1C
100
AcDbEntity
  8
ewns_dzialki
  6
Continuous
370
    18
100
AcDbLine
 10
7566677.009999999
 20
5722247.400000001
 30
0.0
 11
7566760.07
 21
5722251.15
 31
0.0
  0
LINE
  5
10000F2
330
1C
100
AcDbEntity
  8
ewns_dzialki
  6
Continuous
370
    18
100
AcDbLine
 10
7566760.07
 20
5722251.15
 30
0.0
 11
7566960.54
 21
5722256.32
 31
0.0
  0
LINE
  5
10000F3
330
1C
100
AcDbEntity
  8
ewns_dzialki
  6
Continuous
370
    18
100
AcDbLine
 10
7566960.54
 20
5722256.32
 30
0.0
 11
7566991.610000001
 21
5722257.059999999
 31
0.0
  0
LINE
  5
10000F4
330
1C
100
AcDbEntity
  8
ewns_dzialki
  6
Continuous
370
    18
100
AcDbLine
 10
7566991.610000001
 20
5722257.059999999
 30
0.0
 11
7567017.730000001
 21
5722255.650000001
 31
0.0
  0
LINE
  5
10000F5
330
1C
100
AcDbEntity
  8
ewns_dzialki
  6
Continuous
370
    18
100
AcDbLine
 10
7567017.730000001
 20
5722255.650000001
 30
0.0
 11
7567035.679999999
 21
5722254.519999999
 31
0.0
  0
LINE
  5
10000F6
330
1C
100
AcDbEntity
  8
ewns_dzialki
  6
Continuous
370
    18
100
AcDbLine
 10
7567035.679999999
 20
5722254.519999999
 30
0.0
 11
7567054.53
 21
5722253.92
 31
0.0
  0
LINE
  5
10000F7
330
1C
100
AcDbEntity
  8
ewns_dzialki
  6
Continuous
370
    18
100
AcDbLine
 10
7567054.53
 20
5722253.92
 30
0.0
 11
7567079.009999998
 21
5722254.750000001
 31
0.0
  0
LINE
  5
10000F8
330
1C
100
AcDbEntity
  8
ewns_dzialki
  6
Continuous
370
    18
100
AcDbLine
 10
7567079.009999998
 20
5722254.750000001
 30
0.0
 11
7567089.590000001
 21
5722216.93
 31
0.0
  0
LINE
  5
10000F9
330
1C
100
AcDbEntity
  8
ewns_dzialki
  6
Continuous
370
    18
100
AcDbLine
 10
7567089.590000001
 20
5722216.93
 30
0.0
 11
7567090.42
 21
5722208.769999999
 31
0.0
  0
LINE
  5
10000FA
330
1C
100
AcDbEntity
  8
ewns_dzialki
  6
Continuous
370
    18
100
AcDbLine
 10
7566534.86
 20
5722211.18
 30
0.0
 11
7566548.86
 21
5722216.79
 31
0.0
  0
LINE
  5
10000FB
330
1C
100
AcDbEntity
  8
ewns_dzialki
  6
Continuous
370
    18
100
AcDbLine
 10
7566548.86
 20
5722216.79
 30
0.0
 11
7566557.4
 21
5722196.610000001
 31
0.0
  0
LINE
  5
10000FC
330
1C
100
AcDbEntity
  8
ewns_dzialki
  6
Continuous
370
    18
100
AcDbLine
 10
7566557.4
 20
5722196.610000001
 30
0.0
 11
7566533.019999999
 21
5722188.570000001
 31
0.0
  0
LINE
  5
10000FD
330
1C
100
AcDbEntity
  8
ewns_dzialki
  6
Continuous
370
    18
100
AcDbLine
 10
7566533.019999999
 20
5722188.570000001
 30
0.0
 11
7566525.99
 21
5722207.62
 31
0.0
  0
LINE
  5
10000FE
330
1C
100
AcDbEntity
  8
ewns_dzialki
  6
Continuous
370
    18
100
AcDbLine
 10
7566525.99
 20
5722207.62
 30
0.0
 11
7566534.86
 21
5722211.18
 31
0.0
  0
LINE
  5
10000FF
330
1C
100
AcDbEntity
  8
ewns_dzialki
  6
Continuous
370
    18
100
AcDbLine
 10
7566556.5
 20
5722124.990000001
 30
0.0
 11
7566584.200000001
 21
5722129.38
 31
0.0
  0
LINE
  5
1000100
330
1C
100
AcDbEntity
  8
ewns_dzialki
  6
Continuous
370
    18
100
AcDbLine
 10
7566584.200000001
 20
5722129.38
 30
0.0
 11
7566627.400000001
 21
5722012.429999999
 31
0.0
  0
LINE
  5
1000101
330
1C
100
AcDbEntity
  8
ewns_dzialki
  6
Continuous
370
    18
100
AcDbLine
 10
7566627.400000001
 20
5722012.429999999
 30
0.0
 11
7566599.82
 21
5722007.69
 31
0.0
  0
LINE
  5
1000102
330
1C
100
AcDbEntity
  8
ewns_dzialki
  6
Continuous
370
    18
100
AcDbLine
 10
7566599.82
 20
5722007.69
 30
0.0
 11
7566556.5
 21
5722124.990000001
 31
0.0
  0
LINE
  5
1000121
330
1C
100
AcDbEntity
  8
ewns_dzialki
  6
Continuous
370
    18
100
AcDbLine
 10
7566349.509999999
 20
5722146.89
 30
0.0
 11
7566385.639999999
 21
5722161.040000001
 31
0.0
  0
LINE
  5
1000122
330
1C
100
AcDbEntity
  8
ewns_dzialki
  6
Continuous
370
    18
100
AcDbLine
 10
7566385.639999999
 20
5722161.040000001
 30
0.0
 11
7566474.230000001
 21
5722195.74
 31
0.0
  0
LINE
  5
1000123
330
1C
100
AcDbEntity
  8
ewns_dzialki
  6
Continuous
370
    18
100
AcDbLine
 10
7566474.230000001
 20
5722195.74
 30
0.0
 11
7566477.389999999
 21
5722197.190000001
 31
0.0
  0
LINE
  5
1000124
330
1C
100
AcDbEntity
  8
ewns_dzialki
  6
Continuous
370
    18
100
AcDbLine
 10
7566477.389999999
 20
5722197.190000001
 30
0.0
 11
7566532.82
 21
5722218.41
 31
0.0
  0
LINE
  5
1000125
330
1C
100
AcDbEntity
  8
ewns_dzialki
  6
Continuous
370
    18
100
AcDbLine
 10
7566532.82
 20
5722218.41
 30
0.0
 11
7566534.86
 21
5722211.18
 31
0.0
  0
LINE
  5
1000126
330
1C
100
AcDbEntity
  8
ewns_dzialki
  6
Continuous
370
    18
100
AcDbLine
 10
7566534.86
 20
5722211.18
 30
0.0
 11
7566525.99
 21
5722207.62
 31
0.0
  0
LINE
  5
1000127
330
1C
100
AcDbEntity
  8
ewns_dzialki
  6
Continuous
370
    18
100
AcDbLine
 10
7566525.99
 20
5722207.62
 30
0.0
 11
7566520.610000001
 21
5722205.85
 31
0.0
  0
LINE
  5
1000128
330
1C
100
AcDbEntity
  8
ewns_dzialki
  6
Continuous
370
    18
100
AcDbLine
 10
7566520.610000001
 20
5722205.85
 30
0.0
 11
7566434.599999999
 21
5722171.62
 31
0.0
  0
LINE
  5
1000129
330
1C
100
AcDbEntity
  8
ewns_dzialki
  6
Continuous
370
    18
100
AcDbLine
 10
7566434.599999999
 20
5722171.62
 30
0.0
 11
7566352.37
 21
5722139.419999999
 31
0.0
  0
LINE
  5
1000135
330
1C
100
AcDbEntity
  8
ewns_dzialki
  6
Continuous
370
    18
100
AcDbLine
 10
7567107.599999999
 20
5722137.469999999
 30
0.0
 11
7567090.42
 21
5722208.769999999
 31
0.0
  0
LINE
  5
1000136
330
1C
100
AcDbEntity
  8
ewns_dzialki
  6
Continuous
370
    18
100
AcDbLine
 10
7567090.42
 20
5722208.769999999
 30
0.0
 11
7567089.590000001
 21
5722216.93
 31
0.0
  0
LINE
  5
1000137
330
1C
100
AcDbEntity
  8
ewns_dzialki
  6
Continuous
370
    18
100
AcDbLine
 10
7567089.590000001
 20
5722216.93
 30
0.0
 11
7567079.009999998
 21
5722254.750000001
 31
0.0
  0
LINE
  5
1000138
330
1C
100
AcDbEntity
  8
ewns_dzialki
  6
Continuous
370
    18
100
AcDbLine
 10
7567079.009999998
 20
5722254.750000001
 30
0.0
 11
7567084.67
 21
5722255.650000001
 31
0.0
  0
LINE
  5
1000139
330
1C
100
AcDbEntity
  8
ewns_dzialki
  6
Continuous
370
    18
100
AcDbLine
 10
7567084.67
 20
5722255.650000001
 30
0.0
 11
7567093.63
 21
5722217.9
 31
0.0
  0
LINE
  5
100013A
330
1C
100
AcDbEntity
  8
ewns_dzialki
  6
Continuous
370
    18
100
AcDbLine
 10
7567093.63
 20
5722217.9
 30
0.0
 11
7567126.969999999
 21
5722078.25
 31
0.0
  0
LINE
  5
100014C
330
1C
100
AcDbEntity
  8
ewns_dzialki
  6
Continuous
370
    18
100
AcDbLine
 10
7566592.589999999
 20
5722326.709999999
 30
0.0
 11
7566621.75
 21
5722256.57
 31
0.0
  0
LINE
  5
100014D
330
1C
100
AcDbEntity
  8
ewns_dzialki
  6
Continuous
370
    18
100
AcDbLine
 10
7566621.75
 20
5722256.57
 30
0.0
 11
7566624.28
 21
5722250.169999999
 31
0.0
  0
LINE
  5
100014E
330
1C
100
AcDbEntity
  8
ewns_dzialki
  6
Continuous
370
    18
100
AcDbLine
 10
7566624.28
 20
5722250.169999999
 30
0.0
 11
7566621.42
 21
5722249.780000001
 31
0.0
  0
LINE
  5
100014F
330
1C
100
AcDbEntity
  8
ewns_dzialki
  6
Continuous
370
    18
100
AcDbLine
 10
7566621.42
 20
5722249.780000001
 30
0.0
 11
7566557.44
 21
5722227.83
 31
0.0
  0
LINE
  5
1000150
330
1C
100
AcDbEntity
  8
ewns_dzialki
  6
Continuous
370
    18
100
AcDbLine
 10
7566557.44
 20
5722227.83
 30
0.0
 11
7566532.82
 21
5722218.41
 31
0.0
  0
LINE
  5
1000151
330
1C
100
AcDbEntity
  8
ewns_dzialki
  6
Continuous
370
    18
100
AcDbLine
 10
7566532.82
 20
5722218.41
 30
0.0
 11
7566530.570000001
 21
5722225.62
 31
0.0
  0
LINE
  5
1000152
330
1C
100
AcDbEntity
  8
ewns_dzialki
  6
Continuous
370
    18
100
AcDbLine
 10
7566530.570000001
 20
5722225.62
 30
0.0
 11
7566520.88
 21
5722256.599999999
 31
0.0
  0
LINE
  5
1000153
330
1C
100
AcDbEntity
  8
ewns_dzialki
  6
Continuous
370
    18
100
AcDbLine
 10
7566520.88
 20
5722256.599999999
 30
0.0
 11
7566504.080000001
 21
5722292.65
 31
0.0
  0
LINE
  5
1000154
330
1C
100
AcDbEntity
  8
ewns_dzialki
  6
Continuous
370
    18
100
AcDbLine
 10
7566504.080000001
 20
5722292.65
 30
0.0
 11
7566592.589999999
 21
5722326.709999999
 31
0.0
  0
LINE
  5
1000159
330
1C
100
AcDbEntity
  8
ewns_dzialki
  6
Continuous
370
    18
100
AcDbLine
 10
7566347.0
 20
5722153.429999999
 30
0.0
 11
7566383.139999999
 21
5722167.58
 31
0.0
  0
LINE
  5
100015A
330
1C
100
AcDbEntity
  8
ewns_dzialki
  6
Continuous
370
    18
100
AcDbLine
 10
7566383.139999999
 20
5722167.58
 30
0.0
 11
7566385.639999999
 21
5722161.040000001
 31
0.0
  0
LINE
  5
100015B
330
1C
100
AcDbEntity
  8
ewns_dzialki
  6
Continuous
370
    18
100
AcDbLine
 10
7566385.639999999
 20
5722161.040000001
 30
0.0
 11
7566349.509999999
 21
5722146.89
 31
0.0
  0
LINE
  5
100015C
330
1C
100
AcDbEntity
  8
ewns_dzialki
  6
Continuous
370
    18
100
AcDbLine
 10
7566350.19
 20
5722253.849999999
 30
0.0
 11
7566383.139999999
 21
5722167.58
 31
0.0
  0
LINE
  5
100015D
330
1C
100
AcDbEntity
  8
ewns_dzialki
  6
Continuous
370
    18
100
AcDbLine
 10
7566383.139999999
 20
5722167.58
 30
0.0
 11
7566347.0
 21
5722153.429999999
 31
0.0
  0
LINE
  5
1000162
330
1C
100
AcDbEntity
  8
ewns_dzialki
  6
Continuous
370
    18
100
AcDbLine
 10
7566477.389999999
 20
5722197.190000001
 30
0.0
 11
7566474.230000001
 21
5722195.74
 31
0.0
  0
LINE
  5
1000163
330
1C
100
AcDbEntity
  8
ewns_dzialki
  6
Continuous
370
    18
100
AcDbLine
 10
7566474.230000001
 20
5722195.74
 30
0.0
 11
7566385.639999999
 21
5722161.040000001
 31
0.0
  0
LINE
  5
1000164
330
1C
100
AcDbEntity
  8
ewns_dzialki
  6
Continuous
370
    18
100
AcDbLine
 10
7566385.639999999
 20
5722161.040000001
 30
0.0
 11
7566383.139999999
 21
5722167.58
 31
0.0
  0
LINE
  5
1000165
330
1C
100
AcDbEntity
  8
ewns_dzialki
  6
Continuous
370
    18
100
AcDbLine
 10
7566383.139999999
 20
5722167.58
 30
0.0
 11
7566429.09
 21
5722185.57
 31
0.0
  0
LINE
  5
1000166
330
1C
100
AcDbEntity
  8
ewns_dzialki
  6
Continuous
370
    18
100
AcDbLine
 10
7566429.09
 20
5722185.57
 30
0.0
 11
7566474.79
 21
5722203.76
 31
0.0
  0
LINE
  5
1000167
330
1C
100
AcDbEntity
  8
ewns_dzialki
  6
Continuous
370
    18
100
AcDbLine
 10
7566474.79
 20
5722203.76
 30
0.0
 11
7566477.389999999
 21
5722197.190000001
 31
0.0
  0
LINE
  5
1000168
330
1C
100
AcDbEntity
  8
ewns_dzialki
  6
Continuous
370
    18
100
AcDbLine
 10
7566350.19
 20
5722253.849999999
 30
0.0
 11
7566341.839999999
 21
5722275.709999999
 31
0.0
  0
LINE
  5
100016B
330
1C
100
AcDbEntity
  8
ewns_dzialki
  6
Continuous
370
    18
100
AcDbLine
 10
7566448.150000001
 20
5722271.13
 30
0.0
 11
7566474.79
 21
5722203.76
 31
0.0
  0
LINE
  5
100016C
330
1C
100
AcDbEntity
  8
ewns_dzialki
  6
Continuous
370
    18
100
AcDbLine
 10
7566474.79
 20
5722203.76
 30
0.0
 11
7566429.09
 21
5722185.57
 31
0.0
  0
LINE
  5
100016D
330
1C
100
AcDbEntity
  8
ewns_dzialki
  6
Continuous
370
    18
100
AcDbLine
 10
7566429.09
 20
5722185.57
 30
0.0
 11
7566383.139999999
 21
5722167.58
 31
0.0
  0
LINE
  5
100016E
330
1C
100
AcDbEntity
  8
ewns_dzialki
  6
Continuous
370
    18
100
AcDbLine
 10
7566383.139999999
 20
5722167.58
 30
0.0
 11
7566350.19
 21
5722253.849999999
 31
0.0
  0
LINE
  5
100016F
330
1C
100
AcDbEntity
  8
ewns_dzialki
  6
Continuous
370
    18
100
AcDbLine
 10
7566477.389999999
 20
5722197.190000001
 30
0.0
 11
7566474.79
 21
5722203.76
 31
0.0
  0
LINE
  5
1000170
330
1C
100
AcDbEntity
  8
ewns_dzialki
  6
Continuous
370
    18
100
AcDbLine
 10
7566474.79
 20
5722203.76
 30
0.0
 11
7566515.059999999
 21
5722219.79
 31
0.0
  0
LINE
  5
1000171
330
1C
100
AcDbEntity
  8
ewns_dzialki
  6
Continuous
370
    18
100
AcDbLine
 10
7566515.059999999
 20
5722219.79
 30
0.0
 11
7566530.570000001
 21
5722225.62
 31
0.0
  0
LINE
  5
1000172
330
1C
100
AcDbEntity
  8
ewns_dzialki
  6
Continuous
370
    18
100
AcDbLine
 10
7566530.570000001
 20
5722225.62
 30
0.0
 11
7566532.82
 21
5722218.41
 31
0.0
  0
LINE
  5
1000173
330
1C
100
AcDbEntity
  8
ewns_dzialki
  6
Continuous
370
    18
100
AcDbLine
 10
7566532.82
 20
5722218.41
 30
0.0
 11
7566477.389999999
 21
5722197.190000001
 31
0.0
  0
LINE
  5
1000174
330
1C
100
AcDbEntity
  8
ewns_dzialki
  6
Continuous
370
    18
100
AcDbLine
 10
7566504.080000001
 20
5722292.65
 30
0.0
 11
7566520.88
 21
5722256.599999999
 31
0.0
  0
LINE
  5
1000175
330
1C
100
AcDbEntity
  8
ewns_dzialki
  6
Continuous
370
    18
100
AcDbLine
 10
7566520.88
 20
5722256.599999999
 30
0.0
 11
7566530.570000001
 21
5722225.62
 31
0.0
  0
LINE
  5
1000176
330
1C
100
AcDbEntity
  8
ewns_dzialki
  6
Continuous
370
    18
100
AcDbLine
 10
7566530.570000001
 20
5722225.62
 30
0.0
 11
7566515.059999999
 21
5722219.79
 31
0.0
  0
LINE
  5
1000177
330
1C
100
AcDbEntity
  8
ewns_dzialki
  6
Continuous
370
    18
100
AcDbLine
 10
7566515.059999999
 20
5722219.79
 30
0.0
 11
7566474.79
 21
5722203.76
 31
0.0
  0
LINE
  5
1000178
330
1C
100
AcDbEntity
  8
ewns_dzialki
  6
Continuous
370
    18
100
AcDbLine
 10
7566474.79
 20
5722203.76
 30
0.0
 11
7566448.150000001
 21
5722271.13
 31
0.0
  0
LINE
  5
1000179
330
1C
100
AcDbEntity
  8
ewns_dzialki
  6
Continuous
370
    18
100
AcDbLine
 10
7566448.150000001
 20
5722271.13
 30
0.0
 11
7566504.080000001
 21
5722292.65
 31
0.0
  0
LINE
  5
100017A
330
1C
100
AcDbEntity
  8
ewns_dzialki
  6
Continuous
370
    18
100
AcDbLine
 10
7567149.700000001
 20
5722301.429999999
 30
0.0
 11
7567070.28
 21
5722316.329999999
 31
0.0
  0
LINE
  5
100017B
330
1C
100
AcDbEntity
  8
ewns_dzialki
  6
Continuous
370
    18
100
AcDbLine
 10
7567070.28
 20
5722316.329999999
 30
0.0
 11
7567052.849999998
 21
5722389.8
 31
0.0
  0
LINE
  5
100017C
330
1C
100
AcDbEntity
  8
ewns_dzialki
  6
Continuous
370
    18
100
AcDbLine
 10
7567052.849999998
 20
5722389.8
 30
0.0
 11
7567132.45
 21
5722374.87
 31
0.0
  0
LINE
  5
100017D
330
1C
100
AcDbEntity
  8
ewns_dzialki
  6
Continuous
370
    18
100
AcDbLine
 10
7567132.45
 20
5722374.87
 30
0.0
 11
7567138.59
 21
5722348.71
 31
0.0
  0
LINE
  5
100017E
330
1C
100
AcDbEntity
  8
ewns_dzialki
  6
Continuous
370
    18
100
AcDbLine
 10
7567138.59
 20
5722348.71
 30
0.0
 11
7567149.700000001
 21
5722301.429999999
 31
0.0
  0
LINE
  5
100017F
330
1C
100
AcDbEntity
  8
ewns_dzialki
  6
Continuous
370
    18
100
AcDbLine
 10
7567149.700000001
 20
5722301.429999999
 30
0.0
 11
7567149.86
 21
5722300.76
 31
0.0
  0
LINE
  5
1000180
330
1C
100
AcDbEntity
  8
ewns_dzialki
  6
Continuous
370
    18
100
AcDbLine
 10
7567149.86
 20
5722300.76
 30
0.0
 11
7567158.400000001
 21
5722264.38
 31
0.0
  0
LINE
  5
1000181
330
1C
100
AcDbEntity
  8
ewns_dzialki
  6
Continuous
370
    18
100
AcDbLine
 10
7567158.400000001
 20
5722264.38
 30
0.0
 11
7567082.759999999
 21
5722263.71
 31
0.0
  0
LINE
  5
1000182
330
1C
100
AcDbEntity
  8
ewns_dzialki
  6
Continuous
370
    18
100
AcDbLine
 10
7567082.759999999
 20
5722263.71
 30
0.0
 11
7567082.59
 21
5722264.459999999
 31
0.0
  0
LINE
  5
1000183
330
1C
100
AcDbEntity
  8
ewns_dzialki
  6
Continuous
370
    18
100
AcDbLine
 10
7567082.59
 20
5722264.459999999
 30
0.0
 11
7567070.28
 21
5722316.329999999
 31
0.0
  0
LINE
  5
1000184
330
1C
100
AcDbEntity
  8
ewns_dzialki
  6
Continuous
370
    18
100
AcDbLine
 10
7567070.28
 20
5722316.329999999
 30
0.0
 11
7567149.700000001
 21
5722301.429999999
 31
0.0
  0
LINE
  5
1000185
330
1C
100
AcDbEntity
  8
os
370
    25
100
AcDbLine
 10
7567083.63611873
 20
5722260.029083648
 30
0.0
 11
7567078.730967621
 21
5722258.603914706
 31
0.0
  0
LINE
  5
1000186
330
1C
100
AcDbEntity
  8
os
370
    25
100
AcDbLine
 10
7567078.730967621
 20
5722258.603914706
 30
0.0
 11
7567071.209751555
 21
5722257.737327545
 31
0.0
  0
LINE
  5
1000187
330
1C
100
AcDbEntity
  8
os
370
    25
100
AcDbLine
 10
7567071.209751555
 20
5722257.737327545
 30
0.0
 11
7567052.85983093
 21
5722257.124688542
 31
0.0
  0
LINE
  5
1000188
330
1C
100
AcDbEntity
  8
os
370
    25
100
AcDbLine
 10
7567052.85983093
 20
5722257.124688542
 30
0.0
 11
7567035.770031411
 21
5722257.670499035
 31
0.0
  0
LINE
  5
1000189
330
1C
100
AcDbEntity
  8
os
370
    25
100
AcDbLine
 10
7567035.770031411
 20
5722257.670499035
 30
0.0
 11
7567014.268560313
 21
5722258.968236165
 31
0.0
  0
LINE
  5
100018A
330
1C
100
AcDbEntity
  8
os
370
    25
100
AcDbLine
 10
7567014.268560313
 20
5722258.968236165
 30
0.0
 11
7566994.278714672
 21
5722260.290569631
 31
0.0
  0
LINE
  5
100018B
330
1C
100
AcDbEntity
  8
os
370
    25
100
AcDbLine
 10
7566994.278714672
 20
5722260.290569631
 30
0.0
 11
7566992.030614008
 21
5722260.439282073
 31
0.0
  0
LINE
  5
100018C
330
1C
100
AcDbEntity
  8
os
370
    25
100
AcDbLine
 10
7566992.030614008
 20
5722260.439282073
 30
0.0
 11
7566988.280915503
 21
5722260.231561059
 31
0.0
  0
LINE
  5
100018D
330
1C
100
AcDbEntity
  8
os
370
    25
100
AcDbLine
 10
7566988.280915503
 20
5722260.231561059
 30
0.0
 11
7566960.690229393
 21
5722259.670928184
 31
0.0
  0
LINE
  5
100018E
330
1C
100
AcDbEntity
  8
os
370
    25
100
AcDbLine
 10
7566960.690229393
 20
5722259.670928184
 30
0.0
 11
7566941.540270493
 21
5722259.778260974
 31
0.0
  0
LINE
  5
100018F
330
1C
100
AcDbEntity
  8
os
370
    25
100
AcDbLine
 10
7566941.540270493
 20
5722259.778260974
 30
0.0
 11
7566903.880791487
 21
5722258.857939611
 31
0.0
  0
LINE
  5
1000190
330
1C
100
AcDbEntity
  8
os
370
    25
100
AcDbLine
 10
7566903.880791487
 20
5722258.857939611
 30
0.0
 11
7566876.438754189
 21
5722258.180462993
 31
0.0
  0
LINE
  5
1000191
330
1C
100
AcDbEntity
  8
os
370
    25
100
AcDbLine
 10
7566876.438754189
 20
5722258.180462993
 30
0.0
 11
7566767.430343324
 21
5722254.968348936
 31
0.0
  0
LINE
  5
1000192
330
1C
100
AcDbEntity
  8
os
370
    25
100
AcDbLine
 10
7566767.430343324
 20
5722254.968348936
 30
0.0
 11
7566750.987435446
 21
5722254.514074718
 31
0.0
  0
LINE
  5
1000193
330
1C
100
AcDbEntity
  8
os
370
    25
100
AcDbLine
 10
7566750.987435446
 20
5722254.514074718
 30
0.0
 11
7566677.558194238
 21
5722251.575116464
 31
0.0
  0
LINE
  5
1000194
330
1C
100
AcDbEntity
  8
os
370
    25
100
AcDbLine
 10
7566677.558194238
 20
5722251.575116464
 30
0.0
 11
7566671.660170007
 21
5722251.622580881
 31
0.0
  0
LINE
  5
1000195
330
1C
100
AcDbEntity
  8
os
370
    25
100
AcDbLine
 10
7566671.660170007
 20
5722251.622580881
 30
0.0
 11
7566665.494212538
 21
5722251.318321728
 31
0.0
  0
LINE
  5
1000196
330
1C
100
AcDbEntity
  8
os
370
    25
100
AcDbLine
 10
7566665.494212538
 20
5722251.318321728
 30
0.0
 11
7566653.857573807
 21
5722250.36976381
 31
0.0
  0
LINE
  5
1000197
330
1C
100
AcDbEntity
  8
os
370
    25
100
AcDbLine
 10
7566653.857573807
 20
5722250.36976381
 30
0.0
 11
7566646.797742336
 21
5722249.547675367
 31
0.0
  0
LINE
  5
1000198
330
1C
100
AcDbEntity
  8
os
370
    25
100
AcDbLine
 10
7566646.797742336
 20
5722249.547675367
 30
0.0
 11
7566640.863710198
 21
5722248.745300649
 31
0.0
  0
LINE
  5
1000199
330
1C
100
AcDbEntity
  8
os
370
    25
100
AcDbLine
 10
7566640.863710198
 20
5722248.745300649
 30
0.0
 11
7566624.979999995
 21
5722246.399999997
 31
0.0
  0
LINE
  5
100019A
330
1C
100
AcDbEntity
  8
ROBOCZA
  6
Continuous
370
    18
100
AcDbLine
 10
7567070.319999997
 20
5722272.799999996
 30
0.0
 11
7567072.829999996
 21
5722241.599999996
 31
0.0
  0
LINE
  5
100019B
330
1C
100
AcDbEntity
  8
ROBOCZA
  6
Continuous
370
    18
100
AcDbLine
 10
7567046.809999996
 20
5722271.959999996
 30
0.0
 11
7567045.560216691
 21
5722240.627541992
 31
0.0
  0
LINE
  5
100019C
330
1C
100
AcDbEntity
  8
ROBOCZA
  6
Continuous
370
    18
100
AcDbLine
 10
7567021.830418784
 20
5722272.95663187
 30
0.0
 11
7567020.580418835
 21
5722241.626631869
 31
0.0
  0
LINE
  5
100019D
330
1C
100
AcDbEntity
  8
ROBOCZA
  6
Continuous
370
    18
100
AcDbLine
 10
7566996.850837569
 20
5722273.953263741
 30
0.0
 11
7566995.600837672
 21
5722242.623263737
 31
0.0
  0
LINE
  5
100019E
330
1C
100
AcDbEntity
  8
ROBOCZA
  6
Continuous
370
    18
100
AcDbLine
 10
7566970.099999998
 20
5722281.199999998
 30
0.0
 11
7566972.139999996
 21
5722244.359999997
 31
0.0
  0
LINE
  5
100019F
330
1C
100
AcDbEntity
  8
ROBOCZA
  6
Continuous
370
    18
100
AcDbLine
 10
7566945.199999999
 20
5722279.899999998
 30
0.0
 11
7566947.178291949
 21
5722242.986781036
 31
0.0
  0
LINE
  5
10001A0
330
1C
100
AcDbEntity
  8
ROBOCZA
  6
Continuous
370
    18
100
AcDbLine
 10
7566919.999999998
 20
5722278.899999999
 30
0.0
 11
7566922.216583898
 21
5722241.613562072
 31
0.0
  0
LINE
  5
10001A1
330
1C
100
AcDbEntity
  8
ROBOCZA
  6
Continuous
370
    18
100
AcDbLine
 10
7566895.049999995
 20
5722279.149999998
 30
0.0
 11
7566897.254875846
 21
5722240.240343105
 31
0.0
  0
LINE
  5
10001A2
330
1C
100
AcDbEntity
  8
ROBOCZA
  6
Continuous
370
    18
100
AcDbLine
 10
7566870.279999997
 20
5722277.749999996
 30
0.0
 11
7566872.293167794
 21
5722238.867124142
 31
0.0
  0
LINE
  5
10001A3
330
1C
100
AcDbEntity
  8
ROBOCZA
  6
Continuous
370
    18
100
AcDbLine
 10
7566845.079999997
 20
5722277.489999997
 30
0.0
 11
7566847.331459744
 21
5722237.493905176
 31
0.0
  0
LINE
  5
10001A4
330
1C
100
AcDbEntity
  8
ROBOCZA
  6
Continuous
370
    18
100
AcDbLine
 10
7566820.149999998
 20
5722277.669999995
 30
0.0
 11
7566822.369751693
 21
5722236.120686212
 31
0.0
  0
LINE
  5
10001A5
330
1C
100
AcDbEntity
  8
ROBOCZA
  6
Continuous
370
    18
100
AcDbLine
 10
7566795.029999997
 20
5722279.319999997
 30
0.0
 11
7566797.408043641
 21
5722234.747467248
 31
0.0
  0
LINE
  5
10001A6
330
1C
100
AcDbEntity
  8
ROBOCZA
  6
Continuous
370
    18
100
AcDbLine
 10
7566770.179999996
 20
5722275.319999997
 30
0.0
 11
7566772.44633559
 21
5722233.374248283
 31
0.0
  0
LINE
  5
10001A7
330
1C
100
AcDbEntity
  8
ROBOCZA
  6
Continuous
370
    18
100
AcDbLine
 10
7566745.329999996
 20
5722271.839999996
 30
0.0
 11
7566747.484627539
 21
5722232.001029319
 31
0.0
  0
LINE
  5
10001A8
330
1C
100
AcDbEntity
  8
ROBOCZA
  6
Continuous
370
    18
100
AcDbLine
 10
7566720.129999996
 20
5722273.149999997
 30
0.0
 11
7566722.522919487
 21
5722230.627810354
 31
0.0
  0
LINE
  5
10001A9
330
1C
100
AcDbEntity
  8
ROBOCZA
  6
Continuous
370
    18
100
AcDbLine
 10
7566695.189999997
 20
5722272.369999997
 30
0.0
 11
7566697.561211439
 21
5722229.25459139
 31
0.0
  0
LINE
  5
10001AA
330
1C
100
AcDbEntity
  8
ROBOCZA
  6
Continuous
370
    18
100
AcDbLine
 10
7566668.339999996
 20
5722268.719999996
 30
0.0
 11
7566674.679999996
 21
5722228.749999997
 31
0.0
  0
LINE
  5
10001AB
330
1C
100
AcDbEntity
  8
ROBOCZA
  6
Continuous
370
    18
100
AcDbLine
 10
7566945.488292019
 20
5722273.706781039
 30
0.0
 11
7566947.178291949
 21
5722242.986781036
 31
0.0
  0
LINE
  5
10001AC
330
1C
100
AcDbEntity
  8
ROBOCZA
  6
Continuous
370
    18
100
AcDbLine
 10
7566945.488292019
 20
5722273.706781039
 30
0.0
 11
7566947.178291949
 21
5722242.986781036
 31
0.0
  0
LINE
  5
10001AD
330
1C
100
AcDbEntity
  8
ROBOCZA
  6
Continuous
370
    18
100
AcDbLine
 10
7566644.359999997
 20
5722265.759999997
 30
0.0
 11
7566650.557879504
 21
5722228.198401804
 31
0.0
  0
LINE
  5
10001AE
330
1C
100
AcDbEntity
  8
ROBOCZA
  6
Continuous
370
    18
100
AcDbLine
 10
7566619.69434602
 20
5722261.688459673
 30
0.0
 11
7566625.89434577
 21
5722224.128459632
 31
0.0
  0
ENDSEC
  0
SECTION
  2
OBJECTS
  0
DICTIONARY
  5
4B8
330
0
100
AcDbDictionary
281
     1
  3
ACAD_COLOR
350
100001C
  3
ACAD_GROUP
350
4B9
  3
ACAD_LAYOUT
350
4BA
  3
ACAD_MATERIAL
350
FFFFFF
  3
ACAD_MLEADERSTYLE
350
100001F
  3
ACAD_MLINESTYLE
350
4BB
  3
ACAD_PLOTSETTINGS
350
4BC
  3
ACAD_PLOTSTYLENAME
350
4BD
  3
ACAD_SCALELIST
350
1000021
  3
ACAD_TABLESTYLE
350
100001D
  3
ACAD_VISUALSTYLE
350
1000003
  3
AcDbVariableDictionary
350
10001AF
  0
DICTIONARY
  5
1000034
330
1C
100
AcDbDictionary
280
     1
281
     1
  3
ACAD_SORTENTS
360
1000035
  0
DICTIONARY
  5
100001C
102
{ACAD_REACTORS
330
4B8
102
}
330
4B8
100
AcDbDictionary
281
     1
  0
DICTIONARY
  5
4B9
102
{ACAD_REACTORS
330
4B8
102
}
330
4B8
100
AcDbDictionary
281
     1
  0
DICTIONARY
  5
4BA
102
{ACAD_REACTORS
330
4B8
102
}
330
4B8
100
AcDbDictionary
281
     1
  3
Layout
350
1F
  3
Model
350
1D
  0
DICTIONARY
  5
FFFFFF
102
{ACAD_REACTORS
330
4B8
102
}
330
4B8
100
AcDbDictionary
281
     1
  3
ByBlock
350
1000001
  3
ByLayer
350
1000000
  3
Global
350
1000002
  0
DICTIONARY
  5
100001F
102
{ACAD_REACTORS
330
4B8
102
}
330
4B8
100
AcDbDictionary
281
     1
  3
Standard
350
1000020
  0
DICTIONARY
  5
4BB
102
{ACAD_REACTORS
330
4B8
102
}
330
4B8
100
AcDbDictionary
281
     1
  3
L_0_02
350
7
  3
Standard
350
4BE
  0
DICTIONARY
  5
4BC
102
{ACAD_REACTORS
330
4B8
102
}
330
4B8
100
AcDbDictionary
281
     1
  0
ACDBDICTIONARYWDFLT
  5
4BD
102
{ACAD_REACTORS
330
4B8
102
}
330
4B8
100
AcDbDictionary
281
     1
  3
Normal
350
E
100
AcDbDictionaryWithDefault
340
E
  0
DICTIONARY
  5
1000021
102
{ACAD_REACTORS
330
4B8
102
}
330
4B8
100
AcDbDictionary
281
     1
  3
A0
350
1000022
  3
A1
350
1000023
  3
A2
350
1000024
  3
A3
350
1000025
  3
A4
350
1000026
  3
A5
350
1000027
  3
A6
350
1000028
  3
A7
350
1000029
  3
A8
350
100002A
  3
A9
350
100002B
  3
B0
350
100002C
  3
B1
350
100002D
  3
B2
350
100002E
  3
B3
350
100002F
  3
B4
350
1000030
  3
B5
350
1000031
  3
B6
350
1000032
  0
DICTIONARY
  5
100001D
102
{ACAD_REACTORS
330
4B8
102
}
330
4B8
100
AcDbDictionary
281
     1
  3
Standard
350
100001E
  0
DICTIONARY
  5
1000003
102
{ACAD_REACTORS
330
4B8
102
}
330
4B8
100
AcDbDictionary
281
     1
  3
2dWireframe
350
1000008
  3
Basic
350
100000B
  3
Brighten
350
100000F
  3
ColorChange
350
1000013
  3
Conceptual
350
100000D
  3
Dim
350
100000E
  3
EdgeColorOff
350
1000016
  3
Facepattern
350
1000012
  3
Flat
350
1000004
  3
FlatWithEdges
350
1000005
  3
Gouraud
350
1000006
  3
GouraudWithEdges
350
1000007
  3
Hidden
350
100000A
  3
JitterOff
350
1000014
  3
Linepattern
350
1000011
  3
OverhangOff
350
1000015
  3
Realistic
350
100000C
  3
Shaded
350
100001B
  3
Shaded with edges
350
100001A
  3
Shades of Gray
350
1000017
  3
Sketchy
350
1000018
  3
Thicken
350
1000010
  3
Wireframe
350
1000009
  3
X-Ray
350
1000019
  0
DICTIONARY
  5
10001AF
102
{ACAD_REACTORS
330
4B8
102
}
330
4B8
100
AcDbDictionary
281
     1
  3
CANNOSCALE
350
10001B3
  3
CMLEADERSTYLE
350
10001B1
  3
CTABLESTYLE
350
10001B0
  3
MSLTSCALE
350
10001B2
  0
SORTENTSTABLE
  5
1000035
102
{ACAD_REACTORS
330
1000034
102
}
330
1000034
100
AcDbSortentsTable
330
1C
  0
LAYOUT
  5
1F
330
4BA
100
AcDbPlotSettings
  1

  2

  4

  6

 40
0.0
 41
0.0
 42
0.0
 43
0.0
 44
0.0
 45
0.0
 46
0.0
 47
0.0
 48
0.0
 49
0.0
140
0.0
141
0.0
142
1.0
143
1.0
 70
   688
 72
     1
 73
     0
 74
     5
  7

 75
     0
 76
     0
 77
     2
 78
   300
147
1.0
148
0.0
149
0.0
100
AcDbLayout
  1
Layout
 70
     1
 71
     1
 10
0.0
 20
0.0
 11
420.0
 21
297.0
 12
0.0
 22
0.0
 32
0.0
 14
1.000000000000000E+20
 24
1.000000000000000E+20
 34
1.000000000000000E+20
 15
-1.000000000000000E+20
 25
-1.000000000000000E+20
 35
-1.000000000000000E+20
146
0.0
 13
0.0
 23
0.0
 33
0.0
 16
1.0
 26
0.0
 36
0.0
 17
0.0
 27
1.0
 37
0.0
 76
     0
330
1E
  0
LAYOUT
  5
1D
330
4BA
100
AcDbPlotSettings
  1

  2

  4

  6

 40
0.0
 41
0.0
 42
0.0
 43
0.0
 44
0.0
 45
0.0
 46
0.0
 47
0.0
 48
0.0
 49
0.0
140
0.0
141
0.0
142
1.0
143
1.0
 70
  1712
 72
     1
 73
     0
 74
     0
  7

 75
     0
 76
     0
 77
     2
 78
   300
147
1.0
148
0.0
149
0.0
100
AcDbLayout
  1
Model
 70
     1
 71
     0
 10
0.0
 20
0.0
 11
12.0
 21
9.0
 12
0.0
 22
0.0
 32
0.0
 14
0.0
 24
0.0
 34
0.0
 15
0.0
 25
0.0
 35
0.0
146
0.0
 13
0.0
 23
0.0
 33
0.0
 16
1.0
 26
0.0
 36
0.0
 17
0.0
 27
1.0
 37
0.0
 76
     0
330
1C
331
2
  0
MATERIAL
  5
1000001
102
{ACAD_REACTORS
330
FFFFFF
102
}
330
FFFFFF
100
AcDbMaterial
  1
ByBlock
 72
     0
 73
     2
 77
     0
 78
     2
171
     0
172
     2
175
     0
176
     2
179
     0
270
     2
274
     2
 94
      127
  0
MATERIAL
  5
1000000
102
{ACAD_REACTORS
330
FFFFFF
102
}
330
FFFFFF
100
AcDbMaterial
  1
ByLayer
 72
     0
 73
     2
 77
     0
 78
     2
171
     0
172
     2
175
     0
176
     2
179
     0
270
     2
274
     2
 94
      127
  0
MATERIAL
  5
1000002
102
{ACAD_REACTORS
330
FFFFFF
102
}
330
FFFFFF
100
AcDbMaterial
  1
Global
 72
     0
 73
     2
 77
     0
 78
     2
171
     0
172
     2
175
     0
176
     2
179
     0
270
     2
274
     2
 94
      127
  0
MLEADERSTYLE
  5
1000020
102
{ACAD_REACTORS
330
100001F
102
}
330
100001F
100
AcDbMLeaderStyle
179
     2
170
     2
171
     1
172
     0
 90
        2
 40
0.0
 41
0.0
173
     1
 91
-1056964608
340
4
 92
       -2
290
     1
 42
0.4
291
     1
 43
2.0
  3
Standard
 44
0.18
300

342
13
174
     1
178
     1
175
     1
176
     0
 93
-1056964608
 45
0.2
292
     0
297
     0
 46
5.0
 94
-1056964608
 47
1.0
 49
1.0
140
1.0
293
     1
141
0.0
294
     1
177
     0
142
1.0
295
     0
296
     0
143
0.125
271
     0
272
     9
273
     9
298
     0
  0
MLINESTYLE
  5
7
330
4BB
100
AcDbMlineStyle
  2
L_0_02
 70
     0
  3

 62
   256
 51
90.0
 52
90.0
 71
     1
 49
0.0
 62
   256
  6
CONTINUOUS
  0
MLINESTYLE
  5
4BE
102
{ACAD_REACTORS
330
4BB
102
}
330
4BB
100
AcDbMlineStyle
  2
Standard
 70
     0
  3

 62
   256
 51
90.0
 52
90.0
 71
     2
 49
0.5
 62
   256
  6
BYLAYER
 49
-0.5
 62
   256
  6
BYLAYER
  0
ACDBPLACEHOLDER
  5
E
330
4BD
  0
SCALE
  5
1000022
102
{ACAD_REACTORS
330
1000021
102
}
330
1000021
100
AcDbScale
 70
     0
300
1:1
140
1.0
141
1.0
290
     1
  0
SCALE
  5
1000023
102
{ACAD_REACTORS
330
1000021
102
}
330
1000021
100
AcDbScale
 70
     0
300
1:2
140
1.0
141
2.0
290
     0
  0
SCALE
  5
1000024
102
{ACAD_REACTORS
330
1000021
102
}
330
1000021
100
AcDbScale
 70
     0
300
1:4
140
1.0
141
4.0
290
     0
  0
SCALE
  5
1000025
102
{ACAD_REACTORS
330
1000021
102
}
330
1000021
100
AcDbScale
 70
     0
300
1:5
140
1.0
141
5.0
290
     0
  0
SCALE
  5
1000026
102
{ACAD_REACTORS
330
1000021
102
}
330
1000021
100
AcDbScale
 70
     0
300
1:8
140
1.0
141
8.0
290
     0
  0
SCALE
  5
1000027
102
{ACAD_REACTORS
330
1000021
102
}
330
1000021
100
AcDbScale
 70
     0
300
1:10
140
1.0
141
10.0
290
     0
  0
SCALE
  5
1000028
102
{ACAD_REACTORS
330
1000021
102
}
330
1000021
100
AcDbScale
 70
     0
300
1:16
140
1.0
141
16.0
290
     0
  0
SCALE
  5
1000029
102
{ACAD_REACTORS
330
1000021
102
}
330
1000021
100
AcDbScale
 70
     0
300
1:20
140
1.0
141
20.0
290
     0
  0
SCALE
  5
100002A
102
{ACAD_REACTORS
330
1000021
102
}
330
1000021
100
AcDbScale
 70
     0
300
1:30
140
1.0
141
30.0
290
     0
  0
SCALE
  5
100002B
102
{ACAD_REACTORS
330
1000021
102
}
330
1000021
100
AcDbScale
 70
     0
300
1:40
140
1.0
141
40.0
290
     0
  0
SCALE
  5
100002C
102
{ACAD_REACTORS
330
1000021
102
}
330
1000021
100
AcDbScale
 70
     0
300
1:50
140
1.0
141
50.0
290
     0
  0
SCALE
  5
100002D
102
{ACAD_REACTORS
330
1000021
102
}
330
1000021
100
AcDbScale
 70
     0
300
1:100
140
1.0
141
100.0
290
     0
  0
SCALE
  5
100002E
102
{ACAD_REACTORS
330
1000021
102
}
330
1000021
100
AcDbScale
 70
     0
300
2:1
140
2.0
141
1.0
290
     0
  0
SCALE
  5
100002F
102
{ACAD_REACTORS
330
1000021
102
}
330
1000021
100
AcDbScale
 70
     0
300
4:1
140
4.0
141
1.0
290
     0
  0
SCALE
  5
1000030
102
{ACAD_REACTORS
330
1000021
102
}
330
1000021
100
AcDbScale
 70
     0
300
8:1
140
8.0
141
1.0
290
     0
  0
SCALE
  5
1000031
102
{ACAD_REACTORS
330
1000021
102
}
330
1000021
100
AcDbScale
 70
     0
300
10:1
140
10.0
141
1.0
290
     0
  0
SCALE
  5
1000032
102
{ACAD_REACTORS
330
1000021
102
}
330
1000021
100
AcDbScale
 70
     0
300
100:1
140
100.0
141
1.0
290
     0
  0
TABLESTYLE
  5
100001E
102
{ACAD_REACTORS
330
100001D
102
}
330
100001D
100
AcDbTableStyle
  3
Standard
 70
     0
 71
     0
 40
0.06
 41
0.06
280
     0
281
     0
  7
STANDARD
140
0.18
170
     2
 62
     7
 63
   257
283
     0
 90
        4
 91
        0
  1

274
    -2
284
     1
 64
     0
275
    -2
285
     1
 65
     0
276
    -2
286
     1
 66
     0
277
    -2
287
     1
 67
     0
278
    -2
288
     1
 68
     0
279
    -2
289
     1
 69
     0
  7
STANDARD
140
0.25
170
     5
 62
     7
 63
   257
283
     0
 90
        4
 91
        0
  1

274
    -2
284
     1
 64
     0
275
    -2
285
     1
 65
     0
276
    -2
286
     1
 66
     0
277
    -2
287
     1
 67
     0
278
    -2
288
     1
 68
     0
279
    -2
289
     1
 69
     0
  7
STANDARD
140
0.18
170
     5
 62
     7
 63
   257
283
     0
 90
        4
 91
        0
  1

274
    -2
284
     1
 64
     0
275
    -2
285
     1
 65
     0
276
    -2
286
     1
 66
     0
277
    -2
287
     1
 67
     0
278
    -2
288
     1
 68
     0
279
    -2
289
     1
 69
     0
  0
VISUALSTYLE
  5
1000008
102
{ACAD_REACTORS
330
1000003
102
}
330
1000003
100
AcDbVisualStyle
  2
2dWireframe
 70
     4
177
     3
291
     0
 70
    58
 90
        0
176
     1
 90
        2
176
     1
 90
        0
176
     1
 90
        0
176
     1
 40
0.6
176
     1
 40
30.0
176
     1
 62
     7
420
 16777215
176
     1
 90
        1
176
     1
 90
        4
176
     1
 62
     7
176
     1
 62
   257
176
     1
 90
        1
176
     1
 90
        1
176
     1
 40
1.0
176
     1
 90
        0
176
     1
 62
   257
176
     1
 40
1.0
176
     1
 90
        1
176
     1
 90
        6
176
     1
 90
        2
176
     1
 62
     7
176
     1
 90
        5
176
     1
 90
        0
176
     1
 90
        0
176
     1
290
     0
176
     1
 90
        1
176
     1
 40
0.0
176
     1
 90
        0
176
     1
290
     1
176
     1
290
     1
176
     1
290
     0
176
     1
290
     0
176
     1
290
     0
176
     1
290
     0
176
     1
290
     0
176
     1
290
     0
176
     1
290
     0
176
     1
 90
       50
176
     1
 40
0.0
176
     1
 40
1.0
176
     1
 90
        0
176
     1
 62
    18
420
        0
176
     1
 90
       50
176
     1
 90
        3
176
     1
 62
     5
420
      255
176
     1
290
     0
176
     1
 90
       50
176
     1
 90
       50
176
     1
 90
       50
176
     1
290
     0
176
     1
 90
       50
176
     1
 62
   256
176
     0
 40
1.0
176
     0
 90
        2
176
     1
  1
strokes_ogs.tif
176
     1
290
     0
176
     1
 40
1.0
176
     1
 40
1.0
176
     1
  0
VISUALSTYLE
  5
100000B
102
{ACAD_REACTORS
330
1000003
102
}
330
1000003
100
AcDbVisualStyle
  2
Basic
 70
     7
177
     3
291
     1
 70
    58
 90
        1
176
     1
 90
        0
176
     1
 90
        1
176
     1
 90
        0
176
     1
 40
0.6
176
     1
 40
30.0
176
     1
 62
     7
420
 16777215
176
     1
 90
        0
176
     1
 90
        4
176
     1
 62
     7
176
     1
 62
   257
176
     1
 90
        1
176
     1
 90
        1
176
     1
 40
1.0
176
     1
 90
        8
176
     1
 62
     7
176
     1
 40
1.0
176
     1
 90
        1
176
     1
 90
        6
176
     1
 90
        2
176
     1
 62
     7
176
     1
 90
        5
176
     1
 90
        0
176
     1
 90
        0
176
     1
290
     0
176
     1
 90
        1
176
     1
 40
0.0
176
     1
 90
        0
176
     1
290
     0
176
     1
290
     1
176
     1
290
     1
176
     1
290
     0
176
     1
290
     0
176
     1
290
     0
176
     1
290
     0
176
     1
290
     0
176
     1
290
     0
176
     1
 90
       50
176
     1
 40
0.0
176
     1
 40
1.0
176
     1
 90
        0
176
     1
 62
    18
420
        0
176
     1
 90
       50
176
     1
 90
        3
176
     1
 62
     5
420
      255
176
     1
290
     0
176
     1
 90
       50
176
     1
 90
       50
176
     1
 90
       50
176
     1
290
     0
176
     1
 90
       50
176
     1
 62
   256
176
     0
 40
1.0
176
     0
 90
        2
176
     1
  1
strokes_ogs.tif
176
     1
290
     0
176
     1
 40
1.0
176
     1
 40
1.0
176
     1
  0
VISUALSTYLE
  5
100000F
102
{ACAD_REACTORS
330
1000003
102
}
330
1000003
100
AcDbVisualStyle
  2
Brighten
 70
    12
177
     3
291
     1
 70
    58
 90
        2
176
     1
 90
        2
176
     1
 90
        0
176
     1
 90
        0
176
     1
 40
0.6
176
     1
 40
30.0
176
     1
 62
     7
420
 16777215
176
     1
 90
        1
176
     1
 90
        4
176
     1
 62
     7
176
     1
 62
   257
176
     1
 90
        1
176
     1
 90
        1
176
     1
 40
1.0
176
     1
 90
        8
176
     1
 62
     7
176
     1
 40
1.0
176
     1
 90
        1
176
     1
 90
        6
176
     1
 90
        2
176
     1
 62
     7
176
     1
 90
        5
176
     1
 90
        0
176
     1
 90
        0
176
     1
290
     0
176
     1
 90
        1
176
     1
 40
50.0
176
     1
 90
        0
176
     1
290
     0
176
     1
290
     1
176
     1
290
     1
176
     1
290
     0
176
     1
290
     0
176
     1
290
     0
176
     1
290
     0
176
     1
290
     0
176
     1
290
     0
176
     1
 90
       50
176
     1
 40
0.0
176
     1
 40
1.0
176
     1
 90
        0
176
     1
 62
    18
420
        0
176
     1
 90
       50
176
     1
 90
        3
176
     1
 62
     5
420
      255
176
     1
290
     0
176
     1
 90
       50
176
     1
 90
       50
176
     1
 90
       50
176
     1
290
     0
176
     1
 90
       50
176
     1
 62
   256
176
     0
 40
1.0
176
     0
 90
        2
176
     1
  1
strokes_ogs.tif
176
     1
290
     0
176
     1
 40
1.0
176
     1
 40
1.0
176
     1
  0
VISUALSTYLE
  5
1000013
102
{ACAD_REACTORS
330
1000003
102
}
330
1000003
100
AcDbVisualStyle
  2
ColorChange
 70
    16
177
     3
291
     1
 70
    58
 90
        2
176
     1
 90
        2
176
     1
 90
        3
176
     1
 90
        0
176
     1
 40
0.6
176
     1
 40
30.0
176
     1
 62
     8
420
  8421504
176
     1
 90
        1
176
     1
 90
        4
176
     1
 62
     7
176
     1
 62
   257
176
     1
 90
        1
176
     1
 90
        1
176
     1
 40
1.0
176
     1
 90
        8
176
     1
 62
     8
420
  8421504
176
     1
 40
1.0
176
     1
 90
        1
176
     1
 90
        6
176
     1
 90
        2
176
     1
 62
     7
176
     1
 90
        5
176
     1
 90
        0
176
     1
 90
        0
176
     1
290
     0
176
     1
 90
        1
176
     1
 40
0.0
176
     1
 90
        0
176
     1
290
     0
176
     1
290
     1
176
     1
290
     1
176
     1
290
     0
176
     1
290
     0
176
     1
290
     0
176
     1
290
     0
176
     1
290
     0
176
     1
290
     0
176
     1
 90
       50
176
     1
 40
0.0
176
     1
 40
1.0
176
     1
 90
        0
176
     1
 62
    18
420
        0
176
     1
 90
       50
176
     1
 90
        3
176
     1
 62
     5
420
      255
176
     1
290
     0
176
     1
 90
       50
176
     1
 90
       50
176
     1
 90
       50
176
     1
290
     0
176
     1
 90
       50
176
     1
 62
   256
176
     0
 40
1.0
176
     0
 90
        2
176
     1
  1
strokes_ogs.tif
176
     1
290
     0
176
     1
 40
1.0
176
     1
 40
1.0
176
     1
  0
VISUALSTYLE
  5
100000D
102
{ACAD_REACTORS
330
1000003
102
}
330
1000003
100
AcDbVisualStyle
  2
Conceptual
 70
     9
177
     3
291
     0
 70
    58
 90
        3
176
     1
 90
        2
176
     1
 90
        0
176
     1
 90
        0
176
     1
 40
0.6
176
     1
 40
30.0
176
     1
 62
     7
420
 16777215
176
     1
 90
        2
176
     1
 90
        2
176
     1
 62
     7
176
     1
 62
   257
176
     1
 90
        1
176
     1
 90
        1
176
     1
 40
179.0
176
     1
 90
        8
176
     1
 62
     7
176
     1
 40
1.0
176
     1
 90
        1
176
     1
 90
        6
176
     1
 90
        2
176
     1
 62
     7
176
     1
 90
        3
176
     1
 90
        0
176
     1
 90
        0
176
     1
290
     0
176
     1
 90
        1
176
     1
 40
0.0
176
     1
 90
        0
176
     1
290
     0
176
     1
290
     1
176
     1
290
     1
176
     1
290
     0
176
     1
290
     0
176
     1
290
     0
176
     1
290
     0
176
     1
290
     0
176
     1
290
     0
176
     1
 90
       50
176
     1
 40
0.0
176
     1
 40
1.0
176
     1
 90
        0
176
     1
 62
    18
420
        0
176
     1
 90
       50
176
     1
 90
        3
176
     1
 62
     5
420
      255
176
     1
290
     0
176
     1
 90
       50
176
     1
 90
       50
176
     1
 90
       50
176
     1
290
     0
176
     1
 90
       50
176
     1
 62
   256
176
     0
 40
1.0
176
     0
 90
        2
176
     1
  1
strokes_ogs.tif
176
     1
290
     0
176
     1
 40
1.0
176
     1
 40
1.0
176
     1
  0
VISUALSTYLE
  5
100000E
102
{ACAD_REACTORS
330
1000003
102
}
330
1000003
100
AcDbVisualStyle
  2
Dim
 70
    11
177
     3
291
     1
 70
    58
 90
        2
176
     1
 90
        2
176
     1
 90
        0
176
     1
 90
        0
176
     1
 40
0.6
176
     1
 40
30.0
176
     1
 62
     7
420
 16777215
176
     1
 90
        1
176
     1
 90
        4
176
     1
 62
     7
176
     1
 62
   257
176
     1
 90
        1
176
     1
 90
        1
176
     1
 40
1.0
176
     1
 90
        8
176
     1
 62
     7
176
     1
 40
1.0
176
     1
 90
        1
176
     1
 90
        6
176
     1
 90
        2
176
     1
 62
     7
176
     1
 90
        5
176
     1
 90
        0
176
     1
 90
        0
176
     1
290
     0
176
     1
 90
        1
176
     1
 40
-50.0
176
     1
 90
        0
176
     1
290
     0
176
     1
290
     1
176
     1
290
     1
176
     1
290
     0
176
     1
290
     0
176
     1
290
     0
176
     1
290
     0
176
     1
290
     0
176
     1
290
     0
176
     1
 90
       50
176
     1
 40
0.0
176
     1
 40
1.0
176
     1
 90
        0
176
     1
 62
    18
420
        0
176
     1
 90
       50
176
     1
 90
        3
176
     1
 62
     5
420
      255
176
     1
290
     0
176
     1
 90
       50
176
     1
 90
       50
176
     1
 90
       50
176
     1
290
     0
176
     1
 90
       50
176
     1
 62
   256
176
     0
 40
1.0
176
     0
 90
        2
176
     1
  1
strokes_ogs.tif
176
     1
290
     0
176
     1
 40
1.0
176
     1
 40
1.0
176
     1
  0
VISUALSTYLE
  5
1000016
102
{ACAD_REACTORS
330
1000003
102
}
330
1000003
100
AcDbVisualStyle
  2
EdgeColorOff
 70
    22
177
     3
291
     1
 70
    58
 90
        2
176
     0
 90
        2
176
     0
 90
        0
176
     0
 90
        0
176
     0
 40
0.6
176
     0
 40
30.0
176
     0
 62
     7
420
 16777215
176
     0
 90
        1
176
     0
 90
        4
176
     0
 62
     7
176
     0
 62
   257
176
     0
 90
        1
176
     0
 90
        1
176
     0
 40
1.0
176
     0
 90
        8
176
     2
 62
     7
176
     0
 40
1.0
176
     0
 90
        1
176
     0
 90
        6
176
     0
 90
        2
176
     0
 62
     7
176
     0
 90
        5
176
     0
 90
        0
176
     0
 90
        0
176
     0
290
     0
176
     0
 90
        1
176
     0
 40
0.0
176
     0
 90
        0
176
     0
290
     0
176
     0
290
     1
176
     0
290
     1
176
     0
290
     0
176
     0
290
     0
176
     0
290
     0
176
     0
290
     0
176
     0
290
     0
176
     0
290
     0
176
     0
 90
       50
176
     0
 40
0.0
176
     0
 40
1.0
176
     0
 90
        0
176
     0
 62
    18
420
        0
176
     0
 90
       50
176
     0
 90
        3
176
     0
 62
     5
420
      255
176
     0
290
     0
176
     0
 90
       50
176
     0
 90
       50
176
     0
 90
       50
176
     0
290
     0
176
     0
 90
       50
176
     0
 62
   256
176
     0
 40
1.0
176
     0
 90
        2
176
     0
  1
strokes_ogs.tif
176
     0
290
     0
176
     0
 40
1.0
176
     0
 40
1.0
176
     0
  0
VISUALSTYLE
  5
1000012
102
{ACAD_REACTORS
330
1000003
102
}
330
1000003
100
AcDbVisualStyle
  2
Facepattern
 70
    15
177
     3
291
     1
 70
    58
 90
        2
176
     1
 90
        2
176
     1
 90
        0
176
     1
 90
        0
176
     1
 40
0.6
176
     1
 40
30.0
176
     1
 62
     7
420
 16777215
176
     1
 90
        1
176
     1
 90
        4
176
     1
 62
     7
176
     1
 62
   257
176
     1
 90
        1
176
     1
 90
        1
176
     1
 40
1.0
176
     1
 90
        8
176
     1
 62
     7
176
     1
 40
1.0
176
     1
 90
        1
176
     1
 90
        6
176
     1
 90
        2
176
     1
 62
     7
176
     1
 90
        5
176
     1
 90
        0
176
     1
 90
        0
176
     1
290
     0
176
     1
 90
        1
176
     1
 40
0.0
176
     1
 90
        0
176
     1
290
     0
176
     1
290
     1
176
     1
290
     1
176
     1
290
     0
176
     1
290
     0
176
     1
290
     0
176
     1
290
     0
176
     1
290
     0
176
     1
290
     0
176
     1
 90
       50
176
     1
 40
0.0
176
     1
 40
1.0
176
     1
 90
        0
176
     1
 62
    18
420
        0
176
     1
 90
       50
176
     1
 90
        3
176
     1
 62
     5
420
      255
176
     1
290
     0
176
     1
 90
       50
176
     1
 90
       50
176
     1
 90
       50
176
     1
290
     0
176
     1
 90
       50
176
     1
 62
   256
176
     0
 40
1.0
176
     0
 90
        2
176
     1
  1
strokes_ogs.tif
176
     1
290
     0
176
     1
 40
1.0
176
     1
 40
1.0
176
     1
  0
VISUALSTYLE
  5
1000004
102
{ACAD_REACTORS
330
1000003
102
}
330
1000003
100
AcDbVisualStyle
  2
Flat
 70
     0
177
     3
291
     1
 70
    58
 90
        2
176
     1
 90
        1
176
     1
 90
        1
176
     1
 90
        2
176
     1
 40
0.6
176
     1
 40
30.0
176
     1
 62
     7
420
 16777215
176
     1
 90
        0
176
     1
 90
        0
176
     1
 62
     7
176
     1
 62
   257
176
     1
 90
        1
176
     1
 90
        1
176
     1
 40
1.0
176
     1
 90
        8
176
     1
 62
     7
176
     1
 40
1.0
176
     1
 90
        1
176
     1
 90
        6
176
     1
 90
        2
176
     1
 62
     7
176
     1
 90
        5
176
     1
 90
        0
176
     1
 90
        0
176
     1
290
     0
176
     1
 90
       13
176
     1
 40
0.0
176
     1
 90
        0
176
     1
290
     0
176
     1
290
     1
176
     1
290
     1
176
     1
290
     0
176
     1
290
     0
176
     1
290
     0
176
     1
290
     0
176
     1
290
     0
176
     1
290
     0
176
     1
 90
       50
176
     1
 40
0.0
176
     1
 40
1.0
176
     1
 90
        0
176
     1
 62
    18
420
        0
176
     1
 90
       50
176
     1
 90
        3
176
     1
 62
     5
420
      255
176
     1
290
     0
176
     1
 90
       50
176
     1
 90
       50
176
     1
 90
       50
176
     1
290
     0
176
     1
 90
       50
176
     1
 62
   256
176
     0
 40
1.0
176
     0
 90
        2
176
     1
  1
strokes_ogs.tif
176
     1
290
     0
176
     1
 40
1.0
176
     1
 40
1.0
176
     1
  0
VISUALSTYLE
  5
1000005
102
{ACAD_REACTORS
330
1000003
102
}
330
1000003
100
AcDbVisualStyle
  2
FlatWithEdges
 70
     1
177
     3
291
     1
 70
    58
 90
        2
176
     1
 90
        1
176
     1
 90
        1
176
     1
 90
        2
176
     1
 40
0.6
176
     1
 40
30.0
176
     1
 62
     7
420
 16777215
176
     1
 90
        1
176
     1
 90
        0
176
     1
 62
     7
176
     1
 62
   257
176
     1
 90
        1
176
     1
 90
        1
176
     1
 40
1.0
176
     1
 90
        0
176
     1
 62
   257
176
     1
 40
1.0
176
     1
 90
        1
176
     1
 90
        6
176
     1
 90
        2
176
     1
 62
     7
176
     1
 90
        5
176
     1
 90
        0
176
     1
 90
        0
176
     1
290
     0
176
     1
 90
       13
176
     1
 40
0.0
176
     1
 90
        0
176
     1
290
     0
176
     1
290
     1
176
     1
290
     1
176
     1
290
     0
176
     1
290
     0
176
     1
290
     0
176
     1
290
     0
176
     1
290
     0
176
     1
290
     0
176
     1
 90
       50
176
     1
 40
0.0
176
     1
 40
1.0
176
     1
 90
        0
176
     1
 62
    18
420
        0
176
     1
 90
       50
176
     1
 90
        3
176
     1
 62
     5
420
      255
176
     1
290
     0
176
     1
 90
       50
176
     1
 90
       50
176
     1
 90
       50
176
     1
290
     0
176
     1
 90
       50
176
     1
 62
   256
176
     0
 40
1.0
176
     0
 90
        2
176
     1
  1
strokes_ogs.tif
176
     1
290
     0
176
     1
 40
1.0
176
     1
 40
1.0
176
     1
  0
VISUALSTYLE
  5
1000006
102
{ACAD_REACTORS
330
1000003
102
}
330
1000003
100
AcDbVisualStyle
  2
Gouraud
 70
     2
177
     3
291
     1
 70
    58
 90
        2
176
     1
 90
        2
176
     1
 90
        1
176
     1
 90
        2
176
     1
 40
0.6
176
     1
 40
30.0
176
     1
 62
     7
420
 16777215
176
     1
 90
        0
176
     1
 90
        0
176
     1
 62
     7
176
     1
 62
   257
176
     1
 90
        1
176
     1
 90
        1
176
     1
 40
1.0
176
     1
 90
        0
176
     1
 62
     7
176
     1
 40
1.0
176
     1
 90
        1
176
     1
 90
        6
176
     1
 90
        2
176
     1
 62
     7
176
     1
 90
        5
176
     1
 90
        0
176
     1
 90
        0
176
     1
290
     0
176
     1
 90
       13
176
     1
 40
0.0
176
     1
 90
        0
176
     1
290
     0
176
     1
290
     1
176
     1
290
     1
176
     1
290
     0
176
     1
290
     0
176
     1
290
     0
176
     1
290
     0
176
     1
290
     0
176
     1
290
     0
176
     1
 90
       50
176
     1
 40
0.0
176
     1
 40
1.0
176
     1
 90
        0
176
     1
 62
    18
420
        0
176
     1
 90
       50
176
     1
 90
        3
176
     1
 62
     5
420
      255
176
     1
290
     0
176
     1
 90
       50
176
     1
 90
       50
176
     1
 90
       50
176
     1
290
     0
176
     1
 90
       50
176
     1
 62
   256
176
     0
 40
1.0
176
     0
 90
        2
176
     1
  1
strokes_ogs.tif
176
     1
290
     0
176
     1
 40
1.0
176
     1
 40
1.0
176
     1
  0
VISUALSTYLE
  5
1000007
102
{ACAD_REACTORS
330
1000003
102
}
330
1000003
100
AcDbVisualStyle
  2
GouraudWithEdges
 70
     3
177
     3
291
     1
 70
    58
 90
        2
176
     1
 90
        2
176
     1
 90
        1
176
     1
 90
        2
176
     1
 40
0.6
176
     1
 40
30.0
176
     1
 62
     7
420
 16777215
176
     1
 90
        1
176
     1
 90
        0
176
     1
 62
     7
176
     1
 62
   257
176
     1
 90
        1
176
     1
 90
        1
176
     1
 40
1.0
176
     1
 90
        0
176
     1
 62
   257
176
     1
 40
1.0
176
     1
 90
        1
176
     1
 90
        6
176
     1
 90
        2
176
     1
 62
     7
176
     1
 90
        5
176
     1
 90
        0
176
     1
 90
        0
176
     1
290
     0
176
     1
 90
       13
176
     1
 40
0.0
176
     1
 90
        0
176
     1
290
     0
176
     1
290
     1
176
     1
290
     1
176
     1
290
     0
176
     1
290
     0
176
     1
290
     0
176
     1
290
     0
176
     1
290
     0
176
     1
290
     0
176
     1
 90
       50
176
     1
 40
0.0
176
     1
 40
1.0
176
     1
 90
        0
176
     1
 62
    18
420
        0
176
     1
 90
       50
176
     1
 90
        3
176
     1
 62
     5
420
      255
176
     1
290
     0
176
     1
 90
       50
176
     1
 90
       50
176
     1
 90
       50
176
     1
290
     0
176
     1
 90
       50
176
     1
 62
   256
176
     0
 40
1.0
176
     0
 90
        2
176
     1
  1
strokes_ogs.tif
176
     1
290
     0
176
     1
 40
1.0
176
     1
 40
1.0
176
     1
  0
VISUALSTYLE
  5
100000A
102
{ACAD_REACTORS
330
1000003
102
}
330
1000003
100
AcDbVisualStyle
  2
Hidden
 70
     6
177
     3
291
     0
 70
    58
 90
        1
176
     1
 90
        2
176
     1
 90
        2
176
     1
 90
        0
176
     1
 40
0.6
176
     1
 40
30.0
176
     1
 62
     7
420
 16777215
176
     1
 90
        2
176
     1
 90
        2
176
     1
 62
     7
176
     1
 62
   257
176
     1
 90
        2
176
     1
 90
        1
176
     1
 40
40.0
176
     1
 90
        0
176
     1
 62
   257
176
     1
 40
1.0
176
     1
 90
        1
176
     1
 90
        6
176
     1
 90
        2
176
     1
 62
     7
176
     1
 90
        3
176
     1
 90
        0
176
     1
 90
        0
176
     1
290
     0
176
     1
 90
        1
176
     1
 40
0.0
176
     1
 90
        0
176
     1
290
     0
176
     1
290
     1
176
     1
290
     1
176
     1
290
     0
176
     1
290
     0
176
     1
290
     0
176
     1
290
     0
176
     1
290
     0
176
     1
290
     0
176
     1
 90
       50
176
     1
 40
0.0
176
     1
 40
1.0
176
     1
 90
        0
176
     1
 62
    18
420
        0
176
     1
 90
       50
176
     1
 90
        3
176
     1
 62
     5
420
      255
176
     1
290
     0
176
     1
 90
       50
176
     1
 90
       50
176
     1
 90
       50
176
     1
290
     0
176
     1
 90
       50
176
     1
 62
   256
176
     0
 40
1.0
176
     0
 90
        2
176
     1
  1
strokes_ogs.tif
176
     1
290
     0
176
     1
 40
1.0
176
     1
 40
1.0
176
     1
  0
VISUALSTYLE
  5
1000014
102
{ACAD_REACTORS
330
1000003
102
}
330
1000003
100
AcDbVisualStyle
  2
JitterOff
 70
    20
177
     3
291
     1
 70
    58
 90
        2
176
     0
 90
        2
176
     0
 90
        0
176
     0
 90
        0
176
     0
 40
0.6
176
     0
 40
30.0
176
     0
 62
     7
420
 16777215
176
     0
 90
        1
176
     0
 90
        4
176
     0
 62
     7
176
     0
 62
   257
176
     0
 90
        1
176
     0
 90
        1
176
     0
 40
1.0
176
     0
 90
       10
176
     2
 62
     7
176
     0
 40
1.0
176
     0
 90
        1
176
     0
 90
        6
176
     0
 90
        2
176
     0
 62
     7
176
     0
 90
        5
176
     0
 90
        0
176
     0
 90
        0
176
     0
290
     0
176
     0
 90
        1
176
     0
 40
0.0
176
     0
 90
        0
176
     0
290
     0
176
     0
290
     1
176
     0
290
     1
176
     0
290
     0
176
     0
290
     0
176
     0
290
     0
176
     0
290
     0
176
     0
290
     0
176
     0
290
     0
176
     0
 90
       50
176
     0
 40
0.0
176
     0
 40
1.0
176
     0
 90
        0
176
     0
 62
    18
420
        0
176
     0
 90
       50
176
     0
 90
        3
176
     0
 62
     5
420
      255
176
     0
290
     0
176
     0
 90
       50
176
     0
 90
       50
176
     0
 90
       50
176
     0
290
     0
176
     0
 90
       50
176
     0
 62
   256
176
     0
 40
1.0
176
     0
 90
        2
176
     0
  1
strokes_ogs.tif
176
     0
290
     0
176
     0
 40
1.0
176
     0
 40
1.0
176
     0
  0
VISUALSTYLE
  5
1000011
102
{ACAD_REACTORS
330
1000003
102
}
330
1000003
100
AcDbVisualStyle
  2
Linepattern
 70
    14
177
     3
291
     1
 70
    58
 90
        2
176
     1
 90
        2
176
     1
 90
        0
176
     1
 90
        0
176
     1
 40
0.6
176
     1
 40
30.0
176
     1
 62
     7
420
 16777215
176
     1
 90
        1
176
     1
 90
        4
176
     1
 62
     7
176
     1
 62
   257
176
     1
 90
        7
176
     1
 90
        7
176
     1
 40
1.0
176
     1
 90
        8
176
     1
 62
     7
176
     1
 40
1.0
176
     1
 90
        1
176
     1
 90
        6
176
     1
 90
        2
176
     1
 62
     7
176
     1
 90
        5
176
     1
 90
        0
176
     1
 90
        0
176
     1
290
     0
176
     1
 90
        1
176
     1
 40
0.0
176
     1
 90
        0
176
     1
290
     0
176
     1
290
     1
176
     1
290
     1
176
     1
290
     0
176
     1
290
     0
176
     1
290
     0
176
     1
290
     0
176
     1
290
     0
176
     1
290
     0
176
     1
 90
       50
176
     1
 40
0.0
176
     1
 40
1.0
176
     1
 90
        0
176
     1
 62
    18
420
        0
176
     1
 90
       50
176
     1
 90
        3
176
     1
 62
     5
420
      255
176
     1
290
     0
176
     1
 90
       50
176
     1
 90
       50
176
     1
 90
       50
176
     1
290
     0
176
     1
 90
       50
176
     1
 62
   256
176
     0
 40
1.0
176
     0
 90
        2
176
     1
  1
strokes_ogs.tif
176
     1
290
     0
176
     1
 40
1.0
176
     1
 40
1.0
176
     1
  0
VISUALSTYLE
  5
1000015
102
{ACAD_REACTORS
330
1000003
102
}
330
1000003
100
AcDbVisualStyle
  2
OverhangOff
 70
    21
177
     3
291
     1
 70
    58
 90
        2
176
     0
 90
        2
176
     0
 90
        0
176
     0
 90
        0
176
     0
 40
0.6
176
     0
 40
30.0
176
     0
 62
     7
420
 16777215
176
     0
 90
        1
176
     0
 90
        4
176
     0
 62
     7
176
     0
 62
   257
176
     0
 90
        1
176
     0
 90
        1
176
     0
 40
1.0
176
     0
 90
        9
176
     2
 62
     7
176
     0
 40
1.0
176
     0
 90
        1
176
     0
 90
        6
176
     0
 90
        2
176
     0
 62
     7
176
     0
 90
        5
176
     0
 90
        0
176
     0
 90
        0
176
     0
290
     0
176
     0
 90
        1
176
     0
 40
0.0
176
     0
 90
        0
176
     0
290
     0
176
     0
290
     1
176
     0
290
     1
176
     0
290
     0
176
     0
290
     0
176
     0
290
     0
176
     0
290
     0
176
     0
290
     0
176
     0
290
     0
176
     0
 90
       50
176
     0
 40
0.0
176
     0
 40
1.0
176
     0
 90
        0
176
     0
 62
    18
420
        0
176
     0
 90
       50
176
     0
 90
        3
176
     0
 62
     5
420
      255
176
     0
290
     0
176
     0
 90
       50
176
     0
 90
       50
176
     0
 90
       50
176
     0
290
     0
176
     0
 90
       50
176
     0
 62
   256
176
     0
 40
1.0
176
     0
 90
        2
176
     0
  1
strokes_ogs.tif
176
     0
290
     0
176
     0
 40
1.0
176
     0
 40
1.0
176
     0
  0
VISUALSTYLE
  5
100000C
102
{ACAD_REACTORS
330
1000003
102
}
330
1000003
100
AcDbVisualStyle
  2
Realistic
 70
     8
177
     3
291
     0
 70
    58
 90
        2
176
     1
 90
        3
176
     1
 90
        0
176
     1
 90
        2
176
     1
 40
0.6
176
     1
 40
30.0
176
     1
 62
     7
420
 16777215
176
     1
 90
        0
176
     1
 90
        0
176
     1
 62
     7
176
     1
 62
   257
176
     1
 90
        1
176
     1
 90
        1
176
     1
 40
1.0
176
     1
 90
        8
176
     1
 62
   257
176
     1
 40
1.0
176
     1
 90
        1
176
     1
 90
        6
176
     1
 90
        2
176
     1
 62
     7
176
     1
 90
        3
176
     1
 90
        0
176
     1
 90
        0
176
     1
290
     0
176
     1
 90
       13
176
     1
 40
0.0
176
     1
 90
        0
176
     1
290
     0
176
     1
290
     1
176
     1
290
     1
176
     1
290
     0
176
     1
290
     0
176
     1
290
     0
176
     1
290
     0
176
     1
290
     0
176
     1
290
     0
176
     1
 90
       50
176
     1
 40
0.0
176
     1
 40
1.0
176
     1
 90
        0
176
     1
 62
    18
420
        0
176
     1
 90
       50
176
     1
 90
        3
176
     1
 62
     5
420
      255
176
     1
290
     0
176
     1
 90
       50
176
     1
 90
       50
176
     1
 90
       50
176
     1
290
     0
176
     1
 90
       50
176
     1
 62
   256
176
     0
 40
1.0
176
     0
 90
        2
176
     1
  1
strokes_ogs.tif
176
     1
290
     0
176
     1
 40
1.0
176
     1
 40
1.0
176
     1
  0
VISUALSTYLE
  5
100001B
102
{ACAD_REACTORS
330
1000003
102
}
330
1000003
100
AcDbVisualStyle
  2
Shaded
 70
    27
177
     3
291
     0
 70
    58
 90
        2
176
     1
 90
        2
176
     1
 90
        1
176
     1
 90
        2
176
     1
 40
0.6
176
     1
 40
30.0
176
     1
 62
     7
420
 16777215
176
     1
 90
        0
176
     1
 90
        4
176
     1
 62
     7
176
     1
 62
   257
176
     1
 90
        1
176
     1
 90
        1
176
     1
 40
1.0
176
     1
 90
        8
176
     1
 62
   257
176
     1
 40
1.0
176
     1
 90
        1
176
     1
 90
        6
176
     1
 90
        2
176
     1
 62
     8
420
  7895160
176
     1
 90
        3
176
     1
 90
        0
176
     1
 90
        0
176
     1
290
     0
176
     1
 90
        5
176
     1
 40
0.0
176
     1
 90
        0
176
     1
290
     0
176
     1
290
     1
176
     1
290
     1
176
     1
290
     0
176
     1
290
     0
176
     1
290
     0
176
     1
290
     0
176
     1
290
     0
176
     1
290
     0
176
     1
 90
       50
176
     1
 40
0.0
176
     1
 40
1.0
176
     1
 90
        0
176
     1
 62
    18
420
        0
176
     1
 90
       50
176
     1
 90
        3
176
     1
 62
     5
420
      255
176
     1
290
     0
176
     1
 90
       50
176
     1
 90
       50
176
     1
 90
       50
176
     1
290
     0
176
     1
 90
       50
176
     1
 62
   256
176
     0
 40
1.0
176
     0
 90
        2
176
     1
  1
strokes_ogs.tif
176
     1
290
     0
176
     1
 40
1.0
176
     1
 40
1.0
176
     1
  0
VISUALSTYLE
  5
100001A
102
{ACAD_REACTORS
330
1000003
102
}
330
1000003
100
AcDbVisualStyle
  2
Shaded with edges
 70
    26
177
     3
291
     0
 70
    58
 90
        2
176
     1
 90
        2
176
     1
 90
        1
176
     1
 90
        2
176
     1
 40
0.6
176
     1
 40
30.0
176
     1
 62
     7
420
 16777215
176
     1
 90
        1
176
     1
 90
       10
176
     1
 62
     7
176
     1
 62
   257
176
     1
 90
        2
176
     1
 90
        1
176
     1
 40
1.0
176
     1
 90
        8
176
     1
 62
   257
176
     1
 40
1.0
176
     1
 90
        1
176
     1
 90
        6
176
     1
 90
        2
176
     1
 62
     7
176
     1
 90
        3
176
     1
 90
        0
176
     1
 90
        0
176
     1
290
     0
176
     1
 90
        5
176
     1
 40
0.0
176
     1
 90
        0
176
     1
290
     0
176
     1
290
     1
176
     1
290
     1
176
     1
290
     0
176
     1
290
     0
176
     1
290
     0
176
     1
290
     0
176
     1
290
     0
176
     1
290
     0
176
     1
 90
       50
176
     1
 40
0.0
176
     1
 40
1.0
176
     1
 90
        0
176
     1
 62
    18
420
        0
176
     1
 90
       50
176
     1
 90
        3
176
     1
 62
     5
420
      255
176
     1
290
     0
176
     1
 90
       50
176
     1
 90
       50
176
     1
 90
       50
176
     1
290
     0
176
     1
 90
       50
176
     1
 62
   256
176
     0
 40
1.0
176
     0
 90
        2
176
     1
  1
strokes_ogs.tif
176
     1
290
     0
176
     1
 40
1.0
176
     1
 40
1.0
176
     1
  0
VISUALSTYLE
  5
1000017
102
{ACAD_REACTORS
330
1000003
102
}
330
1000003
100
AcDbVisualStyle
  2
Shades of Gray
 70
    23
177
     3
291
     0
 70
    58
 90
        2
176
     1
 90
        2
176
     1
 90
        3
176
     1
 90
        0
176
     1
 40
0.6
176
     1
 40
30.0
176
     1
 62
     7
420
 16777215
176
     1
 90
        2
176
     1
 90
        2
176
     1
 62
     7
176
     1
 62
     7
176
     1
 90
        1
176
     1
 90
        1
176
     1
 40
40.0
176
     1
 90
        8
176
     1
 62
     7
176
     1
 40
1.0
176
     1
 90
        1
176
     1
 90
        6
176
     1
 90
        2
176
     1
 62
     7
176
     1
 90
        3
176
     1
 90
        0
176
     1
 90
        0
176
     1
290
     0
176
     1
 90
        1
176
     1
 40
0.0
176
     1
 90
        0
176
     1
290
     0
176
     1
290
     1
176
     1
290
     1
176
     1
290
     0
176
     1
290
     0
176
     1
290
     0
176
     1
290
     0
176
     1
290
     0
176
     1
290
     0
176
     1
 90
       50
176
     1
 40
0.0
176
     1
 40
1.0
176
     1
 90
        0
176
     1
 62
    18
420
        0
176
     1
 90
       50
176
     1
 90
        3
176
     1
 62
     5
420
      255
176
     1
290
     0
176
     1
 90
       50
176
     1
 90
       50
176
     1
 90
       50
176
     1
290
     0
176
     1
 90
       50
176
     1
 62
   256
176
     0
 40
1.0
176
     0
 90
        2
176
     1
  1
strokes_ogs.tif
176
     1
290
     0
176
     1
 40
1.0
176
     1
 40
1.0
176
     1
  0
VISUALSTYLE
  5
1000018
102
{ACAD_REACTORS
330
1000003
102
}
330
1000003
100
AcDbVisualStyle
  2
Sketchy
 70
    24
177
     3
291
     0
 70
    58
 90
        1
176
     1
 90
        2
176
     1
 90
        2
176
     1
 90
        0
176
     1
 40
0.6
176
     1
 40
30.0
176
     1
 62
     7
420
 16777215
176
     1
 90
        2
176
     1
 90
        2
176
     1
 62
     7
176
     1
 62
     7
176
     1
 90
        1
176
     1
 90
        1
176
     1
 40
40.0
176
     1
 90
       11
176
     1
 62
     7
176
     1
 40
1.0
176
     1
 90
        1
176
     1
 90
        6
176
     1
 90
        2
176
     1
 62
     7
176
     1
 90
        6
176
     1
 90
        0
176
     1
 90
        0
176
     1
290
     0
176
     1
 90
        1
176
     1
 40
0.0
176
     1
 90
        0
176
     1
290
     0
176
     1
290
     1
176
     1
290
     1
176
     1
290
     0
176
     1
290
     0
176
     1
290
     0
176
     1
290
     0
176
     1
290
     0
176
     1
290
     0
176
     1
 90
       50
176
     1
 40
0.0
176
     1
 40
1.0
176
     1
 90
        0
176
     1
 62
    18
420
        0
176
     1
 90
       50
176
     1
 90
        3
176
     1
 62
     5
420
      255
176
     1
290
     0
176
     1
 90
       50
176
     1
 90
       50
176
     1
 90
       50
176
     1
290
     0
176
     1
 90
       50
176
     1
 62
   256
176
     0
 40
1.0
176
     0
 90
        2
176
     1
  1
strokes_ogs.tif
176
     1
290
     0
176
     1
 40
1.0
176
     1
 40
1.0
176
     1
  0
VISUALSTYLE
  5
1000010
102
{ACAD_REACTORS
330
1000003
102
}
330
1000003
100
AcDbVisualStyle
  2
Thicken
 70
    13
177
     3
291
     1
 70
    58
 90
        2
176
     1
 90
        2
176
     1
 90
        0
176
     1
 90
        0
176
     1
 40
0.6
176
     1
 40
30.0
176
     1
 62
     7
420
 16777215
176
     1
 90
        1
176
     1
 90
        4
176
     1
 62
     7
176
     1
 62
   257
176
     1
 90
        1
176
     1
 90
        1
176
     1
 40
1.0
176
     1
 90
       12
176
     1
 62
     7
176
     1
 40
1.0
176
     1
 90
        1
176
     1
 90
        6
176
     1
 90
        2
176
     1
 62
     7
176
     1
 90
        5
176
     1
 90
        0
176
     1
 90
        0
176
     1
290
     0
176
     1
 90
        1
176
     1
 40
0.0
176
     1
 90
        0
176
     1
290
     0
176
     1
290
     1
176
     1
290
     1
176
     1
290
     0
176
     1
290
     0
176
     1
290
     0
176
     1
290
     0
176
     1
290
     0
176
     1
290
     0
176
     1
 90
       50
176
     1
 40
0.0
176
     1
 40
1.0
176
     1
 90
        0
176
     1
 62
    18
420
        0
176
     1
 90
       50
176
     1
 90
        3
176
     1
 62
     5
420
      255
176
     1
290
     0
176
     1
 90
       50
176
     1
 90
       50
176
     1
 90
       50
176
     1
290
     0
176
     1
 90
       50
176
     1
 62
   256
176
     0
 40
1.0
176
     0
 90
        2
176
     1
  1
strokes_ogs.tif
176
     1
290
     0
176
     1
 40
1.0
176
     1
 40
1.0
176
     1
  0
VISUALSTYLE
  5
1000009
102
{ACAD_REACTORS
330
1000003
102
}
330
1000003
100
AcDbVisualStyle
  2
Wireframe
 70
     5
177
     3
291
     0
 70
    58
 90
        0
176
     1
 90
        2
176
     1
 90
        0
176
     1
 90
        0
176
     1
 40
0.6
176
     1
 40
30.0
176
     1
 62
     7
420
 16777215
176
     1
 90
        1
176
     1
 90
        4
176
     1
 62
     7
176
     1
 62
   257
176
     1
 90
        1
176
     1
 90
        1
176
     1
 40
1.0
176
     1
 90
        0
176
     1
 62
   257
176
     1
 40
1.0
176
     1
 90
        1
176
     1
 90
        6
176
     1
 90
        2
176
     1
 62
     7
176
     1
 90
        3
176
     1
 90
        0
176
     1
 90
        0
176
     1
290
     0
176
     1
 90
        1
176
     1
 40
0.0
176
     1
 90
        0
176
     1
290
     0
176
     1
290
     1
176
     1
290
     1
176
     1
290
     0
176
     1
290
     0
176
     1
290
     0
176
     1
290
     0
176
     1
290
     0
176
     1
290
     0
176
     1
 90
       50
176
     1
 40
0.0
176
     1
 40
1.0
176
     1
 90
        0
176
     1
 62
    18
420
        0
176
     1
 90
       50
176
     1
 90
        3
176
     1
 62
     5
420
      255
176
     1
290
     0
176
     1
 90
       50
176
     1
 90
       50
176
     1
 90
       50
176
     1
290
     0
176
     1
 90
       50
176
     1
 62
   256
176
     0
 40
1.0
176
     0
 90
        2
176
     1
  1
strokes_ogs.tif
176
     1
290
     0
176
     1
 40
1.0
176
     1
 40
1.0
176
     1
  0
VISUALSTYLE
  5
1000019
102
{ACAD_REACTORS
330
1000003
102
}
330
1000003
100
AcDbVisualStyle
  2
X-Ray
 70
    25
177
     3
291
     0
 70
    58
 90
        2
176
     1
 90
        2
176
     1
 90
        1
176
     1
 90
        1
176
     1
 40
0.5
176
     1
 40
30.0
176
     1
 62
     7
420
 16777215
176
     1
 90
        1
176
     1
 90
        0
176
     1
 62
     7
176
     1
 62
   257
176
     1
 90
        1
176
     1
 90
        1
176
     1
 40
1.0
176
     1
 90
        8
176
     1
 62
     7
176
     1
 40
1.0
176
     1
 90
        1
176
     1
 90
        6
176
     1
 90
        2
176
     1
 62
     7
176
     1
 90
        3
176
     1
 90
        0
176
     1
 90
        0
176
     1
290
     0
176
     1
 90
       13
176
     1
 40
0.0
176
     1
 90
        0
176
     1
290
     0
176
     1
290
     1
176
     1
290
     1
176
     1
290
     0
176
     1
290
     0
176
     1
290
     0
176
     1
290
     0
176
     1
290
     0
176
     1
290
     0
176
     1
 90
       50
176
     1
 40
0.0
176
     1
 40
1.0
176
     1
 90
        0
176
     1
 62
    18
420
        0
176
     1
 90
       50
176
     1
 90
        3
176
     1
 62
     5
420
      255
176
     1
290
     0
176
     1
 90
       50
176
     1
 90
       50
176
     1
 90
       50
176
     1
290
     0
176
     1
 90
       50
176
     1
 62
   256
176
     0
 40
1.0
176
     0
 90
        2
176
     1
  1
strokes_ogs.tif
176
     1
290
     0
176
     1
 40
1.0
176
     1
 40
1.0
176
     1
  0
DICTIONARYVAR
  5
10001B3
102
{ACAD_REACTORS
330
10001AF
102
}
330
10001AF
100
DictionaryVariables
280
     0
  1
1:1
  0
DICTIONARYVAR
  5
10001B1
102
{ACAD_REACTORS
330
10001AF
102
}
330
10001AF
100
DictionaryVariables
280
     0
  1
Standard
  0
DICTIONARYVAR
  5
10001B0
102
{ACAD_REACTORS
330
10001AF
102
}
330
10001AF
100
DictionaryVariables
280
     0
  1
Standard
  0
DICTIONARYVAR
  5
10001B2
102
{ACAD_REACTORS
330
10001AF
102
}
330
10001AF
100
DictionaryVariables
280
     0
  1
0
  0
ENDSEC
  0
SECTION
  2
ACDSDATA
 70
     2
 71
     2
  0
ACDSSCHEMA
 90
        0
  1
AcDb3DSolid_ASM_Data
  2
AcDbDs::ID
280
    10
 91
        0
  2
ASM_Data
280
    15
 91
        0
101
ACDSRECORD
 95
        0
 90
        1
  2
AcDbDs::TreatedAsObjectData
280
     1
291
     1
101
ACDSRECORD
 95
        0
 90
        2
  2
AcDbDs::Legacy
280
     1
291
     1
101
ACDSRECORD
  1
AcDbDs::ID
 90
        3
  2
AcDs:Indexable
280
     1
291
     1
101
ACDSRECORD
  1
AcDbDs::ID
 90
        4
  2
AcDbDs::HandleAttribute
280
     7
282
     1
  0
ACDSSCHEMA
 90
        1
  1
AcDbDs::TreatedAsObjectDataSchema
  2
AcDbDs::TreatedAsObjectData
280
     1
 91
        0
  0
ACDSSCHEMA
 90
        2
  1
AcDbDs::LegacySchema
  2
AcDbDs::Legacy
280
     1
 91
        0
  0
ACDSSCHEMA
 90
        3
  1
AcDbDs::IndexedPropertySchema
  2
AcDs:Indexable
280
     1
 91
        0
  0
ACDSSCHEMA
 90
        4
  1
AcDbDs::HandleAttributeSchema
  2
AcDbDs::HandleAttribute
280
     7
 91
        8
  0
ENDSEC
  0
EOF
