  0
SECTION
  2
HEADER
  9
$ACADVER
  1
AC1018
  9
$ACADMAINTVER
 70
   104
  9
$DWGCODEPAGE
  3
ANSI_1250
  9
$LASTSAVEDBY
  1
Dell
  9
$INSBASE
 10
0.0
 20
0.0
 30
0.0
  9
$EXTMIN
 10
7578167.469999999
 20
5727470.55
 30
0.0
  9
$EXTMAX
 10
7580387.96
 20
5729348.58
 30
0.35
  9
$LIMMIN
 10
7578167.469999999
 20
5727470.55
  9
$LIMMAX
 10
7580387.96
 20
5729348.58
  9
$ORTHOMODE
 70
     0
  9
$REGENMODE
 70
     1
  9
$FILLMODE
 70
     1
  9
$QTEXTMODE
 70
     0
  9
$MIRRTEXT
 70
     0
  9
$LTSCALE
 40
1.0
  9
$ATTMODE
 70
     1
  9
$TEXTSIZE
 40
0.2
  9
$TRACEWID
 40
0.05
  9
$TEXTSTYLE
  7
STANDARD
  9
$CLAYER
  8
0
  9
$CELTYPE
  6
CONTINUOUS
  9
$CECOLOR
 62
   256
  9
$CELTSCALE
 40
1.0
  9
$DISPSILH
 70
     0
  9
$DIMSCALE
 40
1.0
  9
$DIMASZ
 40
2.5
  9
$DIMEXO
 40
0.625
  9
$DIMDLI
 40
0.38
  9
$DIMRND
 40
0.0
  9
$DIMDLE
 40
0.0
  9
$DIMEXE
 40
1.25
  9
$DIMTP
 40
0.0
  9
$DIMTM
 40
0.0
  9
$DIMTXT
 40
2.5
  9
$DIMCEN
 40
0.09
  9
$DIMTSZ
 40
0.0
  9
$DIMTOL
 70
     0
  9
$DIMLIM
 70
     0
  9
$DIMTIH
 70
     1
  9
$DIMTOH
 70
     1
  9
$DIMSE1
 70
     0
  9
$DIMSE2
 70
     0
  9
$DIMTAD
 70
     0
  9
$DIMZIN
 70
     0
  9
$DIMBLK
  1

  9
$DIMASO
 70
     1
  9
$DIMSHO
 70
     1
  9
$DIMPOST
  1

  9
$DIMAPOST
  1

  9
$DIMALT
 70
     0
  9
$DIMALTD
 70
     2
  9
$DIMALTF
 40
25.4
  9
$DIMLFAC
 40
1.0
  9
$DIMTOFL
 70
     0
  9
$DIMTVP
 40
0.0
  9
$DIMTIX
 70
     0
  9
$DIMSOXD
 70
     0
  9
$DIMSAH
 70
     0
  9
$DIMBLK1
  1

  9
$DIMBLK2
  1

  9
$DIMSTYLE
  2
Standard
  9
$DIMCLRD
 70
     0
  9
$DIMCLRE
 70
     0
  9
$DIMCLRT
 70
     0
  9
$DIMTFAC
 40
1.0
  9
$DIMGAP
 40
0.625
  9
$DIMJUST
 70
     0
  9
$DIMSD1
 70
     0
  9
$DIMSD2
 70
     0
  9
$DIMTOLJ
 70
     1
  9
$DIMTZIN
 70
     0
  9
$DIMALTZ
 70
     0
  9
$DIMALTTZ
 70
     0
  9
$DIMUPT
 70
     0
  9
$DIMDEC
 70
     4
  9
$DIMTDEC
 70
     4
  9
$DIMALTU
 70
     2
  9
$DIMALTTD
 70
     2
  9
$DIMTXSTY
  7
STANDARD
  9
$DIMAUNIT
 70
     0
  9
$DIMADEC
 70
     0
  9
$DIMALTRND
 40
0.0
  9
$DIMAZIN
 70
     0
  9
$DIMDSEP
 70
    46
  9
$DIMATFIT
 70
     3
  9
$DIMFRAC
 70
     0
  9
$DIMLDRBLK
  1

  9
$DIMLUNIT
 70
     2
  9
$DIMLWD
 70
    -2
  9
$DIMLWE
 70
    -2
  9
$DIMTMOVE
 70
     0
  9
$LUNITS
 70
     2
  9
$LUPREC
 70
     4
  9
$SKETCHINC
 40
0.1
  9
$FILLETRAD
 40
0.0
  9
$AUNITS
 70
     0
  9
$AUPREC
 70
     0
  9
$MENU
  1
.
  9
$ELEVATION
 40
0.0
  9
$PELEVATION
 40
0.0
  9
$THICKNESS
 40
0.0
  9
$LIMCHECK
 70
     0
  9
$CHAMFERA
 40
0.0
  9
$CHAMFERB
 40
0.0
  9
$CHAMFERC
 40
0.0
  9
$CHAMFERD
 40
0.0
  9
$SKPOLY
 70
     0
  9
$TDCREATE
 40
2305824.257747500
  9
$TDUCREATE
 40
45201.2671903935
  9
$TDUPDATE
 40
2460220.351087639
  9
$TDUUPDATE
 40
2460220.267754305
  9
$TDINDWG
 40
0.0002940278
  9
$TDUSRTIMER
 40
0.0002938657
  9
$USRTIMER
 70
     1
  9
$ANGBASE
 50
0.0
  9
$ANGDIR
 70
     0
  9
$PDMODE
 70
     0
  9
$PDSIZE
 40
0.0
  9
$PLINEWID
 40
0.0
  9
$SPLFRAME
 70
     0
  9
$SPLINETYPE
 70
     6
  9
$SPLINESEGS
 70
     8
  9
$HANDSEED
  5
1000276
  9
$SURFTAB1
 70
     6
  9
$SURFTAB2
 70
     6
  9
$SURFTYPE
 70
     6
  9
$SURFU
 70
     6
  9
$SURFV
 70
     6
  9
$UCSBASE
  2

  9
$UCSNAME
  2

  9
$UCSORG
 10
0.0
 20
0.0
 30
0.0
  9
$UCSXDIR
 10
1.0
 20
0.0
 30
0.0
  9
$UCSYDIR
 10
0.0
 20
1.0
 30
0.0
  9
$UCSORTHOREF
  2

  9
$UCSORTHOVIEW
 70
     0
  9
$UCSORGTOP
 10
0.0
 20
0.0
 30
0.0
  9
$UCSORGBOTTOM
 10
0.0
 20
0.0
 30
0.0
  9
$UCSORGLEFT
 10
0.0
 20
0.0
 30
0.0
  9
$UCSORGRIGHT
 10
0.0
 20
0.0
 30
0.0
  9
$UCSORGFRONT
 10
0.0
 20
0.0
 30
0.0
  9
$UCSORGBACK
 10
0.0
 20
0.0
 30
0.0
  9
$PUCSBASE
  2

  9
$PUCSNAME
  2

  9
$PUCSORG
 10
0.0
 20
0.0
 30
0.0
  9
$PUCSXDIR
 10
1.0
 20
0.0
 30
0.0
  9
$PUCSYDIR
 10
0.0
 20
1.0
 30
0.0
  9
$PUCSORTHOREF
  2

  9
$PUCSORTHOVIEW
 70
     0
  9
$PUCSORGTOP
 10
0.0
 20
0.0
 30
0.0
  9
$PUCSORGBOTTOM
 10
0.0
 20
0.0
 30
0.0
  9
$PUCSORGLEFT
 10
0.0
 20
0.0
 30
0.0
  9
$PUCSORGRIGHT
 10
0.0
 20
0.0
 30
0.0
  9
$PUCSORGFRONT
 10
0.0
 20
0.0
 30
0.0
  9
$PUCSORGBACK
 10
0.0
 20
0.0
 30
0.0
  9
$USERI1
 70
     0
  9
$USERI2
 70
     0
  9
$USERI3
 70
     0
  9
$USERI4
 70
     0
  9
$USERI5
 70
     0
  9
$USERR1
 40
0.0
  9
$USERR2
 40
0.0
  9
$USERR3
 40
0.0
  9
$USERR4
 40
0.0
  9
$USERR5
 40
0.0
  9
$WORLDVIEW
 70
     1
  9
$SHADEDGE
 70
     3
  9
$SHADEDIF
 70
    70
  9
$TILEMODE
 70
     1
  9
$MAXACTVP
 70
    64
  9
$PINSBASE
 10
0.0
 20
0.0
 30
0.0
  9
$PLIMCHECK
 70
     0
  9
$PEXTMIN
 10
1.000000000000000E+20
 20
1.000000000000000E+20
 30
1.000000000000000E+20
  9
$PEXTMAX
 10
-1.000000000000000E+20
 20
-1.000000000000000E+20
 30
-1.000000000000000E+20
  9
$PLIMMIN
 10
0.0
 20
0.0
  9
$PLIMMAX
 10
210.0
 20
297.0
  9
$UNITMODE
 70
     0
  9
$VISRETAIN
 70
     1
  9
$PLINEGEN
 70
     0
  9
$PSLTSCALE
 70
     1
  9
$TREEDEPTH
 70
  3020
  9
$CMLSTYLE
  2
Standard
  9
$CMLJUST
 70
     0
  9
$CMLSCALE
 40
1.0
  9
$PROXYGRAPHICS
 70
     1
  9
$MEASUREMENT
 70
     0
  9
$CELWEIGHT
370
    -1
  9
$ENDCAPS
280
     0
  9
$JOINSTYLE
280
     0
  9
$LWDISPLAY
290
     1
  9
$INSUNITS
 70
     6
  9
$HYPERLINKBASE
  1

  9
$STYLESHEET
  1

  9
$XEDIT
290
     1
  9
$CEPSNTYPE
380
     0
  9
$PSTYLEMODE
290
     1
  9
$FINGERPRINTGUID
  2
{22E89BFA-8012-439A-9A62-45DE97E2CD53}
  9
$VERSIONGUID
  2
{09089106-454C-4A0B-8DD3-9BA81AC43B29}
  9
$EXTNAMES
290
     1
  9
$PSVPSCALE
 40
0.0
  9
$OLESTARTUP
290
     0
  9
$SORTENTS
280
   127
  9
$INDEXCTL
280
     0
  9
$HIDETEXT
280
     1
  9
$XCLIPFRAME
290
     0
  9
$HALOGAP
280
     0
  9
$OBSCOLOR
 70
   257
  9
$OBSLTYPE
280
     0
  9
$INTERSECTIONDISPLAY
280
     0
  9
$INTERSECTIONCOLOR
 70
   257
  9
$DIMASSOC
280
     2
  9
$PROJECTNAME
  1

  0
ENDSEC
  0
SECTION
  2
CLASSES
  0
CLASS
  1
ACDBDICTIONARYWDFLT
  2
AcDbDictionaryWithDefault
  3
ObjectDBX Classes
 90
        0
 91
        1
280
     0
281
     0
  0
CLASS
  1
MATERIAL
  2
AcDbMaterial
  3
ObjectDBX Classes
 90
     1153
 91
        3
280
     0
281
     0
  0
CLASS
  1
VISUALSTYLE
  2
AcDbVisualStyle
  3
ObjectDBX Classes
 90
     4095
 91
       24
280
     0
281
     0
  0
CLASS
  1
TABLESTYLE
  2
AcDbTableStyle
  3
ObjectDBX Classes
 90
     4095
 91
        1
280
     0
281
     0
  0
CLASS
  1
SCALE
  2
AcDbScale
  3
ObjectDBX Classes
 90
     1153
 91
       17
280
     0
281
     0
  0
CLASS
  1
MLEADERSTYLE
  2
AcDbMLeaderStyle
  3
ACDB_MLEADERSTYLE_CLASS
 90
     4095
 91
        1
280
     0
281
     0
  0
CLASS
  1
ACDBSECTIONVIEWSTYLE
  2
AcDbSectionViewStyle
  3
ObjectDBX Classes
 90
     1025
 91
        1
280
     0
281
     0
  0
CLASS
  1
ACDBDETAILVIEWSTYLE
  2
AcDbDetailViewStyle
  3
ObjectDBX Classes
 90
     1025
 91
        1
280
     0
281
     0
  0
CLASS
  1
SORTENTSTABLE
  2
AcDbSortentsTable
  3
ObjectDBX Classes
 90
        0
 91
        1
280
     0
281
     0
  0
CLASS
  1
DICTIONARYVAR
  2
AcDbDictionaryVar
  3
ObjectDBX Classes
 90
        0
 91
        6
280
     0
281
     0
  0
CLASS
  1
CELLSTYLEMAP
  2
AcDbCellStyleMap
  3
ObjectDBX Classes
 90
     1152
 91
        1
280
     0
281
     0
  0
ENDSEC
  0
SECTION
  2
TABLES
  0
TABLE
  2
VPORT
  5
1
330
0
100
AcDbSymbolTable
 70
     1
  0
VPORT
  5
2
330
1
100
AcDbSymbolTableRecord
100
AcDbViewportTableRecord
  2
*ACTIVE
 70
     0
 10
0.0
 20
0.0
 11
1.0
 21
1.0
 12
7579893.712936275
 22
5728127.619544006
 13
0.0
 23
0.0
 14
1.0
 24
1.0
 15
0.0
 25
0.0
 16
0.0
 26
0.0
 36
1.0
 17
0.0
 27
0.0
 37
0.0
 40
3210.858549622819
 41
2.088555858310626
 42
50.0
 43
0.0
 44
0.0
 50
0.0
 51
0.0
 71
     0
 72
   100
 73
     1
 74
     1
 75
     0
 76
     0
 77
     0
 78
     0
281
     0
 65
     1
110
0.0
120
0.0
130
0.0
111
1.0
121
0.0
131
0.0
112
0.0
122
1.0
132
0.0
 79
     0
146
0.0
1001
ACAD_NAV_VCDISPLAY
1070
     3
  0
ENDTAB
  0
TABLE
  2
LTYPE
  5
3
330
0
100
AcDbSymbolTable
 70
     7
  0
LTYPE
  5
4
330
3
100
AcDbSymbolTableRecord
100
AcDbLinetypeTableRecord
  2
ByBlock
 70
     0
  3

 72
    65
 73
     0
 40
0.0
  0
LTYPE
  5
5
330
3
100
AcDbSymbolTableRecord
100
AcDbLinetypeTableRecord
  2
ByLayer
 70
     0
  3

 72
    65
 73
     0
 40
0.0
  0
LTYPE
  5
6
330
3
100
AcDbSymbolTableRecord
100
AcDbLinetypeTableRecord
  2
CONTINUOUS
 70
     0
  3
Solid line
 72
    65
 73
     0
 40
0.0
  0
LTYPE
  5
7
330
3
100
AcDbSymbolTableRecord
100
AcDbLinetypeTableRecord
  2
L_0_03
 70
     0
  3
Uzytek_gruntowy
 72
    65
 73
     2
 40
1.0
 49
0.5
 74
     0
 49
-0.5
 74
     0
  0
LTYPE
  5
8
330
3
100
AcDbSymbolTableRecord
100
AcDbLinetypeTableRecord
  2
L_0_04
 70
     0
  3
Budynek_projektowany
 72
    65
 73
     2
 40
1.5
 49
1.0
 74
     0
 49
-0.5
 74
     0
  0
LTYPE
  5
9
330
3
100
AcDbSymbolTableRecord
100
AcDbLinetypeTableRecord
  2
L_0_06
 70
     0
  3
Granica_konturu_klasyfikacyjnego_Krawedz_chodnika
 72
    65
 73
     2
 40
2.0
 49
1.5
 74
     0
 49
-0.5
 74
     0
  0
LTYPE
  5
B
330
3
100
AcDbSymbolTableRecord
100
AcDbLinetypeTableRecord
  2
L_0_E3_00
 70
     0
  3
Budynek_w_budowie_dla_MZ2015_1_500___1_1000
 72
    65
 73
     3
 40
1.5
 49
0.0
 74
     0
 49
1.0
 74
     0
 49
-0.5
 74
     0
  0
LTYPE
  5
C
330
3
100
AcDbSymbolTableRecord
100
AcDbLinetypeTableRecord
  2
L_0_E3
 70
     0
  3
Budynek_w_budowie_dla_MZ2015_1_500___1_1000 (MLineStyle)
 72
    65
 73
     0
 40
0.0
  0
LTYPE
  5
100004C
330
3
100
AcDbSymbolTableRecord
100
AcDbLinetypeTableRecord
  2
PHANTOM2
 70
     0
  3
___ _ _ ___ _ _ ___ _ _ ___ _ _
 72
    65
 73
     6
 40
1.25
 49
0.625
 74
     0
 49
-0.125
 74
     0
 49
0.125
 74
     0
 49
-0.125
 74
     0
 49
0.125
 74
     0
 49
-0.125
 74
     0
  0
ENDTAB
  0
TABLE
  2
LAYER
  5
D
330
0
100
AcDbSymbolTable
 70
     2
  0
LAYER
  5
E
102
{ACAD_XDICTIONARY
360
1000232
102
}
330
D
100
AcDbSymbolTableRecord
100
AcDbLayerTableRecord
  2
0
 70
     0
 62
    18
420
        0
  6
CONTINUOUS
370
    18
390
F
  0
LAYER
  5
10
102
{ACAD_XDICTIONARY
360
1000234
102
}
330
D
100
AcDbSymbolTableRecord
100
AcDbLayerTableRecord
  2
EGB_DzialkaEwidencyjna
 70
     0
 62
    96
420
    32768
  6
CONTINUOUS
370
    18
390
F
  0
ENDTAB
  0
TABLE
  2
STYLE
  5
11
330
0
100
AcDbSymbolTable
 70
     2
  0
STYLE
  5
12
330
11
100
AcDbSymbolTableRecord
100
AcDbTextStyleTableRecord
  2
STANDARD
 70
     0
 40
0.0
 41
1.0
 50
0.0
 71
     0
 42
0.2
  3
simplex.shx
  4

  0
STYLE
  5
13
330
11
100
AcDbSymbolTableRecord
100
AcDbTextStyleTableRecord
  2
STANDARD_ITALIC
 70
     0
 40
0.0
 41
1.0
 50
15.0
 71
     0
 42
0.2
  3
simplex.shx
  4

  0
ENDTAB
  0
TABLE
  2
VIEW
  5
14
330
0
100
AcDbSymbolTable
 70
     0
  0
ENDTAB
  0
TABLE
  2
UCS
  5
15
330
0
100
AcDbSymbolTable
 70
     0
  0
ENDTAB
  0
TABLE
  2
APPID
  5
16
330
0
100
AcDbSymbolTable
 70
     3
  0
APPID
  5
17
330
16
100
AcDbSymbolTableRecord
100
AcDbRegAppTableRecord
  2
ACAD
 70
     0
  0
APPID
  5
100023D
330
16
100
AcDbSymbolTableRecord
100
AcDbRegAppTableRecord
  2
ACAD_NAV_VCDISPLAY
 70
     0
  0
APPID
  5
1000275
330
16
100
AcDbSymbolTableRecord
100
AcDbRegAppTableRecord
  2
ACAD_MLEADERVER
 70
     0
  0
ENDTAB
  0
TABLE
  2
DIMSTYLE
  5
18
330
0
100
AcDbSymbolTable
 70
     1
100
AcDbDimStyleTable
 71
     0
  0
DIMSTYLE
105
19
330
18
100
AcDbSymbolTableRecord
100
AcDbDimStyleTableRecord
  2
Standard
 70
     0
340
12
  0
ENDTAB
  0
TABLE
  2
BLOCK_RECORD
  5
1A
330
0
100
AcDbSymbolTable
 70
     0
  0
BLOCK_RECORD
  5
1B
102
{ACAD_XDICTIONARY
360
1000059
102
}
330
1A
100
AcDbSymbolTableRecord
100
AcDbBlockTableRecord
  2
*Model_Space
340
1C
  0
BLOCK_RECORD
  5
1D
330
1A
100
AcDbSymbolTableRecord
100
AcDbBlockTableRecord
  2
*Paper_Space
340
1E
  0
ENDTAB
  0
ENDSEC
  0
SECTION
  2
BLOCKS
  0
BLOCK
  5
1F
330
1B
100
AcDbEntity
  8
0
100
AcDbBlockBegin
  2
*Model_Space
 70
     0
 10
0.0
 20
0.0
 30
0.0
  3
*Model_Space
  1

  0
ENDBLK
  5
20
330
1B
100
AcDbEntity
  8
0
100
AcDbBlockEnd
  0
BLOCK
  5
21
330
1D
100
AcDbEntity
 67
     1
  8
0
100
AcDbBlockBegin
  2
*Paper_Space
 70
     0
 10
0.0
 20
0.0
 30
0.0
  3
*Paper_Space
  1

  0
ENDBLK
  5
22
330
1D
100
AcDbEntity
 67
     1
  8
0
100
AcDbBlockEnd
  0
ENDSEC
  0
SECTION
  2
ENTITIES
  0
TEXT
  5
21A
330
1B
100
AcDbEntity
  8
EGB_DzialkaEwidencyjna
370
    25
100
AcDbText
 39
0.25
 10
7579534.471428571
 20
5728476.245
 30
0.0
 40
1.25
  1
13-560
 41
0.6600000000000001
 72
     1
 11
7579536.75
 21
5728476.87
 31
0.0
100
AcDbText
 73
     2
  0
TEXT
  5
21B
330
1B
100
AcDbEntity
  8
EGB_DzialkaEwidencyjna
370
    25
100
AcDbText
 39
0.25
 10
7579555.358214285
 20
5728453.415
 30
0.0
 40
1.25
  1
13-561
 41
0.6600000000000001
 72
     1
 11
7579557.46
 21
5728454.04
 31
0.0
100
AcDbText
 73
     2
  0
TEXT
  5
21C
330
1B
100
AcDbEntity
  8
EGB_DzialkaEwidencyjna
370
    25
100
AcDbText
 39
0.25
 10
7578456.501071427
 20
5729275.455
 30
0.0
 40
1.25
  1
13-569
 41
0.6600000000000001
 72
     1
 11
7578458.76
 21
5729276.08
 31
0.0
100
AcDbText
 73
     2
  0
TEXT
  5
21D
330
1B
100
AcDbEntity
  8
EGB_DzialkaEwidencyjna
370
    25
100
AcDbText
 39
0.25
 10
7579513.078571428
 20
5728330.235
 30
0.0
 40
1.25
  1
8-82
 41
0.6600000000000001
 72
     1
 11
7579514.650000001
 21
5728330.86
 31
0.0
100
AcDbText
 73
     2
  0
TEXT
  5
21E
330
1B
100
AcDbEntity
  8
EGB_DzialkaEwidencyjna
370
    25
100
AcDbText
 39
0.25
 10
7579649.278571427
 20
5728533.585
 30
0.0
 40
1.25
  1
8-87
 41
0.6600000000000001
 72
     1
 11
7579650.849999999
 21
5728534.21
 31
0.0
100
AcDbText
 73
     2
  0
TEXT
  5
21F
330
1B
100
AcDbEntity
  8
EGB_DzialkaEwidencyjna
370
    25
100
AcDbText
 39
0.25
 10
7579638.818214286
 20
5728545.405000001
 30
0.0
 40
1.25
  1
8-86
 41
0.6600000000000001
 72
     1
 11
7579640.37
 21
5728546.03
 31
0.0
100
AcDbText
 73
     2
  0
TEXT
  5
220
330
1B
100
AcDbEntity
  8
EGB_DzialkaEwidencyjna
370
    25
100
AcDbText
 39
0.25
 10
7579416.415357144
 20
5728037.775
 30
0.0
 40
1.25
  1
8-246
 41
0.6600000000000001
 72
     1
 11
7579418.36
 21
5728038.4
 31
0.0
100
AcDbText
 73
     2
  0
TEXT
  5
221
330
1B
100
AcDbEntity
  8
EGB_DzialkaEwidencyjna
370
    25
100
AcDbText
 39
0.25
 10
7580175.705714285
 20
5728183.635
 30
0.0
 40
1.25
  1
8-338
 41
0.6600000000000001
 72
     1
 11
7580177.67
 21
5728184.26
 31
0.0
100
AcDbText
 73
     2
  0
TEXT
  5
222
330
1B
100
AcDbEntity
  8
EGB_DzialkaEwidencyjna
370
    25
100
AcDbText
 39
0.25
 10
7579511.87892857
 20
5728355.655
 30
0.0
 40
1.25
  1
8-84
 41
0.6600000000000001
 72
     1
 11
7579513.469999999
 21
5728356.28
 31
0.0
100
AcDbText
 73
     2
  0
TEXT
  5
223
330
1B
100
AcDbEntity
  8
EGB_DzialkaEwidencyjna
370
    25
100
AcDbText
 39
0.25
 10
7579626.638571428
 20
5728555.405
 30
0.0
 40
1.25
  1
8-85
 41
0.6600000000000001
 72
     1
 11
7579628.21
 21
5728556.03
 31
0.0
100
AcDbText
 73
     2
  0
TEXT
  5
224
330
1B
100
AcDbEntity
  8
EGB_DzialkaEwidencyjna
370
    25
100
AcDbText
 39
0.25
 10
7579502.008571428
 20
5728371.625
 30
0.0
 40
1.25
  1
8-83
 41
0.6600000000000001
 72
     1
 11
7579503.58
 21
5728372.249999999
 31
0.0
100
AcDbText
 73
     2
  0
TEXT
  5
225
330
1B
100
AcDbEntity
  8
EGB_DzialkaEwidencyjna
370
    25
100
AcDbText
 39
0.25
 10
7579459.495357142
 20
5728338.585
 30
0.0
 40
1.25
  1
8-81
 41
0.6600000000000001
 72
     1
 11
7579460.889999999
 21
5728339.21
 31
0.0
100
AcDbText
 73
     2
  0
TEXT
  5
226
330
1B
100
AcDbEntity
  8
EGB_DzialkaEwidencyjna
370
    35
100
AcDbText
 39
0.35
 10
7579574.675436908
 20
5728375.013494764
 30
0.0
 40
1.75
  1
-174.33-
 50
-297.0
 41
0.6600000000000001
 72
     1
 11
7579577.067901524
 21
5728378.424068884
 31
0.0
100
AcDbText
 73
     1
  0
TEXT
  5
227
330
1B
100
AcDbEntity
  8
EGB_DzialkaEwidencyjna
370
    35
100
AcDbText
 39
0.35
 10
7579620.620763356
 20
5728468.486939741
 30
0.0
 40
1.75
  1
-33.35-
 50
-290.0
 41
0.6600000000000001
 72
     1
 11
7579622.429261612
 21
5728471.750195299
 31
0.0
100
AcDbText
 73
     1
  0
TEXT
  5
228
330
1B
100
AcDbEntity
  8
EGB_DzialkaEwidencyjna
370
    35
100
AcDbText
 39
0.35
 10
7579633.56726366
 20
5728524.402411964
 30
0.0
 40
1.75
  1
-81.61-
 50
-279.0
 41
0.6600000000000001
 72
     1
 11
7579634.685460612
 21
5728527.733498625
 31
0.0
100
AcDbText
 73
     1
  0
TEXT
  5
229
330
1B
100
AcDbEntity
  8
EGB_DzialkaEwidencyjna
370
    35
100
AcDbText
 39
0.35
 10
7579629.331169186
 20
5728569.63677192
 30
0.0
 40
1.75
  1
-16.33-
 50
-6.0
 41
0.6600000000000001
 72
     1
 11
7579632.825610025
 21
5728568.68294489
 31
0.0
100
AcDbText
 73
     1
  0
TEXT
  5
22A
330
1B
100
AcDbEntity
  8
EGB_DzialkaEwidencyjna
370
    35
100
AcDbText
 39
0.35
 10
7579624.275340012
 20
5728563.711585819
 30
0.0
 40
1.75
  1
-5.88-
 50
-271.0
 41
0.6600000000000001
 72
     1
 11
7579624.913297793
 21
5728566.835927772
 31
0.0
100
AcDbText
 73
     1
  0
TEXT
  5
22B
330
1B
100
AcDbEntity
  8
EGB_DzialkaEwidencyjna
370
    35
100
AcDbText
 39
0.35
 10
7579623.567660953
 20
5728522.881652833
 30
0.0
 40
1.75
  1
-74.91-
 50
-271.0
 41
0.6600000000000001
 72
     1
 11
7579624.213297795
 21
5728526.445927773
 31
0.0
100
AcDbText
 73
     1
  0
TEXT
  5
22C
330
1B
100
AcDbEntity
  8
EGB_DzialkaEwidencyjna
370
    35
100
AcDbText
 39
0.35
 10
7579616.145763354
 20
5728469.956939742
 30
0.0
 40
1.75
  1
-33.33-
 50
-290.0
 41
0.6600000000000001
 72
     1
 11
7579617.954261611
 21
5728473.220195298
 31
0.0
100
AcDbText
 73
     1
  0
TEXT
  5
22D
330
1B
100
AcDbEntity
  8
EGB_DzialkaEwidencyjna
370
    35
100
AcDbText
 39
0.35
 10
7579564.297293983
 20
5728389.92674957
 30
0.0
 40
1.75
  1
-157.50-
 50
-305.0
 41
0.6600000000000001
 72
     1
 11
7579567.141135474
 21
5728392.971165499
 31
0.0
100
AcDbText
 73
     1
  0
TEXT
  5
22E
330
1B
100
AcDbEntity
  8
EGB_DzialkaEwidencyjna
370
    35
100
AcDbText
 39
0.35
 10
7579512.865854431
 20
5728316.50238992
 30
0.0
 40
1.75
  1
-23.11-
 50
-305.0
 41
0.6600000000000001
 72
     1
 11
7579515.331135475
 21
5728319.006165499
 31
0.0
100
AcDbText
 73
     1
  0
TEXT
  5
22F
330
1B
100
AcDbEntity
  8
EGB_DzialkaEwidencyjna
370
    35
100
AcDbText
 39
0.35
 10
7579519.45834707
 20
5728306.692096396
 30
0.0
 40
1.75
  1
-30.03-
 50
-17.0
 41
0.6600000000000001
 72
     1
 11
7579522.811779936
 21
5728305.056862224
 31
0.0
100
AcDbText
 73
     1
  0
LINE
  5
1000051
330
1B
100
AcDbEntity
  8
EGB_DzialkaEwidencyjna
  6
Continuous
370
    18
100
AcDbLine
 10
7579488.7
 20
5728346.58
 30
0.0
 11
7579517.139999999
 21
5728327.71
 31
0.0
  0
LINE
  5
1000052
330
1B
100
AcDbEntity
  8
EGB_DzialkaEwidencyjna
  6
Continuous
370
    18
100
AcDbLine
 10
7579517.139999999
 20
5728327.71
 30
0.0
 11
7579505.17
 21
5728310.7
 31
0.0
  0
LINE
  5
1000053
330
1B
100
AcDbEntity
  8
EGB_DzialkaEwidencyjna
  6
Continuous
370
    18
100
AcDbLine
 10
7579505.17
 20
5728310.7
 30
0.0
 11
7579474.629999999
 21
5728320.039999999
 31
0.0
  0
LINE
  5
1000054
330
1B
100
AcDbEntity
  8
EGB_DzialkaEwidencyjna
  6
Continuous
370
    18
100
AcDbLine
 10
7579474.629999999
 20
5728320.039999999
 30
0.0
 11
7579467.799999999
 21
5728311.950000001
 31
0.0
  0
LINE
  5
1000055
330
1B
100
AcDbEntity
  8
EGB_DzialkaEwidencyjna
  6
Continuous
370
    18
100
AcDbLine
 10
7579467.799999999
 20
5728311.950000001
 30
0.0
 11
7579405.709999999
 21
5728340.61
 31
0.0
  0
LINE
  5
1000056
330
1B
100
AcDbEntity
  8
EGB_DzialkaEwidencyjna
  6
Continuous
370
    18
100
AcDbLine
 10
7579405.709999999
 20
5728340.61
 30
0.0
 11
7579434.009999999
 21
5728349.249999999
 31
0.0
  0
LINE
  5
1000057
330
1B
100
AcDbEntity
  8
EGB_DzialkaEwidencyjna
  6
Continuous
370
    18
100
AcDbLine
 10
7579434.009999999
 20
5728349.249999999
 30
0.0
 11
7579468.71
 21
5728359.84
 31
0.0
  0
LINE
  5
1000058
330
1B
100
AcDbEntity
  8
EGB_DzialkaEwidencyjna
  6
Continuous
370
    18
100
AcDbLine
 10
7579468.71
 20
5728359.84
 30
0.0
 11
7579488.7
 21
5728346.58
 31
0.0
  0
LINE
  5
100005B
330
1B
100
AcDbEntity
  8
EGB_DzialkaEwidencyjna
  6
Continuous
370
    18
100
AcDbLine
 10
7579488.7
 20
5728346.58
 30
0.0
 11
7579468.71
 21
5728359.84
 31
0.0
  0
LINE
  5
100005C
330
1B
100
AcDbEntity
  8
EGB_DzialkaEwidencyjna
  6
Continuous
370
    18
100
AcDbLine
 10
7579468.71
 20
5728359.84
 30
0.0
 11
7579483.08
 21
5728364.219999999
 31
0.0
  0
LINE
  5
100005D
330
1B
100
AcDbEntity
  8
EGB_DzialkaEwidencyjna
  6
Continuous
370
    18
100
AcDbLine
 10
7579483.08
 20
5728364.219999999
 30
0.0
 11
7579497.32
 21
5728374.52
 31
0.0
  0
LINE
  5
100005E
330
1B
100
AcDbEntity
  8
EGB_DzialkaEwidencyjna
  6
Continuous
370
    18
100
AcDbLine
 10
7579497.32
 20
5728374.52
 30
0.0
 11
7579522.429999999
 21
5728392.69
 31
0.0
  0
LINE
  5
100005F
330
1B
100
AcDbEntity
  8
EGB_DzialkaEwidencyjna
  6
Continuous
370
    18
100
AcDbLine
 10
7579522.429999999
 20
5728392.69
 30
0.0
 11
7579612.139999999
 21
5728457.6
 31
0.0
  0
LINE
  5
1000060
330
1B
100
AcDbEntity
  8
EGB_DzialkaEwidencyjna
  6
Continuous
370
    18
100
AcDbLine
 10
7579612.139999999
 20
5728457.6
 30
0.0
 11
7579491.0
 21
5728348.66
 31
0.0
  0
LINE
  5
1000061
330
1B
100
AcDbEntity
  8
EGB_DzialkaEwidencyjna
  6
Continuous
370
    18
100
AcDbLine
 10
7579491.0
 20
5728348.66
 30
0.0
 11
7579488.7
 21
5728346.58
 31
0.0
  0
LINE
  5
1000062
330
1B
100
AcDbEntity
  8
EGB_DzialkaEwidencyjna
  6
Continuous
370
    18
100
AcDbLine
 10
7579508.519999999
 20
5728309.669999999
 30
0.0
 11
7579521.759999998
 21
5728328.610000001
 31
0.0
  0
LINE
  5
1000063
330
1B
100
AcDbEntity
  8
EGB_DzialkaEwidencyjna
  6
Continuous
370
    18
100
AcDbLine
 10
7579521.759999998
 20
5728328.610000001
 30
0.0
 11
7579612.139999999
 21
5728457.6
 31
0.0
  0
LINE
  5
1000064
330
1B
100
AcDbEntity
  8
EGB_DzialkaEwidencyjna
  6
Continuous
370
    18
100
AcDbLine
 10
7579612.139999999
 20
5728457.6
 30
0.0
 11
7579623.33
 21
5728489.0
 31
0.0
  0
LINE
  5
1000065
330
1B
100
AcDbEntity
  8
EGB_DzialkaEwidencyjna
  6
Continuous
370
    18
100
AcDbLine
 10
7579623.33
 20
5728489.0
 30
0.0
 11
7579624.63
 21
5728563.9
 31
0.0
  0
LINE
  5
1000066
330
1B
100
AcDbEntity
  8
EGB_DzialkaEwidencyjna
  6
Continuous
370
    18
100
AcDbLine
 10
7579624.63
 20
5728563.9
 30
0.0
 11
7579624.73
 21
5728569.779999999
 31
0.0
  0
LINE
  5
1000067
330
1B
100
AcDbEntity
  8
EGB_DzialkaEwidencyjna
  6
Continuous
370
    18
100
AcDbLine
 10
7579624.73
 20
5728569.779999999
 30
0.0
 11
7579640.969999999
 21
5728568.049999999
 31
0.0
  0
LINE
  5
1000068
330
1B
100
AcDbEntity
  8
EGB_DzialkaEwidencyjna
  6
Continuous
370
    18
100
AcDbLine
 10
7579640.969999999
 20
5728568.049999999
 30
0.0
 11
7579627.94
 21
5728487.49
 31
0.0
  0
LINE
  5
1000069
330
1B
100
AcDbEntity
  8
EGB_DzialkaEwidencyjna
  6
Continuous
370
    18
100
AcDbLine
 10
7579627.94
 20
5728487.49
 30
0.0
 11
7579616.480000001
 21
5728456.17
 31
0.0
  0
LINE
  5
100006A
330
1B
100
AcDbEntity
  8
EGB_DzialkaEwidencyjna
  6
Continuous
370
    18
100
AcDbLine
 10
7579616.480000001
 20
5728456.17
 30
0.0
 11
7579537.24
 21
5728300.89
 31
0.0
  0
LINE
  5
100006B
330
1B
100
AcDbEntity
  8
EGB_DzialkaEwidencyjna
  6
Continuous
370
    18
100
AcDbLine
 10
7579537.24
 20
5728300.89
 30
0.0
 11
7579508.519999999
 21
5728309.669999999
 31
0.0
  0
LINE
  5
100006C
330
1B
100
AcDbEntity
  8
EGB_DzialkaEwidencyjna
  6
Continuous
370
    18
100
AcDbLine
 10
7579491.0
 20
5728348.66
 30
0.0
 11
7579612.139999999
 21
5728457.6
 31
0.0
  0
LINE
  5
100006D
330
1B
100
AcDbEntity
  8
EGB_DzialkaEwidencyjna
  6
Continuous
370
    18
100
AcDbLine
 10
7579612.139999999
 20
5728457.6
 30
0.0
 11
7579521.759999998
 21
5728328.610000001
 31
0.0
  0
LINE
  5
100006E
330
1B
100
AcDbEntity
  8
EGB_DzialkaEwidencyjna
  6
Continuous
370
    18
100
AcDbLine
 10
7579521.759999998
 20
5728328.610000001
 30
0.0
 11
7579491.0
 21
5728348.66
 31
0.0
  0
LINE
  5
100006F
330
1B
100
AcDbEntity
  8
EGB_DzialkaEwidencyjna
  6
Continuous
370
    18
100
AcDbLine
 10
7580181.46
 20
5728186.04
 30
0.0
 11
7580176.269999999
 21
5728178.41
 31
0.0
  0
LINE
  5
1000070
330
1B
100
AcDbEntity
  8
EGB_DzialkaEwidencyjna
  6
Continuous
370
    18
100
AcDbLine
 10
7580176.269999999
 20
5728178.41
 30
0.0
 11
7580169.3
 21
5728168.190000001
 31
0.0
  0
LINE
  5
1000071
330
1B
100
AcDbEntity
  8
EGB_DzialkaEwidencyjna
  6
Continuous
370
    18
100
AcDbLine
 10
7580169.3
 20
5728168.190000001
 30
0.0
 11
7580156.57
 21
5728149.5
 31
0.0
  0
LINE
  5
1000072
330
1B
100
AcDbEntity
  8
EGB_DzialkaEwidencyjna
  6
Continuous
370
    18
100
AcDbLine
 10
7580156.57
 20
5728149.5
 30
0.0
 11
7580152.07
 21
5728150.659999999
 31
0.0
  0
LINE
  5
1000073
330
1B
100
AcDbEntity
  8
EGB_DzialkaEwidencyjna
  6
Continuous
370
    18
100
AcDbLine
 10
7580152.07
 20
5728150.659999999
 30
0.0
 11
7580113.269999999
 21
5728160.67
 31
0.0
  0
LINE
  5
1000074
330
1B
100
AcDbEntity
  8
EGB_DzialkaEwidencyjna
  6
Continuous
370
    18
100
AcDbLine
 10
7580113.269999999
 20
5728160.67
 30
0.0
 11
7580089.58
 21
5728166.78
 31
0.0
  0
LINE
  5
1000075
330
1B
100
AcDbEntity
  8
EGB_DzialkaEwidencyjna
  6
Continuous
370
    18
100
AcDbLine
 10
7580089.58
 20
5728166.78
 30
0.0
 11
7580078.769999999
 21
5728135.79
 31
0.0
  0
LINE
  5
1000076
330
1B
100
AcDbEntity
  8
EGB_DzialkaEwidencyjna
  6
Continuous
370
    18
100
AcDbLine
 10
7580078.769999999
 20
5728135.79
 30
0.0
 11
7580050.15
 21
5728144.05
 31
0.0
  0
LINE
  5
1000077
330
1B
100
AcDbEntity
  8
EGB_DzialkaEwidencyjna
  6
Continuous
370
    18
100
AcDbLine
 10
7580050.15
 20
5728144.05
 30
0.0
 11
7579998.87
 21
5728158.839999999
 31
0.0
  0
LINE
  5
1000078
330
1B
100
AcDbEntity
  8
EGB_DzialkaEwidencyjna
  6
Continuous
370
    18
100
AcDbLine
 10
7579998.87
 20
5728158.839999999
 30
0.0
 11
7579990.23
 21
5728161.31
 31
0.0
  0
LINE
  5
1000079
330
1B
100
AcDbEntity
  8
EGB_DzialkaEwidencyjna
  6
Continuous
370
    18
100
AcDbLine
 10
7579990.23
 20
5728161.31
 30
0.0
 11
7579840.54
 21
5728204.98
 31
0.0
  0
LINE
  5
100007A
330
1B
100
AcDbEntity
  8
EGB_DzialkaEwidencyjna
  6
Continuous
370
    18
100
AcDbLine
 10
7579840.54
 20
5728204.98
 30
0.0
 11
7579836.280000001
 21
5728206.280000001
 31
0.0
  0
LINE
  5
100007B
330
1B
100
AcDbEntity
  8
EGB_DzialkaEwidencyjna
  6
Continuous
370
    18
100
AcDbLine
 10
7579836.280000001
 20
5728206.280000001
 30
0.0
 11
7579814.34
 21
5728212.990000001
 31
0.0
  0
LINE
  5
100007C
330
1B
100
AcDbEntity
  8
EGB_DzialkaEwidencyjna
  6
Continuous
370
    18
100
AcDbLine
 10
7579814.34
 20
5728212.990000001
 30
0.0
 11
7579782.070000001
 21
5728222.87
 31
0.0
  0
LINE
  5
100007D
330
1B
100
AcDbEntity
  8
EGB_DzialkaEwidencyjna
  6
Continuous
370
    18
100
AcDbLine
 10
7579782.070000001
 20
5728222.87
 30
0.0
 11
7579759.37
 21
5728229.81
 31
0.0
  0
LINE
  5
100007E
330
1B
100
AcDbEntity
  8
EGB_DzialkaEwidencyjna
  6
Continuous
370
    18
100
AcDbLine
 10
7579759.37
 20
5728229.81
 30
0.0
 11
7579706.12
 21
5728246.099999999
 31
0.0
  0
LINE
  5
100007F
330
1B
100
AcDbEntity
  8
EGB_DzialkaEwidencyjna
  6
Continuous
370
    18
100
AcDbLine
 10
7579706.12
 20
5728246.099999999
 30
0.0
 11
7579678.530000001
 21
5728254.53
 31
0.0
  0
LINE
  5
1000080
330
1B
100
AcDbEntity
  8
EGB_DzialkaEwidencyjna
  6
Continuous
370
    18
100
AcDbLine
 10
7579678.530000001
 20
5728254.53
 30
0.0
 11
7579657.46
 21
5728260.98
 31
0.0
  0
LINE
  5
1000081
330
1B
100
AcDbEntity
  8
EGB_DzialkaEwidencyjna
  6
Continuous
370
    18
100
AcDbLine
 10
7579657.46
 20
5728260.98
 30
0.0
 11
7579644.16
 21
5728265.05
 31
0.0
  0
LINE
  5
1000082
330
1B
100
AcDbEntity
  8
EGB_DzialkaEwidencyjna
  6
Continuous
370
    18
100
AcDbLine
 10
7579644.16
 20
5728265.05
 30
0.0
 11
7579606.449999999
 21
5728276.61
 31
0.0
  0
LINE
  5
1000083
330
1B
100
AcDbEntity
  8
EGB_DzialkaEwidencyjna
  6
Continuous
370
    18
100
AcDbLine
 10
7579606.449999999
 20
5728276.61
 30
0.0
 11
7579556.88
 21
5728291.79
 31
0.0
  0
LINE
  5
1000084
330
1B
100
AcDbEntity
  8
EGB_DzialkaEwidencyjna
  6
Continuous
370
    18
100
AcDbLine
 10
7579556.88
 20
5728291.79
 30
0.0
 11
7579481.75
 21
5728314.8
 31
0.0
  0
LINE
  5
1000085
330
1B
100
AcDbEntity
  8
EGB_DzialkaEwidencyjna
  6
Continuous
370
    18
100
AcDbLine
 10
7579481.75
 20
5728314.8
 30
0.0
 11
7579475.719999999
 21
5728316.65
 31
0.0
  0
LINE
  5
1000086
330
1B
100
AcDbEntity
  8
EGB_DzialkaEwidencyjna
  6
Continuous
370
    18
100
AcDbLine
 10
7579475.719999999
 20
5728316.65
 30
0.0
 11
7579417.419999999
 21
5728247.69
 31
0.0
  0
LINE
  5
1000087
330
1B
100
AcDbEntity
  8
EGB_DzialkaEwidencyjna
  6
Continuous
370
    18
100
AcDbLine
 10
7579417.419999999
 20
5728247.69
 30
0.0
 11
7579407.19
 21
5728235.59
 31
0.0
  0
LINE
  5
1000088
330
1B
100
AcDbEntity
  8
EGB_DzialkaEwidencyjna
  6
Continuous
370
    18
100
AcDbLine
 10
7579407.19
 20
5728235.59
 30
0.0
 11
7579374.66
 21
5728197.11
 31
0.0
  0
LINE
  5
1000089
330
1B
100
AcDbEntity
  8
EGB_DzialkaEwidencyjna
  6
Continuous
370
    18
100
AcDbLine
 10
7579374.66
 20
5728197.11
 30
0.0
 11
7579370.72
 21
5728192.45
 31
0.0
  0
LINE
  5
100008A
330
1B
100
AcDbEntity
  8
EGB_DzialkaEwidencyjna
  6
Continuous
370
    18
100
AcDbLine
 10
7579370.72
 20
5728192.45
 30
0.0
 11
7579284.73
 21
5728090.739999999
 31
0.0
  0
LINE
  5
100008B
330
1B
100
AcDbEntity
  8
EGB_DzialkaEwidencyjna
  6
Continuous
370
    18
100
AcDbLine
 10
7579284.73
 20
5728090.739999999
 30
0.0
 11
7579247.330000001
 21
5727928.52
 31
0.0
  0
LINE
  5
100008C
330
1B
100
AcDbEntity
  8
EGB_DzialkaEwidencyjna
  6
Continuous
370
    18
100
AcDbLine
 10
7579247.330000001
 20
5727928.52
 30
0.0
 11
7579245.96
 21
5727922.58
 31
0.0
  0
LINE
  5
100008D
330
1B
100
AcDbEntity
  8
EGB_DzialkaEwidencyjna
  6
Continuous
370
    18
100
AcDbLine
 10
7579245.96
 20
5727922.58
 30
0.0
 11
7579204.969999999
 21
5727745.089999999
 31
0.0
  0
LINE
  5
100008E
330
1B
100
AcDbEntity
  8
EGB_DzialkaEwidencyjna
  6
Continuous
370
    18
100
AcDbLine
 10
7579204.969999999
 20
5727745.089999999
 30
0.0
 11
7579167.059999998
 21
5727580.51
 31
0.0
  0
LINE
  5
100008F
330
1B
100
AcDbEntity
  8
EGB_DzialkaEwidencyjna
  6
Continuous
370
    18
100
AcDbLine
 10
7579167.059999998
 20
5727580.51
 30
0.0
 11
7579146.67
 21
5727528.33
 31
0.0
  0
LINE
  5
1000090
330
1B
100
AcDbEntity
  8
EGB_DzialkaEwidencyjna
  6
Continuous
370
    18
100
AcDbLine
 10
7579146.67
 20
5727528.33
 30
0.0
 11
7579143.919999999
 21
5727523.099999999
 31
0.0
  0
LINE
  5
1000091
330
1B
100
AcDbEntity
  8
EGB_DzialkaEwidencyjna
  6
Continuous
370
    18
100
AcDbLine
 10
7579143.919999999
 20
5727523.099999999
 30
0.0
 11
7579128.59
 21
5727500.43
 31
0.0
  0
LINE
  5
1000092
330
1B
100
AcDbEntity
  8
EGB_DzialkaEwidencyjna
  6
Continuous
370
    18
100
AcDbLine
 10
7579128.59
 20
5727500.43
 30
0.0
 11
7579085.58
 21
5727470.55
 31
0.0
  0
LINE
  5
1000093
330
1B
100
AcDbEntity
  8
EGB_DzialkaEwidencyjna
  6
Continuous
370
    18
100
AcDbLine
 10
7579085.58
 20
5727470.55
 30
0.0
 11
7579082.599999999
 21
5727475.88
 31
0.0
  0
LINE
  5
1000094
330
1B
100
AcDbEntity
  8
EGB_DzialkaEwidencyjna
  6
Continuous
370
    18
100
AcDbLine
 10
7579082.599999999
 20
5727475.88
 30
0.0
 11
7579109.44
 21
5727494.54
 31
0.0
  0
LINE
  5
1000095
330
1B
100
AcDbEntity
  8
EGB_DzialkaEwidencyjna
  6
Continuous
370
    18
100
AcDbLine
 10
7579109.44
 20
5727494.54
 30
0.0
 11
7579125.110000001
 21
5727505.44
 31
0.0
  0
LINE
  5
1000096
330
1B
100
AcDbEntity
  8
EGB_DzialkaEwidencyjna
  6
Continuous
370
    18
100
AcDbLine
 10
7579125.110000001
 20
5727505.44
 30
0.0
 11
7579129.3
 21
5727511.780000001
 31
0.0
  0
LINE
  5
1000097
330
1B
100
AcDbEntity
  8
EGB_DzialkaEwidencyjna
  6
Continuous
370
    18
100
AcDbLine
 10
7579129.3
 20
5727511.780000001
 30
0.0
 11
7579140.059999998
 21
5727528.06
 31
0.0
  0
LINE
  5
1000098
330
1B
100
AcDbEntity
  8
EGB_DzialkaEwidencyjna
  6
Continuous
370
    18
100
AcDbLine
 10
7579140.059999998
 20
5727528.06
 30
0.0
 11
7579149.860000001
 21
5727549.769999999
 31
0.0
  0
LINE
  5
1000099
330
1B
100
AcDbEntity
  8
EGB_DzialkaEwidencyjna
  6
Continuous
370
    18
100
AcDbLine
 10
7579149.860000001
 20
5727549.769999999
 30
0.0
 11
7579154.889999998
 21
5727560.900000001
 31
0.0
  0
LINE
  5
100009A
330
1B
100
AcDbEntity
  8
EGB_DzialkaEwidencyjna
  6
Continuous
370
    18
100
AcDbLine
 10
7579154.889999998
 20
5727560.900000001
 30
0.0
 11
7579160.41
 21
5727573.13
 31
0.0
  0
LINE
  5
100009B
330
1B
100
AcDbEntity
  8
EGB_DzialkaEwidencyjna
  6
Continuous
370
    18
100
AcDbLine
 10
7579160.41
 20
5727573.13
 30
0.0
 11
7579164.16
 21
5727581.429999999
 31
0.0
  0
LINE
  5
100009C
330
1B
100
AcDbEntity
  8
EGB_DzialkaEwidencyjna
  6
Continuous
370
    18
100
AcDbLine
 10
7579164.16
 20
5727581.429999999
 30
0.0
 11
7579167.059999998
 21
5727594.0
 31
0.0
  0
LINE
  5
100009D
330
1B
100
AcDbEntity
  8
EGB_DzialkaEwidencyjna
  6
Continuous
370
    18
100
AcDbLine
 10
7579167.059999998
 20
5727594.0
 30
0.0
 11
7579172.0
 21
5727615.45
 31
0.0
  0
LINE
  5
100009E
330
1B
100
AcDbEntity
  8
EGB_DzialkaEwidencyjna
  6
Continuous
370
    18
100
AcDbLine
 10
7579172.0
 20
5727615.45
 30
0.0
 11
7579183.42
 21
5727664.960000001
 31
0.0
  0
LINE
  5
100009F
330
1B
100
AcDbEntity
  8
EGB_DzialkaEwidencyjna
  6
Continuous
370
    18
100
AcDbLine
 10
7579183.42
 20
5727664.960000001
 30
0.0
 11
7579189.04
 21
5727689.33
 31
0.0
  0
LINE
  5
10000A0
330
1B
100
AcDbEntity
  8
EGB_DzialkaEwidencyjna
  6
Continuous
370
    18
100
AcDbLine
 10
7579189.04
 20
5727689.33
 30
0.0
 11
7579194.75
 21
5727714.09
 31
0.0
  0
LINE
  5
10000A1
330
1B
100
AcDbEntity
  8
EGB_DzialkaEwidencyjna
  6
Continuous
370
    18
100
AcDbLine
 10
7579194.75
 20
5727714.09
 30
0.0
 11
7579196.61
 21
5727722.179999999
 31
0.0
  0
LINE
  5
10000A2
330
1B
100
AcDbEntity
  8
EGB_DzialkaEwidencyjna
  6
Continuous
370
    18
100
AcDbLine
 10
7579196.61
 20
5727722.179999999
 30
0.0
 11
7579198.519999998
 21
5727730.47
 31
0.0
  0
LINE
  5
10000A3
330
1B
100
AcDbEntity
  8
EGB_DzialkaEwidencyjna
  6
Continuous
370
    18
100
AcDbLine
 10
7579198.519999998
 20
5727730.47
 30
0.0
 11
7579202.05
 21
5727745.77
 31
0.0
  0
LINE
  5
10000A4
330
1B
100
AcDbEntity
  8
EGB_DzialkaEwidencyjna
  6
Continuous
370
    18
100
AcDbLine
 10
7579202.05
 20
5727745.77
 30
0.0
 11
7579209.099999999
 21
5727776.29
 31
0.0
  0
LINE
  5
10000A5
330
1B
100
AcDbEntity
  8
EGB_DzialkaEwidencyjna
  6
Continuous
370
    18
100
AcDbLine
 10
7579209.099999999
 20
5727776.29
 30
0.0
 11
7579209.55
 21
5727778.24
 31
0.0
  0
LINE
  5
10000A6
330
1B
100
AcDbEntity
  8
EGB_DzialkaEwidencyjna
  6
Continuous
370
    18
100
AcDbLine
 10
7579209.55
 20
5727778.24
 30
0.0
 11
7579216.91
 21
5727810.12
 31
0.0
  0
LINE
  5
10000A7
330
1B
100
AcDbEntity
  8
EGB_DzialkaEwidencyjna
  6
Continuous
370
    18
100
AcDbLine
 10
7579216.91
 20
5727810.12
 30
0.0
 11
7579218.929999999
 21
5727818.87
 31
0.0
  0
LINE
  5
10000A8
330
1B
100
AcDbEntity
  8
EGB_DzialkaEwidencyjna
  6
Continuous
370
    18
100
AcDbLine
 10
7579218.929999999
 20
5727818.87
 30
0.0
 11
7579220.730000001
 21
5727826.65
 31
0.0
  0
LINE
  5
10000A9
330
1B
100
AcDbEntity
  8
EGB_DzialkaEwidencyjna
  6
Continuous
370
    18
100
AcDbLine
 10
7579220.730000001
 20
5727826.65
 30
0.0
 11
7579224.09
 21
5727841.23
 31
0.0
  0
LINE
  5
10000AA
330
1B
100
AcDbEntity
  8
EGB_DzialkaEwidencyjna
  6
Continuous
370
    18
100
AcDbLine
 10
7579224.09
 20
5727841.23
 30
0.0
 11
7579227.690000001
 21
5727856.78
 31
0.0
  0
LINE
  5
10000AB
330
1B
100
AcDbEntity
  8
EGB_DzialkaEwidencyjna
  6
Continuous
370
    18
100
AcDbLine
 10
7579227.690000001
 20
5727856.78
 30
0.0
 11
7579231.5
 21
5727873.309999999
 31
0.0
  0
LINE
  5
10000AC
330
1B
100
AcDbEntity
  8
EGB_DzialkaEwidencyjna
  6
Continuous
370
    18
100
AcDbLine
 10
7579231.5
 20
5727873.309999999
 30
0.0
 11
7579235.139999999
 21
5727889.049999999
 31
0.0
  0
LINE
  5
10000AD
330
1B
100
AcDbEntity
  8
EGB_DzialkaEwidencyjna
  6
Continuous
370
    18
100
AcDbLine
 10
7579235.139999999
 20
5727889.049999999
 30
0.0
 11
7579238.980000001
 21
5727905.68
 31
0.0
  0
LINE
  5
10000AE
330
1B
100
AcDbEntity
  8
EGB_DzialkaEwidencyjna
  6
Continuous
370
    18
100
AcDbLine
 10
7579238.980000001
 20
5727905.68
 30
0.0
 11
7579243.83
 21
5727926.67
 31
0.0
  0
LINE
  5
10000AF
330
1B
100
AcDbEntity
  8
EGB_DzialkaEwidencyjna
  6
Continuous
370
    18
100
AcDbLine
 10
7579243.83
 20
5727926.67
 30
0.0
 11
7579244.41
 21
5727929.200000001
 31
0.0
  0
LINE
  5
10000B0
330
1B
100
AcDbEntity
  8
EGB_DzialkaEwidencyjna
  6
Continuous
370
    18
100
AcDbLine
 10
7579244.41
 20
5727929.200000001
 30
0.0
 11
7579248.940000001
 21
5727948.83
 31
0.0
  0
LINE
  5
10000B1
330
1B
100
AcDbEntity
  8
EGB_DzialkaEwidencyjna
  6
Continuous
370
    18
100
AcDbLine
 10
7579248.940000001
 20
5727948.83
 30
0.0
 11
7579251.46
 21
5727959.72
 31
0.0
  0
LINE
  5
10000B2
330
1B
100
AcDbEntity
  8
EGB_DzialkaEwidencyjna
  6
Continuous
370
    18
100
AcDbLine
 10
7579251.46
 20
5727959.72
 30
0.0
 11
7579253.54
 21
5727968.76
 31
0.0
  0
LINE
  5
10000B3
330
1B
100
AcDbEntity
  8
EGB_DzialkaEwidencyjna
  6
Continuous
370
    18
100
AcDbLine
 10
7579253.54
 20
5727968.76
 30
0.0
 11
7579258.820000001
 21
5727991.6
 31
0.0
  0
LINE
  5
10000B4
330
1B
100
AcDbEntity
  8
EGB_DzialkaEwidencyjna
  6
Continuous
370
    18
100
AcDbLine
 10
7579258.820000001
 20
5727991.6
 30
0.0
 11
7579263.53
 21
5728012.02
 31
0.0
  0
LINE
  5
10000B5
330
1B
100
AcDbEntity
  8
EGB_DzialkaEwidencyjna
  6
Continuous
370
    18
100
AcDbLine
 10
7579263.53
 20
5728012.02
 30
0.0
 11
7579274.129999999
 21
5728057.900000001
 31
0.0
  0
LINE
  5
10000B6
330
1B
100
AcDbEntity
  8
EGB_DzialkaEwidencyjna
  6
Continuous
370
    18
100
AcDbLine
 10
7579274.129999999
 20
5728057.900000001
 30
0.0
 11
7579279.29
 21
5728080.25
 31
0.0
  0
LINE
  5
10000B7
330
1B
100
AcDbEntity
  8
EGB_DzialkaEwidencyjna
  6
Continuous
370
    18
100
AcDbLine
 10
7579279.29
 20
5728080.25
 30
0.0
 11
7579281.960000001
 21
5728091.820000001
 31
0.0
  0
LINE
  5
10000B8
330
1B
100
AcDbEntity
  8
EGB_DzialkaEwidencyjna
  6
Continuous
370
    18
100
AcDbLine
 10
7579281.960000001
 20
5728091.820000001
 30
0.0
 11
7579289.83
 21
5728101.16
 31
0.0
  0
LINE
  5
10000B9
330
1B
100
AcDbEntity
  8
EGB_DzialkaEwidencyjna
  6
Continuous
370
    18
100
AcDbLine
 10
7579289.83
 20
5728101.16
 30
0.0
 11
7579295.89
 21
5728108.35
 31
0.0
  0
LINE
  5
10000BA
330
1B
100
AcDbEntity
  8
EGB_DzialkaEwidencyjna
  6
Continuous
370
    18
100
AcDbLine
 10
7579295.89
 20
5728108.35
 30
0.0
 11
7579303.11
 21
5728116.919999999
 31
0.0
  0
LINE
  5
10000BB
330
1B
100
AcDbEntity
  8
EGB_DzialkaEwidencyjna
  6
Continuous
370
    18
100
AcDbLine
 10
7579303.11
 20
5728116.919999999
 30
0.0
 11
7579317.419999999
 21
5728133.91
 31
0.0
  0
LINE
  5
10000BC
330
1B
100
AcDbEntity
  8
EGB_DzialkaEwidencyjna
  6
Continuous
370
    18
100
AcDbLine
 10
7579317.419999999
 20
5728133.91
 30
0.0
 11
7579331.289999999
 21
5728150.37
 31
0.0
  0
LINE
  5
10000BD
330
1B
100
AcDbEntity
  8
EGB_DzialkaEwidencyjna
  6
Continuous
370
    18
100
AcDbLine
 10
7579331.289999999
 20
5728150.37
 30
0.0
 11
7579351.73
 21
5728174.629999999
 31
0.0
  0
LINE
  5
10000BE
330
1B
100
AcDbEntity
  8
EGB_DzialkaEwidencyjna
  6
Continuous
370
    18
100
AcDbLine
 10
7579351.73
 20
5728174.629999999
 30
0.0
 11
7579371.519999998
 21
5728198.12
 31
0.0
  0
LINE
  5
10000BF
330
1B
100
AcDbEntity
  8
EGB_DzialkaEwidencyjna
  6
Continuous
370
    18
100
AcDbLine
 10
7579371.519999998
 20
5728198.12
 30
0.0
 11
7579386.13
 21
5728215.36
 31
0.0
  0
LINE
  5
10000C0
330
1B
100
AcDbEntity
  8
EGB_DzialkaEwidencyjna
  6
Continuous
370
    18
100
AcDbLine
 10
7579386.13
 20
5728215.36
 30
0.0
 11
7579389.62
 21
5728219.479999999
 31
0.0
  0
LINE
  5
10000C1
330
1B
100
AcDbEntity
  8
EGB_DzialkaEwidencyjna
  6
Continuous
370
    18
100
AcDbLine
 10
7579389.62
 20
5728219.479999999
 30
0.0
 11
7579404.03
 21
5728236.5
 31
0.0
  0
LINE
  5
10000C2
330
1B
100
AcDbEntity
  8
EGB_DzialkaEwidencyjna
  6
Continuous
370
    18
100
AcDbLine
 10
7579404.03
 20
5728236.5
 30
0.0
 11
7579420.79
 21
5728256.34
 31
0.0
  0
LINE
  5
10000C3
330
1B
100
AcDbEntity
  8
EGB_DzialkaEwidencyjna
  6
Continuous
370
    18
100
AcDbLine
 10
7579420.79
 20
5728256.34
 30
0.0
 11
7579437.300000001
 21
5728275.87
 31
0.0
  0
LINE
  5
10000C4
330
1B
100
AcDbEntity
  8
EGB_DzialkaEwidencyjna
  6
Continuous
370
    18
100
AcDbLine
 10
7579437.300000001
 20
5728275.87
 30
0.0
 11
7579452.32
 21
5728293.639999999
 31
0.0
  0
LINE
  5
10000C5
330
1B
100
AcDbEntity
  8
EGB_DzialkaEwidencyjna
  6
Continuous
370
    18
100
AcDbLine
 10
7579452.32
 20
5728293.639999999
 30
0.0
 11
7579467.799999999
 21
5728311.950000001
 31
0.0
  0
LINE
  5
10000C6
330
1B
100
AcDbEntity
  8
EGB_DzialkaEwidencyjna
  6
Continuous
370
    18
100
AcDbLine
 10
7579467.799999999
 20
5728311.950000001
 30
0.0
 11
7579474.629999999
 21
5728320.039999999
 31
0.0
  0
LINE
  5
10000C7
330
1B
100
AcDbEntity
  8
EGB_DzialkaEwidencyjna
  6
Continuous
370
    18
100
AcDbLine
 10
7579474.629999999
 20
5728320.039999999
 30
0.0
 11
7579505.17
 21
5728310.7
 31
0.0
  0
LINE
  5
10000C8
330
1B
100
AcDbEntity
  8
EGB_DzialkaEwidencyjna
  6
Continuous
370
    18
100
AcDbLine
 10
7579505.17
 20
5728310.7
 30
0.0
 11
7579508.519999999
 21
5728309.669999999
 31
0.0
  0
LINE
  5
10000C9
330
1B
100
AcDbEntity
  8
EGB_DzialkaEwidencyjna
  6
Continuous
370
    18
100
AcDbLine
 10
7579508.519999999
 20
5728309.669999999
 30
0.0
 11
7579537.24
 21
5728300.89
 31
0.0
  0
LINE
  5
10000CA
330
1B
100
AcDbEntity
  8
EGB_DzialkaEwidencyjna
  6
Continuous
370
    18
100
AcDbLine
 10
7579537.24
 20
5728300.89
 30
0.0
 11
7579565.96
 21
5728292.11
 31
0.0
  0
LINE
  5
10000CB
330
1B
100
AcDbEntity
  8
EGB_DzialkaEwidencyjna
  6
Continuous
370
    18
100
AcDbLine
 10
7579565.96
 20
5728292.11
 30
0.0
 11
7579575.63
 21
5728289.150000001
 31
0.0
  0
LINE
  5
10000CC
330
1B
100
AcDbEntity
  8
EGB_DzialkaEwidencyjna
  6
Continuous
370
    18
100
AcDbLine
 10
7579575.63
 20
5728289.150000001
 30
0.0
 11
7579586.159999999
 21
5728285.929999999
 31
0.0
  0
LINE
  5
10000CD
330
1B
100
AcDbEntity
  8
EGB_DzialkaEwidencyjna
  6
Continuous
370
    18
100
AcDbLine
 10
7579586.159999999
 20
5728285.929999999
 30
0.0
 11
7579596.69
 21
5728282.71
 31
0.0
  0
LINE
  5
10000CE
330
1B
100
AcDbEntity
  8
EGB_DzialkaEwidencyjna
  6
Continuous
370
    18
100
AcDbLine
 10
7579596.69
 20
5728282.71
 30
0.0
 11
7579606.639999999
 21
5728279.66
 31
0.0
  0
LINE
  5
10000CF
330
1B
100
AcDbEntity
  8
EGB_DzialkaEwidencyjna
  6
Continuous
370
    18
100
AcDbLine
 10
7579606.639999999
 20
5728279.66
 30
0.0
 11
7579616.599999999
 21
5728276.62
 31
0.0
  0
LINE
  5
10000D0
330
1B
100
AcDbEntity
  8
EGB_DzialkaEwidencyjna
  6
Continuous
370
    18
100
AcDbLine
 10
7579616.599999999
 20
5728276.62
 30
0.0
 11
7579621.67
 21
5728275.059999999
 31
0.0
  0
LINE
  5
10000D1
330
1B
100
AcDbEntity
  8
EGB_DzialkaEwidencyjna
  6
Continuous
370
    18
100
AcDbLine
 10
7579621.67
 20
5728275.059999999
 30
0.0
 11
7579627.13
 21
5728273.4
 31
0.0
  0
LINE
  5
10000D2
330
1B
100
AcDbEntity
  8
EGB_DzialkaEwidencyjna
  6
Continuous
370
    18
100
AcDbLine
 10
7579627.13
 20
5728273.4
 30
0.0
 11
7579637.95
 21
5728270.089999999
 31
0.0
  0
LINE
  5
10000D3
330
1B
100
AcDbEntity
  8
EGB_DzialkaEwidencyjna
  6
Continuous
370
    18
100
AcDbLine
 10
7579637.95
 20
5728270.089999999
 30
0.0
 11
7579643.019999998
 21
5728268.53
 31
0.0
  0
LINE
  5
10000D4
330
1B
100
AcDbEntity
  8
EGB_DzialkaEwidencyjna
  6
Continuous
370
    18
100
AcDbLine
 10
7579643.019999998
 20
5728268.53
 30
0.0
 11
7579648.099999999
 21
5728266.98
 31
0.0
  0
LINE
  5
10000D5
330
1B
100
AcDbEntity
  8
EGB_DzialkaEwidencyjna
  6
Continuous
370
    18
100
AcDbLine
 10
7579648.099999999
 20
5728266.98
 30
0.0
 11
7579658.339999999
 21
5728263.849999999
 31
0.0
  0
LINE
  5
10000D6
330
1B
100
AcDbEntity
  8
EGB_DzialkaEwidencyjna
  6
Continuous
370
    18
100
AcDbLine
 10
7579658.339999999
 20
5728263.849999999
 30
0.0
 11
7579668.49
 21
5728260.75
 31
0.0
  0
LINE
  5
10000D7
330
1B
100
AcDbEntity
  8
EGB_DzialkaEwidencyjna
  6
Continuous
370
    18
100
AcDbLine
 10
7579668.49
 20
5728260.75
 30
0.0
 11
7579681.219999998
 21
5728256.85
 31
0.0
  0
LINE
  5
10000D8
330
1B
100
AcDbEntity
  8
EGB_DzialkaEwidencyjna
  6
Continuous
370
    18
100
AcDbLine
 10
7579681.219999998
 20
5728256.85
 30
0.0
 11
7579690.79
 21
5728253.919999999
 31
0.0
  0
LINE
  5
10000D9
330
1B
100
AcDbEntity
  8
EGB_DzialkaEwidencyjna
  6
Continuous
370
    18
100
AcDbLine
 10
7579690.79
 20
5728253.919999999
 30
0.0
 11
7579694.62
 21
5728252.75
 31
0.0
  0
LINE
  5
10000DA
330
1B
100
AcDbEntity
  8
EGB_DzialkaEwidencyjna
  6
Continuous
370
    18
100
AcDbLine
 10
7579694.62
 20
5728252.75
 30
0.0
 11
7579697.400000001
 21
5728251.9
 31
0.0
  0
LINE
  5
10000DB
330
1B
100
AcDbEntity
  8
EGB_DzialkaEwidencyjna
  6
Continuous
370
    18
100
AcDbLine
 10
7579697.400000001
 20
5728251.9
 30
0.0
 11
7579704.200000001
 21
5728249.820000001
 31
0.0
  0
LINE
  5
10000DC
330
1B
100
AcDbEntity
  8
EGB_DzialkaEwidencyjna
  6
Continuous
370
    18
100
AcDbLine
 10
7579704.200000001
 20
5728249.820000001
 30
0.0
 11
7579711.849999998
 21
5728247.480000001
 31
0.0
  0
LINE
  5
10000DD
330
1B
100
AcDbEntity
  8
EGB_DzialkaEwidencyjna
  6
Continuous
370
    18
100
AcDbLine
 10
7579711.849999998
 20
5728247.480000001
 30
0.0
 11
7579720.950000001
 21
5728244.7
 31
0.0
  0
LINE
  5
10000DE
330
1B
100
AcDbEntity
  8
EGB_DzialkaEwidencyjna
  6
Continuous
370
    18
100
AcDbLine
 10
7579720.950000001
 20
5728244.7
 30
0.0
 11
7579733.3
 21
5728240.920000001
 31
0.0
  0
LINE
  5
10000DF
330
1B
100
AcDbEntity
  8
EGB_DzialkaEwidencyjna
  6
Continuous
370
    18
100
AcDbLine
 10
7579733.3
 20
5728240.920000001
 30
0.0
 11
7579740.190000001
 21
5728238.81
 31
0.0
  0
LINE
  5
10000E0
330
1B
100
AcDbEntity
  8
EGB_DzialkaEwidencyjna
  6
Continuous
370
    18
100
AcDbLine
 10
7579740.190000001
 20
5728238.81
 30
0.0
 11
7579746.32
 21
5728236.94
 31
0.0
  0
LINE
  5
10000E1
330
1B
100
AcDbEntity
  8
EGB_DzialkaEwidencyjna
  6
Continuous
370
    18
100
AcDbLine
 10
7579746.32
 20
5728236.94
 30
0.0
 11
7579752.730000001
 21
5728234.98
 31
0.0
  0
LINE
  5
10000E2
330
1B
100
AcDbEntity
  8
EGB_DzialkaEwidencyjna
  6
Continuous
370
    18
100
AcDbLine
 10
7579752.730000001
 20
5728234.98
 30
0.0
 11
7579760.389999998
 21
5728232.629999999
 31
0.0
  0
LINE
  5
10000E3
330
1B
100
AcDbEntity
  8
EGB_DzialkaEwidencyjna
  6
Continuous
370
    18
100
AcDbLine
 10
7579760.389999998
 20
5728232.629999999
 30
0.0
 11
7579768.429999999
 21
5728230.17
 31
0.0
  0
LINE
  5
10000E4
330
1B
100
AcDbEntity
  8
EGB_DzialkaEwidencyjna
  6
Continuous
370
    18
100
AcDbLine
 10
7579768.429999999
 20
5728230.17
 30
0.0
 11
7579775.99
 21
5728227.86
 31
0.0
  0
LINE
  5
10000E5
330
1B
100
AcDbEntity
  8
EGB_DzialkaEwidencyjna
  6
Continuous
370
    18
100
AcDbLine
 10
7579775.99
 20
5728227.86
 30
0.0
 11
7579785.09
 21
5728225.08
 31
0.0
  0
LINE
  5
10000E6
330
1B
100
AcDbEntity
  8
EGB_DzialkaEwidencyjna
  6
Continuous
370
    18
100
AcDbLine
 10
7579785.09
 20
5728225.08
 30
0.0
 11
7579794.57
 21
5728222.18
 31
0.0
  0
LINE
  5
10000E7
330
1B
100
AcDbEntity
  8
EGB_DzialkaEwidencyjna
  6
Continuous
370
    18
100
AcDbLine
 10
7579794.57
 20
5728222.18
 30
0.0
 11
7579798.400000001
 21
5728221.009999999
 31
0.0
  0
LINE
  5
10000E8
330
1B
100
AcDbEntity
  8
EGB_DzialkaEwidencyjna
  6
Continuous
370
    18
100
AcDbLine
 10
7579798.400000001
 20
5728221.009999999
 30
0.0
 11
7579802.61
 21
5728219.719999999
 31
0.0
  0
LINE
  5
10000E9
330
1B
100
AcDbEntity
  8
EGB_DzialkaEwidencyjna
  6
Continuous
370
    18
100
AcDbLine
 10
7579802.61
 20
5728219.719999999
 30
0.0
 11
7579811.7
 21
5728216.940000001
 31
0.0
  0
LINE
  5
10000EA
330
1B
100
AcDbEntity
  8
EGB_DzialkaEwidencyjna
  6
Continuous
370
    18
100
AcDbLine
 10
7579811.7
 20
5728216.940000001
 30
0.0
 11
7579820.889999998
 21
5728214.13
 31
0.0
  0
LINE
  5
10000EB
330
1B
100
AcDbEntity
  8
EGB_DzialkaEwidencyjna
  6
Continuous
370
    18
100
AcDbLine
 10
7579820.889999998
 20
5728214.13
 30
0.0
 11
7579830.179999999
 21
5728211.29
 31
0.0
  0
LINE
  5
10000EC
330
1B
100
AcDbEntity
  8
EGB_DzialkaEwidencyjna
  6
Continuous
370
    18
100
AcDbLine
 10
7579830.179999999
 20
5728211.29
 30
0.0
 11
7579838.7
 21
5728208.68
 31
0.0
  0
LINE
  5
10000ED
330
1B
100
AcDbEntity
  8
EGB_DzialkaEwidencyjna
  6
Continuous
370
    18
100
AcDbLine
 10
7579838.7
 20
5728208.68
 30
0.0
 11
7579841.38
 21
5728207.860000001
 31
0.0
  0
LINE
  5
10000EE
330
1B
100
AcDbEntity
  8
EGB_DzialkaEwidencyjna
  6
Continuous
370
    18
100
AcDbLine
 10
7579841.38
 20
5728207.860000001
 30
0.0
 11
7579847.530000001
 21
5728206.070000001
 31
0.0
  0
LINE
  5
10000EF
330
1B
100
AcDbEntity
  8
EGB_DzialkaEwidencyjna
  6
Continuous
370
    18
100
AcDbLine
 10
7579847.530000001
 20
5728206.070000001
 30
0.0
 11
7579856.75
 21
5728203.38
 31
0.0
  0
LINE
  5
10000F0
330
1B
100
AcDbEntity
  8
EGB_DzialkaEwidencyjna
  6
Continuous
370
    18
100
AcDbLine
 10
7579856.75
 20
5728203.38
 30
0.0
 11
7579859.73
 21
5728202.51
 31
0.0
  0
LINE
  5
10000F1
330
1B
100
AcDbEntity
  8
EGB_DzialkaEwidencyjna
  6
Continuous
370
    18
100
AcDbLine
 10
7579859.73
 20
5728202.51
 30
0.0
 11
7579862.519999998
 21
5728201.69
 31
0.0
  0
LINE
  5
10000F2
330
1B
100
AcDbEntity
  8
EGB_DzialkaEwidencyjna
  6
Continuous
370
    18
100
AcDbLine
 10
7579862.519999998
 20
5728201.69
 30
0.0
 11
7579868.19
 21
5728200.04
 31
0.0
  0
LINE
  5
10000F3
330
1B
100
AcDbEntity
  8
EGB_DzialkaEwidencyjna
  6
Continuous
370
    18
100
AcDbLine
 10
7579868.19
 20
5728200.04
 30
0.0
 11
7579874.049999999
 21
5728198.33
 31
0.0
  0
LINE
  5
10000F4
330
1B
100
AcDbEntity
  8
EGB_DzialkaEwidencyjna
  6
Continuous
370
    18
100
AcDbLine
 10
7579874.049999999
 20
5728198.33
 30
0.0
 11
7579882.69
 21
5728195.809999999
 31
0.0
  0
LINE
  5
10000F5
330
1B
100
AcDbEntity
  8
EGB_DzialkaEwidencyjna
  6
Continuous
370
    18
100
AcDbLine
 10
7579882.69
 20
5728195.809999999
 30
0.0
 11
7579891.34
 21
5728193.28
 31
0.0
  0
LINE
  5
10000F6
330
1B
100
AcDbEntity
  8
EGB_DzialkaEwidencyjna
  6
Continuous
370
    18
100
AcDbLine
 10
7579891.34
 20
5728193.28
 30
0.0
 11
7579897.389999999
 21
5728191.52
 31
0.0
  0
LINE
  5
10000F7
330
1B
100
AcDbEntity
  8
EGB_DzialkaEwidencyjna
  6
Continuous
370
    18
100
AcDbLine
 10
7579897.389999999
 20
5728191.52
 30
0.0
 11
7579903.349999999
 21
5728189.78
 31
0.0
  0
LINE
  5
10000F8
330
1B
100
AcDbEntity
  8
EGB_DzialkaEwidencyjna
  6
Continuous
370
    18
100
AcDbLine
 10
7579903.349999999
 20
5728189.78
 30
0.0
 11
7579909.4
 21
5728188.02
 31
0.0
  0
LINE
  5
10000F9
330
1B
100
AcDbEntity
  8
EGB_DzialkaEwidencyjna
  6
Continuous
370
    18
100
AcDbLine
 10
7579909.4
 20
5728188.02
 30
0.0
 11
7579915.460000001
 21
5728186.25
 31
0.0
  0
LINE
  5
10000FA
330
1B
100
AcDbEntity
  8
EGB_DzialkaEwidencyjna
  6
Continuous
370
    18
100
AcDbLine
 10
7579915.460000001
 20
5728186.25
 30
0.0
 11
7579920.839999999
 21
5728184.68
 31
0.0
  0
LINE
  5
10000FB
330
1B
100
AcDbEntity
  8
EGB_DzialkaEwidencyjna
  6
Continuous
370
    18
100
AcDbLine
 10
7579920.839999999
 20
5728184.68
 30
0.0
 11
7579926.309999998
 21
5728183.079999999
 31
0.0
  0
LINE
  5
10000FC
330
1B
100
AcDbEntity
  8
EGB_DzialkaEwidencyjna
  6
Continuous
370
    18
100
AcDbLine
 10
7579926.309999998
 20
5728183.079999999
 30
0.0
 11
7579932.170000001
 21
5728181.37
 31
0.0
  0
LINE
  5
10000FD
330
1B
100
AcDbEntity
  8
EGB_DzialkaEwidencyjna
  6
Continuous
370
    18
100
AcDbLine
 10
7579932.170000001
 20
5728181.37
 30
0.0
 11
7579941.78
 21
5728178.569999999
 31
0.0
  0
LINE
  5
10000FE
330
1B
100
AcDbEntity
  8
EGB_DzialkaEwidencyjna
  6
Continuous
370
    18
100
AcDbLine
 10
7579941.78
 20
5728178.569999999
 30
0.0
 11
7579945.620000001
 21
5728177.45
 31
0.0
  0
LINE
  5
10000FF
330
1B
100
AcDbEntity
  8
EGB_DzialkaEwidencyjna
  6
Continuous
370
    18
100
AcDbLine
 10
7579945.620000001
 20
5728177.45
 30
0.0
 11
7579954.940000001
 21
5728174.73
 31
0.0
  0
LINE
  5
1000100
330
1B
100
AcDbEntity
  8
EGB_DzialkaEwidencyjna
  6
Continuous
370
    18
100
AcDbLine
 10
7579954.940000001
 20
5728174.73
 30
0.0
 11
7579964.359999999
 21
5728171.98
 31
0.0
  0
LINE
  5
1000101
330
1B
100
AcDbEntity
  8
EGB_DzialkaEwidencyjna
  6
Continuous
370
    18
100
AcDbLine
 10
7579964.359999999
 20
5728171.98
 30
0.0
 11
7579973.009999998
 21
5728169.46
 31
0.0
  0
LINE
  5
1000102
330
1B
100
AcDbEntity
  8
EGB_DzialkaEwidencyjna
  6
Continuous
370
    18
100
AcDbLine
 10
7579973.009999998
 20
5728169.46
 30
0.0
 11
7579983.099999999
 21
5728166.52
 31
0.0
  0
LINE
  5
1000103
330
1B
100
AcDbEntity
  8
EGB_DzialkaEwidencyjna
  6
Continuous
370
    18
100
AcDbLine
 10
7579983.099999999
 20
5728166.52
 30
0.0
 11
7579988.0
 21
5728165.09
 31
0.0
  0
LINE
  5
1000104
330
1B
100
AcDbEntity
  8
EGB_DzialkaEwidencyjna
  6
Continuous
370
    18
100
AcDbLine
 10
7579988.0
 20
5728165.09
 30
0.0
 11
7579991.070000001
 21
5728164.190000001
 31
0.0
  0
LINE
  5
1000105
330
1B
100
AcDbEntity
  8
EGB_DzialkaEwidencyjna
  6
Continuous
370
    18
100
AcDbLine
 10
7579991.070000001
 20
5728164.190000001
 30
0.0
 11
7579992.320000001
 21
5728163.83
 31
0.0
  0
LINE
  5
1000106
330
1B
100
AcDbEntity
  8
EGB_DzialkaEwidencyjna
  6
Continuous
370
    18
100
AcDbLine
 10
7579992.320000001
 20
5728163.83
 30
0.0
 11
7580001.07
 21
5728161.3
 31
0.0
  0
LINE
  5
1000107
330
1B
100
AcDbEntity
  8
EGB_DzialkaEwidencyjna
  6
Continuous
370
    18
100
AcDbLine
 10
7580001.07
 20
5728161.3
 30
0.0
 11
7580009.719999999
 21
5728158.79
 31
0.0
  0
LINE
  5
1000108
330
1B
100
AcDbEntity
  8
EGB_DzialkaEwidencyjna
  6
Continuous
370
    18
100
AcDbLine
 10
7580009.719999999
 20
5728158.79
 30
0.0
 11
7580015.690000001
 21
5728157.06
 31
0.0
  0
LINE
  5
1000109
330
1B
100
AcDbEntity
  8
EGB_DzialkaEwidencyjna
  6
Continuous
370
    18
100
AcDbLine
 10
7580015.690000001
 20
5728157.06
 30
0.0
 11
7580021.07
 21
5728155.51
 31
0.0
  0
LINE
  5
100010A
330
1B
100
AcDbEntity
  8
EGB_DzialkaEwidencyjna
  6
Continuous
370
    18
100
AcDbLine
 10
7580021.07
 20
5728155.51
 30
0.0
 11
7580026.65
 21
5728153.889999999
 31
0.0
  0
LINE
  5
100010B
330
1B
100
AcDbEntity
  8
EGB_DzialkaEwidencyjna
  6
Continuous
370
    18
100
AcDbLine
 10
7580026.65
 20
5728153.889999999
 30
0.0
 11
7580030.019999999
 21
5728152.92
 31
0.0
  0
LINE
  5
100010C
330
1B
100
AcDbEntity
  8
EGB_DzialkaEwidencyjna
  6
Continuous
370
    18
100
AcDbLine
 10
7580030.019999999
 20
5728152.92
 30
0.0
 11
7580038.759999998
 21
5728150.38
 31
0.0
  0
LINE
  5
100010D
330
1B
100
AcDbEntity
  8
EGB_DzialkaEwidencyjna
  6
Continuous
370
    18
100
AcDbLine
 10
7580038.759999998
 20
5728150.38
 30
0.0
 11
7580044.53
 21
5728148.71
 31
0.0
  0
LINE
  5
100010E
330
1B
100
AcDbEntity
  8
EGB_DzialkaEwidencyjna
  6
Continuous
370
    18
100
AcDbLine
 10
7580044.53
 20
5728148.71
 30
0.0
 11
7580049.530000001
 21
5728147.27
 31
0.0
  0
LINE
  5
100010F
330
1B
100
AcDbEntity
  8
EGB_DzialkaEwidencyjna
  6
Continuous
370
    18
100
AcDbLine
 10
7580049.530000001
 20
5728147.27
 30
0.0
 11
7580060.490000001
 21
5728144.09
 31
0.0
  0
LINE
  5
1000110
330
1B
100
AcDbEntity
  8
EGB_DzialkaEwidencyjna
  6
Continuous
370
    18
100
AcDbLine
 10
7580060.490000001
 20
5728144.09
 30
0.0
 11
7580065.400000001
 21
5728142.669999999
 31
0.0
  0
LINE
  5
1000111
330
1B
100
AcDbEntity
  8
EGB_DzialkaEwidencyjna
  6
Continuous
370
    18
100
AcDbLine
 10
7580065.400000001
 20
5728142.669999999
 30
0.0
 11
7580070.59
 21
5728141.169999999
 31
0.0
  0
LINE
  5
1000112
330
1B
100
AcDbEntity
  8
EGB_DzialkaEwidencyjna
  6
Continuous
370
    18
100
AcDbLine
 10
7580070.59
 20
5728141.169999999
 30
0.0
 11
7580076.84
 21
5728139.36
 31
0.0
  0
LINE
  5
1000113
330
1B
100
AcDbEntity
  8
EGB_DzialkaEwidencyjna
  6
Continuous
370
    18
100
AcDbLine
 10
7580076.84
 20
5728139.36
 30
0.0
 11
7580087.66
 21
5728170.369999999
 31
0.0
  0
LINE
  5
1000114
330
1B
100
AcDbEntity
  8
EGB_DzialkaEwidencyjna
  6
Continuous
370
    18
100
AcDbLine
 10
7580087.66
 20
5728170.369999999
 30
0.0
 11
7580155.28
 21
5728152.93
 31
0.0
  0
LINE
  5
1000115
330
1B
100
AcDbEntity
  8
EGB_DzialkaEwidencyjna
  6
Continuous
370
    18
100
AcDbLine
 10
7580155.28
 20
5728152.93
 30
0.0
 11
7580159.639999999
 21
5728159.330000001
 31
0.0
  0
LINE
  5
1000116
330
1B
100
AcDbEntity
  8
EGB_DzialkaEwidencyjna
  6
Continuous
370
    18
100
AcDbLine
 10
7580159.639999999
 20
5728159.330000001
 30
0.0
 11
7580184.860000001
 21
5728196.349999999
 31
0.0
  0
LINE
  5
1000117
330
1B
100
AcDbEntity
  8
EGB_DzialkaEwidencyjna
  6
Continuous
370
    18
100
AcDbLine
 10
7580184.860000001
 20
5728196.349999999
 30
0.0
 11
7580194.800000001
 21
5728210.94
 31
0.0
  0
LINE
  5
1000118
330
1B
100
AcDbEntity
  8
EGB_DzialkaEwidencyjna
  6
Continuous
370
    18
100
AcDbLine
 10
7580194.800000001
 20
5728210.94
 30
0.0
 11
7580204.88
 21
5728225.74
 31
0.0
  0
LINE
  5
1000119
330
1B
100
AcDbEntity
  8
EGB_DzialkaEwidencyjna
  6
Continuous
370
    18
100
AcDbLine
 10
7580204.88
 20
5728225.74
 30
0.0
 11
7580209.889999999
 21
5728233.089999999
 31
0.0
  0
LINE
  5
100011A
330
1B
100
AcDbEntity
  8
EGB_DzialkaEwidencyjna
  6
Continuous
370
    18
100
AcDbLine
 10
7580209.889999999
 20
5728233.089999999
 30
0.0
 11
7580215.11
 21
5728240.75
 31
0.0
  0
LINE
  5
100011B
330
1B
100
AcDbEntity
  8
EGB_DzialkaEwidencyjna
  6
Continuous
370
    18
100
AcDbLine
 10
7580215.11
 20
5728240.75
 30
0.0
 11
7580222.120000001
 21
5728251.039999999
 31
0.0
  0
LINE
  5
100011C
330
1B
100
AcDbEntity
  8
EGB_DzialkaEwidencyjna
  6
Continuous
370
    18
100
AcDbLine
 10
7580222.120000001
 20
5728251.039999999
 30
0.0
 11
7580228.24
 21
5728260.03
 31
0.0
  0
LINE
  5
100011D
330
1B
100
AcDbEntity
  8
EGB_DzialkaEwidencyjna
  6
Continuous
370
    18
100
AcDbLine
 10
7580228.24
 20
5728260.03
 30
0.0
 11
7580233.730000001
 21
5728268.09
 31
0.0
  0
LINE
  5
100011E
330
1B
100
AcDbEntity
  8
EGB_DzialkaEwidencyjna
  6
Continuous
370
    18
100
AcDbLine
 10
7580233.730000001
 20
5728268.09
 30
0.0
 11
7580236.42
 21
5728272.03
 31
0.0
  0
LINE
  5
100011F
330
1B
100
AcDbEntity
  8
EGB_DzialkaEwidencyjna
  6
Continuous
370
    18
100
AcDbLine
 10
7580236.42
 20
5728272.03
 30
0.0
 11
7580239.160000001
 21
5728276.059999999
 31
0.0
  0
LINE
  5
1000120
330
1B
100
AcDbEntity
  8
EGB_DzialkaEwidencyjna
  6
Continuous
370
    18
100
AcDbLine
 10
7580239.160000001
 20
5728276.059999999
 30
0.0
 11
7580240.41
 21
5728277.900000001
 31
0.0
  0
LINE
  5
1000121
330
1B
100
AcDbEntity
  8
EGB_DzialkaEwidencyjna
  6
Continuous
370
    18
100
AcDbLine
 10
7580240.41
 20
5728277.900000001
 30
0.0
 11
7580243.54
 21
5728282.44
 31
0.0
  0
LINE
  5
1000122
330
1B
100
AcDbEntity
  8
EGB_DzialkaEwidencyjna
  6
Continuous
370
    18
100
AcDbLine
 10
7580243.54
 20
5728282.44
 30
0.0
 11
7580248.230000001
 21
5728289.26
 31
0.0
  0
LINE
  5
1000123
330
1B
100
AcDbEntity
  8
EGB_DzialkaEwidencyjna
  6
Continuous
370
    18
100
AcDbLine
 10
7580248.230000001
 20
5728289.26
 30
0.0
 11
7580254.91
 21
5728298.96
 31
0.0
  0
LINE
  5
1000124
330
1B
100
AcDbEntity
  8
EGB_DzialkaEwidencyjna
  6
Continuous
370
    18
100
AcDbLine
 10
7580254.91
 20
5728298.96
 30
0.0
 11
7580260.09
 21
5728306.5
 31
0.0
  0
LINE
  5
1000125
330
1B
100
AcDbEntity
  8
EGB_DzialkaEwidencyjna
  6
Continuous
370
    18
100
AcDbLine
 10
7580260.09
 20
5728306.5
 30
0.0
 11
7580263.58
 21
5728311.57
 31
0.0
  0
LINE
  5
1000126
330
1B
100
AcDbEntity
  8
EGB_DzialkaEwidencyjna
  6
Continuous
370
    18
100
AcDbLine
 10
7580263.58
 20
5728311.57
 30
0.0
 11
7580267.950000001
 21
5728317.91
 31
0.0
  0
LINE
  5
1000127
330
1B
100
AcDbEntity
  8
EGB_DzialkaEwidencyjna
  6
Continuous
370
    18
100
AcDbLine
 10
7580267.950000001
 20
5728317.91
 30
0.0
 11
7580270.46
 21
5728321.559999999
 31
0.0
  0
LINE
  5
1000128
330
1B
100
AcDbEntity
  8
EGB_DzialkaEwidencyjna
  6
Continuous
370
    18
100
AcDbLine
 10
7580270.46
 20
5728321.559999999
 30
0.0
 11
7580271.8
 21
5728323.52
 31
0.0
  0
LINE
  5
1000129
330
1B
100
AcDbEntity
  8
EGB_DzialkaEwidencyjna
  6
Continuous
370
    18
100
AcDbLine
 10
7580271.8
 20
5728323.52
 30
0.0
 11
7580275.290000001
 21
5728328.59
 31
0.0
  0
LINE
  5
100012A
330
1B
100
AcDbEntity
  8
EGB_DzialkaEwidencyjna
  6
Continuous
370
    18
100
AcDbLine
 10
7580275.290000001
 20
5728328.59
 30
0.0
 11
7580278.969999999
 21
5728333.940000001
 31
0.0
  0
LINE
  5
100012B
330
1B
100
AcDbEntity
  8
EGB_DzialkaEwidencyjna
  6
Continuous
370
    18
100
AcDbLine
 10
7580278.969999999
 20
5728333.940000001
 30
0.0
 11
7580282.71
 21
5728339.369999999
 31
0.0
  0
LINE
  5
100012C
330
1B
100
AcDbEntity
  8
EGB_DzialkaEwidencyjna
  6
Continuous
370
    18
100
AcDbLine
 10
7580282.71
 20
5728339.369999999
 30
0.0
 11
7580286.74
 21
5728345.22
 31
0.0
  0
LINE
  5
100012D
330
1B
100
AcDbEntity
  8
EGB_DzialkaEwidencyjna
  6
Continuous
370
    18
100
AcDbLine
 10
7580286.74
 20
5728345.22
 30
0.0
 11
7580291.309999998
 21
5728351.86
 31
0.0
  0
LINE
  5
100012E
330
1B
100
AcDbEntity
  8
EGB_DzialkaEwidencyjna
  6
Continuous
370
    18
100
AcDbLine
 10
7580291.309999998
 20
5728351.86
 30
0.0
 11
7580293.04
 21
5728354.38
 31
0.0
  0
LINE
  5
100012F
330
1B
100
AcDbEntity
  8
EGB_DzialkaEwidencyjna
  6
Continuous
370
    18
100
AcDbLine
 10
7580293.04
 20
5728354.38
 30
0.0
 11
7580294.4
 21
5728356.35
 31
0.0
  0
LINE
  5
1000130
330
1B
100
AcDbEntity
  8
EGB_DzialkaEwidencyjna
  6
Continuous
370
    18
100
AcDbLine
 10
7580294.4
 20
5728356.35
 30
0.0
 11
7580295.92
 21
5728358.56
 31
0.0
  0
LINE
  5
1000131
330
1B
100
AcDbEntity
  8
EGB_DzialkaEwidencyjna
  6
Continuous
370
    18
100
AcDbLine
 10
7580295.92
 20
5728358.56
 30
0.0
 11
7580298.96
 21
5728362.98
 31
0.0
  0
LINE
  5
1000132
330
1B
100
AcDbEntity
  8
EGB_DzialkaEwidencyjna
  6
Continuous
370
    18
100
AcDbLine
 10
7580298.96
 20
5728362.98
 30
0.0
 11
7580301.96
 21
5728367.35
 31
0.0
  0
LINE
  5
1000133
330
1B
100
AcDbEntity
  8
EGB_DzialkaEwidencyjna
  6
Continuous
370
    18
100
AcDbLine
 10
7580301.96
 20
5728367.35
 30
0.0
 11
7580303.09
 21
5728368.989999999
 31
0.0
  0
LINE
  5
1000134
330
1B
100
AcDbEntity
  8
EGB_DzialkaEwidencyjna
  6
Continuous
370
    18
100
AcDbLine
 10
7580303.09
 20
5728368.989999999
 30
0.0
 11
7580305.019999998
 21
5728371.789999999
 31
0.0
  0
LINE
  5
1000135
330
1B
100
AcDbEntity
  8
EGB_DzialkaEwidencyjna
  6
Continuous
370
    18
100
AcDbLine
 10
7580305.019999998
 20
5728371.789999999
 30
0.0
 11
7580305.349999998
 21
5728372.27
 31
0.0
  0
LINE
  5
1000136
330
1B
100
AcDbEntity
  8
EGB_DzialkaEwidencyjna
  6
Continuous
370
    18
100
AcDbLine
 10
7580305.349999998
 20
5728372.27
 30
0.0
 11
7580307.940000001
 21
5728376.009999999
 31
0.0
  0
LINE
  5
1000137
330
1B
100
AcDbEntity
  8
EGB_DzialkaEwidencyjna
  6
Continuous
370
    18
100
AcDbLine
 10
7580307.940000001
 20
5728376.009999999
 30
0.0
 11
7580309.37
 21
5728378.079999999
 31
0.0
  0
LINE
  5
1000138
330
1B
100
AcDbEntity
  8
EGB_DzialkaEwidencyjna
  6
Continuous
370
    18
100
AcDbLine
 10
7580309.37
 20
5728378.079999999
 30
0.0
 11
7580311.059999999
 21
5728380.53
 31
0.0
  0
LINE
  5
1000139
330
1B
100
AcDbEntity
  8
EGB_DzialkaEwidencyjna
  6
Continuous
370
    18
100
AcDbLine
 10
7580311.059999999
 20
5728380.53
 30
0.0
 11
7580313.089999999
 21
5728383.459999999
 31
0.0
  0
LINE
  5
100013A
330
1B
100
AcDbEntity
  8
EGB_DzialkaEwidencyjna
  6
Continuous
370
    18
100
AcDbLine
 10
7580313.089999999
 20
5728383.459999999
 30
0.0
 11
7580314.4
 21
5728385.36
 31
0.0
  0
LINE
  5
100013B
330
1B
100
AcDbEntity
  8
EGB_DzialkaEwidencyjna
  6
Continuous
370
    18
100
AcDbLine
 10
7580314.4
 20
5728385.36
 30
0.0
 11
7580315.49
 21
5728386.93
 31
0.0
  0
LINE
  5
100013C
330
1B
100
AcDbEntity
  8
EGB_DzialkaEwidencyjna
  6
Continuous
370
    18
100
AcDbLine
 10
7580315.49
 20
5728386.93
 30
0.0
 11
7580317.900000001
 21
5728390.400000001
 31
0.0
  0
LINE
  5
100013D
330
1B
100
AcDbEntity
  8
EGB_DzialkaEwidencyjna
  6
Continuous
370
    18
100
AcDbLine
 10
7580317.900000001
 20
5728390.400000001
 30
0.0
 11
7580320.019999999
 21
5728393.469999999
 31
0.0
  0
LINE
  5
100013E
330
1B
100
AcDbEntity
  8
EGB_DzialkaEwidencyjna
  6
Continuous
370
    18
100
AcDbLine
 10
7580320.019999999
 20
5728393.469999999
 30
0.0
 11
7580322.2
 21
5728396.629999999
 31
0.0
  0
LINE
  5
100013F
330
1B
100
AcDbEntity
  8
EGB_DzialkaEwidencyjna
  6
Continuous
370
    18
100
AcDbLine
 10
7580322.2
 20
5728396.629999999
 30
0.0
 11
7580323.690000001
 21
5728398.78
 31
0.0
  0
LINE
  5
1000140
330
1B
100
AcDbEntity
  8
EGB_DzialkaEwidencyjna
  6
Continuous
370
    18
100
AcDbLine
 10
7580323.690000001
 20
5728398.78
 30
0.0
 11
7580325.24
 21
5728401.019999999
 31
0.0
  0
LINE
  5
1000141
330
1B
100
AcDbEntity
  8
EGB_DzialkaEwidencyjna
  6
Continuous
370
    18
100
AcDbLine
 10
7580325.24
 20
5728401.019999999
 30
0.0
 11
7580326.83
 21
5728403.329999999
 31
0.0
  0
LINE
  5
1000142
330
1B
100
AcDbEntity
  8
EGB_DzialkaEwidencyjna
  6
Continuous
370
    18
100
AcDbLine
 10
7580326.83
 20
5728403.329999999
 30
0.0
 11
7580328.38
 21
5728405.559999999
 31
0.0
  0
LINE
  5
1000143
330
1B
100
AcDbEntity
  8
EGB_DzialkaEwidencyjna
  6
Continuous
370
    18
100
AcDbLine
 10
7580328.38
 20
5728405.559999999
 30
0.0
 11
7580329.980000001
 21
5728407.87
 31
0.0
  0
LINE
  5
1000144
330
1B
100
AcDbEntity
  8
EGB_DzialkaEwidencyjna
  6
Continuous
370
    18
100
AcDbLine
 10
7580329.980000001
 20
5728407.87
 30
0.0
 11
7580331.519999998
 21
5728410.099999999
 31
0.0
  0
LINE
  5
1000145
330
1B
100
AcDbEntity
  8
EGB_DzialkaEwidencyjna
  6
Continuous
370
    18
100
AcDbLine
 10
7580331.519999998
 20
5728410.099999999
 30
0.0
 11
7580333.58
 21
5728413.07
 31
0.0
  0
LINE
  5
1000146
330
1B
100
AcDbEntity
  8
EGB_DzialkaEwidencyjna
  6
Continuous
370
    18
100
AcDbLine
 10
7580333.58
 20
5728413.07
 30
0.0
 11
7580334.269999998
 21
5728414.08
 31
0.0
  0
LINE
  5
1000147
330
1B
100
AcDbEntity
  8
EGB_DzialkaEwidencyjna
  6
Continuous
370
    18
100
AcDbLine
 10
7580334.269999998
 20
5728414.08
 30
0.0
 11
7580335.74
 21
5728416.2
 31
0.0
  0
LINE
  5
1000148
330
1B
100
AcDbEntity
  8
EGB_DzialkaEwidencyjna
  6
Continuous
370
    18
100
AcDbLine
 10
7580335.74
 20
5728416.2
 30
0.0
 11
7580337.690000001
 21
5728419.01
 31
0.0
  0
LINE
  5
1000149
330
1B
100
AcDbEntity
  8
EGB_DzialkaEwidencyjna
  6
Continuous
370
    18
100
AcDbLine
 10
7580337.690000001
 20
5728419.01
 30
0.0
 11
7580339.8
 21
5728422.07
 31
0.0
  0
LINE
  5
100014A
330
1B
100
AcDbEntity
  8
EGB_DzialkaEwidencyjna
  6
Continuous
370
    18
100
AcDbLine
 10
7580339.8
 20
5728422.07
 30
0.0
 11
7580341.86
 21
5728425.040000001
 31
0.0
  0
LINE
  5
100014B
330
1B
100
AcDbEntity
  8
EGB_DzialkaEwidencyjna
  6
Continuous
370
    18
100
AcDbLine
 10
7580341.86
 20
5728425.040000001
 30
0.0
 11
7580342.71
 21
5728426.28
 31
0.0
  0
LINE
  5
100014C
330
1B
100
AcDbEntity
  8
EGB_DzialkaEwidencyjna
  6
Continuous
370
    18
100
AcDbLine
 10
7580342.71
 20
5728426.28
 30
0.0
 11
7580344.019999999
 21
5728428.179999999
 31
0.0
  0
LINE
  5
100014D
330
1B
100
AcDbEntity
  8
EGB_DzialkaEwidencyjna
  6
Continuous
370
    18
100
AcDbLine
 10
7580344.019999999
 20
5728428.179999999
 30
0.0
 11
7580345.219999998
 21
5728429.9
 31
0.0
  0
LINE
  5
100014E
330
1B
100
AcDbEntity
  8
EGB_DzialkaEwidencyjna
  6
Continuous
370
    18
100
AcDbLine
 10
7580345.219999998
 20
5728429.9
 30
0.0
 11
7580346.3
 21
5728431.46
 31
0.0
  0
LINE
  5
100014F
330
1B
100
AcDbEntity
  8
EGB_DzialkaEwidencyjna
  6
Continuous
370
    18
100
AcDbLine
 10
7580346.3
 20
5728431.46
 30
0.0
 11
7580348.46
 21
5728434.59
 31
0.0
  0
LINE
  5
1000150
330
1B
100
AcDbEntity
  8
EGB_DzialkaEwidencyjna
  6
Continuous
370
    18
100
AcDbLine
 10
7580348.46
 20
5728434.59
 30
0.0
 11
7580349.940000001
 21
5728436.719999999
 31
0.0
  0
LINE
  5
1000151
330
1B
100
AcDbEntity
  8
EGB_DzialkaEwidencyjna
  6
Continuous
370
    18
100
AcDbLine
 10
7580349.940000001
 20
5728436.719999999
 30
0.0
 11
7580353.009999998
 21
5728441.16
 31
0.0
  0
LINE
  5
1000152
330
1B
100
AcDbEntity
  8
EGB_DzialkaEwidencyjna
  6
Continuous
370
    18
100
AcDbLine
 10
7580353.009999998
 20
5728441.16
 30
0.0
 11
7580355.339999999
 21
5728444.53
 31
0.0
  0
LINE
  5
1000153
330
1B
100
AcDbEntity
  8
EGB_DzialkaEwidencyjna
  6
Continuous
370
    18
100
AcDbLine
 10
7580355.339999999
 20
5728444.53
 30
0.0
 11
7580357.66
 21
5728447.889999999
 31
0.0
  0
LINE
  5
1000154
330
1B
100
AcDbEntity
  8
EGB_DzialkaEwidencyjna
  6
Continuous
370
    18
100
AcDbLine
 10
7580357.66
 20
5728447.889999999
 30
0.0
 11
7580360.0
 21
5728451.269999999
 31
0.0
  0
LINE
  5
1000155
330
1B
100
AcDbEntity
  8
EGB_DzialkaEwidencyjna
  6
Continuous
370
    18
100
AcDbLine
 10
7580360.0
 20
5728451.269999999
 30
0.0
 11
7580362.23
 21
5728454.49
 31
0.0
  0
LINE
  5
1000156
330
1B
100
AcDbEntity
  8
EGB_DzialkaEwidencyjna
  6
Continuous
370
    18
100
AcDbLine
 10
7580362.23
 20
5728454.49
 30
0.0
 11
7580364.57
 21
5728457.87
 31
0.0
  0
LINE
  5
1000157
330
1B
100
AcDbEntity
  8
EGB_DzialkaEwidencyjna
  6
Continuous
370
    18
100
AcDbLine
 10
7580364.57
 20
5728457.87
 30
0.0
 11
7580366.87
 21
5728461.21
 31
0.0
  0
LINE
  5
1000158
330
1B
100
AcDbEntity
  8
EGB_DzialkaEwidencyjna
  6
Continuous
370
    18
100
AcDbLine
 10
7580366.87
 20
5728461.21
 30
0.0
 11
7580369.719999999
 21
5728465.32
 31
0.0
  0
LINE
  5
1000159
330
1B
100
AcDbEntity
  8
EGB_DzialkaEwidencyjna
  6
Continuous
370
    18
100
AcDbLine
 10
7580369.719999999
 20
5728465.32
 30
0.0
 11
7580371.759999999
 21
5728468.269999999
 31
0.0
  0
LINE
  5
100015A
330
1B
100
AcDbEntity
  8
EGB_DzialkaEwidencyjna
  6
Continuous
370
    18
100
AcDbLine
 10
7580371.759999999
 20
5728468.269999999
 30
0.0
 11
7580374.08
 21
5728471.63
 31
0.0
  0
LINE
  5
100015B
330
1B
100
AcDbEntity
  8
EGB_DzialkaEwidencyjna
  6
Continuous
370
    18
100
AcDbLine
 10
7580374.08
 20
5728471.63
 30
0.0
 11
7580376.24
 21
5728474.75
 31
0.0
  0
LINE
  5
100015C
330
1B
100
AcDbEntity
  8
EGB_DzialkaEwidencyjna
  6
Continuous
370
    18
100
AcDbLine
 10
7580376.24
 20
5728474.75
 30
0.0
 11
7580378.4
 21
5728477.87
 31
0.0
  0
LINE
  5
100015D
330
1B
100
AcDbEntity
  8
EGB_DzialkaEwidencyjna
  6
Continuous
370
    18
100
AcDbLine
 10
7580378.4
 20
5728477.87
 30
0.0
 11
7580380.61
 21
5728481.06
 31
0.0
  0
LINE
  5
100015E
330
1B
100
AcDbEntity
  8
EGB_DzialkaEwidencyjna
  6
Continuous
370
    18
100
AcDbLine
 10
7580380.61
 20
5728481.06
 30
0.0
 11
7580382.71
 21
5728484.099999999
 31
0.0
  0
LINE
  5
100015F
330
1B
100
AcDbEntity
  8
EGB_DzialkaEwidencyjna
  6
Continuous
370
    18
100
AcDbLine
 10
7580382.71
 20
5728484.099999999
 30
0.0
 11
7580384.87
 21
5728487.219999999
 31
0.0
  0
LINE
  5
1000160
330
1B
100
AcDbEntity
  8
EGB_DzialkaEwidencyjna
  6
Continuous
370
    18
100
AcDbLine
 10
7580384.87
 20
5728487.219999999
 30
0.0
 11
7580387.96
 21
5728486.93
 31
0.0
  0
LINE
  5
1000161
330
1B
100
AcDbEntity
  8
EGB_DzialkaEwidencyjna
  6
Continuous
370
    18
100
AcDbLine
 10
7580387.96
 20
5728486.93
 30
0.0
 11
7580383.650000001
 21
5728480.67
 31
0.0
  0
LINE
  5
1000162
330
1B
100
AcDbEntity
  8
EGB_DzialkaEwidencyjna
  6
Continuous
370
    18
100
AcDbLine
 10
7580383.650000001
 20
5728480.67
 30
0.0
 11
7580379.4
 21
5728474.499999999
 31
0.0
  0
LINE
  5
1000163
330
1B
100
AcDbEntity
  8
EGB_DzialkaEwidencyjna
  6
Continuous
370
    18
100
AcDbLine
 10
7580379.4
 20
5728474.499999999
 30
0.0
 11
7580377.25
 21
5728471.370000001
 31
0.0
  0
LINE
  5
1000164
330
1B
100
AcDbEntity
  8
EGB_DzialkaEwidencyjna
  6
Continuous
370
    18
100
AcDbLine
 10
7580377.25
 20
5728471.370000001
 30
0.0
 11
7580375.09
 21
5728468.24
 31
0.0
  0
LINE
  5
1000165
330
1B
100
AcDbEntity
  8
EGB_DzialkaEwidencyjna
  6
Continuous
370
    18
100
AcDbLine
 10
7580375.09
 20
5728468.24
 30
0.0
 11
7580370.5
 21
5728461.57
 31
0.0
  0
LINE
  5
1000166
330
1B
100
AcDbEntity
  8
EGB_DzialkaEwidencyjna
  6
Continuous
370
    18
100
AcDbLine
 10
7580370.5
 20
5728461.57
 30
0.0
 11
7580361.54
 21
5728448.559999999
 31
0.0
  0
LINE
  5
1000167
330
1B
100
AcDbEntity
  8
EGB_DzialkaEwidencyjna
  6
Continuous
370
    18
100
AcDbLine
 10
7580361.54
 20
5728448.559999999
 30
0.0
 11
7580356.33
 21
5728440.98
 31
0.0
  0
LINE
  5
1000168
330
1B
100
AcDbEntity
  8
EGB_DzialkaEwidencyjna
  6
Continuous
370
    18
100
AcDbLine
 10
7580356.33
 20
5728440.98
 30
0.0
 11
7580351.4
 21
5728433.82
 31
0.0
  0
LINE
  5
1000169
330
1B
100
AcDbEntity
  8
EGB_DzialkaEwidencyjna
  6
Continuous
370
    18
100
AcDbLine
 10
7580351.4
 20
5728433.82
 30
0.0
 11
7580346.349999999
 21
5728426.49
 31
0.0
  0
LINE
  5
100016A
330
1B
100
AcDbEntity
  8
EGB_DzialkaEwidencyjna
  6
Continuous
370
    18
100
AcDbLine
 10
7580346.349999999
 20
5728426.49
 30
0.0
 11
7580341.469999999
 21
5728419.409999999
 31
0.0
  0
LINE
  5
100016B
330
1B
100
AcDbEntity
  8
EGB_DzialkaEwidencyjna
  6
Continuous
370
    18
100
AcDbLine
 10
7580341.469999999
 20
5728419.409999999
 30
0.0
 11
7580336.49
 21
5728412.16
 31
0.0
  0
LINE
  5
100016C
330
1B
100
AcDbEntity
  8
EGB_DzialkaEwidencyjna
  6
Continuous
370
    18
100
AcDbLine
 10
7580336.49
 20
5728412.16
 30
0.0
 11
7580331.549999999
 21
5728405.0
 31
0.0
  0
LINE
  5
100016D
330
1B
100
AcDbEntity
  8
EGB_DzialkaEwidencyjna
  6
Continuous
370
    18
100
AcDbLine
 10
7580331.549999999
 20
5728405.0
 30
0.0
 11
7580326.23
 21
5728397.26
 31
0.0
  0
LINE
  5
100016E
330
1B
100
AcDbEntity
  8
EGB_DzialkaEwidencyjna
  6
Continuous
370
    18
100
AcDbLine
 10
7580326.23
 20
5728397.26
 30
0.0
 11
7580321.009999998
 21
5728389.68
 31
0.0
  0
LINE
  5
100016F
330
1B
100
AcDbEntity
  8
EGB_DzialkaEwidencyjna
  6
Continuous
370
    18
100
AcDbLine
 10
7580321.009999998
 20
5728389.68
 30
0.0
 11
7580311.200000001
 21
5728375.429999999
 31
0.0
  0
LINE
  5
1000170
330
1B
100
AcDbEntity
  8
EGB_DzialkaEwidencyjna
  6
Continuous
370
    18
100
AcDbLine
 10
7580311.200000001
 20
5728375.429999999
 30
0.0
 11
7580307.82
 21
5728370.57
 31
0.0
  0
LINE
  5
1000171
330
1B
100
AcDbEntity
  8
EGB_DzialkaEwidencyjna
  6
Continuous
370
    18
100
AcDbLine
 10
7580307.82
 20
5728370.57
 30
0.0
 11
7580305.420000001
 21
5728367.03
 31
0.0
  0
LINE
  5
1000172
330
1B
100
AcDbEntity
  8
EGB_DzialkaEwidencyjna
  6
Continuous
370
    18
100
AcDbLine
 10
7580305.420000001
 20
5728367.03
 30
0.0
 11
7580300.429999998
 21
5728359.79
 31
0.0
  0
LINE
  5
1000173
330
1B
100
AcDbEntity
  8
EGB_DzialkaEwidencyjna
  6
Continuous
370
    18
100
AcDbLine
 10
7580300.429999998
 20
5728359.79
 30
0.0
 11
7580295.219999999
 21
5728352.21
 31
0.0
  0
LINE
  5
1000174
330
1B
100
AcDbEntity
  8
EGB_DzialkaEwidencyjna
  6
Continuous
370
    18
100
AcDbLine
 10
7580295.219999999
 20
5728352.21
 30
0.0
 11
7580290.230000001
 21
5728344.970000001
 31
0.0
  0
LINE
  5
1000175
330
1B
100
AcDbEntity
  8
EGB_DzialkaEwidencyjna
  6
Continuous
370
    18
100
AcDbLine
 10
7580290.230000001
 20
5728344.970000001
 30
0.0
 11
7580285.469999998
 21
5728338.049999999
 31
0.0
  0
LINE
  5
1000176
330
1B
100
AcDbEntity
  8
EGB_DzialkaEwidencyjna
  6
Continuous
370
    18
100
AcDbLine
 10
7580285.469999998
 20
5728338.049999999
 30
0.0
 11
7580279.969999999
 21
5728330.059999999
 31
0.0
  0
LINE
  5
1000177
330
1B
100
AcDbEntity
  8
EGB_DzialkaEwidencyjna
  6
Continuous
370
    18
100
AcDbLine
 10
7580279.969999999
 20
5728330.059999999
 30
0.0
 11
7580271.41
 21
5728317.63
 31
0.0
  0
LINE
  5
1000178
330
1B
100
AcDbEntity
  8
EGB_DzialkaEwidencyjna
  6
Continuous
370
    18
100
AcDbLine
 10
7580271.41
 20
5728317.63
 30
0.0
 11
7580267.269999999
 21
5728311.62
 31
0.0
  0
LINE
  5
1000179
330
1B
100
AcDbEntity
  8
EGB_DzialkaEwidencyjna
  6
Continuous
370
    18
100
AcDbLine
 10
7580267.269999999
 20
5728311.62
 30
0.0
 11
7580262.849999999
 21
5728305.190000001
 31
0.0
  0
LINE
  5
100017A
330
1B
100
AcDbEntity
  8
EGB_DzialkaEwidencyjna
  6
Continuous
370
    18
100
AcDbLine
 10
7580262.849999999
 20
5728305.190000001
 30
0.0
 11
7580258.54
 21
5728298.93
 31
0.0
  0
LINE
  5
100017B
330
1B
100
AcDbEntity
  8
EGB_DzialkaEwidencyjna
  6
Continuous
370
    18
100
AcDbLine
 10
7580258.54
 20
5728298.93
 30
0.0
 11
7580254.34
 21
5728292.84
 31
0.0
  0
LINE
  5
100017C
330
1B
100
AcDbEntity
  8
EGB_DzialkaEwidencyjna
  6
Continuous
370
    18
100
AcDbLine
 10
7580254.34
 20
5728292.84
 30
0.0
 11
7580245.33
 21
5728279.75
 31
0.0
  0
LINE
  5
100017D
330
1B
100
AcDbEntity
  8
EGB_DzialkaEwidencyjna
  6
Continuous
370
    18
100
AcDbLine
 10
7580245.33
 20
5728279.75
 30
0.0
 11
7580242.89
 21
5728276.21
 31
0.0
  0
LINE
  5
100017E
330
1B
100
AcDbEntity
  8
EGB_DzialkaEwidencyjna
  6
Continuous
370
    18
100
AcDbLine
 10
7580242.89
 20
5728276.21
 30
0.0
 11
7580241.519999998
 21
5728274.2
 31
0.0
  0
LINE
  5
100017F
330
1B
100
AcDbEntity
  8
EGB_DzialkaEwidencyjna
  6
Continuous
370
    18
100
AcDbLine
 10
7580241.519999998
 20
5728274.2
 30
0.0
 11
7580237.24
 21
5728267.91
 31
0.0
  0
LINE
  5
1000180
330
1B
100
AcDbEntity
  8
EGB_DzialkaEwidencyjna
  6
Continuous
370
    18
100
AcDbLine
 10
7580237.24
 20
5728267.91
 30
0.0
 11
7580232.67
 21
5728261.21
 31
0.0
  0
LINE
  5
1000181
330
1B
100
AcDbEntity
  8
EGB_DzialkaEwidencyjna
  6
Continuous
370
    18
100
AcDbLine
 10
7580232.67
 20
5728261.21
 30
0.0
 11
7580228.389999998
 21
5728254.92
 31
0.0
  0
LINE
  5
1000182
330
1B
100
AcDbEntity
  8
EGB_DzialkaEwidencyjna
  6
Continuous
370
    18
100
AcDbLine
 10
7580228.389999998
 20
5728254.92
 30
0.0
 11
7580219.37
 21
5728241.68
 31
0.0
  0
LINE
  5
1000183
330
1B
100
AcDbEntity
  8
EGB_DzialkaEwidencyjna
  6
Continuous
370
    18
100
AcDbLine
 10
7580219.37
 20
5728241.68
 30
0.0
 11
7580215.15
 21
5728235.480000001
 31
0.0
  0
LINE
  5
1000184
330
1B
100
AcDbEntity
  8
EGB_DzialkaEwidencyjna
  6
Continuous
370
    18
100
AcDbLine
 10
7580215.15
 20
5728235.480000001
 30
0.0
 11
7580211.04
 21
5728229.449999999
 31
0.0
  0
LINE
  5
1000185
330
1B
100
AcDbEntity
  8
EGB_DzialkaEwidencyjna
  6
Continuous
370
    18
100
AcDbLine
 10
7580211.04
 20
5728229.449999999
 30
0.0
 11
7580206.639999999
 21
5728222.99
 31
0.0
  0
LINE
  5
1000186
330
1B
100
AcDbEntity
  8
EGB_DzialkaEwidencyjna
  6
Continuous
370
    18
100
AcDbLine
 10
7580206.639999999
 20
5728222.99
 30
0.0
 11
7580202.41
 21
5728216.79
 31
0.0
  0
LINE
  5
1000187
330
1B
100
AcDbEntity
  8
EGB_DzialkaEwidencyjna
  6
Continuous
370
    18
100
AcDbLine
 10
7580202.41
 20
5728216.79
 30
0.0
 11
7580198.250000001
 21
5728210.68
 31
0.0
  0
LINE
  5
1000188
330
1B
100
AcDbEntity
  8
EGB_DzialkaEwidencyjna
  6
Continuous
370
    18
100
AcDbLine
 10
7580198.250000001
 20
5728210.68
 30
0.0
 11
7580193.969999998
 21
5728204.39
 31
0.0
  0
LINE
  5
1000189
330
1B
100
AcDbEntity
  8
EGB_DzialkaEwidencyjna
  6
Continuous
370
    18
100
AcDbLine
 10
7580193.969999998
 20
5728204.39
 30
0.0
 11
7580189.509999999
 21
5728197.86
 31
0.0
  0
LINE
  5
100018A
330
1B
100
AcDbEntity
  8
EGB_DzialkaEwidencyjna
  6
Continuous
370
    18
100
AcDbLine
 10
7580189.509999999
 20
5728197.86
 30
0.0
 11
7580181.46
 21
5728186.04
 31
0.0
  0
LINE
  5
100018B
330
1B
100
AcDbEntity
  8
EGB_DzialkaEwidencyjna
  6
Continuous
370
    18
100
AcDbLine
 10
7579414.129999999
 20
5727872.05
 30
0.0
 11
7579339.75
 21
5727897.23
 31
0.0
  0
LINE
  5
100018C
330
1B
100
AcDbEntity
  8
EGB_DzialkaEwidencyjna
  6
Continuous
370
    18
100
AcDbLine
 10
7579339.75
 20
5727897.23
 30
0.0
 11
7579481.75
 21
5728314.8
 31
0.0
  0
LINE
  5
100018D
330
1B
100
AcDbEntity
  8
EGB_DzialkaEwidencyjna
  6
Continuous
370
    18
100
AcDbLine
 10
7579481.75
 20
5728314.8
 30
0.0
 11
7579556.88
 21
5728291.79
 31
0.0
  0
LINE
  5
100018E
330
1B
100
AcDbEntity
  8
EGB_DzialkaEwidencyjna
  6
Continuous
370
    18
100
AcDbLine
 10
7579556.88
 20
5728291.79
 30
0.0
 11
7579414.129999999
 21
5727872.05
 31
0.0
  0
LINE
  5
100018F
330
1B
100
AcDbEntity
  8
EGB_DzialkaEwidencyjna
  6
Continuous
370
    18
100
AcDbLine
 10
7579537.24
 20
5728300.89
 30
0.0
 11
7579616.480000001
 21
5728456.17
 31
0.0
  0
LINE
  5
1000190
330
1B
100
AcDbEntity
  8
EGB_DzialkaEwidencyjna
  6
Continuous
370
    18
100
AcDbLine
 10
7579616.480000001
 20
5728456.17
 30
0.0
 11
7579627.94
 21
5728487.49
 31
0.0
  0
LINE
  5
1000191
330
1B
100
AcDbEntity
  8
EGB_DzialkaEwidencyjna
  6
Continuous
370
    18
100
AcDbLine
 10
7579627.94
 20
5728487.49
 30
0.0
 11
7579640.969999999
 21
5728568.049999999
 31
0.0
  0
LINE
  5
1000192
330
1B
100
AcDbEntity
  8
EGB_DzialkaEwidencyjna
  6
Continuous
370
    18
100
AcDbLine
 10
7579640.969999999
 20
5728568.049999999
 30
0.0
 11
7579657.259999999
 21
5728566.26
 31
0.0
  0
LINE
  5
1000193
330
1B
100
AcDbEntity
  8
EGB_DzialkaEwidencyjna
  6
Continuous
370
    18
100
AcDbLine
 10
7579657.259999999
 20
5728566.26
 30
0.0
 11
7579632.46
 21
5728485.849999999
 31
0.0
  0
LINE
  5
1000194
330
1B
100
AcDbEntity
  8
EGB_DzialkaEwidencyjna
  6
Continuous
370
    18
100
AcDbLine
 10
7579632.46
 20
5728485.849999999
 30
0.0
 11
7579620.8
 21
5728454.6
 31
0.0
  0
LINE
  5
1000195
330
1B
100
AcDbEntity
  8
EGB_DzialkaEwidencyjna
  6
Continuous
370
    18
100
AcDbLine
 10
7579620.8
 20
5728454.6
 30
0.0
 11
7579565.96
 21
5728292.11
 31
0.0
  0
LINE
  5
1000196
330
1B
100
AcDbEntity
  8
EGB_DzialkaEwidencyjna
  6
Continuous
370
    18
100
AcDbLine
 10
7579565.96
 20
5728292.11
 30
0.0
 11
7579537.24
 21
5728300.89
 31
0.0
  0
LINE
  5
1000197
330
1B
100
AcDbEntity
  8
EGB_DzialkaEwidencyjna
  6
Continuous
370
    18
100
AcDbLine
 10
7579575.63
 20
5728289.150000001
 30
0.0
 11
7579565.96
 21
5728292.11
 31
0.0
  0
LINE
  5
1000198
330
1B
100
AcDbEntity
  8
EGB_DzialkaEwidencyjna
  6
Continuous
370
    18
100
AcDbLine
 10
7579565.96
 20
5728292.11
 30
0.0
 11
7579620.8
 21
5728454.6
 31
0.0
  0
LINE
  5
1000199
330
1B
100
AcDbEntity
  8
EGB_DzialkaEwidencyjna
  6
Continuous
370
    18
100
AcDbLine
 10
7579620.8
 20
5728454.6
 30
0.0
 11
7579632.46
 21
5728485.849999999
 31
0.0
  0
LINE
  5
100019A
330
1B
100
AcDbEntity
  8
EGB_DzialkaEwidencyjna
  6
Continuous
370
    18
100
AcDbLine
 10
7579632.46
 20
5728485.849999999
 30
0.0
 11
7579657.259999999
 21
5728566.26
 31
0.0
  0
LINE
  5
100019B
330
1B
100
AcDbEntity
  8
EGB_DzialkaEwidencyjna
  6
Continuous
370
    18
100
AcDbLine
 10
7579657.259999999
 20
5728566.26
 30
0.0
 11
7579668.179999998
 21
5728565.06
 31
0.0
  0
LINE
  5
100019C
330
1B
100
AcDbEntity
  8
EGB_DzialkaEwidencyjna
  6
Continuous
370
    18
100
AcDbLine
 10
7579668.179999998
 20
5728565.06
 30
0.0
 11
7579575.63
 21
5728289.150000001
 31
0.0
  0
LINE
  5
100019D
330
1B
100
AcDbEntity
  8
EGB_DzialkaEwidencyjna
  6
Continuous
370
    18
100
AcDbLine
 10
7579488.7
 20
5728346.58
 30
0.0
 11
7579491.0
 21
5728348.66
 31
0.0
  0
LINE
  5
100019E
330
1B
100
AcDbEntity
  8
EGB_DzialkaEwidencyjna
  6
Continuous
370
    18
100
AcDbLine
 10
7579491.0
 20
5728348.66
 30
0.0
 11
7579521.759999998
 21
5728328.610000001
 31
0.0
  0
LINE
  5
100019F
330
1B
100
AcDbEntity
  8
EGB_DzialkaEwidencyjna
  6
Continuous
370
    18
100
AcDbLine
 10
7579521.759999998
 20
5728328.610000001
 30
0.0
 11
7579508.519999999
 21
5728309.669999999
 31
0.0
  0
LINE
  5
10001A0
330
1B
100
AcDbEntity
  8
EGB_DzialkaEwidencyjna
  6
Continuous
370
    18
100
AcDbLine
 10
7579508.519999999
 20
5728309.669999999
 30
0.0
 11
7579505.17
 21
5728310.7
 31
0.0
  0
LINE
  5
10001A1
330
1B
100
AcDbEntity
  8
EGB_DzialkaEwidencyjna
  6
Continuous
370
    18
100
AcDbLine
 10
7579505.17
 20
5728310.7
 30
0.0
 11
7579517.139999999
 21
5728327.71
 31
0.0
  0
LINE
  5
10001A2
330
1B
100
AcDbEntity
  8
EGB_DzialkaEwidencyjna
  6
Continuous
370
    18
100
AcDbLine
 10
7579517.139999999
 20
5728327.71
 30
0.0
 11
7579488.7
 21
5728346.58
 31
0.0
  0
LINE
  5
10001A3
330
1B
100
AcDbEntity
  8
EGB_DzialkaEwidencyjna
  6
Continuous
370
    18
100
AcDbLine
 10
7578513.389999999
 20
5729267.53
 30
0.0
 11
7578541.71
 21
5729259.26
 31
0.0
  0
LINE
  5
10001A4
330
1B
100
AcDbEntity
  8
EGB_DzialkaEwidencyjna
  6
Continuous
370
    18
100
AcDbLine
 10
7578541.71
 20
5729259.26
 30
0.0
 11
7578559.469999999
 21
5729254.059999999
 31
0.0
  0
LINE
  5
10001A5
330
1B
100
AcDbEntity
  8
EGB_DzialkaEwidencyjna
  6
Continuous
370
    18
100
AcDbLine
 10
7578559.469999999
 20
5729254.059999999
 30
0.0
 11
7578586.549999999
 21
5729246.139999999
 31
0.0
  0
LINE
  5
10001A6
330
1B
100
AcDbEntity
  8
EGB_DzialkaEwidencyjna
  6
Continuous
370
    18
100
AcDbLine
 10
7578586.549999999
 20
5729246.139999999
 30
0.0
 11
7578617.08
 21
5729233.240000001
 31
0.0
  0
LINE
  5
10001A7
330
1B
100
AcDbEntity
  8
EGB_DzialkaEwidencyjna
  6
Continuous
370
    18
100
AcDbLine
 10
7578617.08
 20
5729233.240000001
 30
0.0
 11
7578633.74
 21
5729226.2
 31
0.0
  0
LINE
  5
10001A8
330
1B
100
AcDbEntity
  8
EGB_DzialkaEwidencyjna
  6
Continuous
370
    18
100
AcDbLine
 10
7578633.74
 20
5729226.2
 30
0.0
 11
7578648.219999998
 21
5729216.570000001
 31
0.0
  0
LINE
  5
10001A9
330
1B
100
AcDbEntity
  8
EGB_DzialkaEwidencyjna
  6
Continuous
370
    18
100
AcDbLine
 10
7578648.219999998
 20
5729216.570000001
 30
0.0
 11
7578653.389999999
 21
5729213.12
 31
0.0
  0
LINE
  5
10001AA
330
1B
100
AcDbEntity
  8
EGB_DzialkaEwidencyjna
  6
Continuous
370
    18
100
AcDbLine
 10
7578653.389999999
 20
5729213.12
 30
0.0
 11
7578657.04
 21
5729209.61
 31
0.0
  0
LINE
  5
10001AB
330
1B
100
AcDbEntity
  8
EGB_DzialkaEwidencyjna
  6
Continuous
370
    18
100
AcDbLine
 10
7578657.04
 20
5729209.61
 30
0.0
 11
7578671.33
 21
5729195.78
 31
0.0
  0
LINE
  5
10001AC
330
1B
100
AcDbEntity
  8
EGB_DzialkaEwidencyjna
  6
Continuous
370
    18
100
AcDbLine
 10
7578671.33
 20
5729195.78
 30
0.0
 11
7578697.66
 21
5729169.360000001
 31
0.0
  0
LINE
  5
10001AD
330
1B
100
AcDbEntity
  8
EGB_DzialkaEwidencyjna
  6
Continuous
370
    18
100
AcDbLine
 10
7578697.66
 20
5729169.360000001
 30
0.0
 11
7578710.38
 21
5729156.6
 31
0.0
  0
LINE
  5
10001AE
330
1B
100
AcDbEntity
  8
EGB_DzialkaEwidencyjna
  6
Continuous
370
    18
100
AcDbLine
 10
7578710.38
 20
5729156.6
 30
0.0
 11
7578727.940000001
 21
5729138.97
 31
0.0
  0
LINE
  5
10001AF
330
1B
100
AcDbEntity
  8
EGB_DzialkaEwidencyjna
  6
Continuous
370
    18
100
AcDbLine
 10
7578727.940000001
 20
5729138.97
 30
0.0
 11
7578741.269999999
 21
5729125.589999999
 31
0.0
  0
LINE
  5
10001B0
330
1B
100
AcDbEntity
  8
EGB_DzialkaEwidencyjna
  6
Continuous
370
    18
100
AcDbLine
 10
7578741.269999999
 20
5729125.589999999
 30
0.0
 11
7578750.059999999
 21
5729116.769999999
 31
0.0
  0
LINE
  5
10001B1
330
1B
100
AcDbEntity
  8
EGB_DzialkaEwidencyjna
  6
Continuous
370
    18
100
AcDbLine
 10
7578750.059999999
 20
5729116.769999999
 30
0.0
 11
7578758.539999999
 21
5729108.25
 31
0.0
  0
LINE
  5
10001B2
330
1B
100
AcDbEntity
  8
EGB_DzialkaEwidencyjna
  6
Continuous
370
    18
100
AcDbLine
 10
7578758.539999999
 20
5729108.25
 30
0.0
 11
7578775.53
 21
5729091.2
 31
0.0
  0
LINE
  5
10001B3
330
1B
100
AcDbEntity
  8
EGB_DzialkaEwidencyjna
  6
Continuous
370
    18
100
AcDbLine
 10
7578775.53
 20
5729091.2
 30
0.0
 11
7578784.349999998
 21
5729082.349999999
 31
0.0
  0
LINE
  5
10001B4
330
1B
100
AcDbEntity
  8
EGB_DzialkaEwidencyjna
  6
Continuous
370
    18
100
AcDbLine
 10
7578784.349999998
 20
5729082.349999999
 30
0.0
 11
7578793.54
 21
5729073.12
 31
0.0
  0
LINE
  5
10001B5
330
1B
100
AcDbEntity
  8
EGB_DzialkaEwidencyjna
  6
Continuous
370
    18
100
AcDbLine
 10
7578793.54
 20
5729073.12
 30
0.0
 11
7578795.66
 21
5729070.99
 31
0.0
  0
LINE
  5
10001B6
330
1B
100
AcDbEntity
  8
EGB_DzialkaEwidencyjna
  6
Continuous
370
    18
100
AcDbLine
 10
7578795.66
 20
5729070.99
 30
0.0
 11
7578838.190000001
 21
5729028.31
 31
0.0
  0
LINE
  5
10001B7
330
1B
100
AcDbEntity
  8
EGB_DzialkaEwidencyjna
  6
Continuous
370
    18
100
AcDbLine
 10
7578838.190000001
 20
5729028.31
 30
0.0
 11
7578851.62
 21
5729014.99
 31
0.0
  0
LINE
  5
10001B8
330
1B
100
AcDbEntity
  8
EGB_DzialkaEwidencyjna
  6
Continuous
370
    18
100
AcDbLine
 10
7578851.62
 20
5729014.99
 30
0.0
 11
7578869.259999999
 21
5728997.5
 31
0.0
  0
LINE
  5
10001B9
330
1B
100
AcDbEntity
  8
EGB_DzialkaEwidencyjna
  6
Continuous
370
    18
100
AcDbLine
 10
7578869.259999999
 20
5728997.5
 30
0.0
 11
7578878.050000001
 21
5728988.78
 31
0.0
  0
LINE
  5
10001BA
330
1B
100
AcDbEntity
  8
EGB_DzialkaEwidencyjna
  6
Continuous
370
    18
100
AcDbLine
 10
7578878.050000001
 20
5728988.78
 30
0.0
 11
7578878.06
 21
5728988.769999999
 31
0.0
  0
LINE
  5
10001BB
330
1B
100
AcDbEntity
  8
EGB_DzialkaEwidencyjna
  6
Continuous
370
    18
100
AcDbLine
 10
7578878.06
 20
5728988.769999999
 30
0.0
 11
7578894.670000001
 21
5728972.24
 31
0.0
  0
LINE
  5
10001BC
330
1B
100
AcDbEntity
  8
EGB_DzialkaEwidencyjna
  6
Continuous
370
    18
100
AcDbLine
 10
7578894.670000001
 20
5728972.24
 30
0.0
 11
7578922.599999998
 21
5728944.45
 31
0.0
  0
LINE
  5
10001BD
330
1B
100
AcDbEntity
  8
EGB_DzialkaEwidencyjna
  6
Continuous
370
    18
100
AcDbLine
 10
7578922.599999998
 20
5728944.45
 30
0.0
 11
7578941.379999999
 21
5728925.76
 31
0.0
  0
LINE
  5
10001BE
330
1B
100
AcDbEntity
  8
EGB_DzialkaEwidencyjna
  6
Continuous
370
    18
100
AcDbLine
 10
7578941.379999999
 20
5728925.76
 30
0.0
 11
7578948.929999999
 21
5728918.639999999
 31
0.0
  0
LINE
  5
10001BF
330
1B
100
AcDbEntity
  8
EGB_DzialkaEwidencyjna
  6
Continuous
370
    18
100
AcDbLine
 10
7578948.929999999
 20
5728918.639999999
 30
0.0
 11
7578960.219999999
 21
5728907.97
 31
0.0
  0
LINE
  5
10001C0
330
1B
100
AcDbEntity
  8
EGB_DzialkaEwidencyjna
  6
Continuous
370
    18
100
AcDbLine
 10
7578960.219999999
 20
5728907.97
 30
0.0
 11
7578983.719999999
 21
5728894.03
 31
0.0
  0
LINE
  5
10001C1
330
1B
100
AcDbEntity
  8
EGB_DzialkaEwidencyjna
  6
Continuous
370
    18
100
AcDbLine
 10
7578983.719999999
 20
5728894.03
 30
0.0
 11
7579006.92
 21
5728883.070000001
 31
0.0
  0
LINE
  5
10001C2
330
1B
100
AcDbEntity
  8
EGB_DzialkaEwidencyjna
  6
Continuous
370
    18
100
AcDbLine
 10
7579006.92
 20
5728883.070000001
 30
0.0
 11
7579040.849999999
 21
5728867.049999999
 31
0.0
  0
LINE
  5
10001C3
330
1B
100
AcDbEntity
  8
EGB_DzialkaEwidencyjna
  6
Continuous
370
    18
100
AcDbLine
 10
7579040.849999999
 20
5728867.049999999
 30
0.0
 11
7579054.990000001
 21
5728860.369999999
 31
0.0
  0
LINE
  5
10001C4
330
1B
100
AcDbEntity
  8
EGB_DzialkaEwidencyjna
  6
Continuous
370
    18
100
AcDbLine
 10
7579054.990000001
 20
5728860.369999999
 30
0.0
 11
7579069.920000001
 21
5728852.230000001
 31
0.0
  0
LINE
  5
10001C5
330
1B
100
AcDbEntity
  8
EGB_DzialkaEwidencyjna
  6
Continuous
370
    18
100
AcDbLine
 10
7579069.920000001
 20
5728852.230000001
 30
0.0
 11
7579102.610000001
 21
5728832.889999999
 31
0.0
  0
LINE
  5
10001C6
330
1B
100
AcDbEntity
  8
EGB_DzialkaEwidencyjna
  6
Continuous
370
    18
100
AcDbLine
 10
7579102.610000001
 20
5728832.889999999
 30
0.0
 11
7579177.219999999
 21
5728789.299999999
 31
0.0
  0
LINE
  5
10001C7
330
1B
100
AcDbEntity
  8
EGB_DzialkaEwidencyjna
  6
Continuous
370
    18
100
AcDbLine
 10
7579177.219999999
 20
5728789.299999999
 30
0.0
 11
7579180.54
 21
5728787.35
 31
0.0
  0
LINE
  5
10001C8
330
1B
100
AcDbEntity
  8
EGB_DzialkaEwidencyjna
  6
Continuous
370
    18
100
AcDbLine
 10
7579180.54
 20
5728787.35
 30
0.0
 11
7579215.610000001
 21
5728765.22
 31
0.0
  0
LINE
  5
10001C9
330
1B
100
AcDbEntity
  8
EGB_DzialkaEwidencyjna
  6
Continuous
370
    18
100
AcDbLine
 10
7579215.610000001
 20
5728765.22
 30
0.0
 11
7579232.75
 21
5728754.4
 31
0.0
  0
LINE
  5
10001CA
330
1B
100
AcDbEntity
  8
EGB_DzialkaEwidencyjna
  6
Continuous
370
    18
100
AcDbLine
 10
7579232.75
 20
5728754.4
 30
0.0
 11
7579251.179999999
 21
5728740.629999999
 31
0.0
  0
LINE
  5
10001CB
330
1B
100
AcDbEntity
  8
EGB_DzialkaEwidencyjna
  6
Continuous
370
    18
100
AcDbLine
 10
7579251.179999999
 20
5728740.629999999
 30
0.0
 11
7579266.059999999
 21
5728729.5
 31
0.0
  0
LINE
  5
10001CC
330
1B
100
AcDbEntity
  8
EGB_DzialkaEwidencyjna
  6
Continuous
370
    18
100
AcDbLine
 10
7579266.059999999
 20
5728729.5
 30
0.0
 11
7579287.94
 21
5728714.65
 31
0.0
  0
LINE
  5
10001CD
330
1B
100
AcDbEntity
  8
EGB_DzialkaEwidencyjna
  6
Continuous
370
    18
100
AcDbLine
 10
7579287.94
 20
5728714.65
 30
0.0
 11
7579309.230000001
 21
5728700.179999999
 31
0.0
  0
LINE
  5
10001CE
330
1B
100
AcDbEntity
  8
EGB_DzialkaEwidencyjna
  6
Continuous
370
    18
100
AcDbLine
 10
7579309.230000001
 20
5728700.179999999
 30
0.0
 11
7579361.71
 21
5728668.84
 31
0.0
  0
LINE
  5
10001CF
330
1B
100
AcDbEntity
  8
EGB_DzialkaEwidencyjna
  6
Continuous
370
    18
100
AcDbLine
 10
7579361.71
 20
5728668.84
 30
0.0
 11
7579408.809999998
 21
5728643.53
 31
0.0
  0
LINE
  5
10001D0
330
1B
100
AcDbEntity
  8
EGB_DzialkaEwidencyjna
  6
Continuous
370
    18
100
AcDbLine
 10
7579408.809999998
 20
5728643.53
 30
0.0
 11
7579435.54
 21
5728629.17
 31
0.0
  0
LINE
  5
10001D1
330
1B
100
AcDbEntity
  8
EGB_DzialkaEwidencyjna
  6
Continuous
370
    18
100
AcDbLine
 10
7579435.54
 20
5728629.17
 30
0.0
 11
7579467.349999998
 21
5728618.3
 31
0.0
  0
LINE
  5
10001D2
330
1B
100
AcDbEntity
  8
EGB_DzialkaEwidencyjna
  6
Continuous
370
    18
100
AcDbLine
 10
7579467.349999998
 20
5728618.3
 30
0.0
 11
7579508.99
 21
5728604.07
 31
0.0
  0
LINE
  5
10001D3
330
1B
100
AcDbEntity
  8
EGB_DzialkaEwidencyjna
  6
Continuous
370
    18
100
AcDbLine
 10
7579508.99
 20
5728604.07
 30
0.0
 11
7579557.95
 21
5728587.36
 31
0.0
  0
LINE
  5
10001D4
330
1B
100
AcDbEntity
  8
EGB_DzialkaEwidencyjna
  6
Continuous
370
    18
100
AcDbLine
 10
7579557.95
 20
5728587.36
 30
0.0
 11
7579558.320000001
 21
5728587.23
 31
0.0
  0
LINE
  5
10001D5
330
1B
100
AcDbEntity
  8
EGB_DzialkaEwidencyjna
  6
Continuous
370
    18
100
AcDbLine
 10
7579558.320000001
 20
5728587.23
 30
0.0
 11
7579596.66
 21
5728580.05
 31
0.0
  0
LINE
  5
10001D6
330
1B
100
AcDbEntity
  8
EGB_DzialkaEwidencyjna
  6
Continuous
370
    18
100
AcDbLine
 10
7579596.66
 20
5728580.05
 30
0.0
 11
7579619.61
 21
5728578.429999999
 31
0.0
  0
LINE
  5
10001D7
330
1B
100
AcDbEntity
  8
EGB_DzialkaEwidencyjna
  6
Continuous
370
    18
100
AcDbLine
 10
7579619.61
 20
5728578.429999999
 30
0.0
 11
7579622.599999999
 21
5728578.220000001
 31
0.0
  0
LINE
  5
10001D8
330
1B
100
AcDbEntity
  8
EGB_DzialkaEwidencyjna
  6
Continuous
370
    18
100
AcDbLine
 10
7579622.599999999
 20
5728578.220000001
 30
0.0
 11
7579624.73
 21
5728569.779999999
 31
0.0
  0
LINE
  5
10001D9
330
1B
100
AcDbEntity
  8
EGB_DzialkaEwidencyjna
  6
Continuous
370
    18
100
AcDbLine
 10
7579624.73
 20
5728569.779999999
 30
0.0
 11
7579595.94
 21
5728572.08
 31
0.0
  0
LINE
  5
10001DA
330
1B
100
AcDbEntity
  8
EGB_DzialkaEwidencyjna
  6
Continuous
370
    18
100
AcDbLine
 10
7579595.94
 20
5728572.08
 30
0.0
 11
7579555.38
 21
5728579.65
 31
0.0
  0
LINE
  5
10001DB
330
1B
100
AcDbEntity
  8
EGB_DzialkaEwidencyjna
  6
Continuous
370
    18
100
AcDbLine
 10
7579555.38
 20
5728579.65
 30
0.0
 11
7579553.139999999
 21
5728580.410000001
 31
0.0
  0
LINE
  5
10001DC
330
1B
100
AcDbEntity
  8
EGB_DzialkaEwidencyjna
  6
Continuous
370
    18
100
AcDbLine
 10
7579553.139999999
 20
5728580.410000001
 30
0.0
 11
7579504.139999999
 21
5728597.2
 31
0.0
  0
LINE
  5
10001DD
330
1B
100
AcDbEntity
  8
EGB_DzialkaEwidencyjna
  6
Continuous
370
    18
100
AcDbLine
 10
7579504.139999999
 20
5728597.2
 30
0.0
 11
7579462.179999999
 21
5728611.58
 31
0.0
  0
LINE
  5
10001DE
330
1B
100
AcDbEntity
  8
EGB_DzialkaEwidencyjna
  6
Continuous
370
    18
100
AcDbLine
 10
7579462.179999999
 20
5728611.58
 30
0.0
 11
7579432.509999999
 21
5728621.75
 31
0.0
  0
LINE
  5
10001DF
330
1B
100
AcDbEntity
  8
EGB_DzialkaEwidencyjna
  6
Continuous
370
    18
100
AcDbLine
 10
7579432.509999999
 20
5728621.75
 30
0.0
 11
7579402.559999998
 21
5728635.979999999
 31
0.0
  0
LINE
  5
10001E0
330
1B
100
AcDbEntity
  8
EGB_DzialkaEwidencyjna
  6
Continuous
370
    18
100
AcDbLine
 10
7579402.559999998
 20
5728635.979999999
 30
0.0
 11
7579357.65
 21
5728661.940000001
 31
0.0
  0
LINE
  5
10001E1
330
1B
100
AcDbEntity
  8
EGB_DzialkaEwidencyjna
  6
Continuous
370
    18
100
AcDbLine
 10
7579357.65
 20
5728661.940000001
 30
0.0
 11
7579304.11
 21
5728694.05
 31
0.0
  0
LINE
  5
10001E2
330
1B
100
AcDbEntity
  8
EGB_DzialkaEwidencyjna
  6
Continuous
370
    18
100
AcDbLine
 10
7579304.11
 20
5728694.05
 30
0.0
 11
7579282.5
 21
5728708.639999999
 31
0.0
  0
LINE
  5
10001E3
330
1B
100
AcDbEntity
  8
EGB_DzialkaEwidencyjna
  6
Continuous
370
    18
100
AcDbLine
 10
7579282.5
 20
5728708.639999999
 30
0.0
 11
7579260.49
 21
5728723.490000001
 31
0.0
  0
LINE
  5
10001E4
330
1B
100
AcDbEntity
  8
EGB_DzialkaEwidencyjna
  6
Continuous
370
    18
100
AcDbLine
 10
7579260.49
 20
5728723.490000001
 30
0.0
 11
7579227.54
 21
5728748.190000001
 31
0.0
  0
LINE
  5
10001E5
330
1B
100
AcDbEntity
  8
EGB_DzialkaEwidencyjna
  6
Continuous
370
    18
100
AcDbLine
 10
7579227.54
 20
5728748.190000001
 30
0.0
 11
7579210.4
 21
5728759.02
 31
0.0
  0
LINE
  5
10001E6
330
1B
100
AcDbEntity
  8
EGB_DzialkaEwidencyjna
  6
Continuous
370
    18
100
AcDbLine
 10
7579210.4
 20
5728759.02
 30
0.0
 11
7579175.349999999
 21
5728781.160000001
 31
0.0
  0
LINE
  5
10001E7
330
1B
100
AcDbEntity
  8
EGB_DzialkaEwidencyjna
  6
Continuous
370
    18
100
AcDbLine
 10
7579175.349999999
 20
5728781.160000001
 30
0.0
 11
7579171.95
 21
5728783.15
 31
0.0
  0
LINE
  5
10001E8
330
1B
100
AcDbEntity
  8
EGB_DzialkaEwidencyjna
  6
Continuous
370
    18
100
AcDbLine
 10
7579171.95
 20
5728783.15
 30
0.0
 11
7579098.55
 21
5728826.01
 31
0.0
  0
LINE
  5
10001E9
330
1B
100
AcDbEntity
  8
EGB_DzialkaEwidencyjna
  6
Continuous
370
    18
100
AcDbLine
 10
7579098.55
 20
5728826.01
 30
0.0
 11
7579064.63
 21
5728845.98
 31
0.0
  0
LINE
  5
10001EA
330
1B
100
AcDbEntity
  8
EGB_DzialkaEwidencyjna
  6
Continuous
370
    18
100
AcDbLine
 10
7579064.63
 20
5728845.98
 30
0.0
 11
7579049.65
 21
5728853.36
 31
0.0
  0
LINE
  5
10001EB
330
1B
100
AcDbEntity
  8
EGB_DzialkaEwidencyjna
  6
Continuous
370
    18
100
AcDbLine
 10
7579049.65
 20
5728853.36
 30
0.0
 11
7579035.049999999
 21
5728860.27
 31
0.0
  0
LINE
  5
10001EC
330
1B
100
AcDbEntity
  8
EGB_DzialkaEwidencyjna
  6
Continuous
370
    18
100
AcDbLine
 10
7579035.049999999
 20
5728860.27
 30
0.0
 11
7579001.17
 21
5728876.269999999
 31
0.0
  0
LINE
  5
10001ED
330
1B
100
AcDbEntity
  8
EGB_DzialkaEwidencyjna
  6
Continuous
370
    18
100
AcDbLine
 10
7579001.17
 20
5728876.269999999
 30
0.0
 11
7578978.379999999
 21
5728887.03
 31
0.0
  0
LINE
  5
10001EE
330
1B
100
AcDbEntity
  8
EGB_DzialkaEwidencyjna
  6
Continuous
370
    18
100
AcDbLine
 10
7578978.379999999
 20
5728887.03
 30
0.0
 11
7578955.38
 21
5728901.55
 31
0.0
  0
LINE
  5
10001EF
330
1B
100
AcDbEntity
  8
EGB_DzialkaEwidencyjna
  6
Continuous
370
    18
100
AcDbLine
 10
7578955.38
 20
5728901.55
 30
0.0
 11
7578936.0
 21
5728919.369999999
 31
0.0
  0
LINE
  5
10001F0
330
1B
100
AcDbEntity
  8
EGB_DzialkaEwidencyjna
  6
Continuous
370
    18
100
AcDbLine
 10
7578936.0
 20
5728919.369999999
 30
0.0
 11
7578917.210000001
 21
5728937.88
 31
0.0
  0
LINE
  5
10001F1
330
1B
100
AcDbEntity
  8
EGB_DzialkaEwidencyjna
  6
Continuous
370
    18
100
AcDbLine
 10
7578917.210000001
 20
5728937.88
 30
0.0
 11
7578889.139999999
 21
5728965.54
 31
0.0
  0
LINE
  5
10001F2
330
1B
100
AcDbEntity
  8
EGB_DzialkaEwidencyjna
  6
Continuous
370
    18
100
AcDbLine
 10
7578889.139999999
 20
5728965.54
 30
0.0
 11
7578872.65
 21
5728981.77
 31
0.0
  0
LINE
  5
10001F3
330
1B
100
AcDbEntity
  8
EGB_DzialkaEwidencyjna
  6
Continuous
370
    18
100
AcDbLine
 10
7578872.65
 20
5728981.77
 30
0.0
 11
7578872.42
 21
5728982.01
 31
0.0
  0
LINE
  5
10001F4
330
1B
100
AcDbEntity
  8
EGB_DzialkaEwidencyjna
  6
Continuous
370
    18
100
AcDbLine
 10
7578872.42
 20
5728982.01
 30
0.0
 11
7578863.7
 21
5728990.84
 31
0.0
  0
LINE
  5
10001F5
330
1B
100
AcDbEntity
  8
EGB_DzialkaEwidencyjna
  6
Continuous
370
    18
100
AcDbLine
 10
7578863.7
 20
5728990.84
 30
0.0
 11
7578846.23
 21
5729008.539999999
 31
0.0
  0
LINE
  5
10001F6
330
1B
100
AcDbEntity
  8
EGB_DzialkaEwidencyjna
  6
Continuous
370
    18
100
AcDbLine
 10
7578846.23
 20
5729008.539999999
 30
0.0
 11
7578833.040000001
 21
5729021.89
 31
0.0
  0
LINE
  5
10001F7
330
1B
100
AcDbEntity
  8
EGB_DzialkaEwidencyjna
  6
Continuous
370
    18
100
AcDbLine
 10
7578833.040000001
 20
5729021.89
 30
0.0
 11
7578788.259999998
 21
5729066.84
 31
0.0
  0
LINE
  5
10001F8
330
1B
100
AcDbEntity
  8
EGB_DzialkaEwidencyjna
  6
Continuous
370
    18
100
AcDbLine
 10
7578788.259999998
 20
5729066.84
 30
0.0
 11
7578779.059999999
 21
5729076.070000001
 31
0.0
  0
LINE
  5
10001F9
330
1B
100
AcDbEntity
  8
EGB_DzialkaEwidencyjna
  6
Continuous
370
    18
100
AcDbLine
 10
7578779.059999999
 20
5729076.070000001
 30
0.0
 11
7578770.230000001
 21
5729084.929999999
 31
0.0
  0
LINE
  5
10001FA
330
1B
100
AcDbEntity
  8
EGB_DzialkaEwidencyjna
  6
Continuous
370
    18
100
AcDbLine
 10
7578770.230000001
 20
5729084.929999999
 30
0.0
 11
7578753.25
 21
5729101.98
 31
0.0
  0
LINE
  5
10001FB
330
1B
100
AcDbEntity
  8
EGB_DzialkaEwidencyjna
  6
Continuous
370
    18
100
AcDbLine
 10
7578753.25
 20
5729101.98
 30
0.0
 11
7578744.759999999
 21
5729110.5
 31
0.0
  0
LINE
  5
10001FC
330
1B
100
AcDbEntity
  8
EGB_DzialkaEwidencyjna
  6
Continuous
370
    18
100
AcDbLine
 10
7578744.759999999
 20
5729110.5
 30
0.0
 11
7578735.980000001
 21
5729119.309999999
 31
0.0
  0
LINE
  5
10001FD
330
1B
100
AcDbEntity
  8
EGB_DzialkaEwidencyjna
  6
Continuous
370
    18
100
AcDbLine
 10
7578735.980000001
 20
5729119.309999999
 30
0.0
 11
7578722.660000001
 21
5729132.68
 31
0.0
  0
LINE
  5
10001FE
330
1B
100
AcDbEntity
  8
EGB_DzialkaEwidencyjna
  6
Continuous
370
    18
100
AcDbLine
 10
7578722.660000001
 20
5729132.68
 30
0.0
 11
7578714.389999999
 21
5729140.969999999
 31
0.0
  0
LINE
  5
10001FF
330
1B
100
AcDbEntity
  8
EGB_DzialkaEwidencyjna
  6
Continuous
370
    18
100
AcDbLine
 10
7578714.389999999
 20
5729140.969999999
 30
0.0
 11
7578705.089999999
 21
5729150.299999999
 31
0.0
  0
LINE
  5
1000200
330
1B
100
AcDbEntity
  8
EGB_DzialkaEwidencyjna
  6
Continuous
370
    18
100
AcDbLine
 10
7578705.089999999
 20
5729150.299999999
 30
0.0
 11
7578692.369999999
 21
5729163.080000001
 31
0.0
  0
LINE
  5
1000201
330
1B
100
AcDbEntity
  8
EGB_DzialkaEwidencyjna
  6
Continuous
370
    18
100
AcDbLine
 10
7578692.369999999
 20
5729163.080000001
 30
0.0
 11
7578665.289999999
 21
5729190.25
 31
0.0
  0
LINE
  5
1000202
330
1B
100
AcDbEntity
  8
EGB_DzialkaEwidencyjna
  6
Continuous
370
    18
100
AcDbLine
 10
7578665.289999999
 20
5729190.25
 30
0.0
 11
7578651.599999999
 21
5729203.110000001
 31
0.0
  0
LINE
  5
1000203
330
1B
100
AcDbEntity
  8
EGB_DzialkaEwidencyjna
  6
Continuous
370
    18
100
AcDbLine
 10
7578651.599999999
 20
5729203.110000001
 30
0.0
 11
7578648.16
 21
5729206.340000001
 31
0.0
  0
LINE
  5
1000204
330
1B
100
AcDbEntity
  8
EGB_DzialkaEwidencyjna
  6
Continuous
370
    18
100
AcDbLine
 10
7578648.16
 20
5729206.340000001
 30
0.0
 11
7578642.610000001
 21
5729209.820000001
 31
0.0
  0
LINE
  5
1000205
330
1B
100
AcDbEntity
  8
EGB_DzialkaEwidencyjna
  6
Continuous
370
    18
100
AcDbLine
 10
7578642.610000001
 20
5729209.820000001
 30
0.0
 11
7578627.9
 21
5729219.05
 31
0.0
  0
LINE
  5
1000206
330
1B
100
AcDbEntity
  8
EGB_DzialkaEwidencyjna
  6
Continuous
370
    18
100
AcDbLine
 10
7578627.9
 20
5729219.05
 30
0.0
 11
7578611.320000001
 21
5729226.419999999
 31
0.0
  0
LINE
  5
1000207
330
1B
100
AcDbEntity
  8
EGB_DzialkaEwidencyjna
  6
Continuous
370
    18
100
AcDbLine
 10
7578611.320000001
 20
5729226.419999999
 30
0.0
 11
7578584.01
 21
5729238.539999999
 31
0.0
  0
LINE
  5
1000208
330
1B
100
AcDbEntity
  8
EGB_DzialkaEwidencyjna
  6
Continuous
370
    18
100
AcDbLine
 10
7578584.01
 20
5729238.539999999
 30
0.0
 11
7578553.509999998
 21
5729247.02
 31
0.0
  0
LINE
  5
1000209
330
1B
100
AcDbEntity
  8
EGB_DzialkaEwidencyjna
  6
Continuous
370
    18
100
AcDbLine
 10
7578553.509999998
 20
5729247.02
 30
0.0
 11
7578535.57
 21
5729252.0
 31
0.0
  0
LINE
  5
100020A
330
1B
100
AcDbEntity
  8
EGB_DzialkaEwidencyjna
  6
Continuous
370
    18
100
AcDbLine
 10
7578535.57
 20
5729252.0
 30
0.0
 11
7578507.11
 21
5729259.91
 31
0.0
  0
LINE
  5
100020B
330
1B
100
AcDbEntity
  8
EGB_DzialkaEwidencyjna
  6
Continuous
370
    18
100
AcDbLine
 10
7578507.11
 20
5729259.91
 30
0.0
 11
7578471.78
 21
5729269.37
 31
0.0
  0
LINE
  5
100020C
330
1B
100
AcDbEntity
  8
EGB_DzialkaEwidencyjna
  6
Continuous
370
    18
100
AcDbLine
 10
7578471.78
 20
5729269.37
 30
0.0
 11
7578428.38
 21
5729284.06
 31
0.0
  0
LINE
  5
100020D
330
1B
100
AcDbEntity
  8
EGB_DzialkaEwidencyjna
  6
Continuous
370
    18
100
AcDbLine
 10
7578428.38
 20
5729284.06
 30
0.0
 11
7578427.37
 21
5729284.4
 31
0.0
  0
LINE
  5
100020E
330
1B
100
AcDbEntity
  8
EGB_DzialkaEwidencyjna
  6
Continuous
370
    18
100
AcDbLine
 10
7578427.37
 20
5729284.4
 30
0.0
 11
7578401.07
 21
5729294.66
 31
0.0
  0
LINE
  5
100020F
330
1B
100
AcDbEntity
  8
EGB_DzialkaEwidencyjna
  6
Continuous
370
    18
100
AcDbLine
 10
7578401.07
 20
5729294.66
 30
0.0
 11
7578386.36
 21
5729301.299999999
 31
0.0
  0
LINE
  5
1000210
330
1B
100
AcDbEntity
  8
EGB_DzialkaEwidencyjna
  6
Continuous
370
    18
100
AcDbLine
 10
7578386.36
 20
5729301.299999999
 30
0.0
 11
7578366.66
 21
5729310.21
 31
0.0
  0
LINE
  5
1000211
330
1B
100
AcDbEntity
  8
EGB_DzialkaEwidencyjna
  6
Continuous
370
    18
100
AcDbLine
 10
7578366.66
 20
5729310.21
 30
0.0
 11
7578347.2
 21
5729319.01
 31
0.0
  0
LINE
  5
1000212
330
1B
100
AcDbEntity
  8
EGB_DzialkaEwidencyjna
  6
Continuous
370
    18
100
AcDbLine
 10
7578347.2
 20
5729319.01
 30
0.0
 11
7578332.330000001
 21
5729325.059999999
 31
0.0
  0
LINE
  5
1000213
330
1B
100
AcDbEntity
  8
EGB_DzialkaEwidencyjna
  6
Continuous
370
    18
100
AcDbLine
 10
7578332.330000001
 20
5729325.059999999
 30
0.0
 11
7578331.13
 21
5729325.519999999
 31
0.0
  0
LINE
  5
1000214
330
1B
100
AcDbEntity
  8
EGB_DzialkaEwidencyjna
  6
Continuous
370
    18
100
AcDbLine
 10
7578331.13
 20
5729325.519999999
 30
0.0
 11
7578318.63
 21
5729330.24
 31
0.0
  0
LINE
  5
1000215
330
1B
100
AcDbEntity
  8
EGB_DzialkaEwidencyjna
  6
Continuous
370
    18
100
AcDbLine
 10
7578318.63
 20
5729330.24
 30
0.0
 11
7578305.23
 21
5729334.32
 31
0.0
  0
LINE
  5
1000216
330
1B
100
AcDbEntity
  8
EGB_DzialkaEwidencyjna
  6
Continuous
370
    18
100
AcDbLine
 10
7578305.23
 20
5729334.32
 30
0.0
 11
7578304.509999999
 21
5729334.389999999
 31
0.0
  0
LINE
  5
1000217
330
1B
100
AcDbEntity
  8
EGB_DzialkaEwidencyjna
  6
Continuous
370
    18
100
AcDbLine
 10
7578304.509999999
 20
5729334.389999999
 30
0.0
 11
7578235.96
 21
5729340.22
 31
0.0
  0
LINE
  5
1000218
330
1B
100
AcDbEntity
  8
EGB_DzialkaEwidencyjna
  6
Continuous
370
    18
100
AcDbLine
 10
7578235.96
 20
5729340.22
 30
0.0
 11
7578194.009999999
 21
5729330.56
 31
0.0
  0
LINE
  5
1000219
330
1B
100
AcDbEntity
  8
EGB_DzialkaEwidencyjna
  6
Continuous
370
    18
100
AcDbLine
 10
7578194.009999999
 20
5729330.56
 30
0.0
 11
7578167.469999999
 21
5729324.169999999
 31
0.0
  0
LINE
  5
100021A
330
1B
100
AcDbEntity
  8
EGB_DzialkaEwidencyjna
  6
Continuous
370
    18
100
AcDbLine
 10
7578167.469999999
 20
5729324.169999999
 30
0.0
 11
7578171.95
 21
5729336.05
 31
0.0
  0
LINE
  5
100021B
330
1B
100
AcDbEntity
  8
EGB_DzialkaEwidencyjna
  6
Continuous
370
    18
100
AcDbLine
 10
7578171.95
 20
5729336.05
 30
0.0
 11
7578197.759999999
 21
5729340.87
 31
0.0
  0
LINE
  5
100021C
330
1B
100
AcDbEntity
  8
EGB_DzialkaEwidencyjna
  6
Continuous
370
    18
100
AcDbLine
 10
7578197.759999999
 20
5729340.87
 30
0.0
 11
7578238.98
 21
5729348.58
 31
0.0
  0
LINE
  5
100021D
330
1B
100
AcDbEntity
  8
EGB_DzialkaEwidencyjna
  6
Continuous
370
    18
100
AcDbLine
 10
7578238.98
 20
5729348.58
 30
0.0
 11
7578310.41
 21
5729341.22
 31
0.0
  0
LINE
  5
100021E
330
1B
100
AcDbEntity
  8
EGB_DzialkaEwidencyjna
  6
Continuous
370
    18
100
AcDbLine
 10
7578310.41
 20
5729341.22
 30
0.0
 11
7578324.25
 21
5729336.86
 31
0.0
  0
LINE
  5
100021F
330
1B
100
AcDbEntity
  8
EGB_DzialkaEwidencyjna
  6
Continuous
370
    18
100
AcDbLine
 10
7578324.25
 20
5729336.86
 30
0.0
 11
7578324.389999998
 21
5729336.820000001
 31
0.0
  0
LINE
  5
1000220
330
1B
100
AcDbEntity
  8
EGB_DzialkaEwidencyjna
  6
Continuous
370
    18
100
AcDbLine
 10
7578324.389999998
 20
5729336.820000001
 30
0.0
 11
7578336.59
 21
5729331.91
 31
0.0
  0
LINE
  5
1000221
330
1B
100
AcDbEntity
  8
EGB_DzialkaEwidencyjna
  6
Continuous
370
    18
100
AcDbLine
 10
7578336.59
 20
5729331.91
 30
0.0
 11
7578352.679999999
 21
5729325.41
 31
0.0
  0
LINE
  5
1000222
330
1B
100
AcDbEntity
  8
EGB_DzialkaEwidencyjna
  6
Continuous
370
    18
100
AcDbLine
 10
7578352.679999999
 20
5729325.41
 30
0.0
 11
7578372.05
 21
5729316.55
 31
0.0
  0
LINE
  5
1000223
330
1B
100
AcDbEntity
  8
EGB_DzialkaEwidencyjna
  6
Continuous
370
    18
100
AcDbLine
 10
7578372.05
 20
5729316.55
 30
0.0
 11
7578391.690000001
 21
5729307.539999999
 31
0.0
  0
LINE
  5
1000224
330
1B
100
AcDbEntity
  8
EGB_DzialkaEwidencyjna
  6
Continuous
370
    18
100
AcDbLine
 10
7578391.690000001
 20
5729307.539999999
 30
0.0
 11
7578404.599999998
 21
5729302.03
 31
0.0
  0
LINE
  5
1000225
330
1B
100
AcDbEntity
  8
EGB_DzialkaEwidencyjna
  6
Continuous
370
    18
100
AcDbLine
 10
7578404.599999998
 20
5729302.03
 30
0.0
 11
7578433.95
 21
5729290.62
 31
0.0
  0
LINE
  5
1000226
330
1B
100
AcDbEntity
  8
EGB_DzialkaEwidencyjna
  6
Continuous
370
    18
100
AcDbLine
 10
7578433.95
 20
5729290.62
 30
0.0
 11
7578475.09
 21
5729276.89
 31
0.0
  0
LINE
  5
1000227
330
1B
100
AcDbEntity
  8
EGB_DzialkaEwidencyjna
  6
Continuous
370
    18
100
AcDbLine
 10
7578475.09
 20
5729276.89
 30
0.0
 11
7578513.389999999
 21
5729267.53
 31
0.0
  0
LINE
  5
1000228
330
1B
100
AcDbEntity
  8
EGB_DzialkaEwidencyjna
  6
Continuous
370
    18
100
AcDbLine
 10
7579522.429999999
 20
5728392.69
 30
0.0
 11
7579512.03
 21
5728401.69
 31
0.0
  0
LINE
  5
1000229
330
1B
100
AcDbEntity
  8
EGB_DzialkaEwidencyjna
  6
Continuous
370
    18
100
AcDbLine
 10
7579512.03
 20
5728401.69
 30
0.0
 11
7579624.63
 21
5728563.9
 31
0.0
  0
LINE
  5
100022A
330
1B
100
AcDbEntity
  8
EGB_DzialkaEwidencyjna
  6
Continuous
370
    18
100
AcDbLine
 10
7579624.63
 20
5728563.9
 30
0.0
 11
7579623.33
 21
5728489.0
 31
0.0
  0
LINE
  5
100022B
330
1B
100
AcDbEntity
  8
EGB_DzialkaEwidencyjna
  6
Continuous
370
    18
100
AcDbLine
 10
7579623.33
 20
5728489.0
 30
0.0
 11
7579612.139999999
 21
5728457.6
 31
0.0
  0
LINE
  5
100022C
330
1B
100
AcDbEntity
  8
EGB_DzialkaEwidencyjna
  6
Continuous
370
    18
100
AcDbLine
 10
7579612.139999999
 20
5728457.6
 30
0.0
 11
7579522.429999999
 21
5728392.69
 31
0.0
  0
LINE
  5
100022D
330
1B
100
AcDbEntity
  8
EGB_DzialkaEwidencyjna
  6
Continuous
370
    18
100
AcDbLine
 10
7579512.03
 20
5728401.69
 30
0.0
 11
7579489.3
 21
5728421.39
 31
0.0
  0
LINE
  5
100022E
330
1B
100
AcDbEntity
  8
EGB_DzialkaEwidencyjna
  6
Continuous
370
    18
100
AcDbLine
 10
7579489.3
 20
5728421.39
 30
0.0
 11
7579595.94
 21
5728572.08
 31
0.0
  0
LINE
  5
100022F
330
1B
100
AcDbEntity
  8
EGB_DzialkaEwidencyjna
  6
Continuous
370
    18
100
AcDbLine
 10
7579595.94
 20
5728572.08
 30
0.0
 11
7579624.73
 21
5728569.779999999
 31
0.0
  0
LINE
  5
1000230
330
1B
100
AcDbEntity
  8
EGB_DzialkaEwidencyjna
  6
Continuous
370
    18
100
AcDbLine
 10
7579624.73
 20
5728569.779999999
 30
0.0
 11
7579624.63
 21
5728563.9
 31
0.0
  0
LINE
  5
1000231
330
1B
100
AcDbEntity
  8
EGB_DzialkaEwidencyjna
  6
Continuous
370
    18
100
AcDbLine
 10
7579624.63
 20
5728563.9
 30
0.0
 11
7579512.03
 21
5728401.69
 31
0.0
  0
ENDSEC
  0
SECTION
  2
OBJECTS
  0
DICTIONARY
  5
230
330
0
100
AcDbDictionary
281
     1
  3
ACAD_CIP_PREVIOUS_PRODUCT_INFO
350
1000050
  3
ACAD_COLOR
350
1000034
  3
ACAD_DETAILVIEWSTYLE
350
100004E
  3
ACAD_GROUP
350
231
  3
ACAD_LAYOUT
350
232
  3
ACAD_MATERIAL
350
1000002
  3
ACAD_MLEADERSTYLE
350
1000049
  3
ACAD_MLINESTYLE
350
233
  3
ACAD_PLOTSETTINGS
350
234
  3
ACAD_PLOTSTYLENAME
350
235
  3
ACAD_SCALELIST
350
1000037
  3
ACAD_SECTIONVIEWSTYLE
350
100004B
  3
ACAD_TABLESTYLE
350
1000035
  3
ACAD_VISUALSTYLE
350
100001B
  3
ACDB_RECOMPOSE_DATA
350
1000240
  3
AcDbVariableDictionary
350
1000236
  0
DICTIONARY
  5
1000232
330
E
100
AcDbDictionary
280
     1
281
     1
  3
ADSK_XREC_LAYER_RECONCILED
360
1000233
  0
DICTIONARY
  5
1000234
330
10
100
AcDbDictionary
280
     1
281
     1
  3
ADSK_XREC_LAYER_RECONCILED
360
1000235
  0
DICTIONARY
  5
1000059
330
1B
100
AcDbDictionary
280
     1
281
     1
  3
ACAD_SORTENTS
360
100005A
  0
XRECORD
  5
1000050
102
{ACAD_REACTORS
330
230
102
}
330
230
100
AcDbXrecord
280
     1
300
CIV3D
300
2013
300
CIV3D_F_S
  0
DICTIONARY
  5
1000034
102
{ACAD_REACTORS
330
230
102
}
330
230
100
AcDbDictionary
281
     1
  0
DICTIONARY
  5
100004E
102
{ACAD_REACTORS
330
230
102
}
330
230
100
AcDbDictionary
281
     1
  3
Imperial24
350
100004F
  0
DICTIONARY
  5
231
102
{ACAD_REACTORS
330
230
102
}
330
230
100
AcDbDictionary
281
     1
  0
DICTIONARY
  5
232
102
{ACAD_REACTORS
330
230
102
}
330
230
100
AcDbDictionary
281
     1
  3
Layout
350
1E
  3
Model
350
1C
  0
DICTIONARY
  5
1000002
102
{ACAD_REACTORS
330
230
102
}
330
230
100
AcDbDictionary
281
     1
  3
ByBlock
350
100000B
  3
ByLayer
350
1000003
  3
Global
350
1000013
  0
DICTIONARY
  5
1000049
102
{ACAD_REACTORS
330
230
102
}
330
230
100
AcDbDictionary
281
     1
  3
Standard
350
100004A
  0
DICTIONARY
  5
233
102
{ACAD_REACTORS
330
230
102
}
330
230
100
AcDbDictionary
281
     1
  3
L_0_E3
350
A
  3
Standard
350
236
  0
DICTIONARY
  5
234
102
{ACAD_REACTORS
330
230
102
}
330
230
100
AcDbDictionary
281
     1
  0
ACDBDICTIONARYWDFLT
  5
235
102
{ACAD_REACTORS
330
230
102
}
330
230
100
AcDbDictionary
281
     1
  3
Normal
350
F
100
AcDbDictionaryWithDefault
340
F
  0
DICTIONARY
  5
1000037
102
{ACAD_REACTORS
330
230
102
}
330
230
100
AcDbDictionary
281
     1
  3
A0
350
1000038
  3
A1
350
1000039
  3
A2
350
100003A
  3
A3
350
100003B
  3
A4
350
100003C
  3
A5
350
100003D
  3
A6
350
100003E
  3
A7
350
100003F
  3
A8
350
1000040
  3
A9
350
1000041
  3
B0
350
1000042
  3
B1
350
1000043
  3
B2
350
1000044
  3
B3
350
1000045
  3
B4
350
1000046
  3
B5
350
1000047
  3
B6
350
1000048
  0
DICTIONARY
  5
100004B
102
{ACAD_REACTORS
330
230
102
}
330
230
100
AcDbDictionary
281
     1
  3
Imperial24
350
100004D
  0
DICTIONARY
  5
1000035
102
{ACAD_REACTORS
330
230
102
}
330
230
100
AcDbDictionary
281
     1
  3
Standard
350
1000036
  0
DICTIONARY
  5
100001B
102
{ACAD_REACTORS
330
230
102
}
330
230
100
AcDbDictionary
281
     1
  3
2dWireframe
350
1000021
  3
Basic
350
1000020
  3
Brighten
350
1000027
  3
ColorChange
350
100002B
  3
Conceptual
350
1000024
  3
Dim
350
1000026
  3
EdgeColorOff
350
1000033
  3
Facepattern
350
100002A
  3
Flat
350
100001C
  3
FlatWithEdges
350
100001D
  3
Gouraud
350
100001E
  3
GouraudWithEdges
350
100001F
  3
Hidden
350
1000023
  3
JitterOff
350
1000031
  3
Linepattern
350
1000029
  3
OverhangOff
350
1000032
  3
Realistic
350
1000025
  3
Shaded
350
1000030
  3
Shaded with edges
350
100002F
  3
Shades of Gray
350
100002C
  3
Sketchy
350
100002D
  3
Thicken
350
1000028
  3
Wireframe
350
1000022
  3
X-Ray
350
100002E
  0
XRECORD
  5
1000240
102
{ACAD_REACTORS
330
230
102
}
330
230
100
AcDbXrecord
280
     1
 90
        1
330
1000036
  0
DICTIONARY
  5
1000236
102
{ACAD_REACTORS
330
230
102
}
330
230
100
AcDbDictionary
281
     1
  3
CANNOSCALE
350
100023B
  3
CMLEADERSTYLE
350
1000238
  3
CTABLESTYLE
350
1000237
  3
CVIEWDETAILSTYLE
350
1000239
  3
CVIEWSECTIONSTYLE
350
100023A
  3
XCLIPFRAME
350
100023C
  0
XRECORD
  5
1000233
102
{ACAD_REACTORS
330
1000232
102
}
330
1000232
100
AcDbXrecord
280
     1
290
     1
  0
XRECORD
  5
1000235
102
{ACAD_REACTORS
330
1000234
102
}
330
1000234
100
AcDbXrecord
280
     1
290
     1
  0
SORTENTSTABLE
  5
100005A
102
{ACAD_REACTORS
330
1000059
102
}
330
1000059
100
AcDbSortentsTable
330
1B
331
1000158
  5
10001CD
331
10001A0
  5
10000CF
331
1000071
  5
10000E6
331
10001B1
  5
1000053
331
100006B
  5
100020C
331
1000082
  5
10000F7
331
10001C2
  5
1000066
331
10000A4
  5
1000119
331
1000093
  5
1000108
331
10001D3
  5
1000077
331
10000B5
  5
100012A
331
10000C6
  5
100013B
331
10001EE
  5
1000092
331
10001DD
  5
1000081
331
228
  5
100022A
331
10000D7
  5
100014C
331
100016D
  5
10001E2
331
1000114
  5
1000189
331
1000103
  5
1000178
331
10000F2
  5
1000167
331
1000221
  5
10000C5
331
1000210
  5
10000B4
331
100017E
  5
10001F3
331
1000136
  5
10001AB
331
1000125
  5
100019A
331
10001FF
  5
10000A3
331
1000147
  5
10001BC
331
100018F
  5
10000D8
331
1000148
  5
10001BD
331
1000190
  5
10000D9
331
1000159
  5
10001CE
331
10001A1
  5
10000D0
331
100005B
  5
100020D
331
1000072
  5
10000E7
331
10001B2
  5
1000054
331
100006C
  5
1000200
331
1000083
  5
10000F8
331
10001C3
  5
1000067
331
10000A5
  5
100011A
331
1000094
  5
1000109
331
10000B6
  5
100012B
331
10001DE
  5
1000082
331
10001D4
  5
1000078
331
10000C7
  5
100013C
331
10001EF
  5
1000093
331
229
  5
100022B
331
10000D8
  5
100014D
331
100016E
  5
10001E3
331
1000115
  5
100018A
331
1000104
  5
1000179
331
10000F3
  5
1000168
331
1000222
  5
10000C6
331
1000211
  5
10000B5
331
1000200
  5
10000A4
331
100017F
  5
10001F4
331
1000137
  5
10001AC
331
1000126
  5
100019B
331
1000180
  5
10001F5
331
1000138
  5
10001AD
331
1000149
  5
10001BE
331
1000191
  5
10000DA
331
100015A
  5
10001CF
331
10001A2
  5
10000D1
331
100005C
  5
100020E
331
1000073
  5
10000E8
331
10001B3
  5
1000055
331
100006D
  5
1000201
331
1000084
  5
10000F9
331
10001C4
  5
1000068
331
10000A6
  5
100011B
331
1000095
  5
100010A
331
10000B7
  5
100012C
331
10001DF
  5
1000083
331
10001D5
  5
1000079
331
10000C8
  5
100013D
331
22A
  5
100022C
331
10000D9
  5
100014E
331
1000201
  5
10000A5
331
100016F
  5
10001E4
331
1000116
  5
100018B
331
1000105
  5
100017A
331
10000F4
  5
1000169
331
1000223
  5
10000C7
331
1000212
  5
10000B6
331
1000127
  5
100019C
331
10001F0
  5
1000094
331
1000170
  5
10001E5
331
1000181
  5
10001F6
331
1000128
  5
100019D
331
1000139
  5
10001AE
331
100014A
  5
10001BF
331
1000192
  5
10000DB
331
100015B
  5
10001D0
331
10001A3
  5
224
331
100005D
  5
100020F
331
1000074
  5
10000E9
331
10001B4
  5
1000056
331
100006E
  5
1000202
331
1000085
  5
10000FA
331
10000A7
  5
100011C
331
1000096
  5
100010B
331
10001D6
  5
100007A
331
10001C5
  5
1000069
331
10000B8
  5
100012D
331
10001E0
  5
1000084
331
21A
  5
100021C
331
10000C9
  5
100013E
331
22B
  5
100022D
331
10000DA
  5
100014F
331
1000202
  5
10000A6
331
1000117
  5
100018C
331
1000106
  5
100017B
331
10000F5
  5
100016A
331
1000224
  5
10000C8
331
1000213
  5
10000B7
331
10001F1
  5
1000095
331
1000160
  5
10001D5
331
1000171
  5
10001E6
331
1000118
  5
100018D
331
1000182
  5
10001F7
331
1000129
  5
100019E
331
100013A
  5
10001AF
331
100014B
  5
10001C0
331
1000193
  5
10000DC
331
100015C
  5
10001D1
331
10001A4
  5
225
331
100005E
  5
1000210
331
1000075
  5
10000EA
331
10001B5
  5
1000057
331
1000086
  5
10000FB
331
100006F
  5
10000E4
331
10001C6
  5
100006A
331
10000A8
  5
100011D
331
1000097
  5
100010C
331
10001D7
  5
100007B
331
10000B9
  5
100012E
331
21B
  5
100021D
331
10000CA
  5
100013F
331
10001F2
  5
1000096
331
22C
  5
100022E
331
10000DB
  5
1000150
331
1000107
  5
100017C
331
10000F6
  5
100016B
331
1000225
  5
10000C9
331
1000214
  5
10000B8
331
1000203
  5
10000A7
331
10001E1
  5
1000085
331
1000161
  5
10001D6
331
1000108
  5
100017D
331
1000172
  5
10001E7
331
1000119
  5
100018E
331
1000183
  5
10001F8
331
100012A
  5
100019F
331
100013B
  5
10001B0
331
100014C
  5
10001C1
331
1000194
  5
10000DD
331
100015D
  5
10001D2
331
10001A5
  5
226
331
100005F
  5
1000211
331
1000076
  5
10000EB
331
10001B6
  5
1000058
331
10000A9
  5
100011E
331
1000098
  5
100010D
331
1000087
  5
10000FC
331
10000BA
  5
100012F
331
10001E2
  5
1000086
331
10001C7
  5
100006B
331
21C
  5
100021E
331
10000CB
  5
1000140
331
10001F3
  5
1000097
331
22D
  5
100022F
331
10000DC
  5
1000151
331
10000F7
  5
100016C
331
1000226
  5
10000CA
331
1000215
  5
10000B9
331
1000204
  5
10000A8
331
1000162
  5
10001D7
331
1000109
  5
100017E
331
10000F8
  5
100016D
331
1000173
  5
10001E8
331
100011A
  5
100018F
331
1000184
  5
10001F9
331
100012B
  5
10001A0
331
100013C
  5
10001B1
331
100014D
  5
10001C2
331
1000195
  5
10000DE
331
100015E
  5
10001D3
331
10001A6
  5
227
331
1000060
  5
1000212
331
1000077
  5
10000EC
331
10001B7
  5
100005B
331
10000AA
  5
100011F
331
1000099
  5
100010E
331
1000088
  5
10000FD
331
10000BB
  5
1000130
331
10001E3
  5
1000087
331
10001C8
  5
100006C
331
21D
  5
100021F
331
10000CC
  5
1000141
331
22E
  5
1000230
331
10000DD
  5
1000152
331
1000205
  5
10000A9
331
1000227
  5
10000CB
331
1000216
  5
10000BA
331
10001F4
  5
1000098
331
1000163
  5
10001D8
331
100010A
  5
100017F
331
10000F9
  5
100016E
331
10000E8
  5
100015D
331
1000228
  5
21F
331
1000174
  5
10001E9
331
100011B
  5
1000190
331
1000185
  5
10001FA
331
100012C
  5
10001A1
331
100013D
  5
10001B2
331
100014E
  5
10001C3
331
1000196
  5
10000DF
331
100015F
  5
10001D4
331
10001A7
  5
228
331
1000061
  5
1000213
331
1000078
  5
10000ED
331
10001B8
  5
100005C
331
10000AB
  5
1000120
331
100009A
  5
100010F
331
1000089
  5
10000FE
331
10000BC
  5
1000131
331
10001E4
  5
1000088
331
10001C9
  5
100006D
331
21E
  5
1000220
331
10000CD
  5
1000142
331
22F
  5
1000231
331
10000DE
  5
1000153
331
1000206
  5
10000AA
331
1000217
  5
10000BB
331
10001F5
  5
1000099
331
1000218
  5
10000BC
331
1000164
  5
10001D9
331
100010B
  5
1000180
331
10000FA
  5
100016F
331
10000E9
  5
100015E
331
1000229
  5
220
331
1000175
  5
10001EA
331
100011C
  5
1000191
331
1000186
  5
10001FB
331
100013E
  5
10001B3
331
100014F
  5
10001C4
331
1000197
  5
10000D2
331
1000051
  5
1000214
331
10001A8
  5
229
331
1000062
  5
1000203
331
1000079
  5
10000EE
331
10001B9
  5
100005D
331
10000AC
  5
1000121
331
100009B
  5
1000110
331
100008A
  5
10000FF
331
10000BD
  5
1000132
331
10001E5
  5
1000089
331
10001CA
  5
100006E
331
21F
  5
1000221
331
10000CE
  5
1000143
331
10000DF
  5
1000154
331
1000207
  5
10000AB
331
10001F6
  5
100009A
331
100012D
  5
10001A2
331
220
  5
1000222
331
10000E0
  5
1000155
331
1000208
  5
10000AC
331
1000219
  5
10000BD
331
1000165
  5
10001DA
331
100010C
  5
1000181
331
10000FB
  5
1000170
331
10000EA
  5
100015F
331
100022A
  5
221
331
1000176
  5
10001EB
331
1000187
  5
10001FC
331
100012E
  5
10001A3
331
100013F
  5
10001B4
331
100011D
  5
1000192
331
1000150
  5
10001C5
331
1000198
  5
10000D3
331
1000052
  5
1000215
331
10001A9
  5
22A
331
1000063
  5
1000204
331
100007A
  5
10000EF
331
10001BA
  5
100005E
331
10000AD
  5
1000122
331
100009C
  5
1000111
331
100008B
  5
1000100
331
10000BE
  5
1000133
331
10001E6
  5
100008A
331
10001CB
  5
100006F
331
10000CF
  5
1000144
331
10001F7
  5
100009B
331
221
  5
1000223
331
10000D0
  5
1000145
331
10001F8
  5
100009C
331
10000E1
  5
1000156
331
1000209
  5
10000AD
331
100021A
  5
10000BE
331
1000166
  5
10001DB
331
100010D
  5
1000182
331
10000FC
  5
1000171
331
10000EB
  5
1000160
331
100022B
  5
222
331
1000177
  5
10001EC
331
1000188
  5
10001FD
331
100012F
  5
10001A4
331
1000140
  5
10001B5
331
100011E
  5
1000193
331
1000151
  5
10001C6
331
1000199
  5
10000D4
331
1000053
  5
1000216
331
10001AA
  5
22B
331
1000064
  5
1000205
331
100007B
  5
10000F0
331
10001BB
  5
100005F
331
10000AE
  5
1000123
331
100009D
  5
1000112
331
100008C
  5
1000101
331
10000BF
  5
1000134
331
10001E7
  5
100008B
331
10001CC
  5
1000070
331
10000C0
  5
1000135
331
10001E8
  5
100008C
331
222
  5
1000224
331
10000D1
  5
1000146
331
10001F9
  5
100009D
331
10000E2
  5
1000157
331
100020A
  5
10000AE
331
100021B
  5
10000BF
331
1000167
  5
10001DC
331
100010E
  5
1000183
331
10000FD
  5
1000172
331
10000EC
  5
1000161
331
100022C
  5
223
331
1000178
  5
10001ED
331
100011F
  5
1000194
331
1000189
  5
10001FE
331
1000130
  5
10001A5
331
1000141
  5
10001B6
331
1000152
  5
10001C7
331
100019A
  5
10000D5
331
1000054
  5
1000217
331
10001AB
  5
22C
331
1000065
  5
1000206
331
100007C
  5
10000F1
331
10001BC
  5
1000060
331
10000AF
  5
1000124
331
100009E
  5
1000113
331
100008D
  5
1000102
331
10001CD
  5
1000071
331
10000B0
  5
1000125
331
10001D8
  5
100007C
331
10000C1
  5
1000136
331
10001E9
  5
100008D
331
223
  5
1000225
331
10000D2
  5
1000147
331
10001FA
  5
100009E
331
10000E3
  5
1000158
331
100021C
  5
10000C0
331
1000168
  5
10001DD
331
100010F
  5
1000184
331
10000FE
  5
1000173
331
10000ED
  5
1000162
331
1000179
  5
10001EE
331
1000120
  5
1000195
331
100022D
  5
21A
331
100020B
  5
10000AF
331
100018A
  5
10001FF
331
1000142
  5
10001B7
331
1000131
  5
10001A6
331
1000153
  5
10001C8
331
100019B
  5
10000D6
331
1000055
  5
1000218
331
10001AC
  5
22D
331
1000066
  5
1000207
331
100007D
  5
10000F2
331
10001BD
  5
1000061
331
100009F
  5
1000114
331
100008E
  5
1000103
331
10001CE
  5
1000072
331
10000A0
  5
1000115
331
10000B1
  5
1000126
331
10001D9
  5
100007D
331
10000C2
  5
1000137
331
10001EA
  5
100008E
331
224
  5
1000226
331
10000D3
  5
1000148
331
10001FB
  5
100009F
331
10000E4
  5
1000159
331
100021D
  5
10000C1
331
1000169
  5
10001DE
331
1000110
  5
1000185
331
10000FF
  5
1000174
331
10000EE
  5
1000163
331
100017A
  5
10001EF
331
1000121
  5
1000196
331
100022E
  5
21B
331
100020C
  5
10000B0
331
1000143
  5
10001B8
331
100018B
  5
10000E0
331
1000132
  5
10001A7
331
1000154
  5
10001C9
331
100019C
  5
10000D7
331
1000056
  5
1000219
331
10001AD
  5
22E
331
1000067
  5
1000208
331
100007E
  5
10000F3
331
10001BE
  5
1000062
331
100008F
  5
1000104
331
10001CF
  5
1000073
331
1000068
  5
1000209
331
10000A1
  5
1000116
331
1000090
  5
1000105
331
10001D0
  5
1000074
331
10000B2
  5
1000127
331
10001DA
  5
100007E
331
10000C3
  5
1000138
331
10001EB
  5
100008F
331
225
  5
1000227
331
10000D4
  5
1000149
331
10000E5
  5
100015A
331
100020D
  5
10000B1
331
100016A
  5
10001DF
331
1000111
  5
1000186
331
1000100
  5
1000175
331
10000EF
  5
1000164
331
100022F
  5
21C
331
100017B
  5
10001F0
331
1000122
  5
1000197
331
100021E
  5
10000C2
331
1000144
  5
10001B9
331
100018C
  5
10000E1
331
1000133
  5
10001A8
331
1000155
  5
10001CA
331
100019D
  5
10000CC
331
1000057
  5
100021A
331
10001AE
  5
22F
331
100007F
  5
10000F4
331
10001BF
  5
1000063
331
10001FC
  5
10000A0
331
1000058
  5
100021B
331
1000069
  5
100020A
331
1000080
  5
10000F5
331
10001C0
  5
1000064
331
10000A2
  5
1000117
331
1000091
  5
1000106
331
10001D1
  5
1000075
331
10000B3
  5
1000128
331
10001DB
  5
100007F
331
10000C4
  5
1000139
331
10001EC
  5
1000090
331
226
  5
1000228
331
10000D5
  5
100014A
331
10000E6
  5
100015B
331
100020E
  5
10000B2
331
100016B
  5
10001E0
331
1000112
  5
1000187
331
1000101
  5
1000176
331
10000F0
  5
1000165
331
1000230
  5
21D
331
100017C
  5
10001F1
331
1000123
  5
1000198
331
100021F
  5
10000C3
331
10001FD
  5
10000A1
331
1000145
  5
10001BA
331
100018D
  5
10000E2
331
1000134
  5
10001A9
331
1000156
  5
10001CB
331
100019E
  5
10000CD
331
10001AF
  5
1000051
331
1000070
  5
10000E5
331
10001B0
  5
1000052
331
100006A
  5
100020B
331
1000081
  5
10000F6
331
10001C1
  5
1000065
331
10000A3
  5
1000118
331
1000092
  5
1000107
331
10001D2
  5
1000076
331
10000B4
  5
1000129
331
10000C5
  5
100013A
331
10001ED
  5
1000091
331
10001DC
  5
1000080
331
227
  5
1000229
331
10000D6
  5
100014B
331
10000E7
  5
100015C
331
100020F
  5
10000B3
331
100016C
  5
10001E1
331
1000113
  5
1000188
331
1000102
  5
1000177
331
10000F1
  5
1000166
331
1000231
  5
21E
331
100017D
  5
10001F2
331
1000124
  5
1000199
331
1000220
  5
10000C4
331
10001FE
  5
10000A2
331
1000146
  5
10001BB
331
100018E
  5
10000E3
331
1000135
  5
10001AA
331
1000157
  5
10001CC
331
100019F
  5
10000CE
  0
ACDBDETAILVIEWSTYLE
  5
100004F
102
{ACAD_REACTORS
330
100004E
102
}
330
100004E
100
AcDbModelDocViewStyle
 70
     0
  3
Imperial24
290
     0
100
AcDbDetailViewStyle
 70
     0
 71
     0
 90
        3
 71
     1
340
12
 62
   256
 40
0.24
340
0
 62
   256
 40
0.24
300

 40
0.36
280
     3
 71
     2
340
6
 90
       25
 62
   256
 71
     3
340
12
 62
   256
 40
0.24
 90
        1
 40
0.75
 90
        1
300
%<\AcVar ViewType \f "%tc1">% %<\AcVar ViewDetailId>%\PSKALA %<\AcVar ViewScale \f "%sn">%
 71
     4
340
6
 90
       25
 62
   256
340
6
 90
       25
 62
   256
280
     0
  0
LAYOUT
  5
1E
330
232
100
AcDbPlotSettings
  1

  2

  4

  6

 40
0.0
 41
0.0
 42
0.0
 43
0.0
 44
0.0
 45
0.0
 46
0.0
 47
0.0
 48
0.0
 49
0.0
140
0.0
141
0.0
142
1.0
143
1.0
 70
   688
 72
     1
 73
     0
 74
     5
  7

 75
     0
147
1.0
 76
     0
 77
     2
 78
   300
148
0.0
149
0.0
100
AcDbLayout
  1
Layout
 70
     1
 71
     1
 10
0.0
 20
0.0
 11
210.0
 21
297.0
 12
0.0
 22
0.0
 32
0.0
 14
1.000000000000000E+20
 24
1.000000000000000E+20
 34
1.000000000000000E+20
 15
-1.000000000000000E+20
 25
-1.000000000000000E+20
 35
-1.000000000000000E+20
146
0.0
 13
0.0
 23
0.0
 33
0.0
 16
1.0
 26
0.0
 36
0.0
 17
0.0
 27
1.0
 37
0.0
 76
     0
330
1D
  0
LAYOUT
  5
1C
330
232
100
AcDbPlotSettings
  1

  2

  4

  6

 40
0.0
 41
0.0
 42
0.0
 43
0.0
 44
0.0
 45
0.0
 46
0.0
 47
0.0
 48
0.0
 49
0.0
140
0.0
141
0.0
142
1.0
143
1.0
 70
  1712
 72
     1
 73
     0
 74
     0
  7

 75
     0
147
1.0
 76
     0
 77
     2
 78
   300
148
0.0
149
0.0
100
AcDbLayout
  1
Model
 70
     1
 71
     0
 10
0.0
 20
0.0
 11
12.0
 21
9.0
 12
0.0
 22
0.0
 32
0.0
 14
0.0
 24
0.0
 34
0.0
 15
0.0
 25
0.0
 35
0.0
146
0.0
 13
0.0
 23
0.0
 33
0.0
 16
1.0
 26
0.0
 36
0.0
 17
0.0
 27
1.0
 37
0.0
 76
     0
330
1B
331
2
  0
MATERIAL
  5
100000B
102
{ACAD_XDICTIONARY
360
100000C
102
}
102
{ACAD_REACTORS
330
1000002
102
}
330
1000002
100
AcDbMaterial
  1
ByBlock
 72
     0
 43
0.820209973753281
 43
0.0
 43
0.0
 43
0.0
 43
0.0
 43
0.820209973753281
 43
0.0
 43
0.0
 43
0.0
 43
0.0
 43
1.0
 43
0.0
 43
0.0
 43
0.0
 43
0.0
 43
1.0
 77
     0
 47
0.820209973753281
 47
0.0
 47
0.0
 47
0.0
 47
0.0
 47
0.820209973753281
 47
0.0
 47
0.0
 47
0.0
 47
0.0
 47
1.0
 47
0.0
 47
0.0
 47
0.0
 47
0.0
 47
1.0
171
     0
 49
0.820209973753281
 49
0.0
 49
0.0
 49
0.0
 49
0.0
 49
0.820209973753281
 49
0.0
 49
0.0
 49
0.0
 49
0.0
 49
1.0
 49
0.0
 49
0.0
 49
0.0
 49
0.0
 49
1.0
175
     0
142
0.820209973753281
142
0.0
142
0.0
142
0.0
142
0.0
142
0.820209973753281
142
0.0
142
0.0
142
0.0
142
0.0
142
1.0
142
0.0
142
0.0
142
0.0
142
0.0
142
1.0
179
     0
144
0.820209973753281
144
0.0
144
0.0
144
0.0
144
0.0
144
0.820209973753281
144
0.0
144
0.0
144
0.0
144
0.0
144
1.0
144
0.0
144
0.0
144
0.0
144
0.0
144
1.0
147
0.820209973753281
147
0.0
147
0.0
147
0.0
147
0.0
147
0.820209973753281
147
0.0
147
0.0
147
0.0
147
0.0
147
1.0
147
0.0
147
0.0
147
0.0
147
0.0
147
1.0
  0
MATERIAL
  5
1000003
102
{ACAD_XDICTIONARY
360
1000004
102
}
102
{ACAD_REACTORS
330
1000002
102
}
330
1000002
100
AcDbMaterial
  1
ByLayer
 72
     0
 43
0.820209973753281
 43
0.0
 43
0.0
 43
0.0
 43
0.0
 43
0.820209973753281
 43
0.0
 43
0.0
 43
0.0
 43
0.0
 43
1.0
 43
0.0
 43
0.0
 43
0.0
 43
0.0
 43
1.0
 77
     0
 47
0.820209973753281
 47
0.0
 47
0.0
 47
0.0
 47
0.0
 47
0.820209973753281
 47
0.0
 47
0.0
 47
0.0
 47
0.0
 47
1.0
 47
0.0
 47
0.0
 47
0.0
 47
0.0
 47
1.0
171
     0
 49
0.820209973753281
 49
0.0
 49
0.0
 49
0.0
 49
0.0
 49
0.820209973753281
 49
0.0
 49
0.0
 49
0.0
 49
0.0
 49
1.0
 49
0.0
 49
0.0
 49
0.0
 49
0.0
 49
1.0
175
     0
142
0.820209973753281
142
0.0
142
0.0
142
0.0
142
0.0
142
0.820209973753281
142
0.0
142
0.0
142
0.0
142
0.0
142
1.0
142
0.0
142
0.0
142
0.0
142
0.0
142
1.0
179
     0
144
0.820209973753281
144
0.0
144
0.0
144
0.0
144
0.0
144
0.820209973753281
144
0.0
144
0.0
144
0.0
144
0.0
144
1.0
144
0.0
144
0.0
144
0.0
144
0.0
144
1.0
147
0.820209973753281
147
0.0
147
0.0
147
0.0
147
0.0
147
0.820209973753281
147
0.0
147
0.0
147
0.0
147
0.0
147
1.0
147
0.0
147
0.0
147
0.0
147
0.0
147
1.0
  0
MATERIAL
  5
1000013
102
{ACAD_XDICTIONARY
360
1000014
102
}
102
{ACAD_REACTORS
330
1000002
102
}
330
1000002
100
AcDbMaterial
  1
Global
 72
     0
 43
0.820209973753281
 43
0.0
 43
0.0
 43
0.0
 43
0.0
 43
0.820209973753281
 43
0.0
 43
0.0
 43
0.0
 43
0.0
 43
1.0
 43
0.0
 43
0.0
 43
0.0
 43
0.0
 43
1.0
 77
     0
 47
0.820209973753281
 47
0.0
 47
0.0
 47
0.0
 47
0.0
 47
0.820209973753281
 47
0.0
 47
0.0
 47
0.0
 47
0.0
 47
1.0
 47
0.0
 47
0.0
 47
0.0
 47
0.0
 47
1.0
171
     0
 49
0.820209973753281
 49
0.0
 49
0.0
 49
0.0
 49
0.0
 49
0.820209973753281
 49
0.0
 49
0.0
 49
0.0
 49
0.0
 49
1.0
 49
0.0
 49
0.0
 49
0.0
 49
0.0
 49
1.0
175
     0
142
0.820209973753281
142
0.0
142
0.0
142
0.0
142
0.0
142
0.820209973753281
142
0.0
142
0.0
142
0.0
142
0.0
142
1.0
142
0.0
142
0.0
142
0.0
142
0.0
142
1.0
179
     0
144
0.820209973753281
144
0.0
144
0.0
144
0.0
144
0.0
144
0.820209973753281
144
0.0
144
0.0
144
0.0
144
0.0
144
1.0
144
0.0
144
0.0
144
0.0
144
0.0
144
1.0
147
0.820209973753281
147
0.0
147
0.0
147
0.0
147
0.0
147
0.820209973753281
147
0.0
147
0.0
147
0.0
147
0.0
147
1.0
147
0.0
147
0.0
147
0.0
147
0.0
147
1.0
  0
MLEADERSTYLE
  5
100004A
102
{ACAD_REACTORS
330
1000049
102
}
330
1000049
100
AcDbMLeaderStyle
170
     2
171
     1
172
     0
 90
        2
 40
0.0
 41
0.0
173
     1
 91
-1056964608
340
4
 92
       -2
290
     1
 42
0.09
291
     1
 43
0.36
  3
Standard
 44
0.18
300

342
12
174
     1
178
     6
175
     1
176
     0
 93
-1056964608
 45
0.18
292
     0
297
     0
 46
0.18
 94
-1056964608
 47
1.0
 49
1.0
140
1.0
293
     1
141
0.0
294
     1
177
     0
142
1.0
295
     0
296
     0
143
0.125
1001
ACAD_MLEADERVER
1070
     2
  0
MLINESTYLE
  5
A
330
233
100
AcDbMlineStyle
  2
L_0_E3
 70
     0
  3

 62
   256
 51
90.0
 52
90.0
 71
     2
 49
0.0
 62
   256
  6
CONTINUOUS
 49
-0.5
 62
   256
  6
L_0_E3_00
  0
MLINESTYLE
  5
236
102
{ACAD_REACTORS
330
233
102
}
330
233
100
AcDbMlineStyle
  2
STANDARD
 70
     0
  3

 62
   256
 51
90.0
 52
90.0
 71
     2
 49
0.5
 62
   256
  6
BYLAYER
 49
-0.5
 62
   256
  6
BYLAYER
  0
ACDBPLACEHOLDER
  5
F
330
235
  0
SCALE
  5
1000038
102
{ACAD_REACTORS
330
1000037
102
}
330
1000037
100
AcDbScale
 70
     0
300
1:1
140
1.0
141
1.0
290
     1
  0
SCALE
  5
1000039
102
{ACAD_REACTORS
330
1000037
102
}
330
1000037
100
AcDbScale
 70
     0
300
1/128" = 1'-0"
140
0.0078125
141
12.0
290
     0
  0
SCALE
  5
100003A
102
{ACAD_REACTORS
330
1000037
102
}
330
1000037
100
AcDbScale
 70
     0
300
1/64" = 1'-0"
140
0.015625
141
12.0
290
     0
  0
SCALE
  5
100003B
102
{ACAD_REACTORS
330
1000037
102
}
330
1000037
100
AcDbScale
 70
     0
300
1/32" = 1'-0"
140
0.03125
141
12.0
290
     0
  0
SCALE
  5
100003C
102
{ACAD_REACTORS
330
1000037
102
}
330
1000037
100
AcDbScale
 70
     0
300
1/16" = 1'-0"
140
0.0625
141
12.0
290
     0
  0
SCALE
  5
100003D
102
{ACAD_REACTORS
330
1000037
102
}
330
1000037
100
AcDbScale
 70
     0
300
3/32" = 1'-0"
140
0.09375
141
12.0
290
     0
  0
SCALE
  5
100003E
102
{ACAD_REACTORS
330
1000037
102
}
330
1000037
100
AcDbScale
 70
     0
300
1/8" = 1'-0"
140
0.125
141
12.0
290
     0
  0
SCALE
  5
100003F
102
{ACAD_REACTORS
330
1000037
102
}
330
1000037
100
AcDbScale
 70
     0
300
3/16" = 1'-0"
140
0.1875
141
12.0
290
     0
  0
SCALE
  5
1000040
102
{ACAD_REACTORS
330
1000037
102
}
330
1000037
100
AcDbScale
 70
     0
300
1/4" = 1'-0"
140
0.25
141
12.0
290
     0
  0
SCALE
  5
1000041
102
{ACAD_REACTORS
330
1000037
102
}
330
1000037
100
AcDbScale
 70
     0
300
3/8" = 1'-0"
140
0.375
141
12.0
290
     0
  0
SCALE
  5
1000042
102
{ACAD_REACTORS
330
1000037
102
}
330
1000037
100
AcDbScale
 70
     0
300
1/2" = 1'-0"
140
0.5
141
12.0
290
     0
  0
SCALE
  5
1000043
102
{ACAD_REACTORS
330
1000037
102
}
330
1000037
100
AcDbScale
 70
     0
300
3/4" = 1'-0"
140
0.75
141
12.0
290
     0
  0
SCALE
  5
1000044
102
{ACAD_REACTORS
330
1000037
102
}
330
1000037
100
AcDbScale
 70
     0
300
1" = 1'-0"
140
1.0
141
12.0
290
     0
  0
SCALE
  5
1000045
102
{ACAD_REACTORS
330
1000037
102
}
330
1000037
100
AcDbScale
 70
     0
300
1-1/2" = 1'-0"
140
1.5
141
12.0
290
     0
  0
SCALE
  5
1000046
102
{ACAD_REACTORS
330
1000037
102
}
330
1000037
100
AcDbScale
 70
     0
300
3" = 1'-0"
140
3.0
141
12.0
290
     0
  0
SCALE
  5
1000047
102
{ACAD_REACTORS
330
1000037
102
}
330
1000037
100
AcDbScale
 70
     0
300
6" = 1'-0"
140
6.0
141
12.0
290
     0
  0
SCALE
  5
1000048
102
{ACAD_REACTORS
330
1000037
102
}
330
1000037
100
AcDbScale
 70
     0
300
1'-0" = 1'-0"
140
12.0
141
12.0
290
     0
  0
ACDBSECTIONVIEWSTYLE
  5
100004D
102
{ACAD_REACTORS
330
100004B
102
}
330
100004B
100
AcDbModelDocViewStyle
 70
     0
  3
Imperial24
290
     0
100
AcDbSectionViewStyle
 70
     0
 71
     0
 90
       78
 71
     1
340
12
 62
   256
 40
0.24
340
0
340
0
 62
   256
 40
0.24
300
I, O, Q, S, X, Z
 40
0.48
 90
        3
 40
0.18
 90
        1
 71
     2
340
100004C
 90
       25
 62
   256
340
6
 90
       50
 62
   256
 40
0.24
 40
0.0
 40
0.24
 71
     3
340
12
 62
   256
 40
0.24
 90
        1
 40
0.75
 90
        1
300
%<\AcVar ViewType \f "%tc1">% %<\AcVar ViewSectionStartId>%-%<\AcVar ViewSectionEndId>%\PSKALA %<\AcVar ViewScale \f "%sn">%
 71
     4
 62
   256
 62
   257
300
ANSI31
 40
1.0
 90
        0
290
     0
290
     0
 90
        6
 40
0.0
 40
1.570796326794896
 40
0.2617993877991494
 40
1.308996938995747
 40
-0.2617993877991494
 40
1.832595714594046
  0
TABLESTYLE
  5
1000036
102
{ACAD_XDICTIONARY
360
100023E
102
}
102
{ACAD_REACTORS
330
1000035
102
}
330
1000035
100
AcDbTableStyle
  3
Standard
 70
     0
 71
     0
 40
0.06
 41
0.06
280
     0
281
     0
  7
STANDARD
140
0.18
170
     2
 62
     0
 63
     7
283
     0
274
    -2
284
     1
 64
     0
275
    -2
285
     1
 65
     0
276
    -2
286
     1
 66
     0
277
    -2
287
     1
 67
     0
278
    -2
288
     1
 68
     0
279
    -2
289
     1
 69
     0
  7
STANDARD
140
0.25
170
     5
 62
     0
 63
     7
283
     0
274
    -2
284
     1
 64
     0
275
    -2
285
     1
 65
     0
276
    -2
286
     1
 66
     0
277
    -2
287
     1
 67
     0
278
    -2
288
     1
 68
     0
279
    -2
289
     1
 69
     0
  7
STANDARD
140
0.18
170
     5
 62
     0
 63
     7
283
     0
274
    -2
284
     1
 64
     0
275
    -2
285
     1
 65
     0
276
    -2
286
     1
 66
     0
277
    -2
287
     1
 67
     0
278
    -2
288
     1
 68
     0
279
    -2
289
     1
 69
     0
  0
VISUALSTYLE
  5
1000021
102
{ACAD_XDICTIONARY
360
100024E
102
}
102
{ACAD_REACTORS
330
100001B
102
}
330
100001B
100
AcDbVisualStyle
  2
2dWireframe
 70
     4
 71
     0
 72
     2
 73
     0
 90
        0
 40
-0.6
 41
-30.0
 62
     5
 63
     7
421
 16777215
 74
     1
 91
        4
 64
     7
 65
   257
 75
     1
175
     1
 42
1.0
 92
        0
 66
   257
 43
1.0
 76
     1
 77
     6
 78
     2
 67
     7
 79
     5
170
     0
171
     0
290
     0
174
     0
 93
        1
 44
0.0
173
     0
291
     0
 45
0.0
1001
ACAD
1000
AcDbSavedByObjectVersion
1070
     0
  0
VISUALSTYLE
  5
1000020
102
{ACAD_XDICTIONARY
360
100024C
102
}
102
{ACAD_REACTORS
330
100001B
102
}
330
100001B
100
AcDbVisualStyle
  2
Basic
 70
     7
 71
     1
 72
     0
 73
     1
 90
        0
 40
-0.6
 41
-30.0
 62
     5
 63
     7
421
 16777215
 74
     0
 91
        4
 64
     7
 65
   257
 75
     1
175
     1
 42
1.0
 92
        8
 66
     7
 43
1.0
 76
     1
 77
     6
 78
     2
 67
     7
 79
     5
170
     0
171
     0
290
     0
174
     0
 93
        1
 44
0.0
173
     0
291
     1
 45
0.0
1001
ACAD
1000
AcDbSavedByObjectVersion
1070
     0
  0
VISUALSTYLE
  5
1000027
102
{ACAD_XDICTIONARY
360
100025A
102
}
102
{ACAD_REACTORS
330
100001B
102
}
330
100001B
100
AcDbVisualStyle
  2
Brighten
 70
    12
 71
     2
 72
     2
 73
     0
 90
        0
 40
-0.6
 41
-30.0
 62
     5
 63
     7
421
 16777215
 74
     1
 91
        4
 64
     7
 65
   257
 75
     1
175
     1
 42
1.0
 92
        8
 66
     7
 43
1.0
 76
     1
 77
     6
 78
     2
 67
     7
 79
     5
170
     0
171
     0
290
     0
174
     0
 93
        1
 44
50.0
173
     0
291
     1
 45
0.0
1001
ACAD
1000
AcDbSavedByObjectVersion
1070
     0
  0
VISUALSTYLE
  5
100002B
102
{ACAD_XDICTIONARY
360
1000262
102
}
102
{ACAD_REACTORS
330
100001B
102
}
330
100001B
100
AcDbVisualStyle
  2
ColorChange
 70
    16
 71
     2
 72
     2
 73
     3
 90
        0
 40
-0.6
 41
-30.0
 62
     5
 63
     8
421
  8421504
 74
     1
 91
        4
 64
     7
 65
   257
 75
     1
175
     1
 42
1.0
 92
        8
 66
     8
424
  8421504
 43
1.0
 76
     1
 77
     6
 78
     2
 67
     7
 79
     5
170
     0
171
     0
290
     0
174
     0
 93
        1
 44
0.0
173
     0
291
     1
 45
0.0
1001
ACAD
1000
AcDbSavedByObjectVersion
1070
     0
  0
VISUALSTYLE
  5
1000024
102
{ACAD_XDICTIONARY
360
1000254
102
}
102
{ACAD_REACTORS
330
100001B
102
}
330
100001B
100
AcDbVisualStyle
  2
Conceptual
 70
     9
 71
     3
 72
     2
 73
     0
 90
        0
 40
-0.6
 41
-30.0
 62
     5
 63
     7
421
 16777215
 74
     2
 91
        2
 64
     7
 65
   257
 75
     1
175
     1
 42
179.0
 92
        8
 66
     7
 43
1.0
 76
     1
 77
     6
 78
     2
 67
     7
 79
     3
170
     0
171
     0
290
     0
174
     0
 93
        1
 44
0.0
173
     0
291
     0
 45
0.0
1001
ACAD
1000
AcDbSavedByObjectVersion
1070
     0
  0
VISUALSTYLE
  5
1000026
102
{ACAD_XDICTIONARY
360
1000258
102
}
102
{ACAD_REACTORS
330
100001B
102
}
330
100001B
100
AcDbVisualStyle
  2
Dim
 70
    11
 71
     2
 72
     2
 73
     0
 90
        0
 40
-0.6
 41
-30.0
 62
     5
 63
     7
421
 16777215
 74
     1
 91
        4
 64
     7
 65
   257
 75
     1
175
     1
 42
1.0
 92
        8
 66
     7
 43
1.0
 76
     1
 77
     6
 78
     2
 67
     7
 79
     5
170
     0
171
     0
290
     0
174
     0
 93
        1
 44
-50.0
173
     0
291
     1
 45
0.0
1001
ACAD
1000
AcDbSavedByObjectVersion
1070
     0
  0
VISUALSTYLE
  5
1000033
102
{ACAD_XDICTIONARY
360
1000272
102
}
102
{ACAD_REACTORS
330
100001B
102
}
330
100001B
100
AcDbVisualStyle
  2
EdgeColorOff
 70
    22
 71
     2
 72
     2
 73
     0
 90
        0
 40
-0.6
 41
-30.0
 62
     5
 63
     7
421
 16777215
 74
     1
 91
        4
 64
     7
 65
   257
 75
     1
175
     1
 42
1.0
 92
        8
 66
     7
 43
1.0
 76
     1
 77
     6
 78
     2
 67
     7
 79
     5
170
     0
171
     0
290
     0
174
     0
 93
        1
 44
0.0
173
     0
291
     1
 45
0.0
1001
ACAD
1000
AcDbSavedByObjectVersion
1070
     0
  0
VISUALSTYLE
  5
100002A
102
{ACAD_XDICTIONARY
360
1000260
102
}
102
{ACAD_REACTORS
330
100001B
102
}
330
100001B
100
AcDbVisualStyle
  2
Facepattern
 70
    15
 71
     2
 72
     2
 73
     0
 90
        0
 40
-0.6
 41
-30.0
 62
     5
 63
     7
421
 16777215
 74
     1
 91
        4
 64
     7
 65
   257
 75
     1
175
     1
 42
1.0
 92
        8
 66
     7
 43
1.0
 76
     1
 77
     6
 78
     2
 67
     7
 79
     5
170
     0
171
     0
290
     0
174
     0
 93
        1
 44
0.0
173
     0
291
     1
 45
0.0
1001
ACAD
1000
AcDbSavedByObjectVersion
1070
     0
  0
VISUALSTYLE
  5
100001C
102
{ACAD_XDICTIONARY
360
1000244
102
}
102
{ACAD_REACTORS
330
100001B
102
}
330
100001B
100
AcDbVisualStyle
  2
Flat
 70
     0
 71
     2
 72
     1
 73
     1
 90
        2
 40
-0.6
 41
30.0
 62
     5
 63
     7
421
 16777215
 74
     0
 91
        0
 64
     7
 65
   257
 75
     1
175
     1
 42
1.0
 92
        8
 66
     7
 43
1.0
 76
     1
 77
     6
 78
     2
 67
     7
 79
     5
170
     0
171
     0
290
     0
174
     0
 93
       13
 44
0.0
173
     0
291
     1
 45
0.0
1001
ACAD
1000
AcDbSavedByObjectVersion
1070
     0
  0
VISUALSTYLE
  5
100001D
102
{ACAD_XDICTIONARY
360
1000246
102
}
102
{ACAD_REACTORS
330
100001B
102
}
330
100001B
100
AcDbVisualStyle
  2
FlatWithEdges
 70
     1
 71
     2
 72
     1
 73
     1
 90
        2
 40
-0.6
 41
30.0
 62
     5
 63
     7
421
 16777215
 74
     1
 91
        0
 64
     7
 65
   257
 75
     1
175
     1
 42
1.0
 92
        0
 66
   257
 43
1.0
 76
     1
 77
     6
 78
     2
 67
     7
 79
     5
170
     0
171
     0
290
     0
174
     0
 93
       13
 44
0.0
173
     0
291
     1
 45
0.0
1001
ACAD
1000
AcDbSavedByObjectVersion
1070
     0
  0
VISUALSTYLE
  5
100001E
102
{ACAD_XDICTIONARY
360
1000248
102
}
102
{ACAD_REACTORS
330
100001B
102
}
330
100001B
100
AcDbVisualStyle
  2
Gouraud
 70
     2
 71
     2
 72
     2
 73
     1
 90
        2
 40
-0.6
 41
30.0
 62
     5
 63
     7
421
 16777215
 74
     0
 91
        0
 64
     7
 65
   257
 75
     1
175
     1
 42
1.0
 92
        0
 66
     7
 43
1.0
 76
     1
 77
     6
 78
     2
 67
     7
 79
     5
170
     0
171
     0
290
     0
174
     0
 93
       13
 44
0.0
173
     0
291
     1
 45
0.0
1001
ACAD
1000
AcDbSavedByObjectVersion
1070
     0
  0
VISUALSTYLE
  5
100001F
102
{ACAD_XDICTIONARY
360
100024A
102
}
102
{ACAD_REACTORS
330
100001B
102
}
330
100001B
100
AcDbVisualStyle
  2
GouraudWithEdges
 70
     3
 71
     2
 72
     2
 73
     1
 90
        2
 40
-0.6
 41
30.0
 62
     5
 63
     7
421
 16777215
 74
     1
 91
        0
 64
     7
 65
   257
 75
     1
175
     1
 42
1.0
 92
        0
 66
   257
 43
1.0
 76
     1
 77
     6
 78
     2
 67
     7
 79
     5
170
     0
171
     0
290
     0
174
     0
 93
       13
 44
0.0
173
     0
291
     1
 45
0.0
1001
ACAD
1000
AcDbSavedByObjectVersion
1070
     0
  0
VISUALSTYLE
  5
1000023
102
{ACAD_XDICTIONARY
360
1000252
102
}
102
{ACAD_REACTORS
330
100001B
102
}
330
100001B
100
AcDbVisualStyle
  2
Hidden
 70
     6
 71
     1
 72
     2
 73
     2
 90
        0
 40
-0.6
 41
-30.0
 62
     5
 63
     7
421
 16777215
 74
     2
 91
        2
 64
     7
 65
   257
 75
     2
175
     1
 42
40.0
 92
        0
 66
   257
 43
1.0
 76
     1
 77
     6
 78
     2
 67
     7
 79
     3
170
     0
171
     0
290
     0
174
     0
 93
        1
 44
0.0
173
     0
291
     0
 45
0.0
1001
ACAD
1000
AcDbSavedByObjectVersion
1070
     0
  0
VISUALSTYLE
  5
1000031
102
{ACAD_XDICTIONARY
360
100026E
102
}
102
{ACAD_REACTORS
330
100001B
102
}
330
100001B
100
AcDbVisualStyle
  2
JitterOff
 70
    20
 71
     2
 72
     2
 73
     0
 90
        0
 40
-0.6
 41
-30.0
 62
     5
 63
     7
421
 16777215
 74
     1
 91
        4
 64
     7
 65
   257
 75
     1
175
     1
 42
1.0
 92
       10
 66
     7
 43
1.0
 76
     1
 77
     6
 78
     2
 67
     7
 79
     5
170
     0
171
     0
290
     0
174
     0
 93
        1
 44
0.0
173
     0
291
     1
 45
0.0
1001
ACAD
1000
AcDbSavedByObjectVersion
1070
     0
  0
VISUALSTYLE
  5
1000029
102
{ACAD_XDICTIONARY
360
100025E
102
}
102
{ACAD_REACTORS
330
100001B
102
}
330
100001B
100
AcDbVisualStyle
  2
Linepattern
 70
    14
 71
     2
 72
     2
 73
     0
 90
        0
 40
-0.6
 41
-30.0
 62
     5
 63
     7
421
 16777215
 74
     1
 91
        4
 64
     7
 65
   257
 75
     7
175
     7
 42
1.0
 92
        8
 66
     7
 43
1.0
 76
     1
 77
     6
 78
     2
 67
     7
 79
     5
170
     0
171
     0
290
     0
174
     0
 93
        1
 44
0.0
173
     0
291
     1
 45
0.0
1001
ACAD
1000
AcDbSavedByObjectVersion
1070
     0
  0
VISUALSTYLE
  5
1000032
102
{ACAD_XDICTIONARY
360
1000270
102
}
102
{ACAD_REACTORS
330
100001B
102
}
330
100001B
100
AcDbVisualStyle
  2
OverhangOff
 70
    21
 71
     2
 72
     2
 73
     0
 90
        0
 40
-0.6
 41
-30.0
 62
     5
 63
     7
421
 16777215
 74
     1
 91
        4
 64
     7
 65
   257
 75
     1
175
     1
 42
1.0
 92
        9
 66
     7
 43
1.0
 76
     1
 77
     6
 78
     2
 67
     7
 79
     5
170
     0
171
     0
290
     0
174
     0
 93
        1
 44
0.0
173
     0
291
     1
 45
0.0
1001
ACAD
1000
AcDbSavedByObjectVersion
1070
     0
  0
VISUALSTYLE
  5
1000025
102
{ACAD_XDICTIONARY
360
1000256
102
}
102
{ACAD_REACTORS
330
100001B
102
}
330
100001B
100
AcDbVisualStyle
  2
Realistic
 70
     8
 71
     2
 72
     3
 73
     0
 90
        2
 40
-0.6
 41
30.0
 62
     5
 63
     7
421
 16777215
 74
     0
 91
        0
 64
     7
 65
   257
 75
     1
175
     1
 42
1.0
 92
        8
 66
   257
 43
1.0
 76
     1
 77
     6
 78
     2
 67
     7
 79
     3
170
     0
171
     0
290
     0
174
     0
 93
       13
 44
0.0
173
     0
291
     0
 45
0.0
1001
ACAD
1000
AcDbSavedByObjectVersion
1070
     0
  0
VISUALSTYLE
  5
1000030
102
{ACAD_XDICTIONARY
360
100026C
102
}
102
{ACAD_REACTORS
330
100001B
102
}
330
100001B
100
AcDbVisualStyle
  2
Shaded
 70
    27
 71
     2
 72
     2
 73
     1
 90
        2
 40
-0.6
 41
30.0
 62
     5
 63
     7
421
 16777215
 74
     0
 91
        4
 64
     7
 65
   257
 75
     1
175
     1
 42
1.0
 92
        8
 66
   257
 43
1.0
 76
     1
 77
     6
 78
     2
 67
     8
425
  7895160
 79
     3
170
     0
171
     0
290
     0
174
     0
 93
        5
 44
0.0
173
     0
291
     0
 45
0.0
1001
ACAD
1000
AcDbSavedByObjectVersion
1070
     0
  0
VISUALSTYLE
  5
100002F
102
{ACAD_XDICTIONARY
360
100026A
102
}
102
{ACAD_REACTORS
330
100001B
102
}
330
100001B
100
AcDbVisualStyle
  2
Shaded with edges
 70
    26
 71
     2
 72
     2
 73
     1
 90
        2
 40
-0.6
 41
30.0
 62
     5
 63
     7
421
 16777215
 74
     1
 91
       10
 64
     7
 65
   257
 75
     2
175
     1
 42
1.0
 92
        8
 66
   257
 43
1.0
 76
     1
 77
     6
 78
     2
 67
     7
 79
     3
170
     0
171
     0
290
     0
174
     0
 93
        5
 44
0.0
173
     0
291
     0
 45
0.0
1001
ACAD
1000
AcDbSavedByObjectVersion
1070
     0
  0
VISUALSTYLE
  5
100002C
102
{ACAD_XDICTIONARY
360
1000264
102
}
102
{ACAD_REACTORS
330
100001B
102
}
330
100001B
100
AcDbVisualStyle
  2
Shades of Gray
 70
    23
 71
     2
 72
     2
 73
     3
 90
        0
 40
-0.6
 41
-30.0
 62
     5
 63
     7
421
 16777215
 74
     2
 91
        2
 64
     7
 65
     7
 75
     1
175
     1
 42
40.0
 92
        8
 66
     7
 43
1.0
 76
     1
 77
     6
 78
     2
 67
     7
 79
     3
170
     0
171
     0
290
     0
174
     0
 93
        1
 44
0.0
173
     0
291
     0
 45
0.0
1001
ACAD
1000
AcDbSavedByObjectVersion
1070
     0
  0
VISUALSTYLE
  5
100002D
102
{ACAD_XDICTIONARY
360
1000266
102
}
102
{ACAD_REACTORS
330
100001B
102
}
330
100001B
100
AcDbVisualStyle
  2
Sketchy
 70
    24
 71
     1
 72
     2
 73
     2
 90
        0
 40
-0.6
 41
-30.0
 62
     5
 63
     7
421
 16777215
 74
     2
 91
        2
 64
     7
 65
     7
 75
     1
175
     1
 42
40.0
 92
       11
 66
     7
 43
1.0
 76
     1
 77
     6
 78
     2
 67
     7
 79
     6
170
     0
171
     0
290
     0
174
     0
 93
        1
 44
0.0
173
     0
291
     0
 45
0.0
1001
ACAD
1000
AcDbSavedByObjectVersion
1070
     0
  0
VISUALSTYLE
  5
1000028
102
{ACAD_XDICTIONARY
360
100025C
102
}
102
{ACAD_REACTORS
330
100001B
102
}
330
100001B
100
AcDbVisualStyle
  2
Thicken
 70
    13
 71
     2
 72
     2
 73
     0
 90
        0
 40
-0.6
 41
-30.0
 62
     5
 63
     7
421
 16777215
 74
     1
 91
        4
 64
     7
 65
   257
 75
     1
175
     1
 42
1.0
 92
       12
 66
     7
 43
1.0
 76
     1
 77
     6
 78
     2
 67
     7
 79
     5
170
     0
171
     0
290
     0
174
     0
 93
        1
 44
0.0
173
     0
291
     1
 45
0.0
1001
ACAD
1000
AcDbSavedByObjectVersion
1070
     0
  0
VISUALSTYLE
  5
1000022
102
{ACAD_XDICTIONARY
360
1000250
102
}
102
{ACAD_REACTORS
330
100001B
102
}
330
100001B
100
AcDbVisualStyle
  2
Wireframe
 70
     5
 71
     0
 72
     2
 73
     0
 90
        0
 40
-0.6
 41
-30.0
 62
     5
 63
     7
421
 16777215
 74
     1
 91
        4
 64
     7
 65
   257
 75
     1
175
     1
 42
1.0
 92
        0
 66
   257
 43
1.0
 76
     1
 77
     6
 78
     2
 67
     7
 79
     3
170
     0
171
     0
290
     0
174
     0
 93
        1
 44
0.0
173
     0
291
     0
 45
0.0
1001
ACAD
1000
AcDbSavedByObjectVersion
1070
     0
  0
VISUALSTYLE
  5
100002E
102
{ACAD_XDICTIONARY
360
1000268
102
}
102
{ACAD_REACTORS
330
100001B
102
}
330
100001B
100
AcDbVisualStyle
  2
X-Ray
 70
    25
 71
     2
 72
     2
 73
     1
 90
        1
 40
0.5
 41
-30.0
 62
     5
 63
     7
421
 16777215
 74
     1
 91
        0
 64
     7
 65
   257
 75
     1
175
     1
 42
1.0
 92
        8
 66
     7
 43
1.0
 76
     1
 77
     6
 78
     2
 67
     7
 79
     3
170
     0
171
     0
290
     0
174
     0
 93
       13
 44
0.0
173
     0
291
     0
 45
0.0
1001
ACAD
1000
AcDbSavedByObjectVersion
1070
     0
  0
DICTIONARYVAR
  5
100023B
102
{ACAD_REACTORS
330
1000236
102
}
330
1000236
100
DictionaryVariables
280
     0
  1
1:1
  0
DICTIONARYVAR
  5
1000238
102
{ACAD_REACTORS
330
1000236
102
}
330
1000236
100
DictionaryVariables
280
     0
  1
STANDARD
  0
DICTIONARYVAR
  5
1000237
102
{ACAD_REACTORS
330
1000236
102
}
330
1000236
100
DictionaryVariables
280
     0
  1
STANDARD
  0
DICTIONARYVAR
  5
1000239
102
{ACAD_REACTORS
330
1000236
102
}
330
1000236
100
DictionaryVariables
280
     0
  1
Imperial24
  0
DICTIONARYVAR
  5
100023A
102
{ACAD_REACTORS
330
1000236
102
}
330
1000236
100
DictionaryVariables
280
     0
  1
Imperial24
  0
DICTIONARYVAR
  5
100023C
102
{ACAD_REACTORS
330
1000236
102
}
330
1000236
100
DictionaryVariables
280
     0
  1
2
  0
DICTIONARY
  5
100000C
330
100000B
100
AcDbDictionary
280
     1
281
     1
  3
ACAD_XREC_ROUNDTRIP
360
1000242
  3
BUMPTILE
360
100000E
  3
DIFFUSETILE
360
100000D
  3
OPACITYTILE
360
1000011
  3
REFLECTIONTILE
360
1000010
  3
REFRACTIONTILE
360
1000012
  3
SPECULARTILE
360
100000F
  0
DICTIONARY
  5
1000004
330
1000003
100
AcDbDictionary
280
     1
281
     1
  3
ACAD_XREC_ROUNDTRIP
360
1000241
  3
BUMPTILE
360
1000006
  3
DIFFUSETILE
360
1000005
  3
OPACITYTILE
360
1000009
  3
REFLECTIONTILE
360
1000008
  3
REFRACTIONTILE
360
100000A
  3
SPECULARTILE
360
1000007
  0
DICTIONARY
  5
1000014
330
1000013
100
AcDbDictionary
280
     1
281
     1
  3
ACAD_XREC_ROUNDTRIP
360
1000243
  3
BUMPTILE
360
1000016
  3
DIFFUSETILE
360
1000015
  3
OPACITYTILE
360
1000019
  3
REFLECTIONTILE
360
1000018
  3
REFRACTIONTILE
360
100001A
  3
SPECULARTILE
360
1000017
  0
DICTIONARY
  5
100023E
330
1000036
100
AcDbDictionary
280
     1
281
     1
  3
ACAD_ROUNDTRIP_2008_TABLESTYLE_CELLSTYLEMAP
360
100023F
  3
ACAD_XREC_ROUNDTRIP
360
1000274
  0
DICTIONARY
  5
100024E
330
1000021
100
AcDbDictionary
280
     1
281
     1
  3
ACAD_XREC_ROUNDTRIP
360
100024F
  0
DICTIONARY
  5
100024C
330
1000020
100
AcDbDictionary
280
     1
281
     1
  3
ACAD_XREC_ROUNDTRIP
360
100024D
  0
DICTIONARY
  5
100025A
330
1000027
100
AcDbDictionary
280
     1
281
     1
  3
ACAD_XREC_ROUNDTRIP
360
100025B
  0
DICTIONARY
  5
1000262
330
100002B
100
AcDbDictionary
280
     1
281
     1
  3
ACAD_XREC_ROUNDTRIP
360
1000263
  0
DICTIONARY
  5
1000254
330
1000024
100
AcDbDictionary
280
     1
281
     1
  3
ACAD_XREC_ROUNDTRIP
360
1000255
  0
DICTIONARY
  5
1000258
330
1000026
100
AcDbDictionary
280
     1
281
     1
  3
ACAD_XREC_ROUNDTRIP
360
1000259
  0
DICTIONARY
  5
1000272
330
1000033
100
AcDbDictionary
280
     1
281
     1
  3
ACAD_XREC_ROUNDTRIP
360
1000273
  0
DICTIONARY
  5
1000260
330
100002A
100
AcDbDictionary
280
     1
281
     1
  3
ACAD_XREC_ROUNDTRIP
360
1000261
  0
DICTIONARY
  5
1000244
330
100001C
100
AcDbDictionary
280
     1
281
     1
  3
ACAD_XREC_ROUNDTRIP
360
1000245
  0
DICTIONARY
  5
1000246
330
100001D
100
AcDbDictionary
280
     1
281
     1
  3
ACAD_XREC_ROUNDTRIP
360
1000247
  0
DICTIONARY
  5
1000248
330
100001E
100
AcDbDictionary
280
     1
281
     1
  3
ACAD_XREC_ROUNDTRIP
360
1000249
  0
DICTIONARY
  5
100024A
330
100001F
100
AcDbDictionary
280
     1
281
     1
  3
ACAD_XREC_ROUNDTRIP
360
100024B
  0
DICTIONARY
  5
1000252
330
1000023
100
AcDbDictionary
280
     1
281
     1
  3
ACAD_XREC_ROUNDTRIP
360
1000253
  0
DICTIONARY
  5
100026E
330
1000031
100
AcDbDictionary
280
     1
281
     1
  3
ACAD_XREC_ROUNDTRIP
360
100026F
  0
DICTIONARY
  5
100025E
330
1000029
100
AcDbDictionary
280
     1
281
     1
  3
ACAD_XREC_ROUNDTRIP
360
100025F
  0
DICTIONARY
  5
1000270
330
1000032
100
AcDbDictionary
280
     1
281
     1
  3
ACAD_XREC_ROUNDTRIP
360
1000271
  0
DICTIONARY
  5
1000256
330
1000025
100
AcDbDictionary
280
     1
281
     1
  3
ACAD_XREC_ROUNDTRIP
360
1000257
  0
DICTIONARY
  5
100026C
330
1000030
100
AcDbDictionary
280
     1
281
     1
  3
ACAD_XREC_ROUNDTRIP
360
100026D
  0
DICTIONARY
  5
100026A
330
100002F
100
AcDbDictionary
280
     1
281
     1
  3
ACAD_XREC_ROUNDTRIP
360
100026B
  0
DICTIONARY
  5
1000264
330
100002C
100
AcDbDictionary
280
     1
281
     1
  3
ACAD_XREC_ROUNDTRIP
360
1000265
  0
DICTIONARY
  5
1000266
330
100002D
100
AcDbDictionary
280
     1
281
     1
  3
ACAD_XREC_ROUNDTRIP
360
1000267
  0
DICTIONARY
  5
100025C
330
1000028
100
AcDbDictionary
280
     1
281
     1
  3
ACAD_XREC_ROUNDTRIP
360
100025D
  0
DICTIONARY
  5
1000250
330
1000022
100
AcDbDictionary
280
     1
281
     1
  3
ACAD_XREC_ROUNDTRIP
360
1000251
  0
DICTIONARY
  5
1000268
330
100002E
100
AcDbDictionary
280
     1
281
     1
  3
ACAD_XREC_ROUNDTRIP
360
1000269
  0
XRECORD
  5
1000242
102
{ACAD_REACTORS
330
100000C
102
}
330
100000C
100
AcDbXrecord
280
     1
102
MATERIAL
148
0.0
149
0.0
149
0.0
 93
        0
 94
      127
282
     0
 72
     0
 77
     0
171
     0
175
     0
179
     0
273
     0
  0
XRECORD
  5
100000E
102
{ACAD_REACTORS
330
100000C
102
}
330
100000C
100
AcDbXrecord
280
     1
270
     1
271
     1
  0
XRECORD
  5
100000D
102
{ACAD_REACTORS
330
100000C
102
}
330
100000C
100
AcDbXrecord
280
     1
270
     1
271
     1
  0
XRECORD
  5
1000011
102
{ACAD_REACTORS
330
100000C
102
}
330
100000C
100
AcDbXrecord
280
     1
270
     1
271
     1
  0
XRECORD
  5
1000010
102
{ACAD_REACTORS
330
100000C
102
}
330
100000C
100
AcDbXrecord
280
     1
270
     1
271
     1
  0
XRECORD
  5
1000012
102
{ACAD_REACTORS
330
100000C
102
}
330
100000C
100
AcDbXrecord
280
     1
270
     1
271
     1
  0
XRECORD
  5
100000F
102
{ACAD_REACTORS
330
100000C
102
}
330
100000C
100
AcDbXrecord
280
     1
270
     1
271
     1
  0
XRECORD
  5
1000241
102
{ACAD_REACTORS
330
1000004
102
}
330
1000004
100
AcDbXrecord
280
     1
102
MATERIAL
148
0.0
149
0.0
149
0.0
 93
        0
 94
      127
282
     0
 72
     0
 77
     0
171
     0
175
     0
179
     0
273
     0
  0
XRECORD
  5
1000006
102
{ACAD_REACTORS
330
1000004
102
}
330
1000004
100
AcDbXrecord
280
     1
270
     1
271
     1
  0
XRECORD
  5
1000005
102
{ACAD_REACTORS
330
1000004
102
}
330
1000004
100
AcDbXrecord
280
     1
270
     1
271
     1
  0
XRECORD
  5
1000009
102
{ACAD_REACTORS
330
1000004
102
}
330
1000004
100
AcDbXrecord
280
     1
270
     1
271
     1
  0
XRECORD
  5
1000008
102
{ACAD_REACTORS
330
1000004
102
}
330
1000004
100
AcDbXrecord
280
     1
270
     1
271
     1
  0
XRECORD
  5
100000A
102
{ACAD_REACTORS
330
1000004
102
}
330
1000004
100
AcDbXrecord
280
     1
270
     1
271
     1
  0
XRECORD
  5
1000007
102
{ACAD_REACTORS
330
1000004
102
}
330
1000004
100
AcDbXrecord
280
     1
270
     1
271
     1
  0
XRECORD
  5
1000243
102
{ACAD_REACTORS
330
1000014
102
}
330
1000014
100
AcDbXrecord
280
     1
102
MATERIAL
148
0.0
149
0.0
149
0.0
 93
        0
 94
      127
282
     0
 72
     0
 77
     0
171
     0
175
     0
179
     0
273
     0
  0
XRECORD
  5
1000016
102
{ACAD_REACTORS
330
1000014
102
}
330
1000014
100
AcDbXrecord
280
     1
270
     1
271
     1
  0
XRECORD
  5
1000015
102
{ACAD_REACTORS
330
1000014
102
}
330
1000014
100
AcDbXrecord
280
     1
270
     1
271
     1
  0
XRECORD
  5
1000019
102
{ACAD_REACTORS
330
1000014
102
}
330
1000014
100
AcDbXrecord
280
     1
270
     1
271
     1
  0
XRECORD
  5
1000018
102
{ACAD_REACTORS
330
1000014
102
}
330
1000014
100
AcDbXrecord
280
     1
270
     1
271
     1
  0
XRECORD
  5
100001A
102
{ACAD_REACTORS
330
1000014
102
}
330
1000014
100
AcDbXrecord
280
     1
270
     1
271
     1
  0
XRECORD
  5
1000017
102
{ACAD_REACTORS
330
1000014
102
}
330
1000014
100
AcDbXrecord
280
     1
270
     1
271
     1
  0
CELLSTYLEMAP
  5
100023F
102
{ACAD_REACTORS
330
100023E
102
}
330
100023E
100
AcDbCellStyleMap
 90
        3
300
CELLSTYLE
  1
TABLEFORMAT_BEGIN
 90
        5
170
     1
 91
        0
 92
    32768
 62
   257
 93
        1
300
CONTENTFORMAT
  1
CONTENTFORMAT_BEGIN
 90
        0
 91
        0
 92
      512
 93
        0
300

 40
0.0
140
1.0
 94
        5
 62
     0
340
12
144
0.25
309
CONTENTFORMAT_END
171
     0
 94
        0
309
TABLEFORMAT_END
  1
CELLSTYLE_BEGIN
 90
        1
 91
        1
300
_TITLE
309
CELLSTYLE_END
300
CELLSTYLE
  1
TABLEFORMAT_BEGIN
 90
        5
170
     1
 91
        0
 92
        0
 62
   257
 93
        1
300
CONTENTFORMAT
  1
CONTENTFORMAT_BEGIN
 90
        0
 91
        0
 92
      512
 93
        0
300

 40
0.0
140
1.0
 94
        5
 62
     0
340
12
144
0.18
309
CONTENTFORMAT_END
171
     0
 94
        0
309
TABLEFORMAT_END
  1
CELLSTYLE_BEGIN
 90
        2
 91
        1
300
_HEADER
309
CELLSTYLE_END
300
CELLSTYLE
  1
TABLEFORMAT_BEGIN
 90
        5
170
     1
 91
        0
 92
        0
 62
   257
 93
        1
300
CONTENTFORMAT
  1
CONTENTFORMAT_BEGIN
 90
        0
 91
        0
 92
      512
 93
        0
300

 40
0.0
140
1.0
 94
        2
 62
     0
340
12
144
0.18
309
CONTENTFORMAT_END
171
     0
 94
        0
309
TABLEFORMAT_END
  1
CELLSTYLE_BEGIN
 90
        3
 91
        2
300
_DATA
309
CELLSTYLE_END
  0
XRECORD
  5
1000274
102
{ACAD_REACTORS
330
100023E
102
}
330
100023E
100
AcDbXrecord
280
     1
102
ACAD_ROUNDTRIP_PRE2007_TABLESTYLE
 90
      512
 91
        0
  1

 92
      512
 93
        0
  2

 94
      512
 95
        0
  3

  0
XRECORD
  5
100024F
102
{ACAD_REACTORS
330
100024E
102
}
330
100024E
100
AcDbXrecord
280
     1
102
RTVSPost2010Prop28
280
     1
102
RTVSPost2010PropOp28
 70
     1
102
RTVSPost2010Prop29
280
     1
102
RTVSPost2010PropOp29
 70
     1
102
RTVSPost2010Prop30
280
     0
102
RTVSPost2010PropOp30
 70
     1
102
RTVSPost2010Prop31
280
     0
102
RTVSPost2010PropOp31
 70
     1
102
RTVSPost2010Prop32
280
     0
102
RTVSPost2010PropOp32
 70
     1
102
RTVSPost2010Prop33
280
     0
102
RTVSPost2010PropOp33
 70
     1
102
RTVSPost2010Prop34
280
     0
102
RTVSPost2010PropOp34
 70
     1
102
RTVSPost2010Prop35
280
     0
102
RTVSPost2010PropOp35
 70
     1
102
RTVSPost2010Prop36
280
     0
102
RTVSPost2010PropOp36
 70
     1
102
RTVSPost2010Prop37
 90
       50
102
RTVSPost2010PropOp37
 70
     1
102
RTVSPost2010Prop38
140
0.0
102
RTVSPost2010PropOp38
 70
     1
102
RTVSPost2010Prop39
140
1.0
102
RTVSPost2010PropOp39
 70
     1
102
RTVSPost2010Prop40
 90
        0
102
RTVSPost2010PropOp40
 70
     1
102
RTVSPost2010Prop41ColorIndex
 90
       18
102
RTVSPost2010Prop41ColorRGB
 90
        0
102
RTVSPost2010PropOp41
 70
     1
102
RTVSPost2010Prop42
 90
       50
102
RTVSPost2010PropOp42
 70
     1
102
RTVSPost2010Prop43
 90
        3
102
RTVSPost2010PropOp43
 70
     1
102
RTVSPost2010Prop44ColorIndex
 90
        5
102
RTVSPost2010Prop44ColorRGB
 90
      255
102
RTVSPost2010PropOp44
 70
     1
102
RTVSPost2010Prop45
280
     0
102
RTVSPost2010PropOp45
 70
     1
102
RTVSPost2010Prop46
 90
       50
102
RTVSPost2010PropOp46
 70
     1
102
RTVSPost2010Prop47
 90
       50
102
RTVSPost2010PropOp47
 70
     1
102
RTVSPost2010Prop48
 90
       50
102
RTVSPost2010PropOp48
 70
     1
102
RTVSPost2010Prop49
280
     0
102
RTVSPost2010PropOp49
 70
     1
102
RTVSPost2010Prop50
 90
       50
102
RTVSPost2010PropOp50
 70
     1
102
RTVSPost2010Prop51ColorIndex
 90
      256
102
RTVSPost2010Prop51ColorRGB
 90
-16777216
102
RTVSPost2010PropOp51
 70
     0
102
RTVSPost2010Prop52
140
1.0
102
RTVSPost2010PropOp52
 70
     0
102
RTVSPost2010Prop53
 90
        2
102
RTVSPost2010PropOp53
 70
     1
102
RTVSPost2010Prop54
  1
strokes_ogs.tif
102
RTVSPost2010PropOp54
 70
     1
102
RTVSPost2010Prop55
280
     0
102
RTVSPost2010PropOp55
 70
     1
102
RTVSPost2010Prop56
140
1.0
102
RTVSPost2010PropOp56
 70
     1
102
RTVSPost2010Prop57
140
1.0
102
RTVSPost2010PropOp57
 70
     1
102
RTVSPropertyOp0
 70
     1
102
RTVSPropertyOp1
 70
     1
102
RTVSPropertyOp2
 70
     1
102
RTVSPropertyOp3
 70
     1
102
RTVSPropertyOp4
 70
     1
102
RTVSPropertyOp5
 70
     1
102
RTVSPropertyOp6
 70
     1
102
RTVSPropertyOp7
 70
     1
102
RTVSPropertyOp8
 70
     1
102
RTVSPropertyOp9
 70
     1
102
RTVSPropertyOp10
 70
     1
102
RTVSPropertyOp11
 70
     1
102
RTVSPropertyOp12
 70
     1
102
RTVSPropertyOp13
 70
     1
102
RTVSPropertyOp14
 70
     1
102
RTVSPropertyOp15
 70
     1
102
RTVSPropertyOp16
 70
     1
102
RTVSPropertyOp17
 70
     1
102
RTVSPropertyOp18
 70
     1
102
RTVSPropertyOp19
 70
     1
102
RTVSPropertyOp20
 70
     1
102
RTVSPropertyOp21
 70
     1
102
RTVSPropertyOp22
 70
     1
102
RTVSPropertyOp23
 70
     1
102
RTVSPropertyOp24
 70
     1
102
RTVSPropertyOp25
 70
     1
102
RTVSPropertyOp26
 70
     1
102
RTVSPropertyOp27
 70
     1
102
RTVSPropertyOp28
 70
     1
102
RTVSPropertyOp29
 70
     1
102
RTVSPropertyOp30
 70
     1
102
RTVSPropertyOp31
 70
     1
102
RTVSPropertyOp32
 70
     1
102
RTVSPropertyOp33
 70
     1
102
RTVSPropertyOp34
 70
     1
102
RTVSPropertyOp35
 70
     1
102
RTVSPropertyOp36
 70
     1
102
RTVSPropertyOp37
 70
     1
102
RTVSPropertyOp38
 70
     1
102
RTVSPropertyOp39
 70
     1
102
RTVSPropertyOp40
 70
     1
102
RTVSPropertyOp41
 70
     1
102
RTVSPropertyOp42
 70
     1
102
RTVSPropertyOp43
 70
     1
102
RTVSPropertyOp44
 70
     1
102
RTVSPropertyOp45
 70
     1
102
RTVSPropertyOp46
 70
     1
102
RTVSPropertyOp47
 70
     1
102
RTVSPropertyOp48
 70
     1
102
RTVSPropertyOp49
 70
     1
102
RTVSPropertyOp50
 70
     1
102
RTVSPropertyOp51
 70
     0
102
RTVSPropertyOp52
 70
     0
102
RTVSPropertyOp53
 70
     1
102
RTVSPropertyOp54
 70
     1
102
RTVSPropertyOp55
 70
     1
102
RTVSPropertyOp56
 70
     1
102
RTVSPropertyOp57
 70
     1
102
RTVSPropertyOp58
 70
     1
102
RTVSPropertyOp59
 70
     1
102
RTVSPropertyOp60
 70
     1
102
RTVSPropertyOp61
 70
     1
102
RTVSPropertyOp62
 70
     1
  0
XRECORD
  5
100024D
102
{ACAD_REACTORS
330
100024C
102
}
330
100024C
100
AcDbXrecord
280
     1
102
RTVSPost2010Prop28
280
     0
102
RTVSPost2010PropOp28
 70
     1
102
RTVSPost2010Prop29
280
     1
102
RTVSPost2010PropOp29
 70
     1
102
RTVSPost2010Prop30
280
     1
102
RTVSPost2010PropOp30
 70
     1
102
RTVSPost2010Prop31
280
     0
102
RTVSPost2010PropOp31
 70
     1
102
RTVSPost2010Prop32
280
     0
102
RTVSPost2010PropOp32
 70
     1
102
RTVSPost2010Prop33
280
     0
102
RTVSPost2010PropOp33
 70
     1
102
RTVSPost2010Prop34
280
     0
102
RTVSPost2010PropOp34
 70
     1
102
RTVSPost2010Prop35
280
     0
102
RTVSPost2010PropOp35
 70
     1
102
RTVSPost2010Prop36
280
     0
102
RTVSPost2010PropOp36
 70
     1
102
RTVSPost2010Prop37
 90
       50
102
RTVSPost2010PropOp37
 70
     1
102
RTVSPost2010Prop38
140
0.0
102
RTVSPost2010PropOp38
 70
     1
102
RTVSPost2010Prop39
140
1.0
102
RTVSPost2010PropOp39
 70
     1
102
RTVSPost2010Prop40
 90
        0
102
RTVSPost2010PropOp40
 70
     1
102
RTVSPost2010Prop41ColorIndex
 90
       18
102
RTVSPost2010Prop41ColorRGB
 90
        0
102
RTVSPost2010PropOp41
 70
     1
102
RTVSPost2010Prop42
 90
       50
102
RTVSPost2010PropOp42
 70
     1
102
RTVSPost2010Prop43
 90
        3
102
RTVSPost2010PropOp43
 70
     1
102
RTVSPost2010Prop44ColorIndex
 90
        5
102
RTVSPost2010Prop44ColorRGB
 90
      255
102
RTVSPost2010PropOp44
 70
     1
102
RTVSPost2010Prop45
280
     0
102
RTVSPost2010PropOp45
 70
     1
102
RTVSPost2010Prop46
 90
       50
102
RTVSPost2010PropOp46
 70
     1
102
RTVSPost2010Prop47
 90
       50
102
RTVSPost2010PropOp47
 70
     1
102
RTVSPost2010Prop48
 90
       50
102
RTVSPost2010PropOp48
 70
     1
102
RTVSPost2010Prop49
280
     0
102
RTVSPost2010PropOp49
 70
     1
102
RTVSPost2010Prop50
 90
       50
102
RTVSPost2010PropOp50
 70
     1
102
RTVSPost2010Prop51ColorIndex
 90
      256
102
RTVSPost2010Prop51ColorRGB
 90
-16777216
102
RTVSPost2010PropOp51
 70
     0
102
RTVSPost2010Prop52
140
1.0
102
RTVSPost2010PropOp52
 70
     0
102
RTVSPost2010Prop53
 90
        2
102
RTVSPost2010PropOp53
 70
     1
102
RTVSPost2010Prop54
  1
strokes_ogs.tif
102
RTVSPost2010PropOp54
 70
     1
102
RTVSPost2010Prop55
280
     0
102
RTVSPost2010PropOp55
 70
     1
102
RTVSPost2010Prop56
140
1.0
102
RTVSPost2010PropOp56
 70
     1
102
RTVSPost2010Prop57
140
1.0
102
RTVSPost2010PropOp57
 70
     1
102
RTVSPropertyOp0
 70
     1
102
RTVSPropertyOp1
 70
     1
102
RTVSPropertyOp2
 70
     1
102
RTVSPropertyOp3
 70
     1
102
RTVSPropertyOp4
 70
     1
102
RTVSPropertyOp5
 70
     1
102
RTVSPropertyOp6
 70
     1
102
RTVSPropertyOp7
 70
     1
102
RTVSPropertyOp8
 70
     1
102
RTVSPropertyOp9
 70
     1
102
RTVSPropertyOp10
 70
     1
102
RTVSPropertyOp11
 70
     1
102
RTVSPropertyOp12
 70
     1
102
RTVSPropertyOp13
 70
     1
102
RTVSPropertyOp14
 70
     1
102
RTVSPropertyOp15
 70
     1
102
RTVSPropertyOp16
 70
     1
102
RTVSPropertyOp17
 70
     1
102
RTVSPropertyOp18
 70
     1
102
RTVSPropertyOp19
 70
     1
102
RTVSPropertyOp20
 70
     1
102
RTVSPropertyOp21
 70
     1
102
RTVSPropertyOp22
 70
     1
102
RTVSPropertyOp23
 70
     1
102
RTVSPropertyOp24
 70
     1
102
RTVSPropertyOp25
 70
     1
102
RTVSPropertyOp26
 70
     1
102
RTVSPropertyOp27
 70
     1
102
RTVSPropertyOp28
 70
     1
102
RTVSPropertyOp29
 70
     1
102
RTVSPropertyOp30
 70
     1
102
RTVSPropertyOp31
 70
     1
102
RTVSPropertyOp32
 70
     1
102
RTVSPropertyOp33
 70
     1
102
RTVSPropertyOp34
 70
     1
102
RTVSPropertyOp35
 70
     1
102
RTVSPropertyOp36
 70
     1
102
RTVSPropertyOp37
 70
     1
102
RTVSPropertyOp38
 70
     1
102
RTVSPropertyOp39
 70
     1
102
RTVSPropertyOp40
 70
     1
102
RTVSPropertyOp41
 70
     1
102
RTVSPropertyOp42
 70
     1
102
RTVSPropertyOp43
 70
     1
102
RTVSPropertyOp44
 70
     1
102
RTVSPropertyOp45
 70
     1
102
RTVSPropertyOp46
 70
     1
102
RTVSPropertyOp47
 70
     1
102
RTVSPropertyOp48
 70
     1
102
RTVSPropertyOp49
 70
     1
102
RTVSPropertyOp50
 70
     1
102
RTVSPropertyOp51
 70
     0
102
RTVSPropertyOp52
 70
     0
102
RTVSPropertyOp53
 70
     1
102
RTVSPropertyOp54
 70
     1
102
RTVSPropertyOp55
 70
     1
102
RTVSPropertyOp56
 70
     1
102
RTVSPropertyOp57
 70
     1
102
RTVSPropertyOp58
 70
     1
102
RTVSPropertyOp59
 70
     1
102
RTVSPropertyOp60
 70
     1
102
RTVSPropertyOp61
 70
     1
102
RTVSPropertyOp62
 70
     1
  0
XRECORD
  5
100025B
102
{ACAD_REACTORS
330
100025A
102
}
330
100025A
100
AcDbXrecord
280
     1
102
RTVSPost2010Prop28
280
     0
102
RTVSPost2010PropOp28
 70
     1
102
RTVSPost2010Prop29
280
     1
102
RTVSPost2010PropOp29
 70
     1
102
RTVSPost2010Prop30
280
     1
102
RTVSPost2010PropOp30
 70
     1
102
RTVSPost2010Prop31
280
     0
102
RTVSPost2010PropOp31
 70
     1
102
RTVSPost2010Prop32
280
     0
102
RTVSPost2010PropOp32
 70
     1
102
RTVSPost2010Prop33
280
     0
102
RTVSPost2010PropOp33
 70
     1
102
RTVSPost2010Prop34
280
     0
102
RTVSPost2010PropOp34
 70
     1
102
RTVSPost2010Prop35
280
     0
102
RTVSPost2010PropOp35
 70
     1
102
RTVSPost2010Prop36
280
     0
102
RTVSPost2010PropOp36
 70
     1
102
RTVSPost2010Prop37
 90
       50
102
RTVSPost2010PropOp37
 70
     1
102
RTVSPost2010Prop38
140
0.0
102
RTVSPost2010PropOp38
 70
     1
102
RTVSPost2010Prop39
140
1.0
102
RTVSPost2010PropOp39
 70
     1
102
RTVSPost2010Prop40
 90
        0
102
RTVSPost2010PropOp40
 70
     1
102
RTVSPost2010Prop41ColorIndex
 90
       18
102
RTVSPost2010Prop41ColorRGB
 90
        0
102
RTVSPost2010PropOp41
 70
     1
102
RTVSPost2010Prop42
 90
       50
102
RTVSPost2010PropOp42
 70
     1
102
RTVSPost2010Prop43
 90
        3
102
RTVSPost2010PropOp43
 70
     1
102
RTVSPost2010Prop44ColorIndex
 90
        5
102
RTVSPost2010Prop44ColorRGB
 90
      255
102
RTVSPost2010PropOp44
 70
     1
102
RTVSPost2010Prop45
280
     0
102
RTVSPost2010PropOp45
 70
     1
102
RTVSPost2010Prop46
 90
       50
102
RTVSPost2010PropOp46
 70
     1
102
RTVSPost2010Prop47
 90
       50
102
RTVSPost2010PropOp47
 70
     1
102
RTVSPost2010Prop48
 90
       50
102
RTVSPost2010PropOp48
 70
     1
102
RTVSPost2010Prop49
280
     0
102
RTVSPost2010PropOp49
 70
     1
102
RTVSPost2010Prop50
 90
       50
102
RTVSPost2010PropOp50
 70
     1
102
RTVSPost2010Prop51ColorIndex
 90
      256
102
RTVSPost2010Prop51ColorRGB
 90
-16777216
102
RTVSPost2010PropOp51
 70
     0
102
RTVSPost2010Prop52
140
1.0
102
RTVSPost2010PropOp52
 70
     0
102
RTVSPost2010Prop53
 90
        2
102
RTVSPost2010PropOp53
 70
     1
102
RTVSPost2010Prop54
  1
strokes_ogs.tif
102
RTVSPost2010PropOp54
 70
     1
102
RTVSPost2010Prop55
280
     0
102
RTVSPost2010PropOp55
 70
     1
102
RTVSPost2010Prop56
140
1.0
102
RTVSPost2010PropOp56
 70
     1
102
RTVSPost2010Prop57
140
1.0
102
RTVSPost2010PropOp57
 70
     1
102
RTVSPropertyOp0
 70
     1
102
RTVSPropertyOp1
 70
     1
102
RTVSPropertyOp2
 70
     1
102
RTVSPropertyOp3
 70
     1
102
RTVSPropertyOp4
 70
     1
102
RTVSPropertyOp5
 70
     1
102
RTVSPropertyOp6
 70
     1
102
RTVSPropertyOp7
 70
     1
102
RTVSPropertyOp8
 70
     1
102
RTVSPropertyOp9
 70
     1
102
RTVSPropertyOp10
 70
     1
102
RTVSPropertyOp11
 70
     1
102
RTVSPropertyOp12
 70
     1
102
RTVSPropertyOp13
 70
     1
102
RTVSPropertyOp14
 70
     1
102
RTVSPropertyOp15
 70
     1
102
RTVSPropertyOp16
 70
     1
102
RTVSPropertyOp17
 70
     1
102
RTVSPropertyOp18
 70
     1
102
RTVSPropertyOp19
 70
     1
102
RTVSPropertyOp20
 70
     1
102
RTVSPropertyOp21
 70
     1
102
RTVSPropertyOp22
 70
     1
102
RTVSPropertyOp23
 70
     1
102
RTVSPropertyOp24
 70
     1
102
RTVSPropertyOp25
 70
     1
102
RTVSPropertyOp26
 70
     1
102
RTVSPropertyOp27
 70
     1
102
RTVSPropertyOp28
 70
     1
102
RTVSPropertyOp29
 70
     1
102
RTVSPropertyOp30
 70
     1
102
RTVSPropertyOp31
 70
     1
102
RTVSPropertyOp32
 70
     1
102
RTVSPropertyOp33
 70
     1
102
RTVSPropertyOp34
 70
     1
102
RTVSPropertyOp35
 70
     1
102
RTVSPropertyOp36
 70
     1
102
RTVSPropertyOp37
 70
     1
102
RTVSPropertyOp38
 70
     1
102
RTVSPropertyOp39
 70
     1
102
RTVSPropertyOp40
 70
     1
102
RTVSPropertyOp41
 70
     1
102
RTVSPropertyOp42
 70
     1
102
RTVSPropertyOp43
 70
     1
102
RTVSPropertyOp44
 70
     1
102
RTVSPropertyOp45
 70
     1
102
RTVSPropertyOp46
 70
     1
102
RTVSPropertyOp47
 70
     1
102
RTVSPropertyOp48
 70
     1
102
RTVSPropertyOp49
 70
     1
102
RTVSPropertyOp50
 70
     1
102
RTVSPropertyOp51
 70
     0
102
RTVSPropertyOp52
 70
     0
102
RTVSPropertyOp53
 70
     1
102
RTVSPropertyOp54
 70
     1
102
RTVSPropertyOp55
 70
     1
102
RTVSPropertyOp56
 70
     1
102
RTVSPropertyOp57
 70
     1
102
RTVSPropertyOp58
 70
     1
102
RTVSPropertyOp59
 70
     1
102
RTVSPropertyOp60
 70
     1
102
RTVSPropertyOp61
 70
     1
102
RTVSPropertyOp62
 70
     1
  0
XRECORD
  5
1000263
102
{ACAD_REACTORS
330
1000262
102
}
330
1000262
100
AcDbXrecord
280
     1
102
RTVSPost2010Prop28
280
     0
102
RTVSPost2010PropOp28
 70
     1
102
RTVSPost2010Prop29
280
     1
102
RTVSPost2010PropOp29
 70
     1
102
RTVSPost2010Prop30
280
     1
102
RTVSPost2010PropOp30
 70
     1
102
RTVSPost2010Prop31
280
     0
102
RTVSPost2010PropOp31
 70
     1
102
RTVSPost2010Prop32
280
     0
102
RTVSPost2010PropOp32
 70
     1
102
RTVSPost2010Prop33
280
     0
102
RTVSPost2010PropOp33
 70
     1
102
RTVSPost2010Prop34
280
     0
102
RTVSPost2010PropOp34
 70
     1
102
RTVSPost2010Prop35
280
     0
102
RTVSPost2010PropOp35
 70
     1
102
RTVSPost2010Prop36
280
     0
102
RTVSPost2010PropOp36
 70
     1
102
RTVSPost2010Prop37
 90
       50
102
RTVSPost2010PropOp37
 70
     1
102
RTVSPost2010Prop38
140
0.0
102
RTVSPost2010PropOp38
 70
     1
102
RTVSPost2010Prop39
140
1.0
102
RTVSPost2010PropOp39
 70
     1
102
RTVSPost2010Prop40
 90
        0
102
RTVSPost2010PropOp40
 70
     1
102
RTVSPost2010Prop41ColorIndex
 90
       18
102
RTVSPost2010Prop41ColorRGB
 90
        0
102
RTVSPost2010PropOp41
 70
     1
102
RTVSPost2010Prop42
 90
       50
102
RTVSPost2010PropOp42
 70
     1
102
RTVSPost2010Prop43
 90
        3
102
RTVSPost2010PropOp43
 70
     1
102
RTVSPost2010Prop44ColorIndex
 90
        5
102
RTVSPost2010Prop44ColorRGB
 90
      255
102
RTVSPost2010PropOp44
 70
     1
102
RTVSPost2010Prop45
280
     0
102
RTVSPost2010PropOp45
 70
     1
102
RTVSPost2010Prop46
 90
       50
102
RTVSPost2010PropOp46
 70
     1
102
RTVSPost2010Prop47
 90
       50
102
RTVSPost2010PropOp47
 70
     1
102
RTVSPost2010Prop48
 90
       50
102
RTVSPost2010PropOp48
 70
     1
102
RTVSPost2010Prop49
280
     0
102
RTVSPost2010PropOp49
 70
     1
102
RTVSPost2010Prop50
 90
       50
102
RTVSPost2010PropOp50
 70
     1
102
RTVSPost2010Prop51ColorIndex
 90
      256
102
RTVSPost2010Prop51ColorRGB
 90
-16777216
102
RTVSPost2010PropOp51
 70
     0
102
RTVSPost2010Prop52
140
1.0
102
RTVSPost2010PropOp52
 70
     0
102
RTVSPost2010Prop53
 90
        2
102
RTVSPost2010PropOp53
 70
     1
102
RTVSPost2010Prop54
  1
strokes_ogs.tif
102
RTVSPost2010PropOp54
 70
     1
102
RTVSPost2010Prop55
280
     0
102
RTVSPost2010PropOp55
 70
     1
102
RTVSPost2010Prop56
140
1.0
102
RTVSPost2010PropOp56
 70
     1
102
RTVSPost2010Prop57
140
1.0
102
RTVSPost2010PropOp57
 70
     1
102
RTVSPropertyOp0
 70
     1
102
RTVSPropertyOp1
 70
     1
102
RTVSPropertyOp2
 70
     1
102
RTVSPropertyOp3
 70
     1
102
RTVSPropertyOp4
 70
     1
102
RTVSPropertyOp5
 70
     1
102
RTVSPropertyOp6
 70
     1
102
RTVSPropertyOp7
 70
     1
102
RTVSPropertyOp8
 70
     1
102
RTVSPropertyOp9
 70
     1
102
RTVSPropertyOp10
 70
     1
102
RTVSPropertyOp11
 70
     1
102
RTVSPropertyOp12
 70
     1
102
RTVSPropertyOp13
 70
     1
102
RTVSPropertyOp14
 70
     1
102
RTVSPropertyOp15
 70
     1
102
RTVSPropertyOp16
 70
     1
102
RTVSPropertyOp17
 70
     1
102
RTVSPropertyOp18
 70
     1
102
RTVSPropertyOp19
 70
     1
102
RTVSPropertyOp20
 70
     1
102
RTVSPropertyOp21
 70
     1
102
RTVSPropertyOp22
 70
     1
102
RTVSPropertyOp23
 70
     1
102
RTVSPropertyOp24
 70
     1
102
RTVSPropertyOp25
 70
     1
102
RTVSPropertyOp26
 70
     1
102
RTVSPropertyOp27
 70
     1
102
RTVSPropertyOp28
 70
     1
102
RTVSPropertyOp29
 70
     1
102
RTVSPropertyOp30
 70
     1
102
RTVSPropertyOp31
 70
     1
102
RTVSPropertyOp32
 70
     1
102
RTVSPropertyOp33
 70
     1
102
RTVSPropertyOp34
 70
     1
102
RTVSPropertyOp35
 70
     1
102
RTVSPropertyOp36
 70
     1
102
RTVSPropertyOp37
 70
     1
102
RTVSPropertyOp38
 70
     1
102
RTVSPropertyOp39
 70
     1
102
RTVSPropertyOp40
 70
     1
102
RTVSPropertyOp41
 70
     1
102
RTVSPropertyOp42
 70
     1
102
RTVSPropertyOp43
 70
     1
102
RTVSPropertyOp44
 70
     1
102
RTVSPropertyOp45
 70
     1
102
RTVSPropertyOp46
 70
     1
102
RTVSPropertyOp47
 70
     1
102
RTVSPropertyOp48
 70
     1
102
RTVSPropertyOp49
 70
     1
102
RTVSPropertyOp50
 70
     1
102
RTVSPropertyOp51
 70
     0
102
RTVSPropertyOp52
 70
     0
102
RTVSPropertyOp53
 70
     1
102
RTVSPropertyOp54
 70
     1
102
RTVSPropertyOp55
 70
     1
102
RTVSPropertyOp56
 70
     1
102
RTVSPropertyOp57
 70
     1
102
RTVSPropertyOp58
 70
     1
102
RTVSPropertyOp59
 70
     1
102
RTVSPropertyOp60
 70
     1
102
RTVSPropertyOp61
 70
     1
102
RTVSPropertyOp62
 70
     1
  0
XRECORD
  5
1000255
102
{ACAD_REACTORS
330
1000254
102
}
330
1000254
100
AcDbXrecord
280
     1
102
RTVSPost2010Prop28
280
     0
102
RTVSPost2010PropOp28
 70
     1
102
RTVSPost2010Prop29
280
     1
102
RTVSPost2010PropOp29
 70
     1
102
RTVSPost2010Prop30
280
     1
102
RTVSPost2010PropOp30
 70
     1
102
RTVSPost2010Prop31
280
     0
102
RTVSPost2010PropOp31
 70
     1
102
RTVSPost2010Prop32
280
     0
102
RTVSPost2010PropOp32
 70
     1
102
RTVSPost2010Prop33
280
     0
102
RTVSPost2010PropOp33
 70
     1
102
RTVSPost2010Prop34
280
     0
102
RTVSPost2010PropOp34
 70
     1
102
RTVSPost2010Prop35
280
     0
102
RTVSPost2010PropOp35
 70
     1
102
RTVSPost2010Prop36
280
     0
102
RTVSPost2010PropOp36
 70
     1
102
RTVSPost2010Prop37
 90
       50
102
RTVSPost2010PropOp37
 70
     1
102
RTVSPost2010Prop38
140
0.0
102
RTVSPost2010PropOp38
 70
     1
102
RTVSPost2010Prop39
140
1.0
102
RTVSPost2010PropOp39
 70
     1
102
RTVSPost2010Prop40
 90
        0
102
RTVSPost2010PropOp40
 70
     1
102
RTVSPost2010Prop41ColorIndex
 90
       18
102
RTVSPost2010Prop41ColorRGB
 90
        0
102
RTVSPost2010PropOp41
 70
     1
102
RTVSPost2010Prop42
 90
       50
102
RTVSPost2010PropOp42
 70
     1
102
RTVSPost2010Prop43
 90
        3
102
RTVSPost2010PropOp43
 70
     1
102
RTVSPost2010Prop44ColorIndex
 90
        5
102
RTVSPost2010Prop44ColorRGB
 90
      255
102
RTVSPost2010PropOp44
 70
     1
102
RTVSPost2010Prop45
280
     0
102
RTVSPost2010PropOp45
 70
     1
102
RTVSPost2010Prop46
 90
       50
102
RTVSPost2010PropOp46
 70
     1
102
RTVSPost2010Prop47
 90
       50
102
RTVSPost2010PropOp47
 70
     1
102
RTVSPost2010Prop48
 90
       50
102
RTVSPost2010PropOp48
 70
     1
102
RTVSPost2010Prop49
280
     0
102
RTVSPost2010PropOp49
 70
     1
102
RTVSPost2010Prop50
 90
       50
102
RTVSPost2010PropOp50
 70
     1
102
RTVSPost2010Prop51ColorIndex
 90
      256
102
RTVSPost2010Prop51ColorRGB
 90
-16777216
102
RTVSPost2010PropOp51
 70
     0
102
RTVSPost2010Prop52
140
1.0
102
RTVSPost2010PropOp52
 70
     0
102
RTVSPost2010Prop53
 90
        2
102
RTVSPost2010PropOp53
 70
     1
102
RTVSPost2010Prop54
  1
strokes_ogs.tif
102
RTVSPost2010PropOp54
 70
     1
102
RTVSPost2010Prop55
280
     0
102
RTVSPost2010PropOp55
 70
     1
102
RTVSPost2010Prop56
140
1.0
102
RTVSPost2010PropOp56
 70
     1
102
RTVSPost2010Prop57
140
1.0
102
RTVSPost2010PropOp57
 70
     1
102
RTVSPropertyOp0
 70
     1
102
RTVSPropertyOp1
 70
     1
102
RTVSPropertyOp2
 70
     1
102
RTVSPropertyOp3
 70
     1
102
RTVSPropertyOp4
 70
     1
102
RTVSPropertyOp5
 70
     1
102
RTVSPropertyOp6
 70
     1
102
RTVSPropertyOp7
 70
     1
102
RTVSPropertyOp8
 70
     1
102
RTVSPropertyOp9
 70
     1
102
RTVSPropertyOp10
 70
     1
102
RTVSPropertyOp11
 70
     1
102
RTVSPropertyOp12
 70
     1
102
RTVSPropertyOp13
 70
     1
102
RTVSPropertyOp14
 70
     1
102
RTVSPropertyOp15
 70
     1
102
RTVSPropertyOp16
 70
     1
102
RTVSPropertyOp17
 70
     1
102
RTVSPropertyOp18
 70
     1
102
RTVSPropertyOp19
 70
     1
102
RTVSPropertyOp20
 70
     1
102
RTVSPropertyOp21
 70
     1
102
RTVSPropertyOp22
 70
     1
102
RTVSPropertyOp23
 70
     1
102
RTVSPropertyOp24
 70
     1
102
RTVSPropertyOp25
 70
     1
102
RTVSPropertyOp26
 70
     1
102
RTVSPropertyOp27
 70
     1
102
RTVSPropertyOp28
 70
     1
102
RTVSPropertyOp29
 70
     1
102
RTVSPropertyOp30
 70
     1
102
RTVSPropertyOp31
 70
     1
102
RTVSPropertyOp32
 70
     1
102
RTVSPropertyOp33
 70
     1
102
RTVSPropertyOp34
 70
     1
102
RTVSPropertyOp35
 70
     1
102
RTVSPropertyOp36
 70
     1
102
RTVSPropertyOp37
 70
     1
102
RTVSPropertyOp38
 70
     1
102
RTVSPropertyOp39
 70
     1
102
RTVSPropertyOp40
 70
     1
102
RTVSPropertyOp41
 70
     1
102
RTVSPropertyOp42
 70
     1
102
RTVSPropertyOp43
 70
     1
102
RTVSPropertyOp44
 70
     1
102
RTVSPropertyOp45
 70
     1
102
RTVSPropertyOp46
 70
     1
102
RTVSPropertyOp47
 70
     1
102
RTVSPropertyOp48
 70
     1
102
RTVSPropertyOp49
 70
     1
102
RTVSPropertyOp50
 70
     1
102
RTVSPropertyOp51
 70
     0
102
RTVSPropertyOp52
 70
     0
102
RTVSPropertyOp53
 70
     1
102
RTVSPropertyOp54
 70
     1
102
RTVSPropertyOp55
 70
     1
102
RTVSPropertyOp56
 70
     1
102
RTVSPropertyOp57
 70
     1
102
RTVSPropertyOp58
 70
     1
102
RTVSPropertyOp59
 70
     1
102
RTVSPropertyOp60
 70
     1
102
RTVSPropertyOp61
 70
     1
102
RTVSPropertyOp62
 70
     1
  0
XRECORD
  5
1000259
102
{ACAD_REACTORS
330
1000258
102
}
330
1000258
100
AcDbXrecord
280
     1
102
RTVSPost2010Prop28
280
     0
102
RTVSPost2010PropOp28
 70
     1
102
RTVSPost2010Prop29
280
     1
102
RTVSPost2010PropOp29
 70
     1
102
RTVSPost2010Prop30
280
     1
102
RTVSPost2010PropOp30
 70
     1
102
RTVSPost2010Prop31
280
     0
102
RTVSPost2010PropOp31
 70
     1
102
RTVSPost2010Prop32
280
     0
102
RTVSPost2010PropOp32
 70
     1
102
RTVSPost2010Prop33
280
     0
102
RTVSPost2010PropOp33
 70
     1
102
RTVSPost2010Prop34
280
     0
102
RTVSPost2010PropOp34
 70
     1
102
RTVSPost2010Prop35
280
     0
102
RTVSPost2010PropOp35
 70
     1
102
RTVSPost2010Prop36
280
     0
102
RTVSPost2010PropOp36
 70
     1
102
RTVSPost2010Prop37
 90
       50
102
RTVSPost2010PropOp37
 70
     1
102
RTVSPost2010Prop38
140
0.0
102
RTVSPost2010PropOp38
 70
     1
102
RTVSPost2010Prop39
140
1.0
102
RTVSPost2010PropOp39
 70
     1
102
RTVSPost2010Prop40
 90
        0
102
RTVSPost2010PropOp40
 70
     1
102
RTVSPost2010Prop41ColorIndex
 90
       18
102
RTVSPost2010Prop41ColorRGB
 90
        0
102
RTVSPost2010PropOp41
 70
     1
102
RTVSPost2010Prop42
 90
       50
102
RTVSPost2010PropOp42
 70
     1
102
RTVSPost2010Prop43
 90
        3
102
RTVSPost2010PropOp43
 70
     1
102
RTVSPost2010Prop44ColorIndex
 90
        5
102
RTVSPost2010Prop44ColorRGB
 90
      255
102
RTVSPost2010PropOp44
 70
     1
102
RTVSPost2010Prop45
280
     0
102
RTVSPost2010PropOp45
 70
     1
102
RTVSPost2010Prop46
 90
       50
102
RTVSPost2010PropOp46
 70
     1
102
RTVSPost2010Prop47
 90
       50
102
RTVSPost2010PropOp47
 70
     1
102
RTVSPost2010Prop48
 90
       50
102
RTVSPost2010PropOp48
 70
     1
102
RTVSPost2010Prop49
280
     0
102
RTVSPost2010PropOp49
 70
     1
102
RTVSPost2010Prop50
 90
       50
102
RTVSPost2010PropOp50
 70
     1
102
RTVSPost2010Prop51ColorIndex
 90
      256
102
RTVSPost2010Prop51ColorRGB
 90
-16777216
102
RTVSPost2010PropOp51
 70
     0
102
RTVSPost2010Prop52
140
1.0
102
RTVSPost2010PropOp52
 70
     0
102
RTVSPost2010Prop53
 90
        2
102
RTVSPost2010PropOp53
 70
     1
102
RTVSPost2010Prop54
  1
strokes_ogs.tif
102
RTVSPost2010PropOp54
 70
     1
102
RTVSPost2010Prop55
280
     0
102
RTVSPost2010PropOp55
 70
     1
102
RTVSPost2010Prop56
140
1.0
102
RTVSPost2010PropOp56
 70
     1
102
RTVSPost2010Prop57
140
1.0
102
RTVSPost2010PropOp57
 70
     1
102
RTVSPropertyOp0
 70
     1
102
RTVSPropertyOp1
 70
     1
102
RTVSPropertyOp2
 70
     1
102
RTVSPropertyOp3
 70
     1
102
RTVSPropertyOp4
 70
     1
102
RTVSPropertyOp5
 70
     1
102
RTVSPropertyOp6
 70
     1
102
RTVSPropertyOp7
 70
     1
102
RTVSPropertyOp8
 70
     1
102
RTVSPropertyOp9
 70
     1
102
RTVSPropertyOp10
 70
     1
102
RTVSPropertyOp11
 70
     1
102
RTVSPropertyOp12
 70
     1
102
RTVSPropertyOp13
 70
     1
102
RTVSPropertyOp14
 70
     1
102
RTVSPropertyOp15
 70
     1
102
RTVSPropertyOp16
 70
     1
102
RTVSPropertyOp17
 70
     1
102
RTVSPropertyOp18
 70
     1
102
RTVSPropertyOp19
 70
     1
102
RTVSPropertyOp20
 70
     1
102
RTVSPropertyOp21
 70
     1
102
RTVSPropertyOp22
 70
     1
102
RTVSPropertyOp23
 70
     1
102
RTVSPropertyOp24
 70
     1
102
RTVSPropertyOp25
 70
     1
102
RTVSPropertyOp26
 70
     1
102
RTVSPropertyOp27
 70
     1
102
RTVSPropertyOp28
 70
     1
102
RTVSPropertyOp29
 70
     1
102
RTVSPropertyOp30
 70
     1
102
RTVSPropertyOp31
 70
     1
102
RTVSPropertyOp32
 70
     1
102
RTVSPropertyOp33
 70
     1
102
RTVSPropertyOp34
 70
     1
102
RTVSPropertyOp35
 70
     1
102
RTVSPropertyOp36
 70
     1
102
RTVSPropertyOp37
 70
     1
102
RTVSPropertyOp38
 70
     1
102
RTVSPropertyOp39
 70
     1
102
RTVSPropertyOp40
 70
     1
102
RTVSPropertyOp41
 70
     1
102
RTVSPropertyOp42
 70
     1
102
RTVSPropertyOp43
 70
     1
102
RTVSPropertyOp44
 70
     1
102
RTVSPropertyOp45
 70
     1
102
RTVSPropertyOp46
 70
     1
102
RTVSPropertyOp47
 70
     1
102
RTVSPropertyOp48
 70
     1
102
RTVSPropertyOp49
 70
     1
102
RTVSPropertyOp50
 70
     1
102
RTVSPropertyOp51
 70
     0
102
RTVSPropertyOp52
 70
     0
102
RTVSPropertyOp53
 70
     1
102
RTVSPropertyOp54
 70
     1
102
RTVSPropertyOp55
 70
     1
102
RTVSPropertyOp56
 70
     1
102
RTVSPropertyOp57
 70
     1
102
RTVSPropertyOp58
 70
     1
102
RTVSPropertyOp59
 70
     1
102
RTVSPropertyOp60
 70
     1
102
RTVSPropertyOp61
 70
     1
102
RTVSPropertyOp62
 70
     1
  0
XRECORD
  5
1000273
102
{ACAD_REACTORS
330
1000272
102
}
330
1000272
100
AcDbXrecord
280
     1
102
RTVSPost2010Prop28
280
     0
102
RTVSPost2010PropOp28
 70
     1
102
RTVSPost2010Prop29
280
     1
102
RTVSPost2010PropOp29
 70
     1
102
RTVSPost2010Prop30
280
     1
102
RTVSPost2010PropOp30
 70
     1
102
RTVSPost2010Prop31
280
     0
102
RTVSPost2010PropOp31
 70
     1
102
RTVSPost2010Prop32
280
     0
102
RTVSPost2010PropOp32
 70
     1
102
RTVSPost2010Prop33
280
     0
102
RTVSPost2010PropOp33
 70
     1
102
RTVSPost2010Prop34
280
     0
102
RTVSPost2010PropOp34
 70
     1
102
RTVSPost2010Prop35
280
     0
102
RTVSPost2010PropOp35
 70
     1
102
RTVSPost2010Prop36
280
     0
102
RTVSPost2010PropOp36
 70
     1
102
RTVSPost2010Prop37
 90
       50
102
RTVSPost2010PropOp37
 70
     0
102
RTVSPost2010Prop38
140
0.0
102
RTVSPost2010PropOp38
 70
     0
102
RTVSPost2010Prop39
140
1.0
102
RTVSPost2010PropOp39
 70
     0
102
RTVSPost2010Prop40
 90
        0
102
RTVSPost2010PropOp40
 70
     0
102
RTVSPost2010Prop41ColorIndex
 90
       18
102
RTVSPost2010Prop41ColorRGB
 90
        0
102
RTVSPost2010PropOp41
 70
     0
102
RTVSPost2010Prop42
 90
       50
102
RTVSPost2010PropOp42
 70
     0
102
RTVSPost2010Prop43
 90
        3
102
RTVSPost2010PropOp43
 70
     0
102
RTVSPost2010Prop44ColorIndex
 90
        5
102
RTVSPost2010Prop44ColorRGB
 90
      255
102
RTVSPost2010PropOp44
 70
     0
102
RTVSPost2010Prop45
280
     0
102
RTVSPost2010PropOp45
 70
     1
102
RTVSPost2010Prop46
 90
       50
102
RTVSPost2010PropOp46
 70
     0
102
RTVSPost2010Prop47
 90
       50
102
RTVSPost2010PropOp47
 70
     0
102
RTVSPost2010Prop48
 90
       50
102
RTVSPost2010PropOp48
 70
     0
102
RTVSPost2010Prop49
280
     0
102
RTVSPost2010PropOp49
 70
     1
102
RTVSPost2010Prop50
 90
       50
102
RTVSPost2010PropOp50
 70
     0
102
RTVSPost2010Prop51ColorIndex
 90
      256
102
RTVSPost2010Prop51ColorRGB
 90
-16777216
102
RTVSPost2010PropOp51
 70
     0
102
RTVSPost2010Prop52
140
1.0
102
RTVSPost2010PropOp52
 70
     0
102
RTVSPost2010Prop53
 90
        2
102
RTVSPost2010PropOp53
 70
     0
102
RTVSPost2010Prop54
  1
strokes_ogs.tif
102
RTVSPost2010PropOp54
 70
     0
102
RTVSPost2010Prop55
280
     0
102
RTVSPost2010PropOp55
 70
     1
102
RTVSPost2010Prop56
140
1.0
102
RTVSPost2010PropOp56
 70
     0
102
RTVSPost2010Prop57
140
1.0
102
RTVSPost2010PropOp57
 70
     0
102
RTVSPropertyOp0
 70
     0
102
RTVSPropertyOp1
 70
     0
102
RTVSPropertyOp2
 70
     0
102
RTVSPropertyOp3
 70
     0
102
RTVSPropertyOp4
 70
     0
102
RTVSPropertyOp5
 70
     0
102
RTVSPropertyOp6
 70
     0
102
RTVSPropertyOp7
 70
     0
102
RTVSPropertyOp8
 70
     0
102
RTVSPropertyOp9
 70
     0
102
RTVSPropertyOp10
 70
     0
102
RTVSPropertyOp11
 70
     0
102
RTVSPropertyOp12
 70
     0
102
RTVSPropertyOp13
 70
     0
102
RTVSPropertyOp14
 70
     2
102
RTVSPropertyOp15
 70
     0
102
RTVSPropertyOp16
 70
     0
102
RTVSPropertyOp17
 70
     0
102
RTVSPropertyOp18
 70
     0
102
RTVSPropertyOp19
 70
     0
102
RTVSPropertyOp20
 70
     0
102
RTVSPropertyOp21
 70
     0
102
RTVSPropertyOp22
 70
     0
102
RTVSPropertyOp23
 70
     0
102
RTVSPropertyOp24
 70
     0
102
RTVSPropertyOp25
 70
     0
102
RTVSPropertyOp26
 70
     0
102
RTVSPropertyOp27
 70
     0
102
RTVSPropertyOp28
 70
     1
102
RTVSPropertyOp29
 70
     1
102
RTVSPropertyOp30
 70
     1
102
RTVSPropertyOp31
 70
     1
102
RTVSPropertyOp32
 70
     1
102
RTVSPropertyOp33
 70
     1
102
RTVSPropertyOp34
 70
     1
102
RTVSPropertyOp35
 70
     1
102
RTVSPropertyOp36
 70
     1
102
RTVSPropertyOp37
 70
     0
102
RTVSPropertyOp38
 70
     0
102
RTVSPropertyOp39
 70
     0
102
RTVSPropertyOp40
 70
     0
102
RTVSPropertyOp41
 70
     0
102
RTVSPropertyOp42
 70
     0
102
RTVSPropertyOp43
 70
     0
102
RTVSPropertyOp44
 70
     0
102
RTVSPropertyOp45
 70
     1
102
RTVSPropertyOp46
 70
     0
102
RTVSPropertyOp47
 70
     0
102
RTVSPropertyOp48
 70
     0
102
RTVSPropertyOp49
 70
     1
102
RTVSPropertyOp50
 70
     0
102
RTVSPropertyOp51
 70
     0
102
RTVSPropertyOp52
 70
     0
102
RTVSPropertyOp53
 70
     0
102
RTVSPropertyOp54
 70
     0
102
RTVSPropertyOp55
 70
     1
102
RTVSPropertyOp56
 70
     0
102
RTVSPropertyOp57
 70
     0
102
RTVSPropertyOp58
 70
     0
102
RTVSPropertyOp59
 70
     0
102
RTVSPropertyOp60
 70
     0
102
RTVSPropertyOp61
 70
     0
102
RTVSPropertyOp62
 70
     0
  0
XRECORD
  5
1000261
102
{ACAD_REACTORS
330
1000260
102
}
330
1000260
100
AcDbXrecord
280
     1
102
RTVSPost2010Prop28
280
     0
102
RTVSPost2010PropOp28
 70
     1
102
RTVSPost2010Prop29
280
     1
102
RTVSPost2010PropOp29
 70
     1
102
RTVSPost2010Prop30
280
     1
102
RTVSPost2010PropOp30
 70
     1
102
RTVSPost2010Prop31
280
     0
102
RTVSPost2010PropOp31
 70
     1
102
RTVSPost2010Prop32
280
     0
102
RTVSPost2010PropOp32
 70
     1
102
RTVSPost2010Prop33
280
     0
102
RTVSPost2010PropOp33
 70
     1
102
RTVSPost2010Prop34
280
     0
102
RTVSPost2010PropOp34
 70
     1
102
RTVSPost2010Prop35
280
     0
102
RTVSPost2010PropOp35
 70
     1
102
RTVSPost2010Prop36
280
     0
102
RTVSPost2010PropOp36
 70
     1
102
RTVSPost2010Prop37
 90
       50
102
RTVSPost2010PropOp37
 70
     1
102
RTVSPost2010Prop38
140
0.0
102
RTVSPost2010PropOp38
 70
     1
102
RTVSPost2010Prop39
140
1.0
102
RTVSPost2010PropOp39
 70
     1
102
RTVSPost2010Prop40
 90
        0
102
RTVSPost2010PropOp40
 70
     1
102
RTVSPost2010Prop41ColorIndex
 90
       18
102
RTVSPost2010Prop41ColorRGB
 90
        0
102
RTVSPost2010PropOp41
 70
     1
102
RTVSPost2010Prop42
 90
       50
102
RTVSPost2010PropOp42
 70
     1
102
RTVSPost2010Prop43
 90
        3
102
RTVSPost2010PropOp43
 70
     1
102
RTVSPost2010Prop44ColorIndex
 90
        5
102
RTVSPost2010Prop44ColorRGB
 90
      255
102
RTVSPost2010PropOp44
 70
     1
102
RTVSPost2010Prop45
280
     0
102
RTVSPost2010PropOp45
 70
     1
102
RTVSPost2010Prop46
 90
       50
102
RTVSPost2010PropOp46
 70
     1
102
RTVSPost2010Prop47
 90
       50
102
RTVSPost2010PropOp47
 70
     1
102
RTVSPost2010Prop48
 90
       50
102
RTVSPost2010PropOp48
 70
     1
102
RTVSPost2010Prop49
280
     0
102
RTVSPost2010PropOp49
 70
     1
102
RTVSPost2010Prop50
 90
       50
102
RTVSPost2010PropOp50
 70
     1
102
RTVSPost2010Prop51ColorIndex
 90
      256
102
RTVSPost2010Prop51ColorRGB
 90
-16777216
102
RTVSPost2010PropOp51
 70
     0
102
RTVSPost2010Prop52
140
1.0
102
RTVSPost2010PropOp52
 70
     0
102
RTVSPost2010Prop53
 90
        2
102
RTVSPost2010PropOp53
 70
     1
102
RTVSPost2010Prop54
  1
strokes_ogs.tif
102
RTVSPost2010PropOp54
 70
     1
102
RTVSPost2010Prop55
280
     0
102
RTVSPost2010PropOp55
 70
     1
102
RTVSPost2010Prop56
140
1.0
102
RTVSPost2010PropOp56
 70
     1
102
RTVSPost2010Prop57
140
1.0
102
RTVSPost2010PropOp57
 70
     1
102
RTVSPropertyOp0
 70
     1
102
RTVSPropertyOp1
 70
     1
102
RTVSPropertyOp2
 70
     1
102
RTVSPropertyOp3
 70
     1
102
RTVSPropertyOp4
 70
     1
102
RTVSPropertyOp5
 70
     1
102
RTVSPropertyOp6
 70
     1
102
RTVSPropertyOp7
 70
     1
102
RTVSPropertyOp8
 70
     1
102
RTVSPropertyOp9
 70
     1
102
RTVSPropertyOp10
 70
     1
102
RTVSPropertyOp11
 70
     1
102
RTVSPropertyOp12
 70
     1
102
RTVSPropertyOp13
 70
     1
102
RTVSPropertyOp14
 70
     1
102
RTVSPropertyOp15
 70
     1
102
RTVSPropertyOp16
 70
     1
102
RTVSPropertyOp17
 70
     1
102
RTVSPropertyOp18
 70
     1
102
RTVSPropertyOp19
 70
     1
102
RTVSPropertyOp20
 70
     1
102
RTVSPropertyOp21
 70
     1
102
RTVSPropertyOp22
 70
     1
102
RTVSPropertyOp23
 70
     1
102
RTVSPropertyOp24
 70
     1
102
RTVSPropertyOp25
 70
     1
102
RTVSPropertyOp26
 70
     1
102
RTVSPropertyOp27
 70
     1
102
RTVSPropertyOp28
 70
     1
102
RTVSPropertyOp29
 70
     1
102
RTVSPropertyOp30
 70
     1
102
RTVSPropertyOp31
 70
     1
102
RTVSPropertyOp32
 70
     1
102
RTVSPropertyOp33
 70
     1
102
RTVSPropertyOp34
 70
     1
102
RTVSPropertyOp35
 70
     1
102
RTVSPropertyOp36
 70
     1
102
RTVSPropertyOp37
 70
     1
102
RTVSPropertyOp38
 70
     1
102
RTVSPropertyOp39
 70
     1
102
RTVSPropertyOp40
 70
     1
102
RTVSPropertyOp41
 70
     1
102
RTVSPropertyOp42
 70
     1
102
RTVSPropertyOp43
 70
     1
102
RTVSPropertyOp44
 70
     1
102
RTVSPropertyOp45
 70
     1
102
RTVSPropertyOp46
 70
     1
102
RTVSPropertyOp47
 70
     1
102
RTVSPropertyOp48
 70
     1
102
RTVSPropertyOp49
 70
     1
102
RTVSPropertyOp50
 70
     1
102
RTVSPropertyOp51
 70
     0
102
RTVSPropertyOp52
 70
     0
102
RTVSPropertyOp53
 70
     1
102
RTVSPropertyOp54
 70
     1
102
RTVSPropertyOp55
 70
     1
102
RTVSPropertyOp56
 70
     1
102
RTVSPropertyOp57
 70
     1
102
RTVSPropertyOp58
 70
     1
102
RTVSPropertyOp59
 70
     1
102
RTVSPropertyOp60
 70
     1
102
RTVSPropertyOp61
 70
     1
102
RTVSPropertyOp62
 70
     1
  0
XRECORD
  5
1000245
102
{ACAD_REACTORS
330
1000244
102
}
330
1000244
100
AcDbXrecord
280
     1
102
RTVSPost2010Prop28
280
     0
102
RTVSPost2010PropOp28
 70
     1
102
RTVSPost2010Prop29
280
     1
102
RTVSPost2010PropOp29
 70
     1
102
RTVSPost2010Prop30
280
     1
102
RTVSPost2010PropOp30
 70
     1
102
RTVSPost2010Prop31
280
     0
102
RTVSPost2010PropOp31
 70
     1
102
RTVSPost2010Prop32
280
     0
102
RTVSPost2010PropOp32
 70
     1
102
RTVSPost2010Prop33
280
     0
102
RTVSPost2010PropOp33
 70
     1
102
RTVSPost2010Prop34
280
     0
102
RTVSPost2010PropOp34
 70
     1
102
RTVSPost2010Prop35
280
     0
102
RTVSPost2010PropOp35
 70
     1
102
RTVSPost2010Prop36
280
     0
102
RTVSPost2010PropOp36
 70
     1
102
RTVSPost2010Prop37
 90
       50
102
RTVSPost2010PropOp37
 70
     1
102
RTVSPost2010Prop38
140
0.0
102
RTVSPost2010PropOp38
 70
     1
102
RTVSPost2010Prop39
140
1.0
102
RTVSPost2010PropOp39
 70
     1
102
RTVSPost2010Prop40
 90
        0
102
RTVSPost2010PropOp40
 70
     1
102
RTVSPost2010Prop41ColorIndex
 90
       18
102
RTVSPost2010Prop41ColorRGB
 90
        0
102
RTVSPost2010PropOp41
 70
     1
102
RTVSPost2010Prop42
 90
       50
102
RTVSPost2010PropOp42
 70
     1
102
RTVSPost2010Prop43
 90
        3
102
RTVSPost2010PropOp43
 70
     1
102
RTVSPost2010Prop44ColorIndex
 90
        5
102
RTVSPost2010Prop44ColorRGB
 90
      255
102
RTVSPost2010PropOp44
 70
     1
102
RTVSPost2010Prop45
280
     0
102
RTVSPost2010PropOp45
 70
     1
102
RTVSPost2010Prop46
 90
       50
102
RTVSPost2010PropOp46
 70
     1
102
RTVSPost2010Prop47
 90
       50
102
RTVSPost2010PropOp47
 70
     1
102
RTVSPost2010Prop48
 90
       50
102
RTVSPost2010PropOp48
 70
     1
102
RTVSPost2010Prop49
280
     0
102
RTVSPost2010PropOp49
 70
     1
102
RTVSPost2010Prop50
 90
       50
102
RTVSPost2010PropOp50
 70
     1
102
RTVSPost2010Prop51ColorIndex
 90
      256
102
RTVSPost2010Prop51ColorRGB
 90
-16777216
102
RTVSPost2010PropOp51
 70
     0
102
RTVSPost2010Prop52
140
1.0
102
RTVSPost2010PropOp52
 70
     0
102
RTVSPost2010Prop53
 90
        2
102
RTVSPost2010PropOp53
 70
     1
102
RTVSPost2010Prop54
  1
strokes_ogs.tif
102
RTVSPost2010PropOp54
 70
     1
102
RTVSPost2010Prop55
280
     0
102
RTVSPost2010PropOp55
 70
     1
102
RTVSPost2010Prop56
140
1.0
102
RTVSPost2010PropOp56
 70
     1
102
RTVSPost2010Prop57
140
1.0
102
RTVSPost2010PropOp57
 70
     1
102
RTVSPropertyOp0
 70
     1
102
RTVSPropertyOp1
 70
     1
102
RTVSPropertyOp2
 70
     1
102
RTVSPropertyOp3
 70
     1
102
RTVSPropertyOp4
 70
     1
102
RTVSPropertyOp5
 70
     1
102
RTVSPropertyOp6
 70
     1
102
RTVSPropertyOp7
 70
     1
102
RTVSPropertyOp8
 70
     1
102
RTVSPropertyOp9
 70
     1
102
RTVSPropertyOp10
 70
     1
102
RTVSPropertyOp11
 70
     1
102
RTVSPropertyOp12
 70
     1
102
RTVSPropertyOp13
 70
     1
102
RTVSPropertyOp14
 70
     1
102
RTVSPropertyOp15
 70
     1
102
RTVSPropertyOp16
 70
     1
102
RTVSPropertyOp17
 70
     1
102
RTVSPropertyOp18
 70
     1
102
RTVSPropertyOp19
 70
     1
102
RTVSPropertyOp20
 70
     1
102
RTVSPropertyOp21
 70
     1
102
RTVSPropertyOp22
 70
     1
102
RTVSPropertyOp23
 70
     1
102
RTVSPropertyOp24
 70
     1
102
RTVSPropertyOp25
 70
     1
102
RTVSPropertyOp26
 70
     1
102
RTVSPropertyOp27
 70
     1
102
RTVSPropertyOp28
 70
     1
102
RTVSPropertyOp29
 70
     1
102
RTVSPropertyOp30
 70
     1
102
RTVSPropertyOp31
 70
     1
102
RTVSPropertyOp32
 70
     1
102
RTVSPropertyOp33
 70
     1
102
RTVSPropertyOp34
 70
     1
102
RTVSPropertyOp35
 70
     1
102
RTVSPropertyOp36
 70
     1
102
RTVSPropertyOp37
 70
     1
102
RTVSPropertyOp38
 70
     1
102
RTVSPropertyOp39
 70
     1
102
RTVSPropertyOp40
 70
     1
102
RTVSPropertyOp41
 70
     1
102
RTVSPropertyOp42
 70
     1
102
RTVSPropertyOp43
 70
     1
102
RTVSPropertyOp44
 70
     1
102
RTVSPropertyOp45
 70
     1
102
RTVSPropertyOp46
 70
     1
102
RTVSPropertyOp47
 70
     1
102
RTVSPropertyOp48
 70
     1
102
RTVSPropertyOp49
 70
     1
102
RTVSPropertyOp50
 70
     1
102
RTVSPropertyOp51
 70
     0
102
RTVSPropertyOp52
 70
     0
102
RTVSPropertyOp53
 70
     1
102
RTVSPropertyOp54
 70
     1
102
RTVSPropertyOp55
 70
     1
102
RTVSPropertyOp56
 70
     1
102
RTVSPropertyOp57
 70
     1
102
RTVSPropertyOp58
 70
     1
102
RTVSPropertyOp59
 70
     1
102
RTVSPropertyOp60
 70
     1
102
RTVSPropertyOp61
 70
     1
102
RTVSPropertyOp62
 70
     1
  0
XRECORD
  5
1000247
102
{ACAD_REACTORS
330
1000246
102
}
330
1000246
100
AcDbXrecord
280
     1
102
RTVSPost2010Prop28
280
     0
102
RTVSPost2010PropOp28
 70
     1
102
RTVSPost2010Prop29
280
     1
102
RTVSPost2010PropOp29
 70
     1
102
RTVSPost2010Prop30
280
     1
102
RTVSPost2010PropOp30
 70
     1
102
RTVSPost2010Prop31
280
     0
102
RTVSPost2010PropOp31
 70
     1
102
RTVSPost2010Prop32
280
     0
102
RTVSPost2010PropOp32
 70
     1
102
RTVSPost2010Prop33
280
     0
102
RTVSPost2010PropOp33
 70
     1
102
RTVSPost2010Prop34
280
     0
102
RTVSPost2010PropOp34
 70
     1
102
RTVSPost2010Prop35
280
     0
102
RTVSPost2010PropOp35
 70
     1
102
RTVSPost2010Prop36
280
     0
102
RTVSPost2010PropOp36
 70
     1
102
RTVSPost2010Prop37
 90
       50
102
RTVSPost2010PropOp37
 70
     1
102
RTVSPost2010Prop38
140
0.0
102
RTVSPost2010PropOp38
 70
     1
102
RTVSPost2010Prop39
140
1.0
102
RTVSPost2010PropOp39
 70
     1
102
RTVSPost2010Prop40
 90
        0
102
RTVSPost2010PropOp40
 70
     1
102
RTVSPost2010Prop41ColorIndex
 90
       18
102
RTVSPost2010Prop41ColorRGB
 90
        0
102
RTVSPost2010PropOp41
 70
     1
102
RTVSPost2010Prop42
 90
       50
102
RTVSPost2010PropOp42
 70
     1
102
RTVSPost2010Prop43
 90
        3
102
RTVSPost2010PropOp43
 70
     1
102
RTVSPost2010Prop44ColorIndex
 90
        5
102
RTVSPost2010Prop44ColorRGB
 90
      255
102
RTVSPost2010PropOp44
 70
     1
102
RTVSPost2010Prop45
280
     0
102
RTVSPost2010PropOp45
 70
     1
102
RTVSPost2010Prop46
 90
       50
102
RTVSPost2010PropOp46
 70
     1
102
RTVSPost2010Prop47
 90
       50
102
RTVSPost2010PropOp47
 70
     1
102
RTVSPost2010Prop48
 90
       50
102
RTVSPost2010PropOp48
 70
     1
102
RTVSPost2010Prop49
280
     0
102
RTVSPost2010PropOp49
 70
     1
102
RTVSPost2010Prop50
 90
       50
102
RTVSPost2010PropOp50
 70
     1
102
RTVSPost2010Prop51ColorIndex
 90
      256
102
RTVSPost2010Prop51ColorRGB
 90
-16777216
102
RTVSPost2010PropOp51
 70
     0
102
RTVSPost2010Prop52
140
1.0
102
RTVSPost2010PropOp52
 70
     0
102
RTVSPost2010Prop53
 90
        2
102
RTVSPost2010PropOp53
 70
     1
102
RTVSPost2010Prop54
  1
strokes_ogs.tif
102
RTVSPost2010PropOp54
 70
     1
102
RTVSPost2010Prop55
280
     0
102
RTVSPost2010PropOp55
 70
     1
102
RTVSPost2010Prop56
140
1.0
102
RTVSPost2010PropOp56
 70
     1
102
RTVSPost2010Prop57
140
1.0
102
RTVSPost2010PropOp57
 70
     1
102
RTVSPropertyOp0
 70
     1
102
RTVSPropertyOp1
 70
     1
102
RTVSPropertyOp2
 70
     1
102
RTVSPropertyOp3
 70
     1
102
RTVSPropertyOp4
 70
     1
102
RTVSPropertyOp5
 70
     1
102
RTVSPropertyOp6
 70
     1
102
RTVSPropertyOp7
 70
     1
102
RTVSPropertyOp8
 70
     1
102
RTVSPropertyOp9
 70
     1
102
RTVSPropertyOp10
 70
     1
102
RTVSPropertyOp11
 70
     1
102
RTVSPropertyOp12
 70
     1
102
RTVSPropertyOp13
 70
     1
102
RTVSPropertyOp14
 70
     1
102
RTVSPropertyOp15
 70
     1
102
RTVSPropertyOp16
 70
     1
102
RTVSPropertyOp17
 70
     1
102
RTVSPropertyOp18
 70
     1
102
RTVSPropertyOp19
 70
     1
102
RTVSPropertyOp20
 70
     1
102
RTVSPropertyOp21
 70
     1
102
RTVSPropertyOp22
 70
     1
102
RTVSPropertyOp23
 70
     1
102
RTVSPropertyOp24
 70
     1
102
RTVSPropertyOp25
 70
     1
102
RTVSPropertyOp26
 70
     1
102
RTVSPropertyOp27
 70
     1
102
RTVSPropertyOp28
 70
     1
102
RTVSPropertyOp29
 70
     1
102
RTVSPropertyOp30
 70
     1
102
RTVSPropertyOp31
 70
     1
102
RTVSPropertyOp32
 70
     1
102
RTVSPropertyOp33
 70
     1
102
RTVSPropertyOp34
 70
     1
102
RTVSPropertyOp35
 70
     1
102
RTVSPropertyOp36
 70
     1
102
RTVSPropertyOp37
 70
     1
102
RTVSPropertyOp38
 70
     1
102
RTVSPropertyOp39
 70
     1
102
RTVSPropertyOp40
 70
     1
102
RTVSPropertyOp41
 70
     1
102
RTVSPropertyOp42
 70
     1
102
RTVSPropertyOp43
 70
     1
102
RTVSPropertyOp44
 70
     1
102
RTVSPropertyOp45
 70
     1
102
RTVSPropertyOp46
 70
     1
102
RTVSPropertyOp47
 70
     1
102
RTVSPropertyOp48
 70
     1
102
RTVSPropertyOp49
 70
     1
102
RTVSPropertyOp50
 70
     1
102
RTVSPropertyOp51
 70
     0
102
RTVSPropertyOp52
 70
     0
102
RTVSPropertyOp53
 70
     1
102
RTVSPropertyOp54
 70
     1
102
RTVSPropertyOp55
 70
     1
102
RTVSPropertyOp56
 70
     1
102
RTVSPropertyOp57
 70
     1
102
RTVSPropertyOp58
 70
     1
102
RTVSPropertyOp59
 70
     1
102
RTVSPropertyOp60
 70
     1
102
RTVSPropertyOp61
 70
     1
102
RTVSPropertyOp62
 70
     1
  0
XRECORD
  5
1000249
102
{ACAD_REACTORS
330
1000248
102
}
330
1000248
100
AcDbXrecord
280
     1
102
RTVSPost2010Prop28
280
     0
102
RTVSPost2010PropOp28
 70
     1
102
RTVSPost2010Prop29
280
     1
102
RTVSPost2010PropOp29
 70
     1
102
RTVSPost2010Prop30
280
     1
102
RTVSPost2010PropOp30
 70
     1
102
RTVSPost2010Prop31
280
     0
102
RTVSPost2010PropOp31
 70
     1
102
RTVSPost2010Prop32
280
     0
102
RTVSPost2010PropOp32
 70
     1
102
RTVSPost2010Prop33
280
     0
102
RTVSPost2010PropOp33
 70
     1
102
RTVSPost2010Prop34
280
     0
102
RTVSPost2010PropOp34
 70
     1
102
RTVSPost2010Prop35
280
     0
102
RTVSPost2010PropOp35
 70
     1
102
RTVSPost2010Prop36
280
     0
102
RTVSPost2010PropOp36
 70
     1
102
RTVSPost2010Prop37
 90
       50
102
RTVSPost2010PropOp37
 70
     1
102
RTVSPost2010Prop38
140
0.0
102
RTVSPost2010PropOp38
 70
     1
102
RTVSPost2010Prop39
140
1.0
102
RTVSPost2010PropOp39
 70
     1
102
RTVSPost2010Prop40
 90
        0
102
RTVSPost2010PropOp40
 70
     1
102
RTVSPost2010Prop41ColorIndex
 90
       18
102
RTVSPost2010Prop41ColorRGB
 90
        0
102
RTVSPost2010PropOp41
 70
     1
102
RTVSPost2010Prop42
 90
       50
102
RTVSPost2010PropOp42
 70
     1
102
RTVSPost2010Prop43
 90
        3
102
RTVSPost2010PropOp43
 70
     1
102
RTVSPost2010Prop44ColorIndex
 90
        5
102
RTVSPost2010Prop44ColorRGB
 90
      255
102
RTVSPost2010PropOp44
 70
     1
102
RTVSPost2010Prop45
280
     0
102
RTVSPost2010PropOp45
 70
     1
102
RTVSPost2010Prop46
 90
       50
102
RTVSPost2010PropOp46
 70
     1
102
RTVSPost2010Prop47
 90
       50
102
RTVSPost2010PropOp47
 70
     1
102
RTVSPost2010Prop48
 90
       50
102
RTVSPost2010PropOp48
 70
     1
102
RTVSPost2010Prop49
280
     0
102
RTVSPost2010PropOp49
 70
     1
102
RTVSPost2010Prop50
 90
       50
102
RTVSPost2010PropOp50
 70
     1
102
RTVSPost2010Prop51ColorIndex
 90
      256
102
RTVSPost2010Prop51ColorRGB
 90
-16777216
102
RTVSPost2010PropOp51
 70
     0
102
RTVSPost2010Prop52
140
1.0
102
RTVSPost2010PropOp52
 70
     0
102
RTVSPost2010Prop53
 90
        2
102
RTVSPost2010PropOp53
 70
     1
102
RTVSPost2010Prop54
  1
strokes_ogs.tif
102
RTVSPost2010PropOp54
 70
     1
102
RTVSPost2010Prop55
280
     0
102
RTVSPost2010PropOp55
 70
     1
102
RTVSPost2010Prop56
140
1.0
102
RTVSPost2010PropOp56
 70
     1
102
RTVSPost2010Prop57
140
1.0
102
RTVSPost2010PropOp57
 70
     1
102
RTVSPropertyOp0
 70
     1
102
RTVSPropertyOp1
 70
     1
102
RTVSPropertyOp2
 70
     1
102
RTVSPropertyOp3
 70
     1
102
RTVSPropertyOp4
 70
     1
102
RTVSPropertyOp5
 70
     1
102
RTVSPropertyOp6
 70
     1
102
RTVSPropertyOp7
 70
     1
102
RTVSPropertyOp8
 70
     1
102
RTVSPropertyOp9
 70
     1
102
RTVSPropertyOp10
 70
     1
102
RTVSPropertyOp11
 70
     1
102
RTVSPropertyOp12
 70
     1
102
RTVSPropertyOp13
 70
     1
102
RTVSPropertyOp14
 70
     1
102
RTVSPropertyOp15
 70
     1
102
RTVSPropertyOp16
 70
     1
102
RTVSPropertyOp17
 70
     1
102
RTVSPropertyOp18
 70
     1
102
RTVSPropertyOp19
 70
     1
102
RTVSPropertyOp20
 70
     1
102
RTVSPropertyOp21
 70
     1
102
RTVSPropertyOp22
 70
     1
102
RTVSPropertyOp23
 70
     1
102
RTVSPropertyOp24
 70
     1
102
RTVSPropertyOp25
 70
     1
102
RTVSPropertyOp26
 70
     1
102
RTVSPropertyOp27
 70
     1
102
RTVSPropertyOp28
 70
     1
102
RTVSPropertyOp29
 70
     1
102
RTVSPropertyOp30
 70
     1
102
RTVSPropertyOp31
 70
     1
102
RTVSPropertyOp32
 70
     1
102
RTVSPropertyOp33
 70
     1
102
RTVSPropertyOp34
 70
     1
102
RTVSPropertyOp35
 70
     1
102
RTVSPropertyOp36
 70
     1
102
RTVSPropertyOp37
 70
     1
102
RTVSPropertyOp38
 70
     1
102
RTVSPropertyOp39
 70
     1
102
RTVSPropertyOp40
 70
     1
102
RTVSPropertyOp41
 70
     1
102
RTVSPropertyOp42
 70
     1
102
RTVSPropertyOp43
 70
     1
102
RTVSPropertyOp44
 70
     1
102
RTVSPropertyOp45
 70
     1
102
RTVSPropertyOp46
 70
     1
102
RTVSPropertyOp47
 70
     1
102
RTVSPropertyOp48
 70
     1
102
RTVSPropertyOp49
 70
     1
102
RTVSPropertyOp50
 70
     1
102
RTVSPropertyOp51
 70
     0
102
RTVSPropertyOp52
 70
     0
102
RTVSPropertyOp53
 70
     1
102
RTVSPropertyOp54
 70
     1
102
RTVSPropertyOp55
 70
     1
102
RTVSPropertyOp56
 70
     1
102
RTVSPropertyOp57
 70
     1
102
RTVSPropertyOp58
 70
     1
102
RTVSPropertyOp59
 70
     1
102
RTVSPropertyOp60
 70
     1
102
RTVSPropertyOp61
 70
     1
102
RTVSPropertyOp62
 70
     1
  0
XRECORD
  5
100024B
102
{ACAD_REACTORS
330
100024A
102
}
330
100024A
100
AcDbXrecord
280
     1
102
RTVSPost2010Prop28
280
     0
102
RTVSPost2010PropOp28
 70
     1
102
RTVSPost2010Prop29
280
     1
102
RTVSPost2010PropOp29
 70
     1
102
RTVSPost2010Prop30
280
     1
102
RTVSPost2010PropOp30
 70
     1
102
RTVSPost2010Prop31
280
     0
102
RTVSPost2010PropOp31
 70
     1
102
RTVSPost2010Prop32
280
     0
102
RTVSPost2010PropOp32
 70
     1
102
RTVSPost2010Prop33
280
     0
102
RTVSPost2010PropOp33
 70
     1
102
RTVSPost2010Prop34
280
     0
102
RTVSPost2010PropOp34
 70
     1
102
RTVSPost2010Prop35
280
     0
102
RTVSPost2010PropOp35
 70
     1
102
RTVSPost2010Prop36
280
     0
102
RTVSPost2010PropOp36
 70
     1
102
RTVSPost2010Prop37
 90
       50
102
RTVSPost2010PropOp37
 70
     1
102
RTVSPost2010Prop38
140
0.0
102
RTVSPost2010PropOp38
 70
     1
102
RTVSPost2010Prop39
140
1.0
102
RTVSPost2010PropOp39
 70
     1
102
RTVSPost2010Prop40
 90
        0
102
RTVSPost2010PropOp40
 70
     1
102
RTVSPost2010Prop41ColorIndex
 90
       18
102
RTVSPost2010Prop41ColorRGB
 90
        0
102
RTVSPost2010PropOp41
 70
     1
102
RTVSPost2010Prop42
 90
       50
102
RTVSPost2010PropOp42
 70
     1
102
RTVSPost2010Prop43
 90
        3
102
RTVSPost2010PropOp43
 70
     1
102
RTVSPost2010Prop44ColorIndex
 90
        5
102
RTVSPost2010Prop44ColorRGB
 90
      255
102
RTVSPost2010PropOp44
 70
     1
102
RTVSPost2010Prop45
280
     0
102
RTVSPost2010PropOp45
 70
     1
102
RTVSPost2010Prop46
 90
       50
102
RTVSPost2010PropOp46
 70
     1
102
RTVSPost2010Prop47
 90
       50
102
RTVSPost2010PropOp47
 70
     1
102
RTVSPost2010Prop48
 90
       50
102
RTVSPost2010PropOp48
 70
     1
102
RTVSPost2010Prop49
280
     0
102
RTVSPost2010PropOp49
 70
     1
102
RTVSPost2010Prop50
 90
       50
102
RTVSPost2010PropOp50
 70
     1
102
RTVSPost2010Prop51ColorIndex
 90
      256
102
RTVSPost2010Prop51ColorRGB
 90
-16777216
102
RTVSPost2010PropOp51
 70
     0
102
RTVSPost2010Prop52
140
1.0
102
RTVSPost2010PropOp52
 70
     0
102
RTVSPost2010Prop53
 90
        2
102
RTVSPost2010PropOp53
 70
     1
102
RTVSPost2010Prop54
  1
strokes_ogs.tif
102
RTVSPost2010PropOp54
 70
     1
102
RTVSPost2010Prop55
280
     0
102
RTVSPost2010PropOp55
 70
     1
102
RTVSPost2010Prop56
140
1.0
102
RTVSPost2010PropOp56
 70
     1
102
RTVSPost2010Prop57
140
1.0
102
RTVSPost2010PropOp57
 70
     1
102
RTVSPropertyOp0
 70
     1
102
RTVSPropertyOp1
 70
     1
102
RTVSPropertyOp2
 70
     1
102
RTVSPropertyOp3
 70
     1
102
RTVSPropertyOp4
 70
     1
102
RTVSPropertyOp5
 70
     1
102
RTVSPropertyOp6
 70
     1
102
RTVSPropertyOp7
 70
     1
102
RTVSPropertyOp8
 70
     1
102
RTVSPropertyOp9
 70
     1
102
RTVSPropertyOp10
 70
     1
102
RTVSPropertyOp11
 70
     1
102
RTVSPropertyOp12
 70
     1
102
RTVSPropertyOp13
 70
     1
102
RTVSPropertyOp14
 70
     1
102
RTVSPropertyOp15
 70
     1
102
RTVSPropertyOp16
 70
     1
102
RTVSPropertyOp17
 70
     1
102
RTVSPropertyOp18
 70
     1
102
RTVSPropertyOp19
 70
     1
102
RTVSPropertyOp20
 70
     1
102
RTVSPropertyOp21
 70
     1
102
RTVSPropertyOp22
 70
     1
102
RTVSPropertyOp23
 70
     1
102
RTVSPropertyOp24
 70
     1
102
RTVSPropertyOp25
 70
     1
102
RTVSPropertyOp26
 70
     1
102
RTVSPropertyOp27
 70
     1
102
RTVSPropertyOp28
 70
     1
102
RTVSPropertyOp29
 70
     1
102
RTVSPropertyOp30
 70
     1
102
RTVSPropertyOp31
 70
     1
102
RTVSPropertyOp32
 70
     1
102
RTVSPropertyOp33
 70
     1
102
RTVSPropertyOp34
 70
     1
102
RTVSPropertyOp35
 70
     1
102
RTVSPropertyOp36
 70
     1
102
RTVSPropertyOp37
 70
     1
102
RTVSPropertyOp38
 70
     1
102
RTVSPropertyOp39
 70
     1
102
RTVSPropertyOp40
 70
     1
102
RTVSPropertyOp41
 70
     1
102
RTVSPropertyOp42
 70
     1
102
RTVSPropertyOp43
 70
     1
102
RTVSPropertyOp44
 70
     1
102
RTVSPropertyOp45
 70
     1
102
RTVSPropertyOp46
 70
     1
102
RTVSPropertyOp47
 70
     1
102
RTVSPropertyOp48
 70
     1
102
RTVSPropertyOp49
 70
     1
102
RTVSPropertyOp50
 70
     1
102
RTVSPropertyOp51
 70
     0
102
RTVSPropertyOp52
 70
     0
102
RTVSPropertyOp53
 70
     1
102
RTVSPropertyOp54
 70
     1
102
RTVSPropertyOp55
 70
     1
102
RTVSPropertyOp56
 70
     1
102
RTVSPropertyOp57
 70
     1
102
RTVSPropertyOp58
 70
     1
102
RTVSPropertyOp59
 70
     1
102
RTVSPropertyOp60
 70
     1
102
RTVSPropertyOp61
 70
     1
102
RTVSPropertyOp62
 70
     1
  0
XRECORD
  5
1000253
102
{ACAD_REACTORS
330
1000252
102
}
330
1000252
100
AcDbXrecord
280
     1
102
RTVSPost2010Prop28
280
     0
102
RTVSPost2010PropOp28
 70
     1
102
RTVSPost2010Prop29
280
     1
102
RTVSPost2010PropOp29
 70
     1
102
RTVSPost2010Prop30
280
     1
102
RTVSPost2010PropOp30
 70
     1
102
RTVSPost2010Prop31
280
     0
102
RTVSPost2010PropOp31
 70
     1
102
RTVSPost2010Prop32
280
     0
102
RTVSPost2010PropOp32
 70
     1
102
RTVSPost2010Prop33
280
     0
102
RTVSPost2010PropOp33
 70
     1
102
RTVSPost2010Prop34
280
     0
102
RTVSPost2010PropOp34
 70
     1
102
RTVSPost2010Prop35
280
     0
102
RTVSPost2010PropOp35
 70
     1
102
RTVSPost2010Prop36
280
     0
102
RTVSPost2010PropOp36
 70
     1
102
RTVSPost2010Prop37
 90
       50
102
RTVSPost2010PropOp37
 70
     1
102
RTVSPost2010Prop38
140
0.0
102
RTVSPost2010PropOp38
 70
     1
102
RTVSPost2010Prop39
140
1.0
102
RTVSPost2010PropOp39
 70
     1
102
RTVSPost2010Prop40
 90
        0
102
RTVSPost2010PropOp40
 70
     1
102
RTVSPost2010Prop41ColorIndex
 90
       18
102
RTVSPost2010Prop41ColorRGB
 90
        0
102
RTVSPost2010PropOp41
 70
     1
102
RTVSPost2010Prop42
 90
       50
102
RTVSPost2010PropOp42
 70
     1
102
RTVSPost2010Prop43
 90
        3
102
RTVSPost2010PropOp43
 70
     1
102
RTVSPost2010Prop44ColorIndex
 90
        5
102
RTVSPost2010Prop44ColorRGB
 90
      255
102
RTVSPost2010PropOp44
 70
     1
102
RTVSPost2010Prop45
280
     0
102
RTVSPost2010PropOp45
 70
     1
102
RTVSPost2010Prop46
 90
       50
102
RTVSPost2010PropOp46
 70
     1
102
RTVSPost2010Prop47
 90
       50
102
RTVSPost2010PropOp47
 70
     1
102
RTVSPost2010Prop48
 90
       50
102
RTVSPost2010PropOp48
 70
     1
102
RTVSPost2010Prop49
280
     0
102
RTVSPost2010PropOp49
 70
     1
102
RTVSPost2010Prop50
 90
       50
102
RTVSPost2010PropOp50
 70
     1
102
RTVSPost2010Prop51ColorIndex
 90
      256
102
RTVSPost2010Prop51ColorRGB
 90
-16777216
102
RTVSPost2010PropOp51
 70
     0
102
RTVSPost2010Prop52
140
1.0
102
RTVSPost2010PropOp52
 70
     0
102
RTVSPost2010Prop53
 90
        2
102
RTVSPost2010PropOp53
 70
     1
102
RTVSPost2010Prop54
  1
strokes_ogs.tif
102
RTVSPost2010PropOp54
 70
     1
102
RTVSPost2010Prop55
280
     0
102
RTVSPost2010PropOp55
 70
     1
102
RTVSPost2010Prop56
140
1.0
102
RTVSPost2010PropOp56
 70
     1
102
RTVSPost2010Prop57
140
1.0
102
RTVSPost2010PropOp57
 70
     1
102
RTVSPropertyOp0
 70
     1
102
RTVSPropertyOp1
 70
     1
102
RTVSPropertyOp2
 70
     1
102
RTVSPropertyOp3
 70
     1
102
RTVSPropertyOp4
 70
     1
102
RTVSPropertyOp5
 70
     1
102
RTVSPropertyOp6
 70
     1
102
RTVSPropertyOp7
 70
     1
102
RTVSPropertyOp8
 70
     1
102
RTVSPropertyOp9
 70
     1
102
RTVSPropertyOp10
 70
     1
102
RTVSPropertyOp11
 70
     1
102
RTVSPropertyOp12
 70
     1
102
RTVSPropertyOp13
 70
     1
102
RTVSPropertyOp14
 70
     1
102
RTVSPropertyOp15
 70
     1
102
RTVSPropertyOp16
 70
     1
102
RTVSPropertyOp17
 70
     1
102
RTVSPropertyOp18
 70
     1
102
RTVSPropertyOp19
 70
     1
102
RTVSPropertyOp20
 70
     1
102
RTVSPropertyOp21
 70
     1
102
RTVSPropertyOp22
 70
     1
102
RTVSPropertyOp23
 70
     1
102
RTVSPropertyOp24
 70
     1
102
RTVSPropertyOp25
 70
     1
102
RTVSPropertyOp26
 70
     1
102
RTVSPropertyOp27
 70
     1
102
RTVSPropertyOp28
 70
     1
102
RTVSPropertyOp29
 70
     1
102
RTVSPropertyOp30
 70
     1
102
RTVSPropertyOp31
 70
     1
102
RTVSPropertyOp32
 70
     1
102
RTVSPropertyOp33
 70
     1
102
RTVSPropertyOp34
 70
     1
102
RTVSPropertyOp35
 70
     1
102
RTVSPropertyOp36
 70
     1
102
RTVSPropertyOp37
 70
     1
102
RTVSPropertyOp38
 70
     1
102
RTVSPropertyOp39
 70
     1
102
RTVSPropertyOp40
 70
     1
102
RTVSPropertyOp41
 70
     1
102
RTVSPropertyOp42
 70
     1
102
RTVSPropertyOp43
 70
     1
102
RTVSPropertyOp44
 70
     1
102
RTVSPropertyOp45
 70
     1
102
RTVSPropertyOp46
 70
     1
102
RTVSPropertyOp47
 70
     1
102
RTVSPropertyOp48
 70
     1
102
RTVSPropertyOp49
 70
     1
102
RTVSPropertyOp50
 70
     1
102
RTVSPropertyOp51
 70
     0
102
RTVSPropertyOp52
 70
     0
102
RTVSPropertyOp53
 70
     1
102
RTVSPropertyOp54
 70
     1
102
RTVSPropertyOp55
 70
     1
102
RTVSPropertyOp56
 70
     1
102
RTVSPropertyOp57
 70
     1
102
RTVSPropertyOp58
 70
     1
102
RTVSPropertyOp59
 70
     1
102
RTVSPropertyOp60
 70
     1
102
RTVSPropertyOp61
 70
     1
102
RTVSPropertyOp62
 70
     1
  0
XRECORD
  5
100026F
102
{ACAD_REACTORS
330
100026E
102
}
330
100026E
100
AcDbXrecord
280
     1
102
RTVSPost2010Prop28
280
     0
102
RTVSPost2010PropOp28
 70
     1
102
RTVSPost2010Prop29
280
     1
102
RTVSPost2010PropOp29
 70
     1
102
RTVSPost2010Prop30
280
     1
102
RTVSPost2010PropOp30
 70
     1
102
RTVSPost2010Prop31
280
     0
102
RTVSPost2010PropOp31
 70
     1
102
RTVSPost2010Prop32
280
     0
102
RTVSPost2010PropOp32
 70
     1
102
RTVSPost2010Prop33
280
     0
102
RTVSPost2010PropOp33
 70
     1
102
RTVSPost2010Prop34
280
     0
102
RTVSPost2010PropOp34
 70
     1
102
RTVSPost2010Prop35
280
     0
102
RTVSPost2010PropOp35
 70
     1
102
RTVSPost2010Prop36
280
     0
102
RTVSPost2010PropOp36
 70
     1
102
RTVSPost2010Prop37
 90
       50
102
RTVSPost2010PropOp37
 70
     0
102
RTVSPost2010Prop38
140
0.0
102
RTVSPost2010PropOp38
 70
     0
102
RTVSPost2010Prop39
140
1.0
102
RTVSPost2010PropOp39
 70
     0
102
RTVSPost2010Prop40
 90
        0
102
RTVSPost2010PropOp40
 70
     0
102
RTVSPost2010Prop41ColorIndex
 90
       18
102
RTVSPost2010Prop41ColorRGB
 90
        0
102
RTVSPost2010PropOp41
 70
     0
102
RTVSPost2010Prop42
 90
       50
102
RTVSPost2010PropOp42
 70
     0
102
RTVSPost2010Prop43
 90
        3
102
RTVSPost2010PropOp43
 70
     0
102
RTVSPost2010Prop44ColorIndex
 90
        5
102
RTVSPost2010Prop44ColorRGB
 90
      255
102
RTVSPost2010PropOp44
 70
     0
102
RTVSPost2010Prop45
280
     0
102
RTVSPost2010PropOp45
 70
     1
102
RTVSPost2010Prop46
 90
       50
102
RTVSPost2010PropOp46
 70
     0
102
RTVSPost2010Prop47
 90
       50
102
RTVSPost2010PropOp47
 70
     0
102
RTVSPost2010Prop48
 90
       50
102
RTVSPost2010PropOp48
 70
     0
102
RTVSPost2010Prop49
280
     0
102
RTVSPost2010PropOp49
 70
     1
102
RTVSPost2010Prop50
 90
       50
102
RTVSPost2010PropOp50
 70
     0
102
RTVSPost2010Prop51ColorIndex
 90
      256
102
RTVSPost2010Prop51ColorRGB
 90
-16777216
102
RTVSPost2010PropOp51
 70
     0
102
RTVSPost2010Prop52
140
1.0
102
RTVSPost2010PropOp52
 70
     0
102
RTVSPost2010Prop53
 90
        2
102
RTVSPost2010PropOp53
 70
     0
102
RTVSPost2010Prop54
  1
strokes_ogs.tif
102
RTVSPost2010PropOp54
 70
     0
102
RTVSPost2010Prop55
280
     0
102
RTVSPost2010PropOp55
 70
     1
102
RTVSPost2010Prop56
140
1.0
102
RTVSPost2010PropOp56
 70
     0
102
RTVSPost2010Prop57
140
1.0
102
RTVSPost2010PropOp57
 70
     0
102
RTVSPropertyOp0
 70
     0
102
RTVSPropertyOp1
 70
     0
102
RTVSPropertyOp2
 70
     0
102
RTVSPropertyOp3
 70
     0
102
RTVSPropertyOp4
 70
     0
102
RTVSPropertyOp5
 70
     0
102
RTVSPropertyOp6
 70
     0
102
RTVSPropertyOp7
 70
     0
102
RTVSPropertyOp8
 70
     0
102
RTVSPropertyOp9
 70
     0
102
RTVSPropertyOp10
 70
     0
102
RTVSPropertyOp11
 70
     0
102
RTVSPropertyOp12
 70
     0
102
RTVSPropertyOp13
 70
     0
102
RTVSPropertyOp14
 70
     2
102
RTVSPropertyOp15
 70
     0
102
RTVSPropertyOp16
 70
     0
102
RTVSPropertyOp17
 70
     0
102
RTVSPropertyOp18
 70
     0
102
RTVSPropertyOp19
 70
     0
102
RTVSPropertyOp20
 70
     0
102
RTVSPropertyOp21
 70
     0
102
RTVSPropertyOp22
 70
     0
102
RTVSPropertyOp23
 70
     0
102
RTVSPropertyOp24
 70
     0
102
RTVSPropertyOp25
 70
     0
102
RTVSPropertyOp26
 70
     0
102
RTVSPropertyOp27
 70
     0
102
RTVSPropertyOp28
 70
     1
102
RTVSPropertyOp29
 70
     1
102
RTVSPropertyOp30
 70
     1
102
RTVSPropertyOp31
 70
     1
102
RTVSPropertyOp32
 70
     1
102
RTVSPropertyOp33
 70
     1
102
RTVSPropertyOp34
 70
     1
102
RTVSPropertyOp35
 70
     1
102
RTVSPropertyOp36
 70
     1
102
RTVSPropertyOp37
 70
     0
102
RTVSPropertyOp38
 70
     0
102
RTVSPropertyOp39
 70
     0
102
RTVSPropertyOp40
 70
     0
102
RTVSPropertyOp41
 70
     0
102
RTVSPropertyOp42
 70
     0
102
RTVSPropertyOp43
 70
     0
102
RTVSPropertyOp44
 70
     0
102
RTVSPropertyOp45
 70
     1
102
RTVSPropertyOp46
 70
     0
102
RTVSPropertyOp47
 70
     0
102
RTVSPropertyOp48
 70
     0
102
RTVSPropertyOp49
 70
     1
102
RTVSPropertyOp50
 70
     0
102
RTVSPropertyOp51
 70
     0
102
RTVSPropertyOp52
 70
     0
102
RTVSPropertyOp53
 70
     0
102
RTVSPropertyOp54
 70
     0
102
RTVSPropertyOp55
 70
     1
102
RTVSPropertyOp56
 70
     0
102
RTVSPropertyOp57
 70
     0
102
RTVSPropertyOp58
 70
     0
102
RTVSPropertyOp59
 70
     0
102
RTVSPropertyOp60
 70
     0
102
RTVSPropertyOp61
 70
     0
102
RTVSPropertyOp62
 70
     0
  0
XRECORD
  5
100025F
102
{ACAD_REACTORS
330
100025E
102
}
330
100025E
100
AcDbXrecord
280
     1
102
RTVSPost2010Prop28
280
     0
102
RTVSPost2010PropOp28
 70
     1
102
RTVSPost2010Prop29
280
     1
102
RTVSPost2010PropOp29
 70
     1
102
RTVSPost2010Prop30
280
     1
102
RTVSPost2010PropOp30
 70
     1
102
RTVSPost2010Prop31
280
     0
102
RTVSPost2010PropOp31
 70
     1
102
RTVSPost2010Prop32
280
     0
102
RTVSPost2010PropOp32
 70
     1
102
RTVSPost2010Prop33
280
     0
102
RTVSPost2010PropOp33
 70
     1
102
RTVSPost2010Prop34
280
     0
102
RTVSPost2010PropOp34
 70
     1
102
RTVSPost2010Prop35
280
     0
102
RTVSPost2010PropOp35
 70
     1
102
RTVSPost2010Prop36
280
     0
102
RTVSPost2010PropOp36
 70
     1
102
RTVSPost2010Prop37
 90
       50
102
RTVSPost2010PropOp37
 70
     1
102
RTVSPost2010Prop38
140
0.0
102
RTVSPost2010PropOp38
 70
     1
102
RTVSPost2010Prop39
140
1.0
102
RTVSPost2010PropOp39
 70
     1
102
RTVSPost2010Prop40
 90
        0
102
RTVSPost2010PropOp40
 70
     1
102
RTVSPost2010Prop41ColorIndex
 90
       18
102
RTVSPost2010Prop41ColorRGB
 90
        0
102
RTVSPost2010PropOp41
 70
     1
102
RTVSPost2010Prop42
 90
       50
102
RTVSPost2010PropOp42
 70
     1
102
RTVSPost2010Prop43
 90
        3
102
RTVSPost2010PropOp43
 70
     1
102
RTVSPost2010Prop44ColorIndex
 90
        5
102
RTVSPost2010Prop44ColorRGB
 90
      255
102
RTVSPost2010PropOp44
 70
     1
102
RTVSPost2010Prop45
280
     0
102
RTVSPost2010PropOp45
 70
     1
102
RTVSPost2010Prop46
 90
       50
102
RTVSPost2010PropOp46
 70
     1
102
RTVSPost2010Prop47
 90
       50
102
RTVSPost2010PropOp47
 70
     1
102
RTVSPost2010Prop48
 90
       50
102
RTVSPost2010PropOp48
 70
     1
102
RTVSPost2010Prop49
280
     0
102
RTVSPost2010PropOp49
 70
     1
102
RTVSPost2010Prop50
 90
       50
102
RTVSPost2010PropOp50
 70
     1
102
RTVSPost2010Prop51ColorIndex
 90
      256
102
RTVSPost2010Prop51ColorRGB
 90
-16777216
102
RTVSPost2010PropOp51
 70
     0
102
RTVSPost2010Prop52
140
1.0
102
RTVSPost2010PropOp52
 70
     0
102
RTVSPost2010Prop53
 90
        2
102
RTVSPost2010PropOp53
 70
     1
102
RTVSPost2010Prop54
  1
strokes_ogs.tif
102
RTVSPost2010PropOp54
 70
     1
102
RTVSPost2010Prop55
280
     0
102
RTVSPost2010PropOp55
 70
     1
102
RTVSPost2010Prop56
140
1.0
102
RTVSPost2010PropOp56
 70
     1
102
RTVSPost2010Prop57
140
1.0
102
RTVSPost2010PropOp57
 70
     1
102
RTVSPropertyOp0
 70
     1
102
RTVSPropertyOp1
 70
     1
102
RTVSPropertyOp2
 70
     1
102
RTVSPropertyOp3
 70
     1
102
RTVSPropertyOp4
 70
     1
102
RTVSPropertyOp5
 70
     1
102
RTVSPropertyOp6
 70
     1
102
RTVSPropertyOp7
 70
     1
102
RTVSPropertyOp8
 70
     1
102
RTVSPropertyOp9
 70
     1
102
RTVSPropertyOp10
 70
     1
102
RTVSPropertyOp11
 70
     1
102
RTVSPropertyOp12
 70
     1
102
RTVSPropertyOp13
 70
     1
102
RTVSPropertyOp14
 70
     1
102
RTVSPropertyOp15
 70
     1
102
RTVSPropertyOp16
 70
     1
102
RTVSPropertyOp17
 70
     1
102
RTVSPropertyOp18
 70
     1
102
RTVSPropertyOp19
 70
     1
102
RTVSPropertyOp20
 70
     1
102
RTVSPropertyOp21
 70
     1
102
RTVSPropertyOp22
 70
     1
102
RTVSPropertyOp23
 70
     1
102
RTVSPropertyOp24
 70
     1
102
RTVSPropertyOp25
 70
     1
102
RTVSPropertyOp26
 70
     1
102
RTVSPropertyOp27
 70
     1
102
RTVSPropertyOp28
 70
     1
102
RTVSPropertyOp29
 70
     1
102
RTVSPropertyOp30
 70
     1
102
RTVSPropertyOp31
 70
     1
102
RTVSPropertyOp32
 70
     1
102
RTVSPropertyOp33
 70
     1
102
RTVSPropertyOp34
 70
     1
102
RTVSPropertyOp35
 70
     1
102
RTVSPropertyOp36
 70
     1
102
RTVSPropertyOp37
 70
     1
102
RTVSPropertyOp38
 70
     1
102
RTVSPropertyOp39
 70
     1
102
RTVSPropertyOp40
 70
     1
102
RTVSPropertyOp41
 70
     1
102
RTVSPropertyOp42
 70
     1
102
RTVSPropertyOp43
 70
     1
102
RTVSPropertyOp44
 70
     1
102
RTVSPropertyOp45
 70
     1
102
RTVSPropertyOp46
 70
     1
102
RTVSPropertyOp47
 70
     1
102
RTVSPropertyOp48
 70
     1
102
RTVSPropertyOp49
 70
     1
102
RTVSPropertyOp50
 70
     1
102
RTVSPropertyOp51
 70
     0
102
RTVSPropertyOp52
 70
     0
102
RTVSPropertyOp53
 70
     1
102
RTVSPropertyOp54
 70
     1
102
RTVSPropertyOp55
 70
     1
102
RTVSPropertyOp56
 70
     1
102
RTVSPropertyOp57
 70
     1
102
RTVSPropertyOp58
 70
     1
102
RTVSPropertyOp59
 70
     1
102
RTVSPropertyOp60
 70
     1
102
RTVSPropertyOp61
 70
     1
102
RTVSPropertyOp62
 70
     1
  0
XRECORD
  5
1000271
102
{ACAD_REACTORS
330
1000270
102
}
330
1000270
100
AcDbXrecord
280
     1
102
RTVSPost2010Prop28
280
     0
102
RTVSPost2010PropOp28
 70
     1
102
RTVSPost2010Prop29
280
     1
102
RTVSPost2010PropOp29
 70
     1
102
RTVSPost2010Prop30
280
     1
102
RTVSPost2010PropOp30
 70
     1
102
RTVSPost2010Prop31
280
     0
102
RTVSPost2010PropOp31
 70
     1
102
RTVSPost2010Prop32
280
     0
102
RTVSPost2010PropOp32
 70
     1
102
RTVSPost2010Prop33
280
     0
102
RTVSPost2010PropOp33
 70
     1
102
RTVSPost2010Prop34
280
     0
102
RTVSPost2010PropOp34
 70
     1
102
RTVSPost2010Prop35
280
     0
102
RTVSPost2010PropOp35
 70
     1
102
RTVSPost2010Prop36
280
     0
102
RTVSPost2010PropOp36
 70
     1
102
RTVSPost2010Prop37
 90
       50
102
RTVSPost2010PropOp37
 70
     0
102
RTVSPost2010Prop38
140
0.0
102
RTVSPost2010PropOp38
 70
     0
102
RTVSPost2010Prop39
140
1.0
102
RTVSPost2010PropOp39
 70
     0
102
RTVSPost2010Prop40
 90
        0
102
RTVSPost2010PropOp40
 70
     0
102
RTVSPost2010Prop41ColorIndex
 90
       18
102
RTVSPost2010Prop41ColorRGB
 90
        0
102
RTVSPost2010PropOp41
 70
     0
102
RTVSPost2010Prop42
 90
       50
102
RTVSPost2010PropOp42
 70
     0
102
RTVSPost2010Prop43
 90
        3
102
RTVSPost2010PropOp43
 70
     0
102
RTVSPost2010Prop44ColorIndex
 90
        5
102
RTVSPost2010Prop44ColorRGB
 90
      255
102
RTVSPost2010PropOp44
 70
     0
102
RTVSPost2010Prop45
280
     0
102
RTVSPost2010PropOp45
 70
     1
102
RTVSPost2010Prop46
 90
       50
102
RTVSPost2010PropOp46
 70
     0
102
RTVSPost2010Prop47
 90
       50
102
RTVSPost2010PropOp47
 70
     0
102
RTVSPost2010Prop48
 90
       50
102
RTVSPost2010PropOp48
 70
     0
102
RTVSPost2010Prop49
280
     0
102
RTVSPost2010PropOp49
 70
     1
102
RTVSPost2010Prop50
 90
       50
102
RTVSPost2010PropOp50
 70
     0
102
RTVSPost2010Prop51ColorIndex
 90
      256
102
RTVSPost2010Prop51ColorRGB
 90
-16777216
102
RTVSPost2010PropOp51
 70
     0
102
RTVSPost2010Prop52
140
1.0
102
RTVSPost2010PropOp52
 70
     0
102
RTVSPost2010Prop53
 90
        2
102
RTVSPost2010PropOp53
 70
     0
102
RTVSPost2010Prop54
  1
strokes_ogs.tif
102
RTVSPost2010PropOp54
 70
     0
102
RTVSPost2010Prop55
280
     0
102
RTVSPost2010PropOp55
 70
     1
102
RTVSPost2010Prop56
140
1.0
102
RTVSPost2010PropOp56
 70
     0
102
RTVSPost2010Prop57
140
1.0
102
RTVSPost2010PropOp57
 70
     0
102
RTVSPropertyOp0
 70
     0
102
RTVSPropertyOp1
 70
     0
102
RTVSPropertyOp2
 70
     0
102
RTVSPropertyOp3
 70
     0
102
RTVSPropertyOp4
 70
     0
102
RTVSPropertyOp5
 70
     0
102
RTVSPropertyOp6
 70
     0
102
RTVSPropertyOp7
 70
     0
102
RTVSPropertyOp8
 70
     0
102
RTVSPropertyOp9
 70
     0
102
RTVSPropertyOp10
 70
     0
102
RTVSPropertyOp11
 70
     0
102
RTVSPropertyOp12
 70
     0
102
RTVSPropertyOp13
 70
     0
102
RTVSPropertyOp14
 70
     2
102
RTVSPropertyOp15
 70
     0
102
RTVSPropertyOp16
 70
     0
102
RTVSPropertyOp17
 70
     0
102
RTVSPropertyOp18
 70
     0
102
RTVSPropertyOp19
 70
     0
102
RTVSPropertyOp20
 70
     0
102
RTVSPropertyOp21
 70
     0
102
RTVSPropertyOp22
 70
     0
102
RTVSPropertyOp23
 70
     0
102
RTVSPropertyOp24
 70
     0
102
RTVSPropertyOp25
 70
     0
102
RTVSPropertyOp26
 70
     0
102
RTVSPropertyOp27
 70
     0
102
RTVSPropertyOp28
 70
     1
102
RTVSPropertyOp29
 70
     1
102
RTVSPropertyOp30
 70
     1
102
RTVSPropertyOp31
 70
     1
102
RTVSPropertyOp32
 70
     1
102
RTVSPropertyOp33
 70
     1
102
RTVSPropertyOp34
 70
     1
102
RTVSPropertyOp35
 70
     1
102
RTVSPropertyOp36
 70
     1
102
RTVSPropertyOp37
 70
     0
102
RTVSPropertyOp38
 70
     0
102
RTVSPropertyOp39
 70
     0
102
RTVSPropertyOp40
 70
     0
102
RTVSPropertyOp41
 70
     0
102
RTVSPropertyOp42
 70
     0
102
RTVSPropertyOp43
 70
     0
102
RTVSPropertyOp44
 70
     0
102
RTVSPropertyOp45
 70
     1
102
RTVSPropertyOp46
 70
     0
102
RTVSPropertyOp47
 70
     0
102
RTVSPropertyOp48
 70
     0
102
RTVSPropertyOp49
 70
     1
102
RTVSPropertyOp50
 70
     0
102
RTVSPropertyOp51
 70
     0
102
RTVSPropertyOp52
 70
     0
102
RTVSPropertyOp53
 70
     0
102
RTVSPropertyOp54
 70
     0
102
RTVSPropertyOp55
 70
     1
102
RTVSPropertyOp56
 70
     0
102
RTVSPropertyOp57
 70
     0
102
RTVSPropertyOp58
 70
     0
102
RTVSPropertyOp59
 70
     0
102
RTVSPropertyOp60
 70
     0
102
RTVSPropertyOp61
 70
     0
102
RTVSPropertyOp62
 70
     0
  0
XRECORD
  5
1000257
102
{ACAD_REACTORS
330
1000256
102
}
330
1000256
100
AcDbXrecord
280
     1
102
RTVSPost2010Prop28
280
     0
102
RTVSPost2010PropOp28
 70
     1
102
RTVSPost2010Prop29
280
     1
102
RTVSPost2010PropOp29
 70
     1
102
RTVSPost2010Prop30
280
     1
102
RTVSPost2010PropOp30
 70
     1
102
RTVSPost2010Prop31
280
     0
102
RTVSPost2010PropOp31
 70
     1
102
RTVSPost2010Prop32
280
     0
102
RTVSPost2010PropOp32
 70
     1
102
RTVSPost2010Prop33
280
     0
102
RTVSPost2010PropOp33
 70
     1
102
RTVSPost2010Prop34
280
     0
102
RTVSPost2010PropOp34
 70
     1
102
RTVSPost2010Prop35
280
     0
102
RTVSPost2010PropOp35
 70
     1
102
RTVSPost2010Prop36
280
     0
102
RTVSPost2010PropOp36
 70
     1
102
RTVSPost2010Prop37
 90
       50
102
RTVSPost2010PropOp37
 70
     1
102
RTVSPost2010Prop38
140
0.0
102
RTVSPost2010PropOp38
 70
     1
102
RTVSPost2010Prop39
140
1.0
102
RTVSPost2010PropOp39
 70
     1
102
RTVSPost2010Prop40
 90
        0
102
RTVSPost2010PropOp40
 70
     1
102
RTVSPost2010Prop41ColorIndex
 90
       18
102
RTVSPost2010Prop41ColorRGB
 90
        0
102
RTVSPost2010PropOp41
 70
     1
102
RTVSPost2010Prop42
 90
       50
102
RTVSPost2010PropOp42
 70
     1
102
RTVSPost2010Prop43
 90
        3
102
RTVSPost2010PropOp43
 70
     1
102
RTVSPost2010Prop44ColorIndex
 90
        5
102
RTVSPost2010Prop44ColorRGB
 90
      255
102
RTVSPost2010PropOp44
 70
     1
102
RTVSPost2010Prop45
280
     0
102
RTVSPost2010PropOp45
 70
     1
102
RTVSPost2010Prop46
 90
       50
102
RTVSPost2010PropOp46
 70
     1
102
RTVSPost2010Prop47
 90
       50
102
RTVSPost2010PropOp47
 70
     1
102
RTVSPost2010Prop48
 90
       50
102
RTVSPost2010PropOp48
 70
     1
102
RTVSPost2010Prop49
280
     0
102
RTVSPost2010PropOp49
 70
     1
102
RTVSPost2010Prop50
 90
       50
102
RTVSPost2010PropOp50
 70
     1
102
RTVSPost2010Prop51ColorIndex
 90
      256
102
RTVSPost2010Prop51ColorRGB
 90
-16777216
102
RTVSPost2010PropOp51
 70
     0
102
RTVSPost2010Prop52
140
1.0
102
RTVSPost2010PropOp52
 70
     0
102
RTVSPost2010Prop53
 90
        2
102
RTVSPost2010PropOp53
 70
     1
102
RTVSPost2010Prop54
  1
strokes_ogs.tif
102
RTVSPost2010PropOp54
 70
     1
102
RTVSPost2010Prop55
280
     0
102
RTVSPost2010PropOp55
 70
     1
102
RTVSPost2010Prop56
140
1.0
102
RTVSPost2010PropOp56
 70
     1
102
RTVSPost2010Prop57
140
1.0
102
RTVSPost2010PropOp57
 70
     1
102
RTVSPropertyOp0
 70
     1
102
RTVSPropertyOp1
 70
     1
102
RTVSPropertyOp2
 70
     1
102
RTVSPropertyOp3
 70
     1
102
RTVSPropertyOp4
 70
     1
102
RTVSPropertyOp5
 70
     1
102
RTVSPropertyOp6
 70
     1
102
RTVSPropertyOp7
 70
     1
102
RTVSPropertyOp8
 70
     1
102
RTVSPropertyOp9
 70
     1
102
RTVSPropertyOp10
 70
     1
102
RTVSPropertyOp11
 70
     1
102
RTVSPropertyOp12
 70
     1
102
RTVSPropertyOp13
 70
     1
102
RTVSPropertyOp14
 70
     1
102
RTVSPropertyOp15
 70
     1
102
RTVSPropertyOp16
 70
     1
102
RTVSPropertyOp17
 70
     1
102
RTVSPropertyOp18
 70
     1
102
RTVSPropertyOp19
 70
     1
102
RTVSPropertyOp20
 70
     1
102
RTVSPropertyOp21
 70
     1
102
RTVSPropertyOp22
 70
     1
102
RTVSPropertyOp23
 70
     1
102
RTVSPropertyOp24
 70
     1
102
RTVSPropertyOp25
 70
     1
102
RTVSPropertyOp26
 70
     1
102
RTVSPropertyOp27
 70
     1
102
RTVSPropertyOp28
 70
     1
102
RTVSPropertyOp29
 70
     1
102
RTVSPropertyOp30
 70
     1
102
RTVSPropertyOp31
 70
     1
102
RTVSPropertyOp32
 70
     1
102
RTVSPropertyOp33
 70
     1
102
RTVSPropertyOp34
 70
     1
102
RTVSPropertyOp35
 70
     1
102
RTVSPropertyOp36
 70
     1
102
RTVSPropertyOp37
 70
     1
102
RTVSPropertyOp38
 70
     1
102
RTVSPropertyOp39
 70
     1
102
RTVSPropertyOp40
 70
     1
102
RTVSPropertyOp41
 70
     1
102
RTVSPropertyOp42
 70
     1
102
RTVSPropertyOp43
 70
     1
102
RTVSPropertyOp44
 70
     1
102
RTVSPropertyOp45
 70
     1
102
RTVSPropertyOp46
 70
     1
102
RTVSPropertyOp47
 70
     1
102
RTVSPropertyOp48
 70
     1
102
RTVSPropertyOp49
 70
     1
102
RTVSPropertyOp50
 70
     1
102
RTVSPropertyOp51
 70
     0
102
RTVSPropertyOp52
 70
     0
102
RTVSPropertyOp53
 70
     1
102
RTVSPropertyOp54
 70
     1
102
RTVSPropertyOp55
 70
     1
102
RTVSPropertyOp56
 70
     1
102
RTVSPropertyOp57
 70
     1
102
RTVSPropertyOp58
 70
     1
102
RTVSPropertyOp59
 70
     1
102
RTVSPropertyOp60
 70
     1
102
RTVSPropertyOp61
 70
     1
102
RTVSPropertyOp62
 70
     1
  0
XRECORD
  5
100026D
102
{ACAD_REACTORS
330
100026C
102
}
330
100026C
100
AcDbXrecord
280
     1
102
RTVSPost2010Prop28
280
     0
102
RTVSPost2010PropOp28
 70
     1
102
RTVSPost2010Prop29
280
     1
102
RTVSPost2010PropOp29
 70
     1
102
RTVSPost2010Prop30
280
     1
102
RTVSPost2010PropOp30
 70
     1
102
RTVSPost2010Prop31
280
     0
102
RTVSPost2010PropOp31
 70
     1
102
RTVSPost2010Prop32
280
     0
102
RTVSPost2010PropOp32
 70
     1
102
RTVSPost2010Prop33
280
     0
102
RTVSPost2010PropOp33
 70
     1
102
RTVSPost2010Prop34
280
     0
102
RTVSPost2010PropOp34
 70
     1
102
RTVSPost2010Prop35
280
     0
102
RTVSPost2010PropOp35
 70
     1
102
RTVSPost2010Prop36
280
     0
102
RTVSPost2010PropOp36
 70
     1
102
RTVSPost2010Prop37
 90
       50
102
RTVSPost2010PropOp37
 70
     1
102
RTVSPost2010Prop38
140
0.0
102
RTVSPost2010PropOp38
 70
     1
102
RTVSPost2010Prop39
140
1.0
102
RTVSPost2010PropOp39
 70
     1
102
RTVSPost2010Prop40
 90
        0
102
RTVSPost2010PropOp40
 70
     1
102
RTVSPost2010Prop41ColorIndex
 90
       18
102
RTVSPost2010Prop41ColorRGB
 90
        0
102
RTVSPost2010PropOp41
 70
     1
102
RTVSPost2010Prop42
 90
       50
102
RTVSPost2010PropOp42
 70
     1
102
RTVSPost2010Prop43
 90
        3
102
RTVSPost2010PropOp43
 70
     1
102
RTVSPost2010Prop44ColorIndex
 90
        5
102
RTVSPost2010Prop44ColorRGB
 90
      255
102
RTVSPost2010PropOp44
 70
     1
102
RTVSPost2010Prop45
280
     0
102
RTVSPost2010PropOp45
 70
     1
102
RTVSPost2010Prop46
 90
       50
102
RTVSPost2010PropOp46
 70
     1
102
RTVSPost2010Prop47
 90
       50
102
RTVSPost2010PropOp47
 70
     1
102
RTVSPost2010Prop48
 90
       50
102
RTVSPost2010PropOp48
 70
     1
102
RTVSPost2010Prop49
280
     0
102
RTVSPost2010PropOp49
 70
     1
102
RTVSPost2010Prop50
 90
       50
102
RTVSPost2010PropOp50
 70
     1
102
RTVSPost2010Prop51ColorIndex
 90
      256
102
RTVSPost2010Prop51ColorRGB
 90
-16777216
102
RTVSPost2010PropOp51
 70
     0
102
RTVSPost2010Prop52
140
1.0
102
RTVSPost2010PropOp52
 70
     0
102
RTVSPost2010Prop53
 90
        2
102
RTVSPost2010PropOp53
 70
     1
102
RTVSPost2010Prop54
  1
strokes_ogs.tif
102
RTVSPost2010PropOp54
 70
     1
102
RTVSPost2010Prop55
280
     0
102
RTVSPost2010PropOp55
 70
     1
102
RTVSPost2010Prop56
140
1.0
102
RTVSPost2010PropOp56
 70
     1
102
RTVSPost2010Prop57
140
1.0
102
RTVSPost2010PropOp57
 70
     1
102
RTVSPropertyOp0
 70
     1
102
RTVSPropertyOp1
 70
     1
102
RTVSPropertyOp2
 70
     1
102
RTVSPropertyOp3
 70
     1
102
RTVSPropertyOp4
 70
     1
102
RTVSPropertyOp5
 70
     1
102
RTVSPropertyOp6
 70
     1
102
RTVSPropertyOp7
 70
     1
102
RTVSPropertyOp8
 70
     1
102
RTVSPropertyOp9
 70
     1
102
RTVSPropertyOp10
 70
     1
102
RTVSPropertyOp11
 70
     1
102
RTVSPropertyOp12
 70
     1
102
RTVSPropertyOp13
 70
     1
102
RTVSPropertyOp14
 70
     1
102
RTVSPropertyOp15
 70
     1
102
RTVSPropertyOp16
 70
     1
102
RTVSPropertyOp17
 70
     1
102
RTVSPropertyOp18
 70
     1
102
RTVSPropertyOp19
 70
     1
102
RTVSPropertyOp20
 70
     1
102
RTVSPropertyOp21
 70
     1
102
RTVSPropertyOp22
 70
     1
102
RTVSPropertyOp23
 70
     1
102
RTVSPropertyOp24
 70
     1
102
RTVSPropertyOp25
 70
     1
102
RTVSPropertyOp26
 70
     1
102
RTVSPropertyOp27
 70
     1
102
RTVSPropertyOp28
 70
     1
102
RTVSPropertyOp29
 70
     1
102
RTVSPropertyOp30
 70
     1
102
RTVSPropertyOp31
 70
     1
102
RTVSPropertyOp32
 70
     1
102
RTVSPropertyOp33
 70
     1
102
RTVSPropertyOp34
 70
     1
102
RTVSPropertyOp35
 70
     1
102
RTVSPropertyOp36
 70
     1
102
RTVSPropertyOp37
 70
     1
102
RTVSPropertyOp38
 70
     1
102
RTVSPropertyOp39
 70
     1
102
RTVSPropertyOp40
 70
     1
102
RTVSPropertyOp41
 70
     1
102
RTVSPropertyOp42
 70
     1
102
RTVSPropertyOp43
 70
     1
102
RTVSPropertyOp44
 70
     1
102
RTVSPropertyOp45
 70
     1
102
RTVSPropertyOp46
 70
     1
102
RTVSPropertyOp47
 70
     1
102
RTVSPropertyOp48
 70
     1
102
RTVSPropertyOp49
 70
     1
102
RTVSPropertyOp50
 70
     1
102
RTVSPropertyOp51
 70
     0
102
RTVSPropertyOp52
 70
     0
102
RTVSPropertyOp53
 70
     1
102
RTVSPropertyOp54
 70
     1
102
RTVSPropertyOp55
 70
     1
102
RTVSPropertyOp56
 70
     1
102
RTVSPropertyOp57
 70
     1
102
RTVSPropertyOp58
 70
     1
102
RTVSPropertyOp59
 70
     1
102
RTVSPropertyOp60
 70
     1
102
RTVSPropertyOp61
 70
     1
102
RTVSPropertyOp62
 70
     1
  0
XRECORD
  5
100026B
102
{ACAD_REACTORS
330
100026A
102
}
330
100026A
100
AcDbXrecord
280
     1
102
RTVSPost2010Prop28
280
     0
102
RTVSPost2010PropOp28
 70
     1
102
RTVSPost2010Prop29
280
     1
102
RTVSPost2010PropOp29
 70
     1
102
RTVSPost2010Prop30
280
     1
102
RTVSPost2010PropOp30
 70
     1
102
RTVSPost2010Prop31
280
     0
102
RTVSPost2010PropOp31
 70
     1
102
RTVSPost2010Prop32
280
     0
102
RTVSPost2010PropOp32
 70
     1
102
RTVSPost2010Prop33
280
     0
102
RTVSPost2010PropOp33
 70
     1
102
RTVSPost2010Prop34
280
     0
102
RTVSPost2010PropOp34
 70
     1
102
RTVSPost2010Prop35
280
     0
102
RTVSPost2010PropOp35
 70
     1
102
RTVSPost2010Prop36
280
     0
102
RTVSPost2010PropOp36
 70
     1
102
RTVSPost2010Prop37
 90
       50
102
RTVSPost2010PropOp37
 70
     1
102
RTVSPost2010Prop38
140
0.0
102
RTVSPost2010PropOp38
 70
     1
102
RTVSPost2010Prop39
140
1.0
102
RTVSPost2010PropOp39
 70
     1
102
RTVSPost2010Prop40
 90
        0
102
RTVSPost2010PropOp40
 70
     1
102
RTVSPost2010Prop41ColorIndex
 90
       18
102
RTVSPost2010Prop41ColorRGB
 90
        0
102
RTVSPost2010PropOp41
 70
     1
102
RTVSPost2010Prop42
 90
       50
102
RTVSPost2010PropOp42
 70
     1
102
RTVSPost2010Prop43
 90
        3
102
RTVSPost2010PropOp43
 70
     1
102
RTVSPost2010Prop44ColorIndex
 90
        5
102
RTVSPost2010Prop44ColorRGB
 90
      255
102
RTVSPost2010PropOp44
 70
     1
102
RTVSPost2010Prop45
280
     0
102
RTVSPost2010PropOp45
 70
     1
102
RTVSPost2010Prop46
 90
       50
102
RTVSPost2010PropOp46
 70
     1
102
RTVSPost2010Prop47
 90
       50
102
RTVSPost2010PropOp47
 70
     1
102
RTVSPost2010Prop48
 90
       50
102
RTVSPost2010PropOp48
 70
     1
102
RTVSPost2010Prop49
280
     0
102
RTVSPost2010PropOp49
 70
     1
102
RTVSPost2010Prop50
 90
       50
102
RTVSPost2010PropOp50
 70
     1
102
RTVSPost2010Prop51ColorIndex
 90
      256
102
RTVSPost2010Prop51ColorRGB
 90
-16777216
102
RTVSPost2010PropOp51
 70
     0
102
RTVSPost2010Prop52
140
1.0
102
RTVSPost2010PropOp52
 70
     0
102
RTVSPost2010Prop53
 90
        2
102
RTVSPost2010PropOp53
 70
     1
102
RTVSPost2010Prop54
  1
strokes_ogs.tif
102
RTVSPost2010PropOp54
 70
     1
102
RTVSPost2010Prop55
280
     0
102
RTVSPost2010PropOp55
 70
     1
102
RTVSPost2010Prop56
140
1.0
102
RTVSPost2010PropOp56
 70
     1
102
RTVSPost2010Prop57
140
1.0
102
RTVSPost2010PropOp57
 70
     1
102
RTVSPropertyOp0
 70
     1
102
RTVSPropertyOp1
 70
     1
102
RTVSPropertyOp2
 70
     1
102
RTVSPropertyOp3
 70
     1
102
RTVSPropertyOp4
 70
     1
102
RTVSPropertyOp5
 70
     1
102
RTVSPropertyOp6
 70
     1
102
RTVSPropertyOp7
 70
     1
102
RTVSPropertyOp8
 70
     1
102
RTVSPropertyOp9
 70
     1
102
RTVSPropertyOp10
 70
     1
102
RTVSPropertyOp11
 70
     1
102
RTVSPropertyOp12
 70
     1
102
RTVSPropertyOp13
 70
     1
102
RTVSPropertyOp14
 70
     1
102
RTVSPropertyOp15
 70
     1
102
RTVSPropertyOp16
 70
     1
102
RTVSPropertyOp17
 70
     1
102
RTVSPropertyOp18
 70
     1
102
RTVSPropertyOp19
 70
     1
102
RTVSPropertyOp20
 70
     1
102
RTVSPropertyOp21
 70
     1
102
RTVSPropertyOp22
 70
     1
102
RTVSPropertyOp23
 70
     1
102
RTVSPropertyOp24
 70
     1
102
RTVSPropertyOp25
 70
     1
102
RTVSPropertyOp26
 70
     1
102
RTVSPropertyOp27
 70
     1
102
RTVSPropertyOp28
 70
     1
102
RTVSPropertyOp29
 70
     1
102
RTVSPropertyOp30
 70
     1
102
RTVSPropertyOp31
 70
     1
102
RTVSPropertyOp32
 70
     1
102
RTVSPropertyOp33
 70
     1
102
RTVSPropertyOp34
 70
     1
102
RTVSPropertyOp35
 70
     1
102
RTVSPropertyOp36
 70
     1
102
RTVSPropertyOp37
 70
     1
102
RTVSPropertyOp38
 70
     1
102
RTVSPropertyOp39
 70
     1
102
RTVSPropertyOp40
 70
     1
102
RTVSPropertyOp41
 70
     1
102
RTVSPropertyOp42
 70
     1
102
RTVSPropertyOp43
 70
     1
102
RTVSPropertyOp44
 70
     1
102
RTVSPropertyOp45
 70
     1
102
RTVSPropertyOp46
 70
     1
102
RTVSPropertyOp47
 70
     1
102
RTVSPropertyOp48
 70
     1
102
RTVSPropertyOp49
 70
     1
102
RTVSPropertyOp50
 70
     1
102
RTVSPropertyOp51
 70
     0
102
RTVSPropertyOp52
 70
     0
102
RTVSPropertyOp53
 70
     1
102
RTVSPropertyOp54
 70
     1
102
RTVSPropertyOp55
 70
     1
102
RTVSPropertyOp56
 70
     1
102
RTVSPropertyOp57
 70
     1
102
RTVSPropertyOp58
 70
     1
102
RTVSPropertyOp59
 70
     1
102
RTVSPropertyOp60
 70
     1
102
RTVSPropertyOp61
 70
     1
102
RTVSPropertyOp62
 70
     1
  0
XRECORD
  5
1000265
102
{ACAD_REACTORS
330
1000264
102
}
330
1000264
100
AcDbXrecord
280
     1
102
RTVSPost2010Prop28
280
     0
102
RTVSPost2010PropOp28
 70
     1
102
RTVSPost2010Prop29
280
     1
102
RTVSPost2010PropOp29
 70
     1
102
RTVSPost2010Prop30
280
     1
102
RTVSPost2010PropOp30
 70
     1
102
RTVSPost2010Prop31
280
     0
102
RTVSPost2010PropOp31
 70
     1
102
RTVSPost2010Prop32
280
     0
102
RTVSPost2010PropOp32
 70
     1
102
RTVSPost2010Prop33
280
     0
102
RTVSPost2010PropOp33
 70
     1
102
RTVSPost2010Prop34
280
     0
102
RTVSPost2010PropOp34
 70
     1
102
RTVSPost2010Prop35
280
     0
102
RTVSPost2010PropOp35
 70
     1
102
RTVSPost2010Prop36
280
     0
102
RTVSPost2010PropOp36
 70
     1
102
RTVSPost2010Prop37
 90
       50
102
RTVSPost2010PropOp37
 70
     1
102
RTVSPost2010Prop38
140
0.0
102
RTVSPost2010PropOp38
 70
     1
102
RTVSPost2010Prop39
140
1.0
102
RTVSPost2010PropOp39
 70
     1
102
RTVSPost2010Prop40
 90
        0
102
RTVSPost2010PropOp40
 70
     1
102
RTVSPost2010Prop41ColorIndex
 90
       18
102
RTVSPost2010Prop41ColorRGB
 90
        0
102
RTVSPost2010PropOp41
 70
     1
102
RTVSPost2010Prop42
 90
       50
102
RTVSPost2010PropOp42
 70
     1
102
RTVSPost2010Prop43
 90
        3
102
RTVSPost2010PropOp43
 70
     1
102
RTVSPost2010Prop44ColorIndex
 90
        5
102
RTVSPost2010Prop44ColorRGB
 90
      255
102
RTVSPost2010PropOp44
 70
     1
102
RTVSPost2010Prop45
280
     0
102
RTVSPost2010PropOp45
 70
     1
102
RTVSPost2010Prop46
 90
       50
102
RTVSPost2010PropOp46
 70
     1
102
RTVSPost2010Prop47
 90
       50
102
RTVSPost2010PropOp47
 70
     1
102
RTVSPost2010Prop48
 90
       50
102
RTVSPost2010PropOp48
 70
     1
102
RTVSPost2010Prop49
280
     0
102
RTVSPost2010PropOp49
 70
     1
102
RTVSPost2010Prop50
 90
       50
102
RTVSPost2010PropOp50
 70
     1
102
RTVSPost2010Prop51ColorIndex
 90
      256
102
RTVSPost2010Prop51ColorRGB
 90
-16777216
102
RTVSPost2010PropOp51
 70
     0
102
RTVSPost2010Prop52
140
1.0
102
RTVSPost2010PropOp52
 70
     0
102
RTVSPost2010Prop53
 90
        2
102
RTVSPost2010PropOp53
 70
     1
102
RTVSPost2010Prop54
  1
strokes_ogs.tif
102
RTVSPost2010PropOp54
 70
     1
102
RTVSPost2010Prop55
280
     0
102
RTVSPost2010PropOp55
 70
     1
102
RTVSPost2010Prop56
140
1.0
102
RTVSPost2010PropOp56
 70
     1
102
RTVSPost2010Prop57
140
1.0
102
RTVSPost2010PropOp57
 70
     1
102
RTVSPropertyOp0
 70
     1
102
RTVSPropertyOp1
 70
     1
102
RTVSPropertyOp2
 70
     1
102
RTVSPropertyOp3
 70
     1
102
RTVSPropertyOp4
 70
     1
102
RTVSPropertyOp5
 70
     1
102
RTVSPropertyOp6
 70
     1
102
RTVSPropertyOp7
 70
     1
102
RTVSPropertyOp8
 70
     1
102
RTVSPropertyOp9
 70
     1
102
RTVSPropertyOp10
 70
     1
102
RTVSPropertyOp11
 70
     1
102
RTVSPropertyOp12
 70
     1
102
RTVSPropertyOp13
 70
     1
102
RTVSPropertyOp14
 70
     1
102
RTVSPropertyOp15
 70
     1
102
RTVSPropertyOp16
 70
     1
102
RTVSPropertyOp17
 70
     1
102
RTVSPropertyOp18
 70
     1
102
RTVSPropertyOp19
 70
     1
102
RTVSPropertyOp20
 70
     1
102
RTVSPropertyOp21
 70
     1
102
RTVSPropertyOp22
 70
     1
102
RTVSPropertyOp23
 70
     1
102
RTVSPropertyOp24
 70
     1
102
RTVSPropertyOp25
 70
     1
102
RTVSPropertyOp26
 70
     1
102
RTVSPropertyOp27
 70
     1
102
RTVSPropertyOp28
 70
     1
102
RTVSPropertyOp29
 70
     1
102
RTVSPropertyOp30
 70
     1
102
RTVSPropertyOp31
 70
     1
102
RTVSPropertyOp32
 70
     1
102
RTVSPropertyOp33
 70
     1
102
RTVSPropertyOp34
 70
     1
102
RTVSPropertyOp35
 70
     1
102
RTVSPropertyOp36
 70
     1
102
RTVSPropertyOp37
 70
     1
102
RTVSPropertyOp38
 70
     1
102
RTVSPropertyOp39
 70
     1
102
RTVSPropertyOp40
 70
     1
102
RTVSPropertyOp41
 70
     1
102
RTVSPropertyOp42
 70
     1
102
RTVSPropertyOp43
 70
     1
102
RTVSPropertyOp44
 70
     1
102
RTVSPropertyOp45
 70
     1
102
RTVSPropertyOp46
 70
     1
102
RTVSPropertyOp47
 70
     1
102
RTVSPropertyOp48
 70
     1
102
RTVSPropertyOp49
 70
     1
102
RTVSPropertyOp50
 70
     1
102
RTVSPropertyOp51
 70
     0
102
RTVSPropertyOp52
 70
     0
102
RTVSPropertyOp53
 70
     1
102
RTVSPropertyOp54
 70
     1
102
RTVSPropertyOp55
 70
     1
102
RTVSPropertyOp56
 70
     1
102
RTVSPropertyOp57
 70
     1
102
RTVSPropertyOp58
 70
     1
102
RTVSPropertyOp59
 70
     1
102
RTVSPropertyOp60
 70
     1
102
RTVSPropertyOp61
 70
     1
102
RTVSPropertyOp62
 70
     1
  0
XRECORD
  5
1000267
102
{ACAD_REACTORS
330
1000266
102
}
330
1000266
100
AcDbXrecord
280
     1
102
RTVSPost2010Prop28
280
     0
102
RTVSPost2010PropOp28
 70
     1
102
RTVSPost2010Prop29
280
     1
102
RTVSPost2010PropOp29
 70
     1
102
RTVSPost2010Prop30
280
     1
102
RTVSPost2010PropOp30
 70
     1
102
RTVSPost2010Prop31
280
     0
102
RTVSPost2010PropOp31
 70
     1
102
RTVSPost2010Prop32
280
     0
102
RTVSPost2010PropOp32
 70
     1
102
RTVSPost2010Prop33
280
     0
102
RTVSPost2010PropOp33
 70
     1
102
RTVSPost2010Prop34
280
     0
102
RTVSPost2010PropOp34
 70
     1
102
RTVSPost2010Prop35
280
     0
102
RTVSPost2010PropOp35
 70
     1
102
RTVSPost2010Prop36
280
     0
102
RTVSPost2010PropOp36
 70
     1
102
RTVSPost2010Prop37
 90
       50
102
RTVSPost2010PropOp37
 70
     1
102
RTVSPost2010Prop38
140
0.0
102
RTVSPost2010PropOp38
 70
     1
102
RTVSPost2010Prop39
140
1.0
102
RTVSPost2010PropOp39
 70
     1
102
RTVSPost2010Prop40
 90
        0
102
RTVSPost2010PropOp40
 70
     1
102
RTVSPost2010Prop41ColorIndex
 90
       18
102
RTVSPost2010Prop41ColorRGB
 90
        0
102
RTVSPost2010PropOp41
 70
     1
102
RTVSPost2010Prop42
 90
       50
102
RTVSPost2010PropOp42
 70
     1
102
RTVSPost2010Prop43
 90
        3
102
RTVSPost2010PropOp43
 70
     1
102
RTVSPost2010Prop44ColorIndex
 90
        5
102
RTVSPost2010Prop44ColorRGB
 90
      255
102
RTVSPost2010PropOp44
 70
     1
102
RTVSPost2010Prop45
280
     0
102
RTVSPost2010PropOp45
 70
     1
102
RTVSPost2010Prop46
 90
       50
102
RTVSPost2010PropOp46
 70
     1
102
RTVSPost2010Prop47
 90
       50
102
RTVSPost2010PropOp47
 70
     1
102
RTVSPost2010Prop48
 90
       50
102
RTVSPost2010PropOp48
 70
     1
102
RTVSPost2010Prop49
280
     0
102
RTVSPost2010PropOp49
 70
     1
102
RTVSPost2010Prop50
 90
       50
102
RTVSPost2010PropOp50
 70
     1
102
RTVSPost2010Prop51ColorIndex
 90
      256
102
RTVSPost2010Prop51ColorRGB
 90
-16777216
102
RTVSPost2010PropOp51
 70
     0
102
RTVSPost2010Prop52
140
1.0
102
RTVSPost2010PropOp52
 70
     0
102
RTVSPost2010Prop53
 90
        2
102
RTVSPost2010PropOp53
 70
     1
102
RTVSPost2010Prop54
  1
strokes_ogs.tif
102
RTVSPost2010PropOp54
 70
     1
102
RTVSPost2010Prop55
280
     0
102
RTVSPost2010PropOp55
 70
     1
102
RTVSPost2010Prop56
140
1.0
102
RTVSPost2010PropOp56
 70
     1
102
RTVSPost2010Prop57
140
1.0
102
RTVSPost2010PropOp57
 70
     1
102
RTVSPropertyOp0
 70
     1
102
RTVSPropertyOp1
 70
     1
102
RTVSPropertyOp2
 70
     1
102
RTVSPropertyOp3
 70
     1
102
RTVSPropertyOp4
 70
     1
102
RTVSPropertyOp5
 70
     1
102
RTVSPropertyOp6
 70
     1
102
RTVSPropertyOp7
 70
     1
102
RTVSPropertyOp8
 70
     1
102
RTVSPropertyOp9
 70
     1
102
RTVSPropertyOp10
 70
     1
102
RTVSPropertyOp11
 70
     1
102
RTVSPropertyOp12
 70
     1
102
RTVSPropertyOp13
 70
     1
102
RTVSPropertyOp14
 70
     1
102
RTVSPropertyOp15
 70
     1
102
RTVSPropertyOp16
 70
     1
102
RTVSPropertyOp17
 70
     1
102
RTVSPropertyOp18
 70
     1
102
RTVSPropertyOp19
 70
     1
102
RTVSPropertyOp20
 70
     1
102
RTVSPropertyOp21
 70
     1
102
RTVSPropertyOp22
 70
     1
102
RTVSPropertyOp23
 70
     1
102
RTVSPropertyOp24
 70
     1
102
RTVSPropertyOp25
 70
     1
102
RTVSPropertyOp26
 70
     1
102
RTVSPropertyOp27
 70
     1
102
RTVSPropertyOp28
 70
     1
102
RTVSPropertyOp29
 70
     1
102
RTVSPropertyOp30
 70
     1
102
RTVSPropertyOp31
 70
     1
102
RTVSPropertyOp32
 70
     1
102
RTVSPropertyOp33
 70
     1
102
RTVSPropertyOp34
 70
     1
102
RTVSPropertyOp35
 70
     1
102
RTVSPropertyOp36
 70
     1
102
RTVSPropertyOp37
 70
     1
102
RTVSPropertyOp38
 70
     1
102
RTVSPropertyOp39
 70
     1
102
RTVSPropertyOp40
 70
     1
102
RTVSPropertyOp41
 70
     1
102
RTVSPropertyOp42
 70
     1
102
RTVSPropertyOp43
 70
     1
102
RTVSPropertyOp44
 70
     1
102
RTVSPropertyOp45
 70
     1
102
RTVSPropertyOp46
 70
     1
102
RTVSPropertyOp47
 70
     1
102
RTVSPropertyOp48
 70
     1
102
RTVSPropertyOp49
 70
     1
102
RTVSPropertyOp50
 70
     1
102
RTVSPropertyOp51
 70
     0
102
RTVSPropertyOp52
 70
     0
102
RTVSPropertyOp53
 70
     1
102
RTVSPropertyOp54
 70
     1
102
RTVSPropertyOp55
 70
     1
102
RTVSPropertyOp56
 70
     1
102
RTVSPropertyOp57
 70
     1
102
RTVSPropertyOp58
 70
     1
102
RTVSPropertyOp59
 70
     1
102
RTVSPropertyOp60
 70
     1
102
RTVSPropertyOp61
 70
     1
102
RTVSPropertyOp62
 70
     1
  0
XRECORD
  5
100025D
102
{ACAD_REACTORS
330
100025C
102
}
330
100025C
100
AcDbXrecord
280
     1
102
RTVSPost2010Prop28
280
     0
102
RTVSPost2010PropOp28
 70
     1
102
RTVSPost2010Prop29
280
     1
102
RTVSPost2010PropOp29
 70
     1
102
RTVSPost2010Prop30
280
     1
102
RTVSPost2010PropOp30
 70
     1
102
RTVSPost2010Prop31
280
     0
102
RTVSPost2010PropOp31
 70
     1
102
RTVSPost2010Prop32
280
     0
102
RTVSPost2010PropOp32
 70
     1
102
RTVSPost2010Prop33
280
     0
102
RTVSPost2010PropOp33
 70
     1
102
RTVSPost2010Prop34
280
     0
102
RTVSPost2010PropOp34
 70
     1
102
RTVSPost2010Prop35
280
     0
102
RTVSPost2010PropOp35
 70
     1
102
RTVSPost2010Prop36
280
     0
102
RTVSPost2010PropOp36
 70
     1
102
RTVSPost2010Prop37
 90
       50
102
RTVSPost2010PropOp37
 70
     1
102
RTVSPost2010Prop38
140
0.0
102
RTVSPost2010PropOp38
 70
     1
102
RTVSPost2010Prop39
140
1.0
102
RTVSPost2010PropOp39
 70
     1
102
RTVSPost2010Prop40
 90
        0
102
RTVSPost2010PropOp40
 70
     1
102
RTVSPost2010Prop41ColorIndex
 90
       18
102
RTVSPost2010Prop41ColorRGB
 90
        0
102
RTVSPost2010PropOp41
 70
     1
102
RTVSPost2010Prop42
 90
       50
102
RTVSPost2010PropOp42
 70
     1
102
RTVSPost2010Prop43
 90
        3
102
RTVSPost2010PropOp43
 70
     1
102
RTVSPost2010Prop44ColorIndex
 90
        5
102
RTVSPost2010Prop44ColorRGB
 90
      255
102
RTVSPost2010PropOp44
 70
     1
102
RTVSPost2010Prop45
280
     0
102
RTVSPost2010PropOp45
 70
     1
102
RTVSPost2010Prop46
 90
       50
102
RTVSPost2010PropOp46
 70
     1
102
RTVSPost2010Prop47
 90
       50
102
RTVSPost2010PropOp47
 70
     1
102
RTVSPost2010Prop48
 90
       50
102
RTVSPost2010PropOp48
 70
     1
102
RTVSPost2010Prop49
280
     0
102
RTVSPost2010PropOp49
 70
     1
102
RTVSPost2010Prop50
 90
       50
102
RTVSPost2010PropOp50
 70
     1
102
RTVSPost2010Prop51ColorIndex
 90
      256
102
RTVSPost2010Prop51ColorRGB
 90
-16777216
102
RTVSPost2010PropOp51
 70
     0
102
RTVSPost2010Prop52
140
1.0
102
RTVSPost2010PropOp52
 70
     0
102
RTVSPost2010Prop53
 90
        2
102
RTVSPost2010PropOp53
 70
     1
102
RTVSPost2010Prop54
  1
strokes_ogs.tif
102
RTVSPost2010PropOp54
 70
     1
102
RTVSPost2010Prop55
280
     0
102
RTVSPost2010PropOp55
 70
     1
102
RTVSPost2010Prop56
140
1.0
102
RTVSPost2010PropOp56
 70
     1
102
RTVSPost2010Prop57
140
1.0
102
RTVSPost2010PropOp57
 70
     1
102
RTVSPropertyOp0
 70
     1
102
RTVSPropertyOp1
 70
     1
102
RTVSPropertyOp2
 70
     1
102
RTVSPropertyOp3
 70
     1
102
RTVSPropertyOp4
 70
     1
102
RTVSPropertyOp5
 70
     1
102
RTVSPropertyOp6
 70
     1
102
RTVSPropertyOp7
 70
     1
102
RTVSPropertyOp8
 70
     1
102
RTVSPropertyOp9
 70
     1
102
RTVSPropertyOp10
 70
     1
102
RTVSPropertyOp11
 70
     1
102
RTVSPropertyOp12
 70
     1
102
RTVSPropertyOp13
 70
     1
102
RTVSPropertyOp14
 70
     1
102
RTVSPropertyOp15
 70
     1
102
RTVSPropertyOp16
 70
     1
102
RTVSPropertyOp17
 70
     1
102
RTVSPropertyOp18
 70
     1
102
RTVSPropertyOp19
 70
     1
102
RTVSPropertyOp20
 70
     1
102
RTVSPropertyOp21
 70
     1
102
RTVSPropertyOp22
 70
     1
102
RTVSPropertyOp23
 70
     1
102
RTVSPropertyOp24
 70
     1
102
RTVSPropertyOp25
 70
     1
102
RTVSPropertyOp26
 70
     1
102
RTVSPropertyOp27
 70
     1
102
RTVSPropertyOp28
 70
     1
102
RTVSPropertyOp29
 70
     1
102
RTVSPropertyOp30
 70
     1
102
RTVSPropertyOp31
 70
     1
102
RTVSPropertyOp32
 70
     1
102
RTVSPropertyOp33
 70
     1
102
RTVSPropertyOp34
 70
     1
102
RTVSPropertyOp35
 70
     1
102
RTVSPropertyOp36
 70
     1
102
RTVSPropertyOp37
 70
     1
102
RTVSPropertyOp38
 70
     1
102
RTVSPropertyOp39
 70
     1
102
RTVSPropertyOp40
 70
     1
102
RTVSPropertyOp41
 70
     1
102
RTVSPropertyOp42
 70
     1
102
RTVSPropertyOp43
 70
     1
102
RTVSPropertyOp44
 70
     1
102
RTVSPropertyOp45
 70
     1
102
RTVSPropertyOp46
 70
     1
102
RTVSPropertyOp47
 70
     1
102
RTVSPropertyOp48
 70
     1
102
RTVSPropertyOp49
 70
     1
102
RTVSPropertyOp50
 70
     1
102
RTVSPropertyOp51
 70
     0
102
RTVSPropertyOp52
 70
     0
102
RTVSPropertyOp53
 70
     1
102
RTVSPropertyOp54
 70
     1
102
RTVSPropertyOp55
 70
     1
102
RTVSPropertyOp56
 70
     1
102
RTVSPropertyOp57
 70
     1
102
RTVSPropertyOp58
 70
     1
102
RTVSPropertyOp59
 70
     1
102
RTVSPropertyOp60
 70
     1
102
RTVSPropertyOp61
 70
     1
102
RTVSPropertyOp62
 70
     1
  0
XRECORD
  5
1000251
102
{ACAD_REACTORS
330
1000250
102
}
330
1000250
100
AcDbXrecord
280
     1
102
RTVSPost2010Prop28
280
     0
102
RTVSPost2010PropOp28
 70
     1
102
RTVSPost2010Prop29
280
     1
102
RTVSPost2010PropOp29
 70
     1
102
RTVSPost2010Prop30
280
     1
102
RTVSPost2010PropOp30
 70
     1
102
RTVSPost2010Prop31
280
     0
102
RTVSPost2010PropOp31
 70
     1
102
RTVSPost2010Prop32
280
     0
102
RTVSPost2010PropOp32
 70
     1
102
RTVSPost2010Prop33
280
     0
102
RTVSPost2010PropOp33
 70
     1
102
RTVSPost2010Prop34
280
     0
102
RTVSPost2010PropOp34
 70
     1
102
RTVSPost2010Prop35
280
     0
102
RTVSPost2010PropOp35
 70
     1
102
RTVSPost2010Prop36
280
     0
102
RTVSPost2010PropOp36
 70
     1
102
RTVSPost2010Prop37
 90
       50
102
RTVSPost2010PropOp37
 70
     1
102
RTVSPost2010Prop38
140
0.0
102
RTVSPost2010PropOp38
 70
     1
102
RTVSPost2010Prop39
140
1.0
102
RTVSPost2010PropOp39
 70
     1
102
RTVSPost2010Prop40
 90
        0
102
RTVSPost2010PropOp40
 70
     1
102
RTVSPost2010Prop41ColorIndex
 90
       18
102
RTVSPost2010Prop41ColorRGB
 90
        0
102
RTVSPost2010PropOp41
 70
     1
102
RTVSPost2010Prop42
 90
       50
102
RTVSPost2010PropOp42
 70
     1
102
RTVSPost2010Prop43
 90
        3
102
RTVSPost2010PropOp43
 70
     1
102
RTVSPost2010Prop44ColorIndex
 90
        5
102
RTVSPost2010Prop44ColorRGB
 90
      255
102
RTVSPost2010PropOp44
 70
     1
102
RTVSPost2010Prop45
280
     0
102
RTVSPost2010PropOp45
 70
     1
102
RTVSPost2010Prop46
 90
       50
102
RTVSPost2010PropOp46
 70
     1
102
RTVSPost2010Prop47
 90
       50
102
RTVSPost2010PropOp47
 70
     1
102
RTVSPost2010Prop48
 90
       50
102
RTVSPost2010PropOp48
 70
     1
102
RTVSPost2010Prop49
280
     0
102
RTVSPost2010PropOp49
 70
     1
102
RTVSPost2010Prop50
 90
       50
102
RTVSPost2010PropOp50
 70
     1
102
RTVSPost2010Prop51ColorIndex
 90
      256
102
RTVSPost2010Prop51ColorRGB
 90
-16777216
102
RTVSPost2010PropOp51
 70
     0
102
RTVSPost2010Prop52
140
1.0
102
RTVSPost2010PropOp52
 70
     0
102
RTVSPost2010Prop53
 90
        2
102
RTVSPost2010PropOp53
 70
     1
102
RTVSPost2010Prop54
  1
strokes_ogs.tif
102
RTVSPost2010PropOp54
 70
     1
102
RTVSPost2010Prop55
280
     0
102
RTVSPost2010PropOp55
 70
     1
102
RTVSPost2010Prop56
140
1.0
102
RTVSPost2010PropOp56
 70
     1
102
RTVSPost2010Prop57
140
1.0
102
RTVSPost2010PropOp57
 70
     1
102
RTVSPropertyOp0
 70
     1
102
RTVSPropertyOp1
 70
     1
102
RTVSPropertyOp2
 70
     1
102
RTVSPropertyOp3
 70
     1
102
RTVSPropertyOp4
 70
     1
102
RTVSPropertyOp5
 70
     1
102
RTVSPropertyOp6
 70
     1
102
RTVSPropertyOp7
 70
     1
102
RTVSPropertyOp8
 70
     1
102
RTVSPropertyOp9
 70
     1
102
RTVSPropertyOp10
 70
     1
102
RTVSPropertyOp11
 70
     1
102
RTVSPropertyOp12
 70
     1
102
RTVSPropertyOp13
 70
     1
102
RTVSPropertyOp14
 70
     1
102
RTVSPropertyOp15
 70
     1
102
RTVSPropertyOp16
 70
     1
102
RTVSPropertyOp17
 70
     1
102
RTVSPropertyOp18
 70
     1
102
RTVSPropertyOp19
 70
     1
102
RTVSPropertyOp20
 70
     1
102
RTVSPropertyOp21
 70
     1
102
RTVSPropertyOp22
 70
     1
102
RTVSPropertyOp23
 70
     1
102
RTVSPropertyOp24
 70
     1
102
RTVSPropertyOp25
 70
     1
102
RTVSPropertyOp26
 70
     1
102
RTVSPropertyOp27
 70
     1
102
RTVSPropertyOp28
 70
     1
102
RTVSPropertyOp29
 70
     1
102
RTVSPropertyOp30
 70
     1
102
RTVSPropertyOp31
 70
     1
102
RTVSPropertyOp32
 70
     1
102
RTVSPropertyOp33
 70
     1
102
RTVSPropertyOp34
 70
     1
102
RTVSPropertyOp35
 70
     1
102
RTVSPropertyOp36
 70
     1
102
RTVSPropertyOp37
 70
     1
102
RTVSPropertyOp38
 70
     1
102
RTVSPropertyOp39
 70
     1
102
RTVSPropertyOp40
 70
     1
102
RTVSPropertyOp41
 70
     1
102
RTVSPropertyOp42
 70
     1
102
RTVSPropertyOp43
 70
     1
102
RTVSPropertyOp44
 70
     1
102
RTVSPropertyOp45
 70
     1
102
RTVSPropertyOp46
 70
     1
102
RTVSPropertyOp47
 70
     1
102
RTVSPropertyOp48
 70
     1
102
RTVSPropertyOp49
 70
     1
102
RTVSPropertyOp50
 70
     1
102
RTVSPropertyOp51
 70
     0
102
RTVSPropertyOp52
 70
     0
102
RTVSPropertyOp53
 70
     1
102
RTVSPropertyOp54
 70
     1
102
RTVSPropertyOp55
 70
     1
102
RTVSPropertyOp56
 70
     1
102
RTVSPropertyOp57
 70
     1
102
RTVSPropertyOp58
 70
     1
102
RTVSPropertyOp59
 70
     1
102
RTVSPropertyOp60
 70
     1
102
RTVSPropertyOp61
 70
     1
102
RTVSPropertyOp62
 70
     1
  0
XRECORD
  5
1000269
102
{ACAD_REACTORS
330
1000268
102
}
330
1000268
100
AcDbXrecord
280
     1
102
RTVSPost2010Prop28
280
     0
102
RTVSPost2010PropOp28
 70
     1
102
RTVSPost2010Prop29
280
     1
102
RTVSPost2010PropOp29
 70
     1
102
RTVSPost2010Prop30
280
     1
102
RTVSPost2010PropOp30
 70
     1
102
RTVSPost2010Prop31
280
     0
102
RTVSPost2010PropOp31
 70
     1
102
RTVSPost2010Prop32
280
     0
102
RTVSPost2010PropOp32
 70
     1
102
RTVSPost2010Prop33
280
     0
102
RTVSPost2010PropOp33
 70
     1
102
RTVSPost2010Prop34
280
     0
102
RTVSPost2010PropOp34
 70
     1
102
RTVSPost2010Prop35
280
     0
102
RTVSPost2010PropOp35
 70
     1
102
RTVSPost2010Prop36
280
     0
102
RTVSPost2010PropOp36
 70
     1
102
RTVSPost2010Prop37
 90
       50
102
RTVSPost2010PropOp37
 70
     1
102
RTVSPost2010Prop38
140
0.0
102
RTVSPost2010PropOp38
 70
     1
102
RTVSPost2010Prop39
140
1.0
102
RTVSPost2010PropOp39
 70
     1
102
RTVSPost2010Prop40
 90
        0
102
RTVSPost2010PropOp40
 70
     1
102
RTVSPost2010Prop41ColorIndex
 90
       18
102
RTVSPost2010Prop41ColorRGB
 90
        0
102
RTVSPost2010PropOp41
 70
     1
102
RTVSPost2010Prop42
 90
       50
102
RTVSPost2010PropOp42
 70
     1
102
RTVSPost2010Prop43
 90
        3
102
RTVSPost2010PropOp43
 70
     1
102
RTVSPost2010Prop44ColorIndex
 90
        5
102
RTVSPost2010Prop44ColorRGB
 90
      255
102
RTVSPost2010PropOp44
 70
     1
102
RTVSPost2010Prop45
280
     0
102
RTVSPost2010PropOp45
 70
     1
102
RTVSPost2010Prop46
 90
       50
102
RTVSPost2010PropOp46
 70
     1
102
RTVSPost2010Prop47
 90
       50
102
RTVSPost2010PropOp47
 70
     1
102
RTVSPost2010Prop48
 90
       50
102
RTVSPost2010PropOp48
 70
     1
102
RTVSPost2010Prop49
280
     0
102
RTVSPost2010PropOp49
 70
     1
102
RTVSPost2010Prop50
 90
       50
102
RTVSPost2010PropOp50
 70
     1
102
RTVSPost2010Prop51ColorIndex
 90
      256
102
RTVSPost2010Prop51ColorRGB
 90
-16777216
102
RTVSPost2010PropOp51
 70
     0
102
RTVSPost2010Prop52
140
1.0
102
RTVSPost2010PropOp52
 70
     0
102
RTVSPost2010Prop53
 90
        2
102
RTVSPost2010PropOp53
 70
     1
102
RTVSPost2010Prop54
  1
strokes_ogs.tif
102
RTVSPost2010PropOp54
 70
     1
102
RTVSPost2010Prop55
280
     0
102
RTVSPost2010PropOp55
 70
     1
102
RTVSPost2010Prop56
140
1.0
102
RTVSPost2010PropOp56
 70
     1
102
RTVSPost2010Prop57
140
1.0
102
RTVSPost2010PropOp57
 70
     1
102
RTVSPropertyOp0
 70
     1
102
RTVSPropertyOp1
 70
     1
102
RTVSPropertyOp2
 70
     1
102
RTVSPropertyOp3
 70
     1
102
RTVSPropertyOp4
 70
     1
102
RTVSPropertyOp5
 70
     1
102
RTVSPropertyOp6
 70
     1
102
RTVSPropertyOp7
 70
     1
102
RTVSPropertyOp8
 70
     1
102
RTVSPropertyOp9
 70
     1
102
RTVSPropertyOp10
 70
     1
102
RTVSPropertyOp11
 70
     1
102
RTVSPropertyOp12
 70
     1
102
RTVSPropertyOp13
 70
     1
102
RTVSPropertyOp14
 70
     1
102
RTVSPropertyOp15
 70
     1
102
RTVSPropertyOp16
 70
     1
102
RTVSPropertyOp17
 70
     1
102
RTVSPropertyOp18
 70
     1
102
RTVSPropertyOp19
 70
     1
102
RTVSPropertyOp20
 70
     1
102
RTVSPropertyOp21
 70
     1
102
RTVSPropertyOp22
 70
     1
102
RTVSPropertyOp23
 70
     1
102
RTVSPropertyOp24
 70
     1
102
RTVSPropertyOp25
 70
     1
102
RTVSPropertyOp26
 70
     1
102
RTVSPropertyOp27
 70
     1
102
RTVSPropertyOp28
 70
     1
102
RTVSPropertyOp29
 70
     1
102
RTVSPropertyOp30
 70
     1
102
RTVSPropertyOp31
 70
     1
102
RTVSPropertyOp32
 70
     1
102
RTVSPropertyOp33
 70
     1
102
RTVSPropertyOp34
 70
     1
102
RTVSPropertyOp35
 70
     1
102
RTVSPropertyOp36
 70
     1
102
RTVSPropertyOp37
 70
     1
102
RTVSPropertyOp38
 70
     1
102
RTVSPropertyOp39
 70
     1
102
RTVSPropertyOp40
 70
     1
102
RTVSPropertyOp41
 70
     1
102
RTVSPropertyOp42
 70
     1
102
RTVSPropertyOp43
 70
     1
102
RTVSPropertyOp44
 70
     1
102
RTVSPropertyOp45
 70
     1
102
RTVSPropertyOp46
 70
     1
102
RTVSPropertyOp47
 70
     1
102
RTVSPropertyOp48
 70
     1
102
RTVSPropertyOp49
 70
     1
102
RTVSPropertyOp50
 70
     1
102
RTVSPropertyOp51
 70
     0
102
RTVSPropertyOp52
 70
     0
102
RTVSPropertyOp53
 70
     1
102
RTVSPropertyOp54
 70
     1
102
RTVSPropertyOp55
 70
     1
102
RTVSPropertyOp56
 70
     1
102
RTVSPropertyOp57
 70
     1
102
RTVSPropertyOp58
 70
     1
102
RTVSPropertyOp59
 70
     1
102
RTVSPropertyOp60
 70
     1
102
RTVSPropertyOp61
 70
     1
102
RTVSPropertyOp62
 70
     1
  0
ENDSEC
  0
EOF
