  0
SECTION
  2
HEADER
  9
$ACADVER
  1
AC1018
  9
$HANDSEED
  5
FFFFFF
  9
$EXTMAX
 10
7562613.8200000003
 20
5725260.93300000019
 30
1000000.00
  9
$EXTMIN
 10
7562408.59999999963
 20
5724779.25
 30
0.00
  9
$LIMMIN
 10
7562408.59999999963
 20
5724779.25
  9
$LIMMAX
 10
7562613.8200000003
 20
5725260.93300000019
  9
$DIMASZ
 40
2.5
  9
$DIMGAP
 40
0.625
  9
$INSUNITS
 70
6
  9
$MEASUREMENT
 70
1
  9
$DIMEXO
 40
0.625
  9
$DIMTXT
 40
2.5
  9
$DIMSTYLE
  2
Standard
  9
$PLIMMIN
 10
0.0
 20
0.0
  9
$PLIMMAX
 10
210.0
 20
297.0
  9
$DIMEXE
 40
1.25
  9
$TEXTSIZE
 40
2.5
  9
$TEXTSTYLE
  7
Standard
  9
$LWDISPLAY
290
1
  9
$TDCREATE
 40
45546.885582465
  9
$TDUCREATE
 40
45546.802249132
  9
$TDUPDATE
 40
45546.885582465
  9
$TDUUPDATE
 40
45546.802249132
  9
$TDINDWG
 40
0.0
  9
$TDUSRTIMER
 40
0.0
  9
$USRTIMER
 70
1
  0
ENDSEC
  0
SECTION
  2
TABLES
  0
TABLE
  2
VPORT
  5
1
100
AcDbSymbolTable
 70
1
  0
VPORT
  5
2
100
AcDbSymbolTableRecord
100
AcDbViewportTableRecord
  2
*ACTIVE
 70
0
 10
0.0
 20
0.0
 11
1.0
 21
1.0
 12
7562511.210
 22
5725020.092
 13
0.0
 23
0.0
 14
1.0
 24
1.0
 15
0.0
 25
0.0
 16
0.0
 26
0.0
 36
1.0
 17
0.0
 27
0.0
 37
0.0
 40
481.683
 41
0.426
 42
50.0
 43
0.0
 44
0.0
 50
0.0
 51
0.0
 71
0
 72
100
 73
1
 74
1
 75
0
 76
0
 77
0
 78
0
  0
ENDTAB
  0
TABLE
  2
LTYPE
  5
3
100
AcDbSymbolTable
 70
3
  0
LTYPE
  5
4
100
AcDbSymbolTableRecord
100
AcDbLinetypeTableRecord
  2
ByBlock
 70
0
  3

 72
65
 73
0
 40
0.0
  0
LTYPE
  5
5
100
AcDbSymbolTableRecord
100
AcDbLinetypeTableRecord
  2
ByLayer
 70
0
  3

 72
65
 73
0
 40
0.0
  0
LTYPE
  5
6
100
AcDbSymbolTableRecord
100
AcDbLinetypeTableRecord
  2
CONTINUOUS
 70
0
  3
Solid line
 72
65
 73
0
 40
0.0
  0
LTYPE
  5
7
100
AcDbSymbolTableRecord
100
AcDbLinetypeTableRecord
  2
L_0_03
 70
0
  3
Uzytek_gruntowy
 72
65
 73
2
 40
1.0
 49
0.5
 74
0
 49
-0.5
 74
0
  0
ENDTAB
  0
TABLE
  2
LAYER
  5
8
100
AcDbSymbolTable
 70
4
  0
LAYER
  5
9
100
AcDbSymbolTableRecord
100
AcDbLayerTableRecord
  2
0
 70
0
420
0
  6
CONTINUOUS
370
18
390
A
  0
LAYER
  5
B
100
AcDbSymbolTableRecord
100
AcDbLayerTableRecord
  2
budynek_obrys
 70
0
420
255
  6
CONTINUOUS
370
35
390
A
  0
LAYER
  5
C
100
AcDbSymbolTableRecord
100
AcDbLayerTableRecord
  2
dzialka
 70
0
420
0
  6
CONTINUOUS
370
18
390
A
  0
LAYER
  5
D
100
AcDbSymbolTableRecord
100
AcDbLayerTableRecord
  2
Osie
 70
0
420
16711680
  6
L_0_03
370
18
390
A
  0
ENDTAB
  0
TABLE
  2
STYLE
  5
E
100
AcDbSymbolTable
 70
2
  0
STYLE
  5
F
100
AcDbSymbolTableRecord
100
AcDbTextStyleTableRecord
  2
STANDARD
 70
0
 40
0.0
 41
1.0
 50
0.0
 71
0
  3
simplex.shx
  4

  0
STYLE
  5
10
100
AcDbSymbolTableRecord
100
AcDbTextStyleTableRecord
  2
STANDARD_ITALIC
 70
0
 40
0.0
 41
1.0
 50
15.0
 71
0
  3
simplex.shx
  4

  0
ENDTAB
  0
TABLE
  2
VIEW
  5
11
100
AcDbSymbolTable
 70
0
  0
ENDTAB
  0
TABLE
  2
UCS
  5
12
100
AcDbSymbolTable
 70
0
  0
ENDTAB
  0
TABLE
  2
APPID
  5
13
100
AcDbSymbolTable
 70
1
  0
APPID
  5
14
100
AcDbSymbolTableRecord
100
AcDbRegAppTableRecord
  2
ACAD
 70
0
  0
ENDTAB
  0
TABLE
  2
DIMSTYLE
  5
15
100
AcDbSymbolTable
 70
1
100
AcDbDimStyleTable
  0
DIMSTYLE
105
16
100
AcDbSymbolTableRecord
100
AcDbDimStyleTableRecord
  2
Standard
 70
0
340
F
  0
ENDTAB
  0
TABLE
  2
BLOCK_RECORD
  5
17
100
AcDbSymbolTable
 70
2
  0
BLOCK_RECORD
  5
18
100
AcDbSymbolTableRecord
100
AcDbBlockTableRecord
  2
*Model_Space
340
19
  0
BLOCK_RECORD
  5
1A
100
AcDbSymbolTableRecord
100
AcDbBlockTableRecord
  2
*Paper_Space
340
1B
  0
ENDTAB
  0
ENDSEC
  0
SECTION
  2
BLOCKS
  0
BLOCK
  5
1C
100
AcDbEntity
  8
0
100
AcDbBlockBegin
  2
*Model_Space
 70
0
 10
0.0
 20
0.0
 30
0.0
  3
*Model_Space
  1

  0
ENDBLK
  5
1D
100
AcDbEntity
  8
0
100
AcDbBlockEnd
  0
BLOCK
  5
1E
100
AcDbEntity
 67
1
  8
0
100
AcDbBlockBegin
  2
*Paper_Space
 70
0
 10
0.0
 20
0.0
 30
0.0
  3
*Paper_Space
  1

  0
ENDBLK
  5
1F
100
AcDbEntity
 67
1
  8
0
100
AcDbBlockEnd
  0
ENDSEC
  0
SECTION
  2
ENTITIES
  0
POLYLINE
  5
20
100
AcDbEntity
  8
budynek_obrys
  6
L_0_03
370
13
100
AcDb2dPolyline
 66
1
 70
128
  0
VERTEX
  5
21
100
AcDbEntity
  8
budynek_obrys
100
AcDbVertex
100
AcDb2dVertex
 10
7562465.19432573579
 20
5725208.16365743149
  0
VERTEX
  5
22
100
AcDbEntity
  8
budynek_obrys
100
AcDbVertex
100
AcDb2dVertex
 10
7562466.69170214608
 20
5725208.07497828826
  0
SEQEND
  5
23
100
AcDbEntity
  8
budynek_obrys
  0
POLYLINE
  5
24
100
AcDbEntity
  8
budynek_obrys
  6
L_0_03
370
13
100
AcDb2dPolyline
 66
1
 70
128
  0
VERTEX
  5
25
100
AcDbEntity
  8
budynek_obrys
100
AcDbVertex
100
AcDb2dVertex
 10
7562443.23308582418
 20
5725209.46900854446
  0
VERTEX
  5
26
100
AcDbEntity
  8
budynek_obrys
100
AcDbVertex
100
AcDb2dVertex
 10
7562437.02262979187
 20
5725209.96803393774
  0
SEQEND
  5
27
100
AcDbEntity
  8
budynek_obrys
  0
POLYLINE
  5
28
100
AcDbEntity
  8
budynek_obrys
  6
L_0_03
370
13
100
AcDb2dPolyline
 66
1
 70
128
  0
VERTEX
  5
29
100
AcDbEntity
  8
budynek_obrys
100
AcDbVertex
100
AcDb2dVertex
 10
7562464.54165017977
 20
5725197.18303747568
  0
VERTEX
  5
2A
100
AcDbEntity
  8
budynek_obrys
100
AcDbVertex
100
AcDb2dVertex
 10
7562466.0390064586
 20
5725197.09401963931
  0
SEQEND
  5
2B
100
AcDbEntity
  8
budynek_obrys
  0
POLYLINE
  5
2C
100
AcDbEntity
  8
budynek_obrys
  6
L_0_03
370
13
100
AcDb2dPolyline
 66
1
 70
128
  0
VERTEX
  5
2D
100
AcDbEntity
  8
budynek_obrys
100
AcDbVertex
100
AcDb2dVertex
 10
7562442.58041026723
 20
5725198.48838858865
  0
VERTEX
  5
2E
100
AcDbEntity
  8
budynek_obrys
100
AcDbVertex
100
AcDb2dVertex
 10
7562436.14172374271
 20
5725199.00534731522
  0
SEQEND
  5
2F
100
AcDbEntity
  8
budynek_obrys
  0
POLYLINE
  5
30
100
AcDbEntity
  8
budynek_obrys
  6
CONTINUOUS
370
35
100
AcDb2dPolyline
 66
1
 70
129
  0
VERTEX
  5
31
100
AcDbEntity
  8
budynek_obrys
100
AcDbVertex
100
AcDb2dVertex
 10
7562464.54165017977
 20
5725197.18303747568
  0
VERTEX
  5
32
100
AcDbEntity
  8
budynek_obrys
100
AcDbVertex
100
AcDb2dVertex
 10
7562442.58041026723
 20
5725198.48838858865
  0
VERTEX
  5
33
100
AcDbEntity
  8
budynek_obrys
100
AcDbVertex
100
AcDb2dVertex
 10
7562443.23308582418
 20
5725209.46900854446
  0
VERTEX
  5
34
100
AcDbEntity
  8
budynek_obrys
100
AcDbVertex
100
AcDb2dVertex
 10
7562465.19432573579
 20
5725208.16365743149
  0
SEQEND
  5
35
100
AcDbEntity
  8
budynek_obrys
  0
POLYLINE
  5
36
100
AcDbEntity
  8
dzialka
  6
CONTINUOUS
370
18
100
AcDb2dPolyline
 66
1
 70
128
  0
VERTEX
  5
37
100
AcDbEntity
  8
dzialka
100
AcDbVertex
100
AcDb2dVertex
 10
7562464.20000000019
 20
5725254.08000000007
  0
VERTEX
  5
38
100
AcDbEntity
  8
dzialka
100
AcDbVertex
100
AcDb2dVertex
 10
7562469.41000000015
 20
5725253.76999999955
  0
SEQEND
  5
39
100
AcDbEntity
  8
dzialka
  0
POLYLINE
  5
3A
100
AcDbEntity
  8
dzialka
  6
CONTINUOUS
370
18
100
AcDb2dPolyline
 66
1
 70
128
  0
VERTEX
  5
3B
100
AcDbEntity
  8
dzialka
100
AcDbVertex
100
AcDb2dVertex
 10
7562469.41000000015
 20
5725253.76999999955
  0
VERTEX
  5
3C
100
AcDbEntity
  8
dzialka
100
AcDbVertex
100
AcDb2dVertex
 10
7562464.50999999978
 20
5725171.37999999989
  0
SEQEND
  5
3D
100
AcDbEntity
  8
dzialka
  0
POLYLINE
  5
3E
100
AcDbEntity
  8
dzialka
  6
CONTINUOUS
370
18
100
AcDb2dPolyline
 66
1
 70
128
  0
VERTEX
  5
3F
100
AcDbEntity
  8
dzialka
100
AcDbVertex
100
AcDb2dVertex
 10
7562464.50999999978
 20
5725171.37999999989
  0
VERTEX
  5
40
100
AcDbEntity
  8
dzialka
100
AcDbVertex
100
AcDb2dVertex
 10
7562434.49000000022
 20
5725178.45000000019
  0
SEQEND
  5
41
100
AcDbEntity
  8
dzialka
  0
POLYLINE
  5
42
100
AcDbEntity
  8
dzialka
  6
CONTINUOUS
370
18
100
AcDb2dPolyline
 66
1
 70
128
  0
VERTEX
  5
43
100
AcDbEntity
  8
dzialka
100
AcDbVertex
100
AcDb2dVertex
 10
7562434.49000000022
 20
5725178.45000000019
  0
VERTEX
  5
44
100
AcDbEntity
  8
dzialka
100
AcDbVertex
100
AcDb2dVertex
 10
7562441.00999999978
 20
5725259.58999999985
  0
SEQEND
  5
45
100
AcDbEntity
  8
dzialka
  0
POLYLINE
  5
46
100
AcDbEntity
  8
dzialka
  6
CONTINUOUS
370
18
100
AcDb2dPolyline
 66
1
 70
128
  0
VERTEX
  5
47
100
AcDbEntity
  8
dzialka
100
AcDbVertex
100
AcDb2dVertex
 10
7562441.00999999978
 20
5725259.58999999985
  0
VERTEX
  5
48
100
AcDbEntity
  8
dzialka
100
AcDbVertex
100
AcDb2dVertex
 10
7562464.20000000019
 20
5725254.08000000007
  0
SEQEND
  5
49
100
AcDbEntity
  8
dzialka
  0
POLYLINE
  5
4A
100
AcDbEntity
  8
dzialka
  6
CONTINUOUS
370
18
100
AcDb2dPolyline
 66
1
 70
129
  0
VERTEX
  5
4B
100
AcDbEntity
  8
dzialka
100
AcDbVertex
100
AcDb2dVertex
 10
7562488.3200000003
 20
5725022.62999999989
  0
VERTEX
  5
4C
100
AcDbEntity
  8
dzialka
100
AcDbVertex
100
AcDb2dVertex
 10
7562472.84999999963
 20
5724779.25
  0
VERTEX
  5
4D
100
AcDbEntity
  8
dzialka
100
AcDbVertex
100
AcDb2dVertex
 10
7562449.3200000003
 20
5724803.29999999981
  0
VERTEX
  5
4E
100
AcDbEntity
  8
dzialka
100
AcDbVertex
100
AcDb2dVertex
 10
7562465.75999999978
 20
5725061.83000000007
  0
VERTEX
  5
4F
100
AcDbEntity
  8
dzialka
100
AcDbVertex
100
AcDb2dVertex
 10
7562458.78000000026
 20
5725062.28000000026
  0
VERTEX
  5
50
100
AcDbEntity
  8
dzialka
100
AcDbVertex
100
AcDb2dVertex
 10
7562461.34999999963
 20
5725102.74000000022
  0
VERTEX
  5
51
100
AcDbEntity
  8
dzialka
100
AcDbVertex
100
AcDb2dVertex
 10
7562493.25
 20
5725100.16000000015
  0
SEQEND
  5
52
100
AcDbEntity
  8
dzialka
  0
POLYLINE
  5
53
100
AcDbEntity
  8
dzialka
  6
CONTINUOUS
370
18
100
AcDb2dPolyline
 66
1
 70
129
  0
VERTEX
  5
54
100
AcDbEntity
  8
dzialka
100
AcDbVertex
100
AcDb2dVertex
 10
7562461.34999999963
 20
5725102.74000000022
  0
VERTEX
  5
55
100
AcDbEntity
  8
dzialka
100
AcDbVertex
100
AcDb2dVertex
 10
7562458.78000000026
 20
5725062.28000000026
  0
VERTEX
  5
56
100
AcDbEntity
  8
dzialka
100
AcDbVertex
100
AcDb2dVertex
 10
7562465.75999999978
 20
5725061.83000000007
  0
VERTEX
  5
57
100
AcDbEntity
  8
dzialka
100
AcDbVertex
100
AcDb2dVertex
 10
7562449.3200000003
 20
5724803.29999999981
  0
VERTEX
  5
58
100
AcDbEntity
  8
dzialka
100
AcDbVertex
100
AcDb2dVertex
 10
7562408.59999999963
 20
5724844.91000000015
  0
VERTEX
  5
59
100
AcDbEntity
  8
dzialka
100
AcDbVertex
100
AcDb2dVertex
 10
7562428.66999999993
 20
5725105.37000000011
  0
VERTEX
  5
5A
100
AcDbEntity
  8
dzialka
100
AcDbVertex
100
AcDb2dVertex
 10
7562460.40000000037
 20
5725102.80999999959
  0
SEQEND
  5
5B
100
AcDbEntity
  8
dzialka
  0
POLYLINE
  5
5C
100
AcDbEntity
  8
dzialka
  6
CONTINUOUS
370
18
100
AcDb2dPolyline
 66
1
 70
129
  0
VERTEX
  5
5D
100
AcDbEntity
  8
dzialka
100
AcDbVertex
100
AcDb2dVertex
 10
7562469.53000000026
 20
5725255.65000000037
  0
VERTEX
  5
5E
100
AcDbEntity
  8
dzialka
100
AcDbVertex
100
AcDb2dVertex
 10
7562469.41000000015
 20
5725253.76999999955
  0
VERTEX
  5
5F
100
AcDbEntity
  8
dzialka
100
AcDbVertex
100
AcDb2dVertex
 10
7562464.20000000019
 20
5725254.08000000007
  0
VERTEX
  5
60
100
AcDbEntity
  8
dzialka
100
AcDbVertex
100
AcDb2dVertex
 10
7562464.91000000015
 20
5725256.20000000019
  0
SEQEND
  5
61
100
AcDbEntity
  8
dzialka
  0
POLYLINE
  5
62
100
AcDbEntity
  8
dzialka
  6
CONTINUOUS
370
18
100
AcDb2dPolyline
 66
1
 70
129
  0
VERTEX
  5
63
100
AcDbEntity
  8
dzialka
100
AcDbVertex
100
AcDb2dVertex
 10
7562469.53000000026
 20
5725255.65000000037
  0
VERTEX
  5
64
100
AcDbEntity
  8
dzialka
100
AcDbVertex
100
AcDb2dVertex
 10
7562480.58000000007
 20
5725255.34999999963
  0
VERTEX
  5
65
100
AcDbEntity
  8
dzialka
100
AcDbVertex
100
AcDb2dVertex
 10
7562500.91999999993
 20
5725254.34999999963
  0
VERTEX
  5
66
100
AcDbEntity
  8
dzialka
100
AcDbVertex
100
AcDb2dVertex
 10
7562536.28000000026
 20
5725251.79000000004
  0
VERTEX
  5
67
100
AcDbEntity
  8
dzialka
100
AcDbVertex
100
AcDb2dVertex
 10
7562536.21999999974
 20
5725250.63999999966
  0
VERTEX
  5
68
100
AcDbEntity
  8
dzialka
100
AcDbVertex
100
AcDb2dVertex
 10
7562491.75999999978
 20
5725253.19000000041
  0
VERTEX
  5
69
100
AcDbEntity
  8
dzialka
100
AcDbVertex
100
AcDb2dVertex
 10
7562469.41000000015
 20
5725253.76999999955
  0
SEQEND
  5
6A
100
AcDbEntity
  8
dzialka
  0
POLYLINE
  5
6B
100
AcDbEntity
  8
dzialka
  6
CONTINUOUS
370
18
100
AcDb2dPolyline
 66
1
 70
129
  0
VERTEX
  5
6C
100
AcDbEntity
  8
dzialka
100
AcDbVertex
100
AcDb2dVertex
 10
7562550.78000000026
 20
5725250.95000000019
  0
VERTEX
  5
6D
100
AcDbEntity
  8
dzialka
100
AcDbVertex
100
AcDb2dVertex
 10
7562577.24000000022
 20
5725248.3200000003
  0
VERTEX
  5
6E
100
AcDbEntity
  8
dzialka
100
AcDbVertex
100
AcDb2dVertex
 10
7562577.1799999997
 20
5725247.21999999974
  0
VERTEX
  5
6F
100
AcDbEntity
  8
dzialka
100
AcDbVertex
100
AcDb2dVertex
 10
7562541.20000000019
 20
5725250.20999999996
  0
VERTEX
  5
70
100
AcDbEntity
  8
dzialka
100
AcDbVertex
100
AcDb2dVertex
 10
7562541.26999999955
 20
5725251.5
  0
SEQEND
  5
71
100
AcDbEntity
  8
dzialka
  0
POLYLINE
  5
72
100
AcDbEntity
  8
dzialka
  6
CONTINUOUS
370
18
100
AcDb2dPolyline
 66
1
 70
129
  0
VERTEX
  5
73
100
AcDbEntity
  8
dzialka
100
AcDbVertex
100
AcDb2dVertex
 10
7562577.24000000022
 20
5725248.3200000003
  0
VERTEX
  5
74
100
AcDbEntity
  8
dzialka
100
AcDbVertex
100
AcDb2dVertex
 10
7562613.8200000003
 20
5725244.69000000041
  0
VERTEX
  5
75
100
AcDbEntity
  8
dzialka
100
AcDbVertex
100
AcDb2dVertex
 10
7562613.79000000004
 20
5725244.16999999993
  0
VERTEX
  5
76
100
AcDbEntity
  8
dzialka
100
AcDbVertex
100
AcDb2dVertex
 10
7562577.1799999997
 20
5725247.21999999974
  0
SEQEND
  5
77
100
AcDbEntity
  8
dzialka
  0
POLYLINE
  5
78
100
AcDbEntity
  8
dzialka
  6
CONTINUOUS
370
18
100
AcDb2dPolyline
 66
1
 70
129
  0
VERTEX
  5
79
100
AcDbEntity
  8
dzialka
100
AcDbVertex
100
AcDb2dVertex
 10
7562464.50999999978
 20
5725171.37999999989
  0
VERTEX
  5
7A
100
AcDbEntity
  8
dzialka
100
AcDbVertex
100
AcDb2dVertex
 10
7562464.23000000045
 20
5725165.30999999959
  0
VERTEX
  5
7B
100
AcDbEntity
  8
dzialka
100
AcDbVertex
100
AcDb2dVertex
 10
7562434.00999999978
 20
5725172.46999999974
  0
VERTEX
  5
7C
100
AcDbEntity
  8
dzialka
100
AcDbVertex
100
AcDb2dVertex
 10
7562434.49000000022
 20
5725178.45000000019
  0
SEQEND
  5
7D
100
AcDbEntity
  8
dzialka
  0
POLYLINE
  5
7E
100
AcDbEntity
  8
dzialka
  6
CONTINUOUS
370
18
100
AcDb2dPolyline
 66
1
 70
129
  0
VERTEX
  5
7F
100
AcDbEntity
  8
dzialka
100
AcDbVertex
100
AcDb2dVertex
 10
7562469.41000000015
 20
5725253.76999999955
  0
VERTEX
  5
80
100
AcDbEntity
  8
dzialka
100
AcDbVertex
100
AcDb2dVertex
 10
7562491.75999999978
 20
5725253.19000000041
  0
VERTEX
  5
81
100
AcDbEntity
  8
dzialka
100
AcDbVertex
100
AcDb2dVertex
 10
7562536.21999999974
 20
5725250.63999999966
  0
VERTEX
  5
82
100
AcDbEntity
  8
dzialka
100
AcDbVertex
100
AcDb2dVertex
 10
7562531.09999999963
 20
5725155.9299999997
  0
VERTEX
  5
83
100
AcDbEntity
  8
dzialka
100
AcDbVertex
100
AcDb2dVertex
 10
7562464.50999999978
 20
5725171.37999999989
  0
SEQEND
  5
84
100
AcDbEntity
  8
dzialka
  0
POLYLINE
  5
85
100
AcDbEntity
  8
dzialka
  6
CONTINUOUS
370
18
100
AcDb2dPolyline
 66
1
 70
129
  0
VERTEX
  5
86
100
AcDbEntity
  8
dzialka
100
AcDbVertex
100
AcDb2dVertex
 10
7562464.50999999978
 20
5725171.37999999989
  0
VERTEX
  5
87
100
AcDbEntity
  8
dzialka
100
AcDbVertex
100
AcDb2dVertex
 10
7562531.09999999963
 20
5725155.9299999997
  0
VERTEX
  5
88
100
AcDbEntity
  8
dzialka
100
AcDbVertex
100
AcDb2dVertex
 10
7562530.78000000026
 20
5725150.09999999963
  0
VERTEX
  5
89
100
AcDbEntity
  8
dzialka
100
AcDbVertex
100
AcDb2dVertex
 10
7562464.23000000045
 20
5725165.30999999959
  0
SEQEND
  5
8A
100
AcDbEntity
  8
dzialka
  0
POLYLINE
  5
8B
100
AcDbEntity
  8
dzialka
  6
CONTINUOUS
370
18
100
AcDb2dPolyline
 66
1
 70
129
  0
VERTEX
  5
8C
100
AcDbEntity
  8
dzialka
100
AcDbVertex
100
AcDb2dVertex
 10
7562428.66999999993
 20
5725105.37000000011
  0
VERTEX
  5
8D
100
AcDbEntity
  8
dzialka
100
AcDbVertex
100
AcDb2dVertex
 10
7562428.91000000015
 20
5725108.36000000034
  0
VERTEX
  5
8E
100
AcDbEntity
  8
dzialka
100
AcDbVertex
100
AcDb2dVertex
 10
7562460.58000000007
 20
5725105.79999999981
  0
VERTEX
  5
8F
100
AcDbEntity
  8
dzialka
100
AcDbVertex
100
AcDb2dVertex
 10
7562460.40000000037
 20
5725102.80999999959
  0
SEQEND
  5
90
100
AcDbEntity
  8
dzialka
  0
POLYLINE
  5
91
100
AcDbEntity
  8
dzialka
  6
CONTINUOUS
370
18
100
AcDb2dPolyline
 66
1
 70
129
  0
VERTEX
  5
92
100
AcDbEntity
  8
dzialka
100
AcDbVertex
100
AcDb2dVertex
 10
7562434.00999999978
 20
5725172.46999999974
  0
VERTEX
  5
93
100
AcDbEntity
  8
dzialka
100
AcDbVertex
100
AcDb2dVertex
 10
7562464.23000000045
 20
5725165.30999999959
  0
VERTEX
  5
94
100
AcDbEntity
  8
dzialka
100
AcDbVertex
100
AcDb2dVertex
 10
7562460.58000000007
 20
5725105.79999999981
  0
VERTEX
  5
95
100
AcDbEntity
  8
dzialka
100
AcDbVertex
100
AcDb2dVertex
 10
7562428.91000000015
 20
5725108.36000000034
  0
SEQEND
  5
96
100
AcDbEntity
  8
dzialka
  0
POLYLINE
  5
97
100
AcDbEntity
  8
dzialka
  6
CONTINUOUS
370
18
100
AcDb2dPolyline
 66
1
 70
129
  0
VERTEX
  5
98
100
AcDbEntity
  8
dzialka
100
AcDbVertex
100
AcDb2dVertex
 10
7562461.34999999963
 20
5725102.74000000022
  0
VERTEX
  5
99
100
AcDbEntity
  8
dzialka
100
AcDbVertex
100
AcDb2dVertex
 10
7562460.40000000037
 20
5725102.80999999959
  0
VERTEX
  5
9A
100
AcDbEntity
  8
dzialka
100
AcDbVertex
100
AcDb2dVertex
 10
7562460.58000000007
 20
5725105.79999999981
  0
VERTEX
  5
9B
100
AcDbEntity
  8
dzialka
100
AcDbVertex
100
AcDb2dVertex
 10
7562493.51999999955
 20
5725103.15000000037
  0
VERTEX
  5
9C
100
AcDbEntity
  8
dzialka
100
AcDbVertex
100
AcDb2dVertex
 10
7562528.05999999959
 20
5725099.73000000045
  0
VERTEX
  5
9D
100
AcDbEntity
  8
dzialka
100
AcDbVertex
100
AcDb2dVertex
 10
7562527.90000000037
 20
5725096.73000000045
  0
VERTEX
  5
9E
100
AcDbEntity
  8
dzialka
100
AcDbVertex
100
AcDb2dVertex
 10
7562493.25
 20
5725100.16000000015
  0
SEQEND
  5
9F
100
AcDbEntity
  8
dzialka
  0
POLYLINE
  5
A0
100
AcDbEntity
  8
dzialka
  6
CONTINUOUS
370
18
100
AcDb2dPolyline
 66
1
 70
129
  0
VERTEX
  5
A1
100
AcDbEntity
  8
dzialka
100
AcDbVertex
100
AcDb2dVertex
 10
7562464.23000000045
 20
5725165.30999999959
  0
VERTEX
  5
A2
100
AcDbEntity
  8
dzialka
100
AcDbVertex
100
AcDb2dVertex
 10
7562530.78000000026
 20
5725150.09999999963
  0
VERTEX
  5
A3
100
AcDbEntity
  8
dzialka
100
AcDbVertex
100
AcDb2dVertex
 10
7562528.05999999959
 20
5725099.73000000045
  0
VERTEX
  5
A4
100
AcDbEntity
  8
dzialka
100
AcDbVertex
100
AcDb2dVertex
 10
7562493.51999999955
 20
5725103.15000000037
  0
VERTEX
  5
A5
100
AcDbEntity
  8
dzialka
100
AcDbVertex
100
AcDb2dVertex
 10
7562460.58000000007
 20
5725105.79999999981
  0
SEQEND
  5
A6
100
AcDbEntity
  8
dzialka
  0
POLYLINE
  5
A7
100
AcDbEntity
  8
Osie
  6
ByLayer
370
18
100
AcDb2dPolyline
 66
1
 70
128
  0
VERTEX
  5
A8
100
AcDbEntity
  8
Osie
100
AcDbVertex
100
AcDb2dVertex
 10
7562464.33542696387
 20
5725197.41566278413
  0
VERTEX
  5
A9
100
AcDbEntity
  8
Osie
100
AcDbVertex
100
AcDb2dVertex
 10
7562442.81267216057
 20
5725198.69456247892
  0
SEQEND
  5
AA
100
AcDbEntity
  8
Osie
  0
POLYLINE
  5
AB
100
AcDbEntity
  8
Osie
  6
ByLayer
370
18
100
AcDb2dPolyline
 66
1
 70
128
  0
VERTEX
  5
AC
100
AcDbEntity
  8
Osie
100
AcDbVertex
100
AcDb2dVertex
 10
7562442.81267216057
 20
5725198.69456247892
  0
VERTEX
  5
AD
100
AcDbEntity
  8
Osie
100
AcDbVertex
100
AcDb2dVertex
 10
7562443.43955307174
 20
5725209.23633779772
  0
SEQEND
  5
AE
100
AcDbEntity
  8
Osie
  0
POLYLINE
  5
AF
100
AcDbEntity
  8
Osie
  6
ByLayer
370
18
100
AcDb2dPolyline
 66
1
 70
128
  0
VERTEX
  5
B0
100
AcDbEntity
  8
Osie
100
AcDbVertex
100
AcDb2dVertex
 10
7562443.43955307174
 20
5725209.23633779772
  0
VERTEX
  5
B1
100
AcDbEntity
  8
Osie
100
AcDbVertex
100
AcDb2dVertex
 10
7562464.96134780347
 20
5725207.95743692853
  0
SEQEND
  5
B2
100
AcDbEntity
  8
Osie
  0
POLYLINE
  5
B3
100
AcDbEntity
  8
Osie
  6
ByLayer
370
18
100
AcDb2dPolyline
 66
1
 70
128
  0
VERTEX
  5
B4
100
AcDbEntity
  8
Osie
100
AcDbVertex
100
AcDb2dVertex
 10
7562464.96134780347
 20
5725207.95743692853
  0
VERTEX
  5
B5
100
AcDbEntity
  8
Osie
100
AcDbVertex
100
AcDb2dVertex
 10
7562464.33542696387
 20
5725197.41566278413
  0
SEQEND
  5
B6
100
AcDbEntity
  8
Osie
  0
POLYLINE
  5
B7
100
AcDbEntity
  8
Osie
  6
ByLayer
370
18
100
AcDb2dPolyline
 66
1
 70
128
  0
VERTEX
  5
B8
100
AcDbEntity
  8
Osie
100
AcDbVertex
100
AcDb2dVertex
 10
7562459.73021593504
 20
5725208.26764138415
  0
VERTEX
  5
B9
100
AcDbEntity
  8
Osie
100
AcDbVertex
100
AcDb2dVertex
 10
7562459.10421593487
 20
5725197.72664138395
  0
SEQEND
  5
BA
100
AcDbEntity
  8
Osie
  0
MTEXT
  5
BB
100
AcDbEntity
  8
budynek_obrys
370
35
100
AcDbMText
 10
7562467.29999999609
 20
5725208.12999999709
 40
1.7500
 41
0.0
 71
6
 72
1
  1
\W0.6563x;45.780
  7
STANDARD
 11
-0.99823983
 21
0.05930637
 44
0.90
 90
3
 63
0
 45
1.0
  0
MTEXT
  5
BC
100
AcDbEntity
  8
budynek_obrys
370
9
100
AcDbMText
 10
7562465.77999999654
 20
5725209.03999999724
 40
0.4000
 41
0.0
 71
8
 72
1
  1
\W0.6563x;1.500
  7
STANDARD
 11
-0.99823983
 21
0.05930637
 44
0.90
 90
3
 63
0
 45
1.0
  0
MTEXT
  5
BD
100
AcDbEntity
  8
budynek_obrys
370
35
100
AcDbMText
 10
7562437.02262979187
 20
5725209.96803393774
 40
1.7500
 41
0.0
 71
4
 72
1
  1
\W0.6563x;49.782
  7
STANDARD
 11
-0.99677888
 21
0.08019892
 44
0.90
 90
3
 63
0
 45
1.0
  0
MTEXT
  5
BE
100
AcDbEntity
  8
budynek_obrys
370
15
100
AcDbMText
 10
7562440.09974527266
 20
5725209.36964436062
 40
0.7500
 41
0.0
 71
8
 72
1
  1
\W0.6563x;6.230
  7
STANDARD
 11
-0.99677888
 21
0.08019892
 44
0.90
 90
3
 63
0
 45
1.0
  0
TEXT
  5
BF
100
AcDbEntity
  8
budynek_obrys
370
18
100
AcDbText
 39
0.18
 10
7562451.63246683311
 20
5725196.8642047178
 40
0.90
  1
-22.001-
 50
-3.00
 41
0.66
  7
STANDARD
 72
1
 11
7562453.41429920867
 21
5725196.47041113675
100
AcDbText
 73
1
  0
TEXT
  5
C0
100
AcDbEntity
  8
budynek_obrys
370
18
100
AcDbText
 39
0.18
 10
7562442.63279000763
 20
5725202.19058587588
 40
0.90
  1
-11.000-
 50
-273.00
 41
0.66
  7
STANDARD
 72
1
 11
7562443.02658358868
 21
5725203.97241825145
100
AcDbText
 73
1
  0
TEXT
  5
C1
100
AcDbEntity
  8
budynek_obrys
370
18
100
AcDbText
 39
0.18
 10
7562452.42559308931
 20
5725209.09029102605
 40
0.90
  1
-22.000-
 50
-3.00
 41
0.66
  7
STANDARD
 72
1
 11
7562454.20742546488
 21
5725208.69649744499
100
AcDbText
 73
1
  0
TEXT
  5
C2
100
AcDbEntity
  8
budynek_obrys
370
18
100
AcDbText
 39
0.18
 10
7562466.00579527486
 20
5725201.54246683419
 40
0.90
  1
-11.000-
 50
-273.00
 41
0.66
  7
STANDARD
 72
1
 11
7562466.39958885592
 21
5725203.32429920975
100
AcDbText
 73
1
  0
MTEXT
  5
C3
100
AcDbEntity
  8
budynek_obrys
370
35
100
AcDbMText
 10
7562466.0390064586
 20
5725197.09401963931
 40
1.7500
 41
0.0
 71
6
 72
1
  1
\W0.6563x;56.780
  7
STANDARD
 11
-0.99823983
 21
0.05930637
 44
0.90
 90
3
 63
0
 45
1.0
  0
MTEXT
  5
C4
100
AcDbEntity
  8
budynek_obrys
370
9
100
AcDbMText
 10
7562465.26974599902
 20
5725196.7891258793
 40
0.4000
 41
0.0
 71
8
 72
1
  1
\W0.6563x;1.500
  7
STANDARD
 11
-0.99823983
 21
0.05930637
 44
0.90
 90
3
 63
0
 45
1.0
  0
MTEXT
  5
C5
100
AcDbEntity
  8
budynek_obrys
370
35
100
AcDbMText
 10
7562436.14172374271
 20
5725199.00534731522
 40
1.7500
 41
0.0
 71
4
 72
1
  1
\W0.6563x;60.780
  7
STANDARD
 11
-0.99677888
 21
0.08019892
 44
0.90
 90
3
 63
0
 45
1.0
  0
MTEXT
  5
C6
100
AcDbEntity
  8
budynek_obrys
370
15
100
AcDbMText
 10
7562439.33279224765
 20
5725198.39780104998
 40
0.7500
 41
0.0
 71
8
 72
1
  1
\W0.6563x;6.459
  7
STANDARD
 11
-0.99677888
 21
0.08019892
 44
0.90
 90
3
 63
0
 45
1.0
  0
MTEXT
  5
C7
100
AcDbEntity
  8
dzialka
370
35
100
AcDbMText
 10
7562471.28500000015
 20
5724940.99500000011
 40
1.7500
 41
0.0
 71
5
 72
1
  1
\W0.6563x;360/5
  7
STANDARD
 11
1.00000000
 21
0.00000000
 44
0.90
 90
3
 63
0
 45
1.0
  0
MTEXT
  5
C8
100
AcDbEntity
  8
dzialka
370
35
100
AcDbMText
 10
7562437.1799999997
 20
5724954.33499999996
 40
1.7500
 41
0.0
 71
5
 72
1
  1
\W0.6563x;360/6
  7
STANDARD
 11
1.00000000
 21
0.00000000
 44
0.90
 90
3
 63
0
 45
1.0
  0
MTEXT
  5
C9
100
AcDbEntity
  8
dzialka
370
35
100
AcDbMText
 10
7562468.08999999613
 20
5725255.09999999683
 40
1.7500
 41
0.0
 71
5
 72
1
  1
\W0.6563x;360/8
  7
STANDARD
 11
1.00000000
 21
0.00000000
 44
0.90
 90
3
 63
0
 45
1.0
  0
MTEXT
  5
CA
100
AcDbEntity
  8
dzialka
370
35
100
AcDbMText
 10
7562502.84500000067
 20
5725253.14499999955
 40
1.7500
 41
0.0
 71
5
 72
1
  1
\W0.6563x;359/5
  7
STANDARD
 11
1.00000000
 21
0.00000000
 44
0.90
 90
3
 63
0
 45
1.0
  0
MTEXT
  5
CB
100
AcDbEntity
  8
dzialka
370
35
100
AcDbMText
 10
7562559.22000000067
 20
5725249.3599999994
 40
1.7500
 41
0.0
 71
5
 72
1
  1
\W0.6563x;357/2
  7
STANDARD
 11
1.00000000
 21
0.00000000
 44
0.90
 90
3
 63
0
 45
1.0
  0
MTEXT
  5
CC
100
AcDbEntity
  8
dzialka
370
35
100
AcDbMText
 10
7562595.5
 20
5725246.24500000011
 40
1.7500
 41
0.0
 71
5
 72
1
  1
\W0.6563x;356/2
  7
STANDARD
 11
1.00000000
 21
0.00000000
 44
0.90
 90
3
 63
0
 45
1.0
  0
MTEXT
  5
CD
100
AcDbEntity
  8
dzialka
370
35
100
AcDbMText
 10
7562451.95000000019
 20
5725215.4849999994
 40
1.7500
 41
0.0
 71
5
 72
1
  1
\W0.6563x;360/7
  7
STANDARD
 11
1.00000000
 21
0.00000000
 44
0.90
 90
3
 63
0
 45
1.0
  0
MTEXT
  5
CE
100
AcDbEntity
  8
dzialka
370
35
100
AcDbMText
 10
7562449.25999999978
 20
5725171.87999999989
 40
1.7500
 41
0.0
 71
5
 72
1
  1
\W0.6563x;360/2
  7
STANDARD
 11
1.00000000
 21
0.00000000
 44
0.90
 90
3
 63
0
 45
1.0
  0
MTEXT
  5
CF
100
AcDbEntity
  8
dzialka
370
35
100
AcDbMText
 10
7562500.36500000022
 20
5725204.84999999963
 40
1.7500
 41
0.0
 71
5
 72
1
  1
\W0.6563x;359/4
  7
STANDARD
 11
1.00000000
 21
0.00000000
 44
0.90
 90
3
 63
0
 45
1.0
  0
MTEXT
  5
D0
100
AcDbEntity
  8
dzialka
370
35
100
AcDbMText
 10
7562497.66500000004
 20
5725160.74000000022
 40
1.7500
 41
0.0
 71
5
 72
1
  1
\W0.6563x;359/2
  7
STANDARD
 11
1.00000000
 21
0.00000000
 44
0.90
 90
3
 63
0
 45
1.0
  0
MTEXT
  5
D1
100
AcDbEntity
  8
dzialka
370
35
100
AcDbMText
 10
7562444.625
 20
5725105.58499999996
 40
1.7500
 41
0.0
 71
5
 72
1
  1
\W0.6563x;360/9
  7
STANDARD
 11
1.00000000
 21
0.00000000
 44
0.90
 90
3
 63
0
 45
1.0
  0
MTEXT
  5
D2
100
AcDbEntity
  8
dzialka
370
35
100
AcDbMText
 10
7562446.5700000003
 20
5725139.13499999978
 40
1.7500
 41
0.0
 71
5
 72
1
  1
\W0.6563x;360/10
  7
STANDARD
 11
1.00000000
 21
0.00000000
 44
0.90
 90
3
 63
0
 45
1.0
  0
MTEXT
  5
D3
100
AcDbEntity
  8
dzialka
370
35
100
AcDbMText
 10
7562494.23000000045
 20
5725101.2650000006
 40
1.7500
 41
0.0
 71
5
 72
1
  1
\W0.6563x;359/6
  7
STANDARD
 11
1.00000000
 21
0.00000000
 44
0.90
 90
3
 63
0
 45
1.0
  0
MTEXT
  5
D4
100
AcDbEntity
  8
dzialka
370
35
100
AcDbMText
 10
7562495.6799999997
 20
5725132.51999999955
 40
1.7500
 41
0.0
 71
5
 72
1
  1
\W0.6563x;359/7
  7
STANDARD
 11
1.00000000
 21
0.00000000
 44
0.90
 90
3
 63
0
 45
1.0
  0
TEXT
  5
D5
100
AcDbEntity
  8
Osie
370
15
100
AcDbText
 39
0.15
 10
7562461.04420618154
 20
5725208.34007559065
 40
0.75
  1
-5.240-
 50
-3.40
 41
0.66
  7
STANDARD
 72
1
 11
7562462.33956936281
 21
5725208.01267601829
100
AcDbText
 73
1
  0
TEXT
  5
D6
100
AcDbEntity
  8
Osie
370
15
100
AcDbText
 39
0.15
 10
7562450.09653621539
 20
5725208.99069553521
 40
0.75
  1
-16.319-
 50
-3.40
 41
0.66
  7
STANDARD
 72
1
 11
7562451.57906936388
 21
5725208.65217601787
100
AcDbText
 73
1
  0
TEXT
  5
D7
100
AcDbEntity
  8
Osie
370
15
100
AcDbText
 39
0.15
 10
7562460.41820618138
 20
5725197.79907558952
 40
0.75
  1
-5.240-
 50
-3.40
 41
0.66
  7
STANDARD
 72
1
 11
7562461.71356936265
 21
5725197.47167601716
100
AcDbText
 73
1
  0
TEXT
  5
D8
100
AcDbEntity
  8
Osie
370
15
100
AcDbText
 39
0.15
 10
7562449.47003621422
 20
5725198.449695535
 40
0.75
  1
-16.320-
 50
-3.40
 41
0.66
  7
STANDARD
 72
1
 11
7562450.95256936271
 21
5725198.11117601767
100
AcDbText
 73
1
  0
TEXT
  5
D9
100
AcDbEntity
  8
Osie
370
15
100
AcDbText
 39
0.15
 10
7562443.90704044141
 20
5725202.47264026012
 40
0.75
  1
-10.560-
 50
-273.40
 41
0.66
  7
STANDARD
 72
1
 11
7562444.24555995874
 21
5725203.95517340861
100
AcDbText
 73
1
  0
TEXT
  5
DA
100
AcDbEntity
  8
Osie
370
15
100
AcDbText
 39
0.15
 10
7562464.40930446517
 20
5725201.19803621434
 40
0.75
  1
-10.560-
 50
-273.40
 41
0.66
  7
STANDARD
 72
1
 11
7562464.7478239825
 21
5725202.68056936283
100
AcDbText
 73
1
  0
ENDSEC
  0
SECTION
  2
OBJECTS
  0
DICTIONARY
  5
DB
330
0
100
AcDbDictionary
280
0
281
1
  3
ACAD_GROUP
350
DC
  3
ACAD_LAYOUT
350
DD
  3
ACAD_MLINESTYLE
350
DE
  3
ACAD_PLOTSETTINGS
350
DF
  3
ACAD_PLOTSTYLENAME
350
E0
  0
DICTIONARY
  5
DC
102
{ACAD_REACTORS
330
DB
102
}
330
DB
100
AcDbDictionary
280
0
281
1
  0
DICTIONARY
  5
DD
102
{ACAD_REACTORS
330
DB
102
}
330
DB
100
AcDbDictionary
280
0
281
1
  3
Layout
350
1B
  3
Model
350
19
  0
DICTIONARY
  5
DE
102
{ACAD_REACTORS
330
DB
102
}
330
DB
100
AcDbDictionary
280
0
281
1
  3
Standard
350
E1
  0
DICTIONARY
  5
DF
102
{ACAD_REACTORS
330
DB
102
}
330
DB
100
AcDbDictionary
280
0
281
1
  0
ACDBDICTIONARYWDFLT
  5
E0
102
{ACAD_REACTORS
330
DB
102
}
330
DB
100
AcDbDictionary
281
1
  3
Normal
350
A
100
AcDbDictionaryWithDefault
340
A
  0
LAYOUT
  5
1B
100
AcDbPlotSettings
  1

  2

  4

  6

 40
0.0
 41
0.0
 42
0.0
 43
0.0
 44
0.0
 45
0.0
 46
0.0
 47
0.0
 48
0.0
 49
0.0
140
0.0
141
0.0
142
1.0
143
1.0
 70
688
 72
1
 73
0
 74
5
  7

 75
0
147
1.0
148
0.0
149
0.0
100
AcDbLayout
  1
Layout
 70
1
 71
1
 10
0.0
 20
0.0
 11
420.0
 21
297.0
 12
0.0
 22
0.0
 32
0.0
 14
100000000000000000000.0
 24
100000000000000000000.0
 34
100000000000000000000.0
 15
-100000000000000000000.0
 25
-100000000000000000000.0
 35
-100000000000000000000.0
146
0.0
 13
0.0
 23
0.0
 33
0.0
 16
1.0
 26
0.0
 36
0.0
 17
0.0
 27
1.0
 37
0.0
 76
0
330
1A
  0
LAYOUT
  5
19
100
AcDbPlotSettings
  1

  2

  4

  6

 40
0.0
 41
0.0
 42
0.0
 43
0.0
 44
0.0
 45
0.0
 46
0.0
 47
0.0
 48
0.0
 49
0.0
140
0.0
141
0.0
142
1.0
143
1.0
 70
1712
 72
1
 73
0
 74
0
  7

 75
0
147
1.0
148
0.0
149
0.0
100
AcDbLayout
  1
Model
 70
1
 71
0
 10
0.0
 20
0.0
 11
12.0
 21
9.0
 12
0.0
 22
0.0
 32
0.0
 14
0.0
 24
0.0
 34
0.0
 15
0.0
 25
0.0
 35
0.0
146
0.0
 13
0.0
 23
0.0
 33
0.0
 16
1.0
 26
0.0
 36
0.0
 17
0.0
 27
1.0
 37
0.0
 76
0
330
18
  0
MLINESTYLE
  5
E1
102
{ACAD_REACTORS
330
DE
102
}
330
DE
100
AcDbMlineStyle
  2
Standard
 70
0
  3

 62
256
 51
90.0
 52
90.0
  2
Standard
 71
2
 49
0.5
 62
256
  6
ByLayer
 49
-0.5
 62
256
  6
ByLayer
  0
ACDBPLACEHOLDER
  5
A
  0
ENDSEC
  0
EOF
