  0
SECTION
  2
HEADER
  9
$ACADVER
  1
AC1018
  9
$HANDSEED
  5
FFFFFF
  9
$EXTMAX
 10
7578299.17100000009
 20
5720062.93499999959
 30
1000000.00
  9
$EXTMIN
 10
7578291.94400000013
 20
5720058.09499999974
 30
0.00
  9
$LIMMIN
 10
7578291.94400000013
 20
5720058.09499999974
  9
$LIMMAX
 10
7578299.17100000009
 20
5720062.93499999959
  9
$DIMASZ
 40
2.5
  9
$DIMGAP
 40
0.625
  9
$INSUNITS
 70
6
  9
$DIMEXO
 40
0.625
  9
$DIMTXT
 40
2.5
  9
$DIMSTYLE
  2
Standard
  9
$PLIMMIN
 10
0.0
 20
0.0
  9
$PLIMMAX
 10
210.0
 20
297.0
  9
$DIMEXE
 40
1.25
  9
$TEXTSIZE
 40
2.5
  9
$TEXTSTYLE
  7
Standard
  9
$LWDISPLAY
290
1
  9
$TDCREATE
 40
45197.542089236
  9
$TDUCREATE
 40
45197.458755903
  9
$TDUPDATE
 40
45197.542089236
  9
$TDUUPDATE
 40
45197.458755903
  9
$TDINDWG
 40
0.0
  9
$TDUSRTIMER
 40
0.0
  9
$USRTIMER
 70
1
  0
ENDSEC
  0
SECTION
  2
TABLES
  0
TABLE
  2
VPORT
  5
1
100
AcDbSymbolTable
 70
1
  0
VPORT
  5
2
100
AcDbSymbolTableRecord
100
AcDbViewportTableRecord
  2
*ACTIVE
 70
0
 10
0.0
 20
0.0
 11
1.0
 21
1.0
 12
7578295.558
 22
5720060.515
 13
0.0
 23
0.0
 14
1.0
 24
1.0
 15
0.0
 25
0.0
 16
0.0
 26
0.0
 36
1.0
 17
0.0
 27
0.0
 37
0.0
 40
4.840
 41
1.493
 42
50.0
 43
0.0
 44
0.0
 50
0.0
 51
0.0
 71
0
 72
100
 73
1
 74
1
 75
0
 76
0
 77
0
 78
0
  0
ENDTAB
  0
TABLE
  2
LTYPE
  5
3
100
AcDbSymbolTable
 70
3
  0
LTYPE
  5
4
100
AcDbSymbolTableRecord
100
AcDbLinetypeTableRecord
  2
ByBlock
 70
0
  3

 72
65
 73
0
 40
0.0
  0
LTYPE
  5
5
100
AcDbSymbolTableRecord
100
AcDbLinetypeTableRecord
  2
ByLayer
 70
0
  3

 72
65
 73
0
 40
0.0
  0
LTYPE
  5
6
100
AcDbSymbolTableRecord
100
AcDbLinetypeTableRecord
  2
CONTINUOUS
 70
0
  3
Solid line
 72
65
 73
0
 40
0.0
  0
ENDTAB
  0
TABLE
  2
LAYER
  5
7
100
AcDbSymbolTable
 70
3
  0
LAYER
  5
8
100
AcDbSymbolTableRecord
100
AcDbLayerTableRecord
  2
0
 70
0
420
0
  6
CONTINUOUS
370
18
390
9
  0
LAYER
  5
A
100
AcDbSymbolTableRecord
100
AcDbLayerTableRecord
  2
BUDYNEK_ROBOCZE
 70
0
420
0
  6
CONTINUOUS
370
18
390
9
  0
LAYER
  5
B
100
AcDbSymbolTableRecord
100
AcDbLayerTableRecord
  2
SCIANA
 70
0
420
255
  6
CONTINUOUS
370
18
390
9
  0
ENDTAB
  0
TABLE
  2
STYLE
  5
C
100
AcDbSymbolTable
 70
2
  0
STYLE
  5
D
100
AcDbSymbolTableRecord
100
AcDbTextStyleTableRecord
  2
STANDARD
 70
0
 40
0.0
 41
1.0
 50
0.0
 71
0
  3
simplex.shx
  4

  0
STYLE
  5
E
100
AcDbSymbolTableRecord
100
AcDbTextStyleTableRecord
  2
STANDARD_ITALIC
 70
0
 40
0.0
 41
1.0
 50
15.0
 71
0
  3
simplex.shx
  4

  0
ENDTAB
  0
TABLE
  2
VIEW
  5
F
100
AcDbSymbolTable
 70
0
  0
ENDTAB
  0
TABLE
  2
UCS
  5
10
100
AcDbSymbolTable
 70
0
  0
ENDTAB
  0
TABLE
  2
APPID
  5
11
100
AcDbSymbolTable
 70
1
  0
APPID
  5
12
100
AcDbSymbolTableRecord
100
AcDbRegAppTableRecord
  2
ACAD
 70
0
  0
ENDTAB
  0
TABLE
  2
DIMSTYLE
  5
13
100
AcDbSymbolTable
 70
1
100
AcDbDimStyleTable
  0
DIMSTYLE
105
14
100
AcDbSymbolTableRecord
100
AcDbDimStyleTableRecord
  2
Standard
 70
0
340
D
  0
ENDTAB
  0
TABLE
  2
BLOCK_RECORD
  5
15
100
AcDbSymbolTable
 70
2
  0
BLOCK_RECORD
  5
16
100
AcDbSymbolTableRecord
100
AcDbBlockTableRecord
  2
*Model_Space
340
17
  0
BLOCK_RECORD
  5
18
100
AcDbSymbolTableRecord
100
AcDbBlockTableRecord
  2
*Paper_Space
340
19
  0
ENDTAB
  0
ENDSEC
  0
SECTION
  2
BLOCKS
  0
BLOCK
  5
1A
100
AcDbEntity
  8
0
100
AcDbBlockBegin
  2
*Model_Space
 70
0
 10
0.0
 20
0.0
 30
0.0
  3
*Model_Space
  1

  0
ENDBLK
  5
1B
100
AcDbEntity
  8
0
100
AcDbBlockEnd
  0
BLOCK
  5
1C
100
AcDbEntity
 67
1
  8
0
100
AcDbBlockBegin
  2
*Paper_Space
 70
0
 10
0.0
 20
0.0
 30
0.0
  3
*Paper_Space
  1

  0
ENDBLK
  5
1D
100
AcDbEntity
 67
1
  8
0
100
AcDbBlockEnd
  0
ENDSEC
  0
SECTION
  2
ENTITIES
  0
POLYLINE
  5
1E
100
AcDbEntity
  8
BUDYNEK_ROBOCZE
  6
CONTINUOUS
370
18
100
AcDb2dPolyline
 66
1
 70
128
  0
VERTEX
  5
1F
100
AcDbEntity
  8
BUDYNEK_ROBOCZE
100
AcDbVertex
100
AcDb2dVertex
 10
7578295.64800000004
 20
5720059.0820000004
  0
VERTEX
  5
20
100
AcDbEntity
  8
BUDYNEK_ROBOCZE
100
AcDbVertex
100
AcDb2dVertex
 10
7578295.77867571916
 20
5720062.04957737029
  0
SEQEND
  5
21
100
AcDbEntity
  8
BUDYNEK_ROBOCZE
  0
POLYLINE
  5
22
100
AcDbEntity
  8
BUDYNEK_ROBOCZE
  6
CONTINUOUS
370
18
100
AcDb2dPolyline
 66
1
 70
128
  0
VERTEX
  5
23
100
AcDbEntity
  8
BUDYNEK_ROBOCZE
100
AcDbVertex
100
AcDb2dVertex
 10
7578298.77032187674
 20
5720058.92810496781
  0
VERTEX
  5
24
100
AcDbEntity
  8
BUDYNEK_ROBOCZE
100
AcDbVertex
100
AcDb2dVertex
 10
7578292.77500000037
 20
5720059.16500000004
  0
SEQEND
  5
25
100
AcDbEntity
  8
BUDYNEK_ROBOCZE
  0
POLYLINE
  5
26
100
AcDbEntity
  8
BUDYNEK_ROBOCZE
  6
CONTINUOUS
370
18
100
AcDb2dPolyline
 66
1
 70
128
  0
VERTEX
  5
27
100
AcDbEntity
  8
BUDYNEK_ROBOCZE
100
AcDbVertex
100
AcDb2dVertex
 10
7578298.03183254413
 20
5720060.71470881626
  0
VERTEX
  5
28
100
AcDbEntity
  8
BUDYNEK_ROBOCZE
100
AcDbVertex
100
AcDb2dVertex
 10
7578298.08475467749
 20
5720061.95650374424
  0
SEQEND
  5
29
100
AcDbEntity
  8
BUDYNEK_ROBOCZE
  0
POLYLINE
  5
2A
100
AcDbEntity
  8
BUDYNEK_ROBOCZE
  6
CONTINUOUS
370
18
100
AcDb2dPolyline
 66
1
 70
128
  0
VERTEX
  5
2B
100
AcDbEntity
  8
BUDYNEK_ROBOCZE
100
AcDbVertex
100
AcDb2dVertex
 10
7578297.76176396944
 20
5720060.71883959044
  0
VERTEX
  5
2C
100
AcDbEntity
  8
BUDYNEK_ROBOCZE
100
AcDbVertex
100
AcDb2dVertex
 10
7578297.81500000041
 20
5720061.96800000034
  0
SEQEND
  5
2D
100
AcDbEntity
  8
BUDYNEK_ROBOCZE
  0
POLYLINE
  5
2E
100
AcDbEntity
  8
BUDYNEK_ROBOCZE
  6
CONTINUOUS
370
18
100
AcDb2dPolyline
 66
1
 70
128
  0
VERTEX
  5
2F
100
AcDbEntity
  8
BUDYNEK_ROBOCZE
100
AcDbVertex
100
AcDb2dVertex
 10
7578297.4914180208
 20
5720060.72698218655
  0
VERTEX
  5
30
100
AcDbEntity
  8
BUDYNEK_ROBOCZE
100
AcDbVertex
100
AcDb2dVertex
 10
7578297.54475467745
 20
5720061.97850374412
  0
SEQEND
  5
31
100
AcDbEntity
  8
BUDYNEK_ROBOCZE
  0
POLYLINE
  5
32
100
AcDbEntity
  8
BUDYNEK_ROBOCZE
  6
CONTINUOUS
370
18
100
AcDb2dPolyline
 66
1
 70
128
  0
VERTEX
  5
33
100
AcDbEntity
  8
BUDYNEK_ROBOCZE
100
AcDbVertex
100
AcDb2dVertex
 10
7578297.22167688608
 20
5720060.74405638967
  0
VERTEX
  5
34
100
AcDbEntity
  8
BUDYNEK_ROBOCZE
100
AcDbVertex
100
AcDb2dVertex
 10
7578297.27475467604
 20
5720061.98950374406
  0
SEQEND
  5
35
100
AcDbEntity
  8
BUDYNEK_ROBOCZE
  0
POLYLINE
  5
36
100
AcDbEntity
  8
BUDYNEK_ROBOCZE
  6
CONTINUOUS
370
18
100
AcDb2dPolyline
 66
1
 70
128
  0
VERTEX
  5
37
100
AcDbEntity
  8
BUDYNEK_ROBOCZE
100
AcDbVertex
100
AcDb2dVertex
 10
7578296.95154745318
 20
5720060.75201928802
  0
VERTEX
  5
38
100
AcDbEntity
  8
BUDYNEK_ROBOCZE
100
AcDbVertex
100
AcDb2dVertex
 10
7578297.00475467648
 20
5720062.000503744
  0
SEQEND
  5
39
100
AcDbEntity
  8
BUDYNEK_ROBOCZE
  0
POLYLINE
  5
3A
100
AcDbEntity
  8
SCIANA
  6
CONTINUOUS
370
18
100
AcDb2dPolyline
 66
1
 70
128
  0
VERTEX
  5
3B
100
AcDbEntity
  8
SCIANA
100
AcDbVertex
100
AcDb2dVertex
 10
7578292.77500000037
 20
5720059.16500000004
  0
VERTEX
  5
3C
100
AcDbEntity
  8
SCIANA
100
AcDbVertex
100
AcDb2dVertex
 10
7578292.89249172248
 20
5720062.16269839928
  0
SEQEND
  5
3D
100
AcDbEntity
  8
SCIANA
  0
POLYLINE
  5
3E
100
AcDbEntity
  8
SCIANA
  6
CONTINUOUS
370
18
100
AcDb2dPolyline
 66
1
 70
128
  0
VERTEX
  5
3F
100
AcDbEntity
  8
SCIANA
100
AcDbVertex
100
AcDb2dVertex
 10
7578298.88788852189
 20
5720061.92771495506
  0
VERTEX
  5
40
100
AcDbEntity
  8
SCIANA
100
AcDbVertex
100
AcDb2dVertex
 10
7578298.77032187674
 20
5720058.92810496781
  0
SEQEND
  5
41
100
AcDbEntity
  8
SCIANA
  0
POLYLINE
  5
42
100
AcDbEntity
  8
SCIANA
  6
CONTINUOUS
370
18
100
AcDb2dPolyline
 66
1
 70
128
  0
VERTEX
  5
43
100
AcDbEntity
  8
SCIANA
100
AcDbVertex
100
AcDb2dVertex
 10
7578292.88220933452
 20
5720061.9131922191
  0
VERTEX
  5
44
100
AcDbEntity
  8
SCIANA
100
AcDbVertex
100
AcDb2dVertex
 10
7578298.8782093348
 20
5720061.6781922169
  0
SEQEND
  5
45
100
AcDbEntity
  8
SCIANA
  0
POLYLINE
  5
46
100
AcDbEntity
  8
SCIANA
  6
CONTINUOUS
370
18
100
AcDb2dPolyline
 66
1
 70
128
  0
VERTEX
  5
47
100
AcDbEntity
  8
SCIANA
100
AcDbVertex
100
AcDb2dVertex
 10
7578298.63819359336
 20
5720061.93782571889
  0
VERTEX
  5
48
100
AcDbEntity
  8
SCIANA
100
AcDbVertex
100
AcDb2dVertex
 10
7578298.52019359264
 20
5720058.93782571889
  0
SEQEND
  5
49
100
AcDbEntity
  8
SCIANA
  0
POLYLINE
  5
4A
100
AcDbEntity
  8
SCIANA
  6
CONTINUOUS
370
18
100
AcDb2dPolyline
 66
1
 70
128
  0
VERTEX
  5
4B
100
AcDbEntity
  8
SCIANA
100
AcDbVertex
100
AcDb2dVertex
 10
7578293.02480940707
 20
5720059.15525093395
  0
VERTEX
  5
4C
100
AcDbEntity
  8
SCIANA
100
AcDbVertex
100
AcDb2dVertex
 10
7578293.14180940762
 20
5720062.15325093362
  0
SEQEND
  5
4D
100
AcDbEntity
  8
SCIANA
  0
POLYLINE
  5
4E
100
AcDbEntity
  8
SCIANA
  6
CONTINUOUS
370
18
100
AcDb2dPolyline
 66
1
 70
128
  0
VERTEX
  5
4F
100
AcDbEntity
  8
SCIANA
100
AcDbVertex
100
AcDb2dVertex
 10
7578292.89249172248
 20
5720062.16269839928
  0
VERTEX
  5
50
100
AcDbEntity
  8
SCIANA
100
AcDbVertex
100
AcDb2dVertex
 10
7578298.88788852189
 20
5720061.92771495506
  0
SEQEND
  5
51
100
AcDbEntity
  8
SCIANA
  0
POLYLINE
  5
52
100
AcDbEntity
  8
SCIANA
  6
CONTINUOUS
370
18
100
AcDb2dPolyline
 66
1
 70
128
  0
VERTEX
  5
53
100
AcDbEntity
  8
SCIANA
100
AcDbVertex
100
AcDb2dVertex
 10
7578296.42118312046
 20
5720060.52356949542
  0
VERTEX
  5
54
100
AcDbEntity
  8
SCIANA
100
AcDbVertex
100
AcDb2dVertex
 10
7578296.48522715177
 20
5720062.02264468186
  0
SEQEND
  5
55
100
AcDbEntity
  8
SCIANA
  0
POLYLINE
  5
56
100
AcDbEntity
  8
SCIANA
  6
CONTINUOUS
370
18
100
AcDb2dPolyline
 66
1
 70
128
  0
VERTEX
  5
57
100
AcDbEntity
  8
SCIANA
100
AcDbVertex
100
AcDb2dVertex
 10
7578296.42118312046
 20
5720060.52356949542
  0
VERTEX
  5
58
100
AcDbEntity
  8
SCIANA
100
AcDbVertex
100
AcDb2dVertex
 10
7578298.82920933422
 20
5720060.42919221614
  0
SEQEND
  5
59
100
AcDbEntity
  8
SCIANA
  0
POLYLINE
  5
5A
100
AcDbEntity
  8
SCIANA
  6
CONTINUOUS
370
18
100
AcDb2dPolyline
 66
1
 70
128
  0
VERTEX
  5
5B
100
AcDbEntity
  8
SCIANA
100
AcDbVertex
100
AcDb2dVertex
 10
7578296.68158014398
 20
5720060.76330083888
  0
VERTEX
  5
5C
100
AcDbEntity
  8
SCIANA
100
AcDbVertex
100
AcDb2dVertex
 10
7578296.73465437908
 20
5720062.01210876461
  0
SEQEND
  5
5D
100
AcDbEntity
  8
SCIANA
  0
POLYLINE
  5
5E
100
AcDbEntity
  8
SCIANA
  6
CONTINUOUS
370
18
100
AcDb2dPolyline
 66
1
 70
128
  0
VERTEX
  5
5F
100
AcDbEntity
  8
SCIANA
100
AcDbVertex
100
AcDb2dVertex
 10
7578296.68170441966
 20
5720060.76331294049
  0
VERTEX
  5
60
100
AcDbEntity
  8
SCIANA
100
AcDbVertex
100
AcDb2dVertex
 10
7578298.83883733861
 20
5720060.67876886763
  0
SEQEND
  5
61
100
AcDbEntity
  8
SCIANA
  0
TEXT
  5
62
100
AcDbEntity
  8
BUDYNEK_ROBOCZE
370
18
100
AcDbText
 39
0.18
 10
7578292.64443264902
 20
5720060.40029558539
 40
0.18
  1
-3.00-
 50
-272.00
 41
0.66
  7
STANDARD
 72
1
 11
7578292.71381896269
 21
5720060.66803713888
100
AcDbText
 73
1
  0
TEXT
  5
63
100
AcDbEntity
  8
BUDYNEK_ROBOCZE
370
18
100
AcDbText
 39
0.18
 10
7578295.62663650885
 20
5720062.23451988958
 40
0.18
  1
-6.00-
 50
-2.00
 41
0.66
  7
STANDARD
 72
1
 11
7578295.89437806234
 21
5720062.16513357591
100
AcDbText
 73
1
  0
TEXT
  5
64
100
AcDbEntity
  8
BUDYNEK_ROBOCZE
370
18
100
AcDbText
 39
0.18
 10
7578298.4505771324
 20
5720060.53016447369
 40
0.18
  1
-3.00-
 50
-272.00
 41
0.66
  7
STANDARD
 72
1
 11
7578298.51996344607
 21
5720060.79790602718
100
AcDbText
 73
1
  0
TEXT
  5
65
100
AcDbEntity
  8
BUDYNEK_ROBOCZE
370
18
100
AcDbText
 39
0.18
 10
7578294.36116447858
 20
5720058.81342286523
 40
0.18
  1
-6.00-
 50
-2.00
 41
0.66
  7
STANDARD
 72
1
 11
7578294.62890603207
 21
5720058.74403655156
100
AcDbText
 73
1
  0
MTEXT
  5
66
100
AcDbEntity
  8
BUDYNEK_ROBOCZE
370
9
100
AcDbMText
 10
7578298.33900000155
 20
5720061.82600000128
 40
0.1000
 41
0.0
 71
1
 72
1
  1
\W0.6563x;\I-0.90\P163.63
  7
STANDARD_ITALIC
 11
1.00000000
 21
0.00000000
 44
0.90
  0
TEXT
  5
67
100
AcDbEntity
  8
BUDYNEK_ROBOCZE
370
9
100
AcDbText
 39
0.09
 10
7578295.76371596474
 20
5720061.60984916426
 40
0.10
  1
+-0.00 164.53
 50
0.00
 41
0.66
 51
15.00
  7
STANDARD
 72
0
 11
7578295.76371596474
 21
5720061.70984916389
100
AcDbText
 73
3
  0
TEXT
  5
68
100
AcDbEntity
  8
SCIANA
370
18
100
AcDbText
 39
0.18
 10
7578297.31621751562
 20
5720060.29183558561
 40
0.18
  1
-2.41-
 50
-2.30
 41
0.66
  7
STANDARD
 72
1
 11
7578297.58359209448
 21
5720060.22104833741
100
AcDbText
 73
1
  0
POLYLINE
  5
69
100
AcDbEntity
  8
BUDYNEK_ROBOCZE
  6
CONTINUOUS
370
13
100
AcDb2dPolyline
 66
1
 70
128
  0
VERTEX
  5
6A
100
AcDbEntity
  8
BUDYNEK_ROBOCZE
100
AcDbVertex
100
AcDb2dVertex
 10
7578298.70948598068
 20
5720061.70100000128
  0
VERTEX
  5
6B
100
AcDbEntity
  8
BUDYNEK_ROBOCZE
100
AcDbVertex
100
AcDb2dVertex
 10
7578298.33900000155
 20
5720061.70100000128
  0
VERTEX
  5
6C
100
AcDbEntity
  8
BUDYNEK_ROBOCZE
100
AcDbVertex
100
AcDb2dVertex
 10
7578298.22300000209
 20
5720061.36000000127
  0
SEQEND
  5
6D
100
AcDbEntity
  8
BUDYNEK_ROBOCZE
  0
POLYLINE
  5
6E
100
AcDbEntity
  8
BUDYNEK_ROBOCZE
  6
CONTINUOUS
370
13
100
AcDb2dPolyline
 66
1
 70
128
  0
VERTEX
  5
6F
100
AcDbEntity
  8
BUDYNEK_ROBOCZE
100
AcDbVertex
100
AcDb2dVertex
 10
7578295.76371596474
 20
5720061.58484916389
  0
VERTEX
  5
70
100
AcDbEntity
  8
BUDYNEK_ROBOCZE
100
AcDbVertex
100
AcDb2dVertex
 10
7578296.56580359582
 20
5720061.58484916389
  0
VERTEX
  5
71
100
AcDbEntity
  8
BUDYNEK_ROBOCZE
100
AcDbVertex
100
AcDb2dVertex
 10
7578296.58500000183
 20
5720061.37900000159
  0
SEQEND
  5
72
100
AcDbEntity
  8
BUDYNEK_ROBOCZE
  0
ENDSEC
  0
SECTION
  2
OBJECTS
  0
DICTIONARY
  5
73
330
0
100
AcDbDictionary
280
0
281
1
  3
ACAD_GROUP
350
74
  3
ACAD_LAYOUT
350
75
  3
ACAD_MLINESTYLE
350
76
  3
ACAD_PLOTSETTINGS
350
77
  3
ACAD_PLOTSTYLENAME
350
78
  0
DICTIONARY
  5
74
102
{ACAD_REACTORS
330
73
102
}
330
73
100
AcDbDictionary
280
0
281
1
  0
DICTIONARY
  5
75
102
{ACAD_REACTORS
330
73
102
}
330
73
100
AcDbDictionary
280
0
281
1
  3
Layout
350
19
  3
Model
350
17
  0
DICTIONARY
  5
76
102
{ACAD_REACTORS
330
73
102
}
330
73
100
AcDbDictionary
280
0
281
1
  3
Standard
350
79
  0
DICTIONARY
  5
77
102
{ACAD_REACTORS
330
73
102
}
330
73
100
AcDbDictionary
280
0
281
1
  0
ACDBDICTIONARYWDFLT
  5
78
102
{ACAD_REACTORS
330
73
102
}
330
73
100
AcDbDictionary
281
1
  3
Normal
350
9
100
AcDbDictionaryWithDefault
340
9
  0
LAYOUT
  5
19
100
AcDbPlotSettings
  1

  2

  4

  6

 40
0.0
 41
0.0
 42
0.0
 43
0.0
 44
0.0
 45
0.0
 46
0.0
 47
0.0
 48
0.0
 49
0.0
140
0.0
141
0.0
142
1.0
143
1.0
 70
688
 72
1
 73
0
 74
5
  7

 75
0
147
1.0
148
0.0
149
0.0
100
AcDbLayout
  1
Layout
 70
1
 71
1
 10
0.0
 20
0.0
 11
420.0
 21
297.0
 12
0.0
 22
0.0
 32
0.0
 14
100000000000000000000.0
 24
100000000000000000000.0
 34
100000000000000000000.0
 15
-100000000000000000000.0
 25
-100000000000000000000.0
 35
-100000000000000000000.0
146
0.0
 13
0.0
 23
0.0
 33
0.0
 16
1.0
 26
0.0
 36
0.0
 17
0.0
 27
1.0
 37
0.0
 76
0
330
18
  0
LAYOUT
  5
17
100
AcDbPlotSettings
  1

  2

  4

  6

 40
0.0
 41
0.0
 42
0.0
 43
0.0
 44
0.0
 45
0.0
 46
0.0
 47
0.0
 48
0.0
 49
0.0
140
0.0
141
0.0
142
1.0
143
1.0
 70
1712
 72
1
 73
0
 74
0
  7

 75
0
147
1.0
148
0.0
149
0.0
100
AcDbLayout
  1
Model
 70
1
 71
0
 10
0.0
 20
0.0
 11
12.0
 21
9.0
 12
0.0
 22
0.0
 32
0.0
 14
0.0
 24
0.0
 34
0.0
 15
0.0
 25
0.0
 35
0.0
146
0.0
 13
0.0
 23
0.0
 33
0.0
 16
1.0
 26
0.0
 36
0.0
 17
0.0
 27
1.0
 37
0.0
 76
0
330
16
  0
MLINESTYLE
  5
79
102
{ACAD_REACTORS
330
76
102
}
330
76
100
AcDbMlineStyle
  2
Standard
 70
0
  3

 62
256
 51
90.0
 52
90.0
  2
Standard
 71
2
 49
0.5
 62
256
  6
ByLayer
 49
-0.5
 62
256
  6
ByLayer
  0
ACDBPLACEHOLDER
  5
9
  0
ENDSEC
  0
EOF
