  0
SECTION
  2
HEADER
  9
$ACADVER
  1
AC1027
  9
$ACADMAINTVER
 70
     8
  9
$DWGCODEPAGE
  3
ANSI_1250
  9
$REQUIREDVERSIONS
160
                 0
  9
$INSBASE
 10
0.0
 20
0.0
 30
0.0
  9
$EXTMIN
 10
8391885.089999998
 20
5685883.879999998
 30
0.0
  9
$EXTMAX
 10
8393134.679999999
 20
5687082.5
 30
0.0
  9
$LIMMIN
 10
8391885.09
 20
5685883.879999998
  9
$LIMMAX
 10
8393134.679999999
 20
5687082.5
  9
$ORTHOMODE
 70
     0
  9
$REGENMODE
 70
     1
  9
$FILLMODE
 70
     1
  9
$QTEXTMODE
 70
     0
  9
$MIRRTEXT
 70
     0
  9
$LTSCALE
 40
1.0
  9
$ATTMODE
 70
     1
  9
$TEXTSIZE
 40
0.2
  9
$TRACEWID
 40
0.05
  9
$TEXTSTYLE
  7
STANDARD
  9
$CLAYER
  8
0
  9
$CELTYPE
  6
CONTINUOUS
  9
$CECOLOR
 62
   256
  9
$CELTSCALE
 40
1.0
  9
$DISPSILH
 70
     0
  9
$DIMSCALE
 40
1.0
  9
$DIMASZ
 40
2.5
  9
$DIMEXO
 40
0.625
  9
$DIMDLI
 40
0.38
  9
$DIMRND
 40
0.0
  9
$DIMDLE
 40
0.0
  9
$DIMEXE
 40
1.25
  9
$DIMTP
 40
0.0
  9
$DIMTM
 40
0.0
  9
$DIMTXT
 40
2.5
  9
$DIMCEN
 40
0.09
  9
$DIMTSZ
 40
0.0
  9
$DIMTOL
 70
     0
  9
$DIMLIM
 70
     0
  9
$DIMTIH
 70
     1
  9
$DIMTOH
 70
     1
  9
$DIMSE1
 70
     0
  9
$DIMSE2
 70
     0
  9
$DIMTAD
 70
     0
  9
$DIMZIN
 70
     0
  9
$DIMBLK
  1

  9
$DIMASO
 70
     1
  9
$DIMSHO
 70
     1
  9
$DIMPOST
  1

  9
$DIMAPOST
  1

  9
$DIMALT
 70
     0
  9
$DIMALTD
 70
     2
  9
$DIMALTF
 40
25.4
  9
$DIMLFAC
 40
1.0
  9
$DIMTOFL
 70
     0
  9
$DIMTVP
 40
0.0
  9
$DIMTIX
 70
     0
  9
$DIMSOXD
 70
     0
  9
$DIMSAH
 70
     0
  9
$DIMBLK1
  1

  9
$DIMBLK2
  1

  9
$DIMSTYLE
  2
Standard
  9
$DIMCLRD
 70
     0
  9
$DIMCLRE
 70
     0
  9
$DIMCLRT
 70
     0
  9
$DIMTFAC
 40
1.0
  9
$DIMGAP
 40
0.625
  9
$DIMJUST
 70
     0
  9
$DIMSD1
 70
     0
  9
$DIMSD2
 70
     0
  9
$DIMTOLJ
 70
     1
  9
$DIMTZIN
 70
     0
  9
$DIMALTZ
 70
     0
  9
$DIMALTTZ
 70
     0
  9
$DIMUPT
 70
     0
  9
$DIMDEC
 70
     4
  9
$DIMTDEC
 70
     4
  9
$DIMALTU
 70
     2
  9
$DIMALTTD
 70
     2
  9
$DIMTXSTY
  7
STANDARD
  9
$DIMAUNIT
 70
     0
  9
$DIMADEC
 70
     0
  9
$DIMALTRND
 40
0.0
  9
$DIMAZIN
 70
     0
  9
$DIMDSEP
 70
    46
  9
$DIMATFIT
 70
     3
  9
$DIMFRAC
 70
     0
  9
$DIMLDRBLK
  1

  9
$DIMLUNIT
 70
     2
  9
$DIMLWD
 70
    -2
  9
$DIMLWE
 70
    -2
  9
$DIMTMOVE
 70
     0
  9
$DIMFXL
 40
1.0
  9
$DIMFXLON
 70
     0
  9
$DIMJOGANG
 40
0.7853981633974483
  9
$DIMTFILL
 70
     0
  9
$DIMTFILLCLR
 70
     0
  9
$DIMARCSYM
 70
     0
  9
$DIMLTYPE
  6

  9
$DIMLTEX1
  6

  9
$DIMLTEX2
  6

  9
$DIMTXTDIRECTION
 70
     0
  9
$LUNITS
 70
     2
  9
$LUPREC
 70
     4
  9
$SKETCHINC
 40
0.1
  9
$FILLETRAD
 40
0.0
  9
$AUNITS
 70
     0
  9
$AUPREC
 70
     0
  9
$MENU
  1

  9
$ELEVATION
 40
0.0
  9
$PELEVATION
 40
0.0
  9
$THICKNESS
 40
0.0
  9
$LIMCHECK
 70
     0
  9
$CHAMFERA
 40
0.0
  9
$CHAMFERB
 40
0.0
  9
$CHAMFERC
 40
0.0
  9
$CHAMFERD
 40
0.0
  9
$SKPOLY
 70
     0
  9
$TDCREATE
 40
2305814.624383264
  9
$TDUCREATE
 40
45209.541049931
  9
$TDUPDATE
 40
2460228.628727685
  9
$TDUUPDATE
 40
2460228.545394352
  9
$TDINDWG
 40
0.000680301
  9
$TDUSRTIMER
 40
0.000679942
  9
$USRTIMER
 70
     1
  9
$ANGBASE
 50
0.0
  9
$ANGDIR
 70
     0
  9
$PDMODE
 70
     0
  9
$PDSIZE
 40
0.0
  9
$PLINEWID
 40
0.0
  9
$SPLFRAME
 70
     0
  9
$SPLINETYPE
 70
     6
  9
$SPLINESEGS
 70
     8
  9
$HANDSEED
  5
1000039
  9
$SURFTAB1
 70
     6
  9
$SURFTAB2
 70
     6
  9
$SURFTYPE
 70
     6
  9
$SURFU
 70
     6
  9
$SURFV
 70
     6
  9
$UCSBASE
  2

  9
$UCSNAME
  2

  9
$UCSORG
 10
0.0
 20
0.0
 30
0.0
  9
$UCSXDIR
 10
1.0
 20
0.0
 30
0.0
  9
$UCSYDIR
 10
0.0
 20
1.0
 30
0.0
  9
$UCSORTHOREF
  2

  9
$UCSORTHOVIEW
 70
     0
  9
$UCSORGTOP
 10
0.0
 20
0.0
 30
0.0
  9
$UCSORGBOTTOM
 10
0.0
 20
0.0
 30
0.0
  9
$UCSORGLEFT
 10
0.0
 20
0.0
 30
0.0
  9
$UCSORGRIGHT
 10
0.0
 20
0.0
 30
0.0
  9
$UCSORGFRONT
 10
0.0
 20
0.0
 30
0.0
  9
$UCSORGBACK
 10
0.0
 20
0.0
 30
0.0
  9
$PUCSBASE
  2

  9
$PUCSNAME
  2

  9
$PUCSORG
 10
0.0
 20
0.0
 30
0.0
  9
$PUCSXDIR
 10
1.0
 20
0.0
 30
0.0
  9
$PUCSYDIR
 10
0.0
 20
1.0
 30
0.0
  9
$PUCSORTHOREF
  2

  9
$PUCSORTHOVIEW
 70
     0
  9
$PUCSORGTOP
 10
0.0
 20
0.0
 30
0.0
  9
$PUCSORGBOTTOM
 10
0.0
 20
0.0
 30
0.0
  9
$PUCSORGLEFT
 10
0.0
 20
0.0
 30
0.0
  9
$PUCSORGRIGHT
 10
0.0
 20
0.0
 30
0.0
  9
$PUCSORGFRONT
 10
0.0
 20
0.0
 30
0.0
  9
$PUCSORGBACK
 10
0.0
 20
0.0
 30
0.0
  9
$USERI1
 70
     0
  9
$USERI2
 70
     0
  9
$USERI3
 70
     0
  9
$USERI4
 70
     0
  9
$USERI5
 70
     0
  9
$USERR1
 40
0.0
  9
$USERR2
 40
0.0
  9
$USERR3
 40
0.0
  9
$USERR4
 40
0.0
  9
$USERR5
 40
0.0
  9
$WORLDVIEW
 70
     1
  9
$SHADEDGE
 70
     3
  9
$SHADEDIF
 70
    70
  9
$TILEMODE
 70
     1
  9
$MAXACTVP
 70
    64
  9
$PINSBASE
 10
0.0
 20
0.0
 30
0.0
  9
$PLIMCHECK
 70
     0
  9
$PEXTMIN
 10
1.000000000000000E+20
 20
1.000000000000000E+20
 30
1.000000000000000E+20
  9
$PEXTMAX
 10
-1.000000000000000E+20
 20
-1.000000000000000E+20
 30
-1.000000000000000E+20
  9
$PLIMMIN
 10
0.0
 20
0.0
  9
$PLIMMAX
 10
210.0
 20
297.0
  9
$UNITMODE
 70
     0
  9
$VISRETAIN
 70
     1
  9
$PLINEGEN
 70
     0
  9
$PSLTSCALE
 70
     1
  9
$TREEDEPTH
 70
  3020
  9
$CMLSTYLE
  2
Standard
  9
$CMLJUST
 70
     0
  9
$CMLSCALE
 40
1.0
  9
$PROXYGRAPHICS
 70
     1
  9
$MEASUREMENT
 70
     0
  9
$CELWEIGHT
370
    -1
  9
$ENDCAPS
280
     0
  9
$JOINSTYLE
280
     0
  9
$LWDISPLAY
290
     1
  9
$INSUNITS
 70
     6
  9
$HYPERLINKBASE
  1

  9
$STYLESHEET
  1

  9
$XEDIT
290
     0
  9
$CEPSNTYPE
380
     0
  9
$PSTYLEMODE
290
     1
  9
$FINGERPRINTGUID
  2
{B1F931D9-D4E3-4739-9008-728D49C9D52D}
  9
$VERSIONGUID
  2
{F7DE81AA-2718-4D8C-9446-878F982C661B}
  9
$EXTNAMES
290
     1
  9
$PSVPSCALE
 40
0.0
  9
$OLESTARTUP
290
     0
  9
$SORTENTS
280
   127
  9
$INDEXCTL
280
     0
  9
$HIDETEXT
280
     1
  9
$XCLIPFRAME
280
     2
  9
$HALOGAP
280
     0
  9
$OBSCOLOR
 70
   257
  9
$OBSLTYPE
280
     0
  9
$INTERSECTIONDISPLAY
280
     0
  9
$INTERSECTIONCOLOR
 70
   257
  9
$DIMASSOC
280
     2
  9
$PROJECTNAME
  1

  9
$CAMERADISPLAY
290
     0
  9
$LENSLENGTH
 40
50.0
  9
$CAMERAHEIGHT
 40
0.0
  9
$STEPSPERSEC
 40
2.0
  9
$STEPSIZE
 40
6.0
  9
$3DDWFPREC
 40
2.0
  9
$PSOLWIDTH
 40
0.25
  9
$PSOLHEIGHT
 40
4.0
  9
$LOFTANG1
 40
1.570796326794896
  9
$LOFTANG2
 40
1.570796326794896
  9
$LOFTMAG1
 40
0.0
  9
$LOFTMAG2
 40
0.0
  9
$LOFTPARAM
 70
     7
  9
$LOFTNORMALS
280
     1
  9
$LATITUDE
 40
0.0
  9
$LONGITUDE
 40
0.0
  9
$NORTHDIRECTION
 40
0.0
  9
$TIMEZONE
 70
 -8000
  9
$LIGHTGLYPHDISPLAY
280
     1
  9
$TILEMODELIGHTSYNCH
280
     1
  9
$CMATERIAL
347
1000000
  9
$SOLIDHIST
280
     1
  9
$SHOWHIST
280
     1
  9
$DWFFRAME
280
     2
  9
$DGNFRAME
280
     0
  9
$REALWORLDSCALE
290
     1
  9
$INTERFERECOLOR
 62
     1
  9
$CSHADOW
280
     0
  9
$SHADOWPLANELOCATION
 40
0.0
  0
ENDSEC
  0
SECTION
  2
CLASSES
  0
CLASS
  1
WIPEOUT
  2
AcDbWipeout
  3
WipeOut
 90
      127
 91
        3
280
     0
281
     1
  0
CLASS
  1
WIPEOUTVARIABLES
  2
AcDbWipeoutVariables
  3
WipeOut
 90
        0
 91
        1
280
     0
281
     0
  0
CLASS
  1
ACDBDICTIONARYWDFLT
  2
AcDbDictionaryWithDefault
  3
ObjectDBX Classes
 90
    32768
 91
        1
280
     0
281
     0
  0
CLASS
  1
MATERIAL
  2
AcDbMaterial
  3
ObjectDBX Classes
 90
        0
 91
        3
280
     0
281
     0
  0
CLASS
  1
VISUALSTYLE
  2
AcDbVisualStyle
  3
ObjectDBX Classes
 90
     4095
 91
       24
280
     0
281
     0
  0
CLASS
  1
TABLESTYLE
  2
AcDbTableStyle
  3
ObjectDBX Classes
 90
     2047
 91
        1
280
     0
281
     0
  0
CLASS
  1
MLEADERSTYLE
  2
AcDbMLeaderStyle
  3
ACDB_MLEADERSTYLE_CLASS
 90
     4095
 91
        1
280
     0
281
     0
  0
CLASS
  1
SCALE
  2
AcDbScale
  3
ObjectDBX Classes
 90
     1153
 91
       17
280
     0
281
     0
  0
CLASS
  1
DICTIONARYVAR
  2
AcDbDictionaryVar
  3
ObjectDBX Classes
 90
        0
 91
        4
280
     0
281
     0
  0
ENDSEC
  0
SECTION
  2
TABLES
  0
TABLE
  2
VPORT
  5
1
330
0
100
AcDbSymbolTable
 70
     1
  0
VPORT
  5
2
330
1
100
AcDbSymbolTableRecord
100
AcDbViewportTableRecord
  2
*ACTIVE
 70
     0
 10
0.0
 20
0.0
 11
1.0
 21
1.0
 12
8392606.415103013
 22
5686776.675476146
 13
0.0
 23
0.0
 14
1.0
 24
1.0
 15
0.0
 25
0.0
 16
0.0
 26
0.0
 36
1.0
 17
0.0
 27
0.0
 37
0.0
 40
419.6701796155599
 41
1.500709219858156
 42
50.0
 43
0.0
 44
0.0
 50
0.0
 51
0.0
 71
     0
 72
   100
 73
     1
 74
     1
 75
     0
 76
     0
 77
     0
 78
     0
281
     0
 65
     1
110
0.0
120
0.0
130
0.0
111
1.0
121
0.0
131
0.0
112
0.0
122
1.0
132
0.0
 79
     0
146
0.0
348
1000008
 60
     3
 61
     5
292
     1
282
     1
141
0.0
142
0.0
 63
   256
  0
ENDTAB
  0
TABLE
  2
LTYPE
  5
3
330
0
100
AcDbSymbolTable
 70
     5
  0
LTYPE
  5
4
330
3
100
AcDbSymbolTableRecord
100
AcDbLinetypeTableRecord
  2
ByBlock
 70
     0
  3

 72
    65
 73
     0
 40
0.0
  0
LTYPE
  5
5
330
3
100
AcDbSymbolTableRecord
100
AcDbLinetypeTableRecord
  2
ByLayer
 70
     0
  3

 72
    65
 73
     0
 40
0.0
  0
LTYPE
  5
6
330
3
100
AcDbSymbolTableRecord
100
AcDbLinetypeTableRecord
  2
CONTINUOUS
 70
     0
  3
Solid line
 72
    65
 73
     0
 40
0.0
  0
LTYPE
  5
8
330
3
100
AcDbSymbolTableRecord
100
AcDbLinetypeTableRecord
  2
L_0_02
 70
     0
  3
Dzialka_ewidencyjna (MLineStyle)
 72
    65
 73
     0
 40
0.0
  0
LTYPE
  5
9
330
3
100
AcDbSymbolTableRecord
100
AcDbLinetypeTableRecord
  2
L_0_03
 70
     0
  3
Uzytek_gruntowy
 72
    65
 73
     2
 40
1.0
 49
0.5
 74
     0
 49
-0.5
 74
     0
  0
LTYPE
  5
A
330
3
100
AcDbSymbolTableRecord
100
AcDbLinetypeTableRecord
  2
L_0_04
 70
     0
  3
Budynek_projektowany
 72
    65
 73
     2
 40
1.5
 49
1.0
 74
     0
 49
-0.5
 74
     0
  0
LTYPE
  5
B
330
3
100
AcDbSymbolTableRecord
100
AcDbLinetypeTableRecord
  2
L_0_06
 70
     0
  3
Granica_konturu_klasyfikacyjnego_Krawedz_chodnika
 72
    65
 73
     2
 40
2.0
 49
1.5
 74
     0
 49
-0.5
 74
     0
  0
ENDTAB
  0
TABLE
  2
LAYER
  5
C
330
0
100
AcDbSymbolTable
 70
    43
  0
LAYER
  5
D
330
C
100
AcDbSymbolTableRecord
100
AcDbLayerTableRecord
  2
0
 70
     0
 62
     7
  6
CONTINUOUS
370
    18
390
E
347
1000002
348
0
  0
LAYER
  5
F
330
C
100
AcDbSymbolTableRecord
100
AcDbLayerTableRecord
  2
arkusz
 70
     0
 62
    13
  6
CONTINUOUS
290
     0
370
    18
390
E
347
1000002
348
0
  0
LAYER
  5
10
330
C
100
AcDbSymbolTableRecord
100
AcDbLayerTableRecord
  2
BUBZ_L_1
 70
     0
 62
     7
  6
CONTINUOUS
370
    18
390
E
347
1000002
348
0
  0
LAYER
  5
11
330
C
100
AcDbSymbolTableRecord
100
AcDbLayerTableRecord
  2
Dzialki
 70
     0
 62
    96
  6
CONTINUOUS
370
    18
390
E
347
1000002
348
0
  0
LAYER
  5
12
330
C
100
AcDbSymbolTableRecord
100
AcDbLayerTableRecord
  2
Kontury
 70
     0
 62
    96
  6
L_0_06
370
    18
390
E
347
1000002
348
0
  0
LAYER
  5
13
330
C
100
AcDbSymbolTableRecord
100
AcDbLayerTableRecord
  2
KTJZ_E_T_0
 70
     0
 62
     7
  6
CONTINUOUS
370
    13
390
E
347
1000002
348
0
  0
LAYER
  5
14
330
C
100
AcDbSymbolTableRecord
100
AcDbLayerTableRecord
  2
KTJZ_L_0
 70
     0
 62
     7
  6
L_0_04
370
    18
390
E
347
1000002
348
0
  0
LAYER
  5
15
330
C
100
AcDbSymbolTableRecord
100
AcDbLayerTableRecord
  2
KTOK_L_1
 70
     0
 62
     7
  6
CONTINUOUS
370
    18
390
E
347
1000002
348
0
  0
LAYER
  5
16
330
C
100
AcDbSymbolTableRecord
100
AcDbLayerTableRecord
  2
KTOK_L_4
 70
     0
 62
     7
  6
CONTINUOUS
370
    35
390
E
347
1000002
348
0
  0
LAYER
  5
17
330
C
100
AcDbSymbolTableRecord
100
AcDbLayerTableRecord
  2
Numery_dzialek
 70
     0
 62
    96
  6
CONTINUOUS
370
    13
390
E
347
1000002
348
0
  0
LAYER
  5
18
330
C
100
AcDbSymbolTableRecord
100
AcDbLayerTableRecord
  2
Numery_konturow
 70
     0
 62
    96
  6
CONTINUOUS
370
    13
390
E
347
1000002
348
0
  0
LAYER
  5
19
330
C
100
AcDbSymbolTableRecord
100
AcDbLayerTableRecord
  2
Numery_uzytkow
 70
     0
 62
    96
  6
CONTINUOUS
370
    13
390
E
347
1000002
348
0
  0
LAYER
  5
1A
330
C
100
AcDbSymbolTableRecord
100
AcDbLayerTableRecord
  2
OSN_POZIOMA_L_1
 70
     0
 62
    -7
  6
CONTINUOUS
370
    35
390
E
347
1000002
348
0
  0
LAYER
  5
1B
330
C
100
AcDbSymbolTableRecord
100
AcDbLayerTableRecord
  2
OSN_POZIOMA_T_1
 70
     0
 62
    -7
  6
CONTINUOUS
370
    50
390
E
347
1000002
348
0
  0
LAYER
  5
1C
330
C
100
AcDbSymbolTableRecord
100
AcDbLayerTableRecord
  2
RTPW_T_0
 70
     0
 62
     7
  6
CONTINUOUS
370
    13
390
E
347
1000002
348
0
  0
LAYER
  5
1D
330
C
100
AcDbSymbolTableRecord
100
AcDbLayerTableRecord
  2
RTPW_T_1
 70
     0
 62
     7
  6
CONTINUOUS
370
    13
390
E
347
1000002
348
0
  0
LAYER
  5
1E
330
C
100
AcDbSymbolTableRecord
100
AcDbLayerTableRecord
  2
SUOG_L_0
 70
     0
 62
    52
  6
CONTINUOUS
370
    35
390
E
347
1000002
348
0
  0
LAYER
  5
1F
330
C
100
AcDbSymbolTableRecord
100
AcDbLayerTableRecord
  2
SUOT_L_1
 70
     0
 62
    30
  6
CONTINUOUS
370
    35
390
E
347
1000002
348
0
  0
LAYER
  5
20
330
C
100
AcDbSymbolTableRecord
100
AcDbLayerTableRecord
  2
SUPE_E_T_3
 70
     0
 62
     1
  6
CONTINUOUS
370
    13
390
E
347
1000002
348
0
  0
LAYER
  5
21
330
C
100
AcDbSymbolTableRecord
100
AcDbLayerTableRecord
  2
SUPE_L_3
 70
     0
 62
     1
  6
CONTINUOUS
370
    18
390
E
347
1000002
348
0
  0
LAYER
  5
22
330
C
100
AcDbSymbolTableRecord
100
AcDbLayerTableRecord
  2
SUPG_E_T_2
 70
     0
 62
     7
  6
CONTINUOUS
370
    13
390
E
347
1000002
348
0
  0
LAYER
  5
23
330
C
100
AcDbSymbolTableRecord
100
AcDbLayerTableRecord
  2
SUPG_L_2
 70
     0
 62
    52
  6
CONTINUOUS
370
    18
390
E
347
1000002
348
0
  0
LAYER
  5
24
330
C
100
AcDbSymbolTableRecord
100
AcDbLayerTableRecord
  2
SUPT_E_T_0
 70
     0
 62
    30
  6
CONTINUOUS
370
    13
390
E
347
1000002
348
0
  0
LAYER
  5
25
330
C
100
AcDbSymbolTableRecord
100
AcDbLayerTableRecord
  2
SUPT_L_0
 70
     0
 62
    30
  6
CONTINUOUS
370
    18
390
E
347
1000002
348
0
  0
LAYER
  5
26
330
C
100
AcDbSymbolTableRecord
100
AcDbLayerTableRecord
  2
SUPW_E_T_0
 70
     0
 62
     5
  6
CONTINUOUS
370
    13
390
E
347
1000002
348
0
  0
LAYER
  5
27
330
C
100
AcDbSymbolTableRecord
100
AcDbLayerTableRecord
  2
SUPW_L_0
 70
     0
 62
     5
  6
CONTINUOUS
370
    18
390
E
347
1000002
348
0
  0
LAYER
  5
28
330
C
100
AcDbSymbolTableRecord
100
AcDbLayerTableRecord
  2
SUSM_T_3
 70
     0
 62
     7
  6
CONTINUOUS
370
    18
390
E
347
1000002
348
0
  0
LAYER
  5
29
330
C
100
AcDbSymbolTableRecord
100
AcDbLayerTableRecord
  2
SUTE_T_0
 70
     0
 62
     1
  6
CONTINUOUS
370
    18
390
E
347
1000002
348
0
  0
LAYER
  5
2A
330
C
100
AcDbSymbolTableRecord
100
AcDbLayerTableRecord
  2
SUTG_T_0
 70
     0
 62
    52
  6
CONTINUOUS
370
    18
390
E
347
1000002
348
0
  0
LAYER
  5
2B
330
C
100
AcDbSymbolTableRecord
100
AcDbLayerTableRecord
  2
SUTT_T_0
 70
     0
 62
    30
  6
CONTINUOUS
370
    18
390
E
347
1000002
348
0
  0
LAYER
  5
2C
330
C
100
AcDbSymbolTableRecord
100
AcDbLayerTableRecord
  2
SUTW_T_0
 70
     0
 62
     5
  6
CONTINUOUS
370
    18
390
E
347
1000002
348
0
  0
LAYER
  5
2D
330
C
100
AcDbSymbolTableRecord
100
AcDbLayerTableRecord
  2
SUUE_E_T_2
 70
     0
 62
     7
  6
CONTINUOUS
370
    13
390
E
347
1000002
348
0
  0
LAYER
  5
2E
330
C
100
AcDbSymbolTableRecord
100
AcDbLayerTableRecord
  2
SUUE_T_3
 70
     0
 62
     7
  6
CONTINUOUS
370
    18
390
E
347
1000002
348
0
  0
LAYER
  5
2F
330
C
100
AcDbSymbolTableRecord
100
AcDbLayerTableRecord
  2
SUUE_T_9
 70
     0
 62
     7
  6
CONTINUOUS
370
    18
390
E
347
1000002
348
0
  0
LAYER
  5
30
330
C
100
AcDbSymbolTableRecord
100
AcDbLayerTableRecord
  2
SUUG_E_T_1
 70
     0
 62
     7
  6
CONTINUOUS
370
    13
390
E
347
1000002
348
0
  0
LAYER
  5
31
330
C
100
AcDbSymbolTableRecord
100
AcDbLayerTableRecord
  2
SUUG_T_1
 70
     0
 62
     7
  6
CONTINUOUS
370
    18
390
E
347
1000002
348
0
  0
LAYER
  5
32
330
C
100
AcDbSymbolTableRecord
100
AcDbLayerTableRecord
  2
SUUW_E_T_10
 70
     0
 62
     5
  6
CONTINUOUS
370
    13
390
E
347
1000002
348
0
  0
LAYER
  5
33
330
C
100
AcDbSymbolTableRecord
100
AcDbLayerTableRecord
  2
SUUW_E_T_5
 70
     0
 62
     7
  6
CONTINUOUS
370
    13
390
E
347
1000002
348
0
  0
LAYER
  5
34
330
C
100
AcDbSymbolTableRecord
100
AcDbLayerTableRecord
  2
SUUW_T_3
 70
     0
 62
     5
  6
CONTINUOUS
370
    18
390
E
347
1000002
348
0
  0
LAYER
  5
35
330
C
100
AcDbSymbolTableRecord
100
AcDbLayerTableRecord
  2
SUUW_T_7
 70
     0
 62
     7
  6
CONTINUOUS
370
    18
390
E
347
1000002
348
0
  0
LAYER
  5
36
330
C
100
AcDbSymbolTableRecord
100
AcDbLayerTableRecord
  2
Uzytki
 70
     0
 62
     3
  6
L_0_03
370
    18
390
E
347
1000002
348
0
  0
LAYER
  5
37
330
C
100
AcDbSymbolTableRecord
100
AcDbLayerTableRecord
  2
zakres
 70
     0
 62
   150
  6
L_0_04
370
    35
390
E
347
1000002
348
0
  0
LAYER
  5
38
330
C
100
AcDbSymbolTableRecord
100
AcDbLayerTableRecord
  2
siatka
 70
     0
 62
     7
  6
CONTINUOUS
370
    35
390
E
347
1000002
348
0
  0
ENDTAB
  0
TABLE
  2
STYLE
  5
39
330
0
100
AcDbSymbolTable
 70
     2
  0
STYLE
  5
3A
330
39
100
AcDbSymbolTableRecord
100
AcDbTextStyleTableRecord
  2
STANDARD
 70
     0
 40
0.0
 41
1.0
 50
0.0
 71
     0
 42
0.2
  3
simplex.shx
  4

  0
STYLE
  5
3B
330
39
100
AcDbSymbolTableRecord
100
AcDbTextStyleTableRecord
  2
STANDARD_ITALIC
 70
     0
 40
0.0
 41
1.0
 50
15.0
 71
     0
 42
0.2
  3
simplex.shx
  4

  0
ENDTAB
  0
TABLE
  2
VIEW
  5
3C
330
0
100
AcDbSymbolTable
 70
     0
  0
ENDTAB
  0
TABLE
  2
UCS
  5
3D
330
0
100
AcDbSymbolTable
 70
     0
  0
ENDTAB
  0
TABLE
  2
APPID
  5
3E
330
0
100
AcDbSymbolTable
 70
     1
  0
APPID
  5
3F
330
3E
100
AcDbSymbolTableRecord
100
AcDbRegAppTableRecord
  2
ACAD
 70
     0
  0
ENDTAB
  0
TABLE
  2
DIMSTYLE
  5
40
330
0
100
AcDbSymbolTable
 70
     1
100
AcDbDimStyleTable
 71
     0
  0
DIMSTYLE
105
41
330
40
100
AcDbSymbolTableRecord
100
AcDbDimStyleTableRecord
  2
Standard
 70
     0
340
3A
  0
ENDTAB
  0
TABLE
  2
BLOCK_RECORD
  5
42
330
0
100
AcDbSymbolTable
 70
     8
  0
BLOCK_RECORD
  5
43
330
42
100
AcDbSymbolTableRecord
100
AcDbBlockTableRecord
  2
*MODEL_SPACE
340
44
 70
     0
280
     1
281
     0
  0
BLOCK_RECORD
  5
45
330
42
100
AcDbSymbolTableRecord
100
AcDbBlockTableRecord
  2
*PAPER_SPACE
340
46
 70
     0
280
     1
281
     0
  0
BLOCK_RECORD
  5
47
330
42
100
AcDbSymbolTableRecord
100
AcDbBlockTableRecord
  2
OSPB
340
0
 70
     0
280
     1
281
     0
  0
BLOCK_RECORD
  5
49
330
42
100
AcDbSymbolTableRecord
100
AcDbBlockTableRecord
  2
OSHF
340
0
 70
     0
280
     1
281
     0
  0
BLOCK_RECORD
  5
4B
330
42
100
AcDbSymbolTableRecord
100
AcDbBlockTableRecord
  2
SUPS01_03
340
0
102
{BLKREFS
331
27FB
331
27FC
331
27FD
331
27FE
331
27FF
331
2800
331
2801
331
2802
102
}
 70
     0
280
     1
281
     0
  0
BLOCK_RECORD
  5
4D
330
42
100
AcDbSymbolTableRecord
100
AcDbBlockTableRecord
  2
SUPS01_04
340
0
102
{BLKREFS
331
2803
331
2804
331
2805
331
2806
102
}
 70
     0
280
     1
281
     0
  0
BLOCK_RECORD
  5
4F
330
42
100
AcDbSymbolTableRecord
100
AcDbBlockTableRecord
  2
SUPS01_07
340
0
102
{BLKREFS
331
2807
102
}
 70
     0
280
     1
281
     0
  0
BLOCK_RECORD
  5
51
330
42
100
AcDbSymbolTableRecord
100
AcDbBlockTableRecord
  2
SUPS01_08
340
0
102
{BLKREFS
331
2808
331
2809
331
280A
331
280B
102
}
 70
     0
280
     1
281
     0
  0
BLOCK_RECORD
  5
53
330
42
100
AcDbSymbolTableRecord
100
AcDbBlockTableRecord
  2
L_0_02_1
340
0
 70
     0
280
     1
281
     0
  0
BLOCK_RECORD
  5
55
330
42
100
AcDbSymbolTableRecord
100
AcDbBlockTableRecord
  2
L_0_02_2
340
0
 70
     0
280
     1
281
     0
  0
ENDTAB
  0
ENDSEC
  0
SECTION
  2
BLOCKS
  0
BLOCK
  5
57
330
43
100
AcDbEntity
  8
0
100
AcDbBlockBegin
  2
*MODEL_SPACE
 70
     0
 10
0.0
 20
0.0
 30
0.0
  3
*MODEL_SPACE
  1

  0
ENDBLK
  5
58
330
43
100
AcDbEntity
  8
0
100
AcDbBlockEnd
  0
BLOCK
  5
59
330
45
100
AcDbEntity
 67
     1
  8
0
100
AcDbBlockBegin
  2
*PAPER_SPACE
 70
     0
 10
0.0
 20
0.0
 30
0.0
  3
*PAPER_SPACE
  1

  0
ENDBLK
  5
5A
330
45
100
AcDbEntity
 67
     1
  8
0
100
AcDbBlockEnd
  0
BLOCK
  5
48
330
47
100
AcDbEntity
  8
0
 62
     0
370
    13
100
AcDbBlockBegin
  2
OSPB
 70
     0
 10
0.0
 20
0.0
 30
0.0
  3
OSPB
  1

  0
WIPEOUT
  5
5B
330
47
100
AcDbEntity
  8
0
  6
Continuous
 62
     0
370
    18
160
               152
310
98000000020000000C000000140000000200000084000000060000000500000000000000000000C09A9999999999F1BF000000000000000000000000000000409A9999999999F1BF00000000000000009A9999999999B93FCDCCCCCCCCCC0040000000000000000000000000000000C09A9999999999F1BF00000000000000
310
0000000000000000C09A9999999999F1BF0000000000000000
100
AcDbWipeout
 90
        0
 10
-2.0
 20
-1.1
 30
0.0
 11
4.0
 21
0.0
 31
0.0
 12
0.0
 22
3.2
 32
0.0
 13
1.0
 23
1.0
340
0
 70
     7
280
     1
281
   100
282
   100
283
     0
360
0
 71
     2
 91
        5
 14
-0.5
 24
0.5
 14
0.5
 24
0.5
 14
0.025
 24
-0.5
 14
-0.5
 24
0.5
 14
-0.5
 24
0.5
290
     0
  0
POLYLINE
  5
5C
330
47
100
AcDbEntity
  8
0
  6
Continuous
 62
     0
370
    18
100
AcDb2dPolyline
 66
     1
 10
0.0
 20
0.0
 30
0.0
 70
   129
  0
VERTEX
  5
5D
330
5C
100
AcDbEntity
  8
0
100
AcDbVertex
100
AcDb2dVertex
 10
-2.0
 20
-1.1
 30
0.0
  0
VERTEX
  5
5E
330
5C
100
AcDbEntity
  8
0
100
AcDbVertex
100
AcDb2dVertex
 10
2.0
 20
-1.1
 30
0.0
  0
VERTEX
  5
5F
330
5C
100
AcDbEntity
  8
0
100
AcDbVertex
100
AcDb2dVertex
 10
0.1
 20
2.1
 30
0.0
  0
VERTEX
  5
60
330
5C
100
AcDbEntity
  8
0
100
AcDbVertex
100
AcDb2dVertex
 10
-2.0
 20
-1.1
 30
0.0
  0
SEQEND
  5
61
330
0
100
AcDbEntity
  8
0
  0
HATCH
  5
62
330
47
100
AcDbEntity
  8
0
  6
Continuous
 62
     0
370
    25
100
AcDbHatch
 10
0.0
 20
0.0
 30
0.0
210
0.0
220
0.0
230
1.0
  2
SOLID
 70
     1
 71
     1
 91
        1
 92
        3
 72
     1
 73
     1
 93
        2
 10
0.0
 20
-0.22360679775
 42
1.0
 10
0.0
 20
0.22360679775
 42
1.0
 97
        0
 75
     0
 76
     1
 98
        1
 10
0.0
 20
0.0
  0
CIRCLE
  5
63
330
47
100
AcDbEntity
  8
0
  6
Continuous
 62
     0
370
    25
100
AcDbCircle
 10
0.0
 20
0.0
 30
0.0
 40
0.22360679775
  0
ENDBLK
  5
64
330
47
100
AcDbEntity
  8
0
100
AcDbBlockEnd
  0
BLOCK
  5
4A
330
49
100
AcDbEntity
  8
0
 62
     0
370
    13
100
AcDbBlockBegin
  2
OSHF
 70
     0
 10
0.0
 20
0.0
 30
0.0
  3
OSHF
  1

  0
WIPEOUT
  5
65
330
49
100
AcDbEntity
  8
0
  6
Continuous
 62
     0
370
    18
160
               344
310
58010000020000000C000000140000000200000044010000060000000D000000000000000000000000000000000000C00000000000000000000000000000F03F3B3D58E87AB6FBBF00000000000000003B3D58E87AB6FB3F000000000000F0BF00000000000000000000000000000040000000000000000000000000000000
310
003B3D58E87AB6FB3F000000000000F03F0000000000000000000000000000F03F3B3D58E87AB6FB3F0000000000000000000000000000000000000000000000400000000000000000000000000000F0BF3B3D58E87AB6FB3F00000000000000003B3D58E87AB6FBBF000000000000F03F0000000000000000000000000000
310
00C0000000000000000000000000000000003B3D58E87AB6FBBF000000000000F0BF0000000000000000000000000000F0BF3B3D58E87AB6FBBF0000000000000000000000000000000000000000000000C00000000000000000
100
AcDbWipeout
 90
        0
 10
-2.0
 20
-2.0
 30
0.0
 11
4.0
 21
0.0
 31
0.0
 12
0.0
 22
4.0
 32
0.0
 13
1.0
 23
1.0
340
0
 70
     7
280
     1
281
   100
282
   100
283
     0
360
0
 71
     2
 91
       13
 14
0.0
 24
0.5
 14
0.25
 24
0.433012701892
 14
0.433012701892
 24
0.25
 14
0.5
 24
0.0
 14
0.433012701892
 24
-0.25
 14
0.25
 24
-0.433012701892
 14
0.0
 24
-0.5
 14
-0.25
 24
-0.433012701892
 14
-0.433012701892
 24
-0.25
 14
-0.5
 24
0.0
 14
-0.433012701892
 24
0.25
 14
-0.25
 24
0.433012701892
 14
0.0
 24
0.5
290
     0
  0
CIRCLE
  5
66
330
49
100
AcDbEntity
  8
0
  6
Continuous
 62
     0
370
    18
100
AcDbCircle
 10
0.0
 20
0.0
 30
0.0
 40
2.0
  0
HATCH
  5
67
330
49
100
AcDbEntity
  8
0
  6
Continuous
 62
     0
370
    18
100
AcDbHatch
 10
0.0
 20
0.0
 30
0.0
210
0.0
220
0.0
230
1.0
  2
SOLID
 70
     1
 71
     1
 91
        1
 92
        3
 72
     0
 73
     1
 93
        4
 10
-1.7
 20
1.0
 10
1.7
 20
1.0
 10
0.0
 20
-2.0
 10
-1.7
 20
0.9
 97
        0
 75
     0
 76
     1
 98
        1
 10
0.0
 20
0.0
  0
POLYLINE
  5
68
330
49
100
AcDbEntity
  8
0
  6
Continuous
 62
     0
370
    18
100
AcDb2dPolyline
 66
     1
 10
0.0
 20
0.0
 30
0.0
 70
   129
  0
VERTEX
  5
69
330
68
100
AcDbEntity
  8
0
100
AcDbVertex
100
AcDb2dVertex
 10
-1.7
 20
1.0
 30
0.0
  0
VERTEX
  5
6A
330
68
100
AcDbEntity
  8
0
100
AcDbVertex
100
AcDb2dVertex
 10
1.7
 20
1.0
 30
0.0
  0
VERTEX
  5
6B
330
68
100
AcDbEntity
  8
0
100
AcDbVertex
100
AcDb2dVertex
 10
0.0
 20
-2.0
 30
0.0
  0
VERTEX
  5
6C
330
68
100
AcDbEntity
  8
0
100
AcDbVertex
100
AcDb2dVertex
 10
-1.7
 20
0.9
 30
0.0
  0
SEQEND
  5
6D
330
0
100
AcDbEntity
  8
0
  0
WIPEOUT
  5
6E
330
49
100
AcDbEntity
  8
0
  6
Continuous
 62
     0
370
    18
160
               344
310
58010000020000000C000000140000000200000044010000060000000D0000000000000000000000CEF0BFC5259FCCBF0000000000000000CEF0BFC5259FBC3F09673FF47EC9C8BF000000000000000009673FF47EC9C83FCEF0BFC5259FBCBF0000000000000000CEF0BFC5259FCC3F000000000000000000000000000000
310
0009673FF47EC9C83FCEF0BFC5259FBC3F0000000000000000CEF0BFC5259FBC3F09673FF47EC9C83F00000000000000000000000000000000CEF0BFC5259FCC3F0000000000000000CEF0BFC5259FBCBF09673FF47EC9C83F000000000000000009673FF47EC9C8BFCEF0BFC5259FBC3F0000000000000000CEF0BFC5259F
310
CCBF0000000000000000000000000000000009673FF47EC9C8BFCEF0BFC5259FBCBF0000000000000000CEF0BFC5259FBCBF09673FF47EC9C8BF00000000000000000000000000000000CEF0BFC5259FCCBF0000000000000000
100
AcDbWipeout
 90
        0
 10
-0.22360679775
 20
-0.22360679775
 30
0.0
 11
0.4472135955
 21
0.0
 31
0.0
 12
0.0
 22
0.4472135955
 32
0.0
 13
1.0
 23
1.0
340
0
 70
     7
280
     1
281
   100
282
   100
283
     0
360
0
 71
     2
 91
       13
 14
0.0
 24
0.5
 14
0.25
 24
0.433012701892
 14
0.433012701892
 24
0.25
 14
0.5
 24
0.0
 14
0.433012701892
 24
-0.25
 14
0.25
 24
-0.433012701892
 14
0.0
 24
-0.5
 14
-0.25
 24
-0.433012701892
 14
-0.433012701892
 24
-0.25
 14
-0.5
 24
0.0
 14
-0.433012701892
 24
0.25
 14
-0.25
 24
0.433012701892
 14
0.0
 24
0.5
290
     0
  0
ENDBLK
  5
6F
330
49
100
AcDbEntity
  8
0
100
AcDbBlockEnd
  0
BLOCK
  5
4C
330
4B
100
AcDbEntity
  8
0
 62
     0
370
    13
100
AcDbBlockBegin
  2
SUPS01_03
 70
     0
 10
0.0
 20
0.0
 30
0.0
  3
SUPS01_03
  1

  0
HATCH
  5
70
330
4B
100
AcDbEntity
  8
0
  6
Continuous
 62
     0
370
    13
100
AcDbHatch
 10
0.0
 20
0.0
 30
0.0
210
0.0
220
0.0
230
1.0
  2
SOLID
 70
     1
 71
     1
 91
        1
 92
        3
 72
     1
 73
     1
 93
        2
 10
0.0
 20
-0.090553851381
 42
1.0
 10
0.0
 20
0.090553851381
 42
1.0
 97
        0
 75
     0
 76
     1
 98
        1
 10
0.0
 20
0.0
  0
CIRCLE
  5
71
330
4B
100
AcDbEntity
  8
0
  6
Continuous
 62
     0
370
    13
100
AcDbCircle
 10
0.0
 20
0.0
 30
0.0
 40
0.090553851381
  0
ENDBLK
  5
72
330
4B
100
AcDbEntity
  8
0
100
AcDbBlockEnd
  0
BLOCK
  5
4E
330
4D
100
AcDbEntity
  8
0
 62
     0
370
    13
100
AcDbBlockBegin
  2
SUPS01_04
 70
     0
 10
0.0
 20
0.0
 30
0.0
  3
SUPS01_04
  1

  0
HATCH
  5
73
330
4D
100
AcDbEntity
  8
0
  6
Continuous
 62
     0
370
    13
100
AcDbHatch
 10
0.0
 20
0.0
 30
0.0
210
0.0
220
0.0
230
1.0
  2
SOLID
 70
     1
 71
     1
 91
        1
 92
        3
 72
     1
 73
     1
 93
        2
 10
0.0
 20
-0.090553851381
 42
1.0
 10
0.0
 20
0.090553851381
 42
1.0
 97
        0
 75
     0
 76
     1
 98
        1
 10
0.0
 20
0.0
  0
CIRCLE
  5
74
330
4D
100
AcDbEntity
  8
0
  6
Continuous
 62
     0
370
    13
100
AcDbCircle
 10
0.0
 20
0.0
 30
0.0
 40
0.090553851381
  0
ENDBLK
  5
75
330
4D
100
AcDbEntity
  8
0
100
AcDbBlockEnd
  0
BLOCK
  5
50
330
4F
100
AcDbEntity
  8
0
 62
     0
370
    13
100
AcDbBlockBegin
  2
SUPS01_07
 70
     0
 10
0.0
 20
0.0
 30
0.0
  3
SUPS01_07
  1

  0
HATCH
  5
76
330
4F
100
AcDbEntity
  8
0
  6
Continuous
 62
     0
370
    13
100
AcDbHatch
 10
0.0
 20
0.0
 30
0.0
210
0.0
220
0.0
230
1.0
  2
SOLID
 70
     1
 71
     1
 91
        1
 92
        3
 72
     1
 73
     1
 93
        2
 10
0.0
 20
-0.090553851381
 42
1.0
 10
0.0
 20
0.090553851381
 42
1.0
 97
        0
 75
     0
 76
     1
 98
        1
 10
0.0
 20
0.0
  0
CIRCLE
  5
77
330
4F
100
AcDbEntity
  8
0
  6
Continuous
 62
     0
370
    13
100
AcDbCircle
 10
0.0
 20
0.0
 30
0.0
 40
0.090553851381
  0
ENDBLK
  5
78
330
4F
100
AcDbEntity
  8
0
100
AcDbBlockEnd
  0
BLOCK
  5
52
330
51
100
AcDbEntity
  8
0
 62
     0
370
    13
100
AcDbBlockBegin
  2
SUPS01_08
 70
     0
 10
0.0
 20
0.0
 30
0.0
  3
SUPS01_08
  1

  0
HATCH
  5
79
330
51
100
AcDbEntity
  8
0
  6
Continuous
 62
     0
370
    13
100
AcDbHatch
 10
0.0
 20
0.0
 30
0.0
210
0.0
220
0.0
230
1.0
  2
SOLID
 70
     1
 71
     1
 91
        1
 92
        3
 72
     1
 73
     1
 93
        2
 10
0.0
 20
-0.090553851381
 42
1.0
 10
0.0
 20
0.090553851381
 42
1.0
 97
        0
 75
     0
 76
     1
 98
        1
 10
0.0
 20
0.0
  0
CIRCLE
  5
7A
330
51
100
AcDbEntity
  8
0
  6
Continuous
 62
     0
370
    13
100
AcDbCircle
 10
0.0
 20
0.0
 30
0.0
 40
0.090553851381
  0
ENDBLK
  5
7B
330
51
100
AcDbEntity
  8
0
100
AcDbBlockEnd
  0
BLOCK
  5
54
330
53
100
AcDbEntity
  8
0
 62
     0
370
    13
100
AcDbBlockBegin
  2
L_0_02_1
 70
     0
 10
0.0
 20
0.0
 30
0.0
  3
L_0_02_1
  1

  0
POINT
  5
7C
330
53
100
AcDbEntity
  8
0
 62
     0
100
AcDbPoint
 10
0.0
 20
0.0
 30
0.0
  0
ENDBLK
  5
7D
330
53
100
AcDbEntity
  8
0
100
AcDbBlockEnd
  0
BLOCK
  5
56
330
55
100
AcDbEntity
  8
0
 62
     0
370
    13
100
AcDbBlockBegin
  2
L_0_02_2
 70
     0
 10
0.0
 20
0.0
 30
0.0
  3
L_0_02_2
  1

  0
POINT
  5
7E
330
55
100
AcDbEntity
  8
0
 62
     0
100
AcDbPoint
 10
0.0
 20
0.0
 30
0.0
  0
ENDBLK
  5
7F
330
55
100
AcDbEntity
  8
0
100
AcDbBlockEnd
  0
ENDSEC
  0
SECTION
  2
ENTITIES
  0
POLYLINE
  5
BD0
330
43
100
AcDbEntity
  8
siatka
  6
Continuous
 62
     7
370
    13
100
AcDb2dPolyline
 66
     1
 10
0.0
 20
0.0
 30
0.0
 70
   128
  0
VERTEX
  5
BD1
330
BD0
100
AcDbEntity
  8
siatka
100
AcDbVertex
100
AcDb2dVertex
 10
8392497.499999999
 20
5686600.000000001
 30
0.0
  0
VERTEX
  5
BD2
330
BD0
100
AcDbEntity
  8
siatka
100
AcDbVertex
100
AcDb2dVertex
 10
8392502.500000002
 20
5686600.000000001
 30
0.0
  0
SEQEND
  5
BD3
330
0
100
AcDbEntity
  8
siatka
  0
POLYLINE
  5
BD4
330
43
100
AcDbEntity
  8
siatka
  6
Continuous
 62
     7
370
    13
100
AcDb2dPolyline
 66
     1
 10
0.0
 20
0.0
 30
0.0
 70
   128
  0
VERTEX
  5
BD5
330
BD4
100
AcDbEntity
  8
siatka
100
AcDbVertex
100
AcDb2dVertex
 10
8392500.0
 20
5686597.500000001
 30
0.0
  0
VERTEX
  5
BD6
330
BD4
100
AcDbEntity
  8
siatka
100
AcDbVertex
100
AcDb2dVertex
 10
8392500.0
 20
5686602.5
 30
0.0
  0
SEQEND
  5
BD7
330
0
100
AcDbEntity
  8
siatka
  0
POLYLINE
  5
BD8
330
43
100
AcDbEntity
  8
siatka
  6
Continuous
 62
     7
370
    13
100
AcDb2dPolyline
 66
     1
 10
0.0
 20
0.0
 30
0.0
 70
   128
  0
VERTEX
  5
BD9
330
BD8
100
AcDbEntity
  8
siatka
100
AcDbVertex
100
AcDb2dVertex
 10
8392547.499999999
 20
5686600.000000001
 30
0.0
  0
VERTEX
  5
BDA
330
BD8
100
AcDbEntity
  8
siatka
100
AcDbVertex
100
AcDb2dVertex
 10
8392552.500000002
 20
5686600.000000001
 30
0.0
  0
SEQEND
  5
BDB
330
0
100
AcDbEntity
  8
siatka
  0
POLYLINE
  5
BDC
330
43
100
AcDbEntity
  8
siatka
  6
Continuous
 62
     7
370
    13
100
AcDb2dPolyline
 66
     1
 10
0.0
 20
0.0
 30
0.0
 70
   128
  0
VERTEX
  5
BDD
330
BDC
100
AcDbEntity
  8
siatka
100
AcDbVertex
100
AcDb2dVertex
 10
8392549.999999999
 20
5686597.500000001
 30
0.0
  0
VERTEX
  5
BDE
330
BDC
100
AcDbEntity
  8
siatka
100
AcDbVertex
100
AcDb2dVertex
 10
8392549.999999999
 20
5686602.5
 30
0.0
  0
SEQEND
  5
BDF
330
0
100
AcDbEntity
  8
siatka
  0
POLYLINE
  5
BE0
330
43
100
AcDbEntity
  8
siatka
  6
Continuous
 62
     7
370
    13
100
AcDb2dPolyline
 66
     1
 10
0.0
 20
0.0
 30
0.0
 70
   128
  0
VERTEX
  5
BE1
330
BE0
100
AcDbEntity
  8
siatka
100
AcDbVertex
100
AcDb2dVertex
 10
8392597.500000002
 20
5686600.000000001
 30
0.0
  0
VERTEX
  5
BE2
330
BE0
100
AcDbEntity
  8
siatka
100
AcDbVertex
100
AcDb2dVertex
 10
8392602.5
 20
5686600.000000001
 30
0.0
  0
SEQEND
  5
BE3
330
0
100
AcDbEntity
  8
siatka
  0
POLYLINE
  5
BE4
330
43
100
AcDbEntity
  8
siatka
  6
Continuous
 62
     7
370
    13
100
AcDb2dPolyline
 66
     1
 10
0.0
 20
0.0
 30
0.0
 70
   128
  0
VERTEX
  5
BE5
330
BE4
100
AcDbEntity
  8
siatka
100
AcDbVertex
100
AcDb2dVertex
 10
8392599.999999999
 20
5686597.500000001
 30
0.0
  0
VERTEX
  5
BE6
330
BE4
100
AcDbEntity
  8
siatka
100
AcDbVertex
100
AcDb2dVertex
 10
8392599.999999999
 20
5686602.5
 30
0.0
  0
SEQEND
  5
BE7
330
0
100
AcDbEntity
  8
siatka
  0
POLYLINE
  5
BE8
330
43
100
AcDbEntity
  8
siatka
  6
Continuous
 62
     7
370
    13
100
AcDb2dPolyline
 66
     1
 10
0.0
 20
0.0
 30
0.0
 70
   128
  0
VERTEX
  5
BE9
330
BE8
100
AcDbEntity
  8
siatka
100
AcDbVertex
100
AcDb2dVertex
 10
8392647.500000002
 20
5686600.000000001
 30
0.0
  0
VERTEX
  5
BEA
330
BE8
100
AcDbEntity
  8
siatka
100
AcDbVertex
100
AcDb2dVertex
 10
8392652.5
 20
5686600.000000001
 30
0.0
  0
SEQEND
  5
BEB
330
0
100
AcDbEntity
  8
siatka
  0
POLYLINE
  5
BEC
330
43
100
AcDbEntity
  8
siatka
  6
Continuous
 62
     7
370
    13
100
AcDb2dPolyline
 66
     1
 10
0.0
 20
0.0
 30
0.0
 70
   128
  0
VERTEX
  5
BED
330
BEC
100
AcDbEntity
  8
siatka
100
AcDbVertex
100
AcDb2dVertex
 10
8392649.999999999
 20
5686597.500000001
 30
0.0
  0
VERTEX
  5
BEE
330
BEC
100
AcDbEntity
  8
siatka
100
AcDbVertex
100
AcDb2dVertex
 10
8392649.999999999
 20
5686602.5
 30
0.0
  0
SEQEND
  5
BEF
330
0
100
AcDbEntity
  8
siatka
  0
POLYLINE
  5
C98
330
43
100
AcDbEntity
  8
siatka
  6
Continuous
 62
     7
370
    13
100
AcDb2dPolyline
 66
     1
 10
0.0
 20
0.0
 30
0.0
 70
   128
  0
VERTEX
  5
C99
330
C98
100
AcDbEntity
  8
siatka
100
AcDbVertex
100
AcDb2dVertex
 10
8392497.499999999
 20
5686650.000000001
 30
0.0
  0
VERTEX
  5
C9A
330
C98
100
AcDbEntity
  8
siatka
100
AcDbVertex
100
AcDb2dVertex
 10
8392502.500000002
 20
5686650.000000001
 30
0.0
  0
SEQEND
  5
C9B
330
0
100
AcDbEntity
  8
siatka
  0
POLYLINE
  5
C9C
330
43
100
AcDbEntity
  8
siatka
  6
Continuous
 62
     7
370
    13
100
AcDb2dPolyline
 66
     1
 10
0.0
 20
0.0
 30
0.0
 70
   128
  0
VERTEX
  5
C9D
330
C9C
100
AcDbEntity
  8
siatka
100
AcDbVertex
100
AcDb2dVertex
 10
8392500.0
 20
5686647.5
 30
0.0
  0
VERTEX
  5
C9E
330
C9C
100
AcDbEntity
  8
siatka
100
AcDbVertex
100
AcDb2dVertex
 10
8392500.0
 20
5686652.5
 30
0.0
  0
SEQEND
  5
C9F
330
0
100
AcDbEntity
  8
siatka
  0
POLYLINE
  5
CA0
330
43
100
AcDbEntity
  8
siatka
  6
Continuous
 62
     7
370
    13
100
AcDb2dPolyline
 66
     1
 10
0.0
 20
0.0
 30
0.0
 70
   128
  0
VERTEX
  5
CA1
330
CA0
100
AcDbEntity
  8
siatka
100
AcDbVertex
100
AcDb2dVertex
 10
8392547.499999999
 20
5686650.000000001
 30
0.0
  0
VERTEX
  5
CA2
330
CA0
100
AcDbEntity
  8
siatka
100
AcDbVertex
100
AcDb2dVertex
 10
8392552.500000002
 20
5686650.000000001
 30
0.0
  0
SEQEND
  5
CA3
330
0
100
AcDbEntity
  8
siatka
  0
POLYLINE
  5
CA4
330
43
100
AcDbEntity
  8
siatka
  6
Continuous
 62
     7
370
    13
100
AcDb2dPolyline
 66
     1
 10
0.0
 20
0.0
 30
0.0
 70
   128
  0
VERTEX
  5
CA5
330
CA4
100
AcDbEntity
  8
siatka
100
AcDbVertex
100
AcDb2dVertex
 10
8392549.999999999
 20
5686647.5
 30
0.0
  0
VERTEX
  5
CA6
330
CA4
100
AcDbEntity
  8
siatka
100
AcDbVertex
100
AcDb2dVertex
 10
8392549.999999999
 20
5686652.5
 30
0.0
  0
SEQEND
  5
CA7
330
0
100
AcDbEntity
  8
siatka
  0
POLYLINE
  5
CA8
330
43
100
AcDbEntity
  8
siatka
  6
Continuous
 62
     7
370
    13
100
AcDb2dPolyline
 66
     1
 10
0.0
 20
0.0
 30
0.0
 70
   128
  0
VERTEX
  5
CA9
330
CA8
100
AcDbEntity
  8
siatka
100
AcDbVertex
100
AcDb2dVertex
 10
8392597.500000002
 20
5686650.000000001
 30
0.0
  0
VERTEX
  5
CAA
330
CA8
100
AcDbEntity
  8
siatka
100
AcDbVertex
100
AcDb2dVertex
 10
8392602.5
 20
5686650.000000001
 30
0.0
  0
SEQEND
  5
CAB
330
0
100
AcDbEntity
  8
siatka
  0
POLYLINE
  5
CAC
330
43
100
AcDbEntity
  8
siatka
  6
Continuous
 62
     7
370
    13
100
AcDb2dPolyline
 66
     1
 10
0.0
 20
0.0
 30
0.0
 70
   128
  0
VERTEX
  5
CAD
330
CAC
100
AcDbEntity
  8
siatka
100
AcDbVertex
100
AcDb2dVertex
 10
8392599.999999999
 20
5686647.5
 30
0.0
  0
VERTEX
  5
CAE
330
CAC
100
AcDbEntity
  8
siatka
100
AcDbVertex
100
AcDb2dVertex
 10
8392599.999999999
 20
5686652.5
 30
0.0
  0
SEQEND
  5
CAF
330
0
100
AcDbEntity
  8
siatka
  0
POLYLINE
  5
CB0
330
43
100
AcDbEntity
  8
siatka
  6
Continuous
 62
     7
370
    13
100
AcDb2dPolyline
 66
     1
 10
0.0
 20
0.0
 30
0.0
 70
   128
  0
VERTEX
  5
CB1
330
CB0
100
AcDbEntity
  8
siatka
100
AcDbVertex
100
AcDb2dVertex
 10
8392647.500000002
 20
5686650.000000001
 30
0.0
  0
VERTEX
  5
CB2
330
CB0
100
AcDbEntity
  8
siatka
100
AcDbVertex
100
AcDb2dVertex
 10
8392652.5
 20
5686650.000000001
 30
0.0
  0
SEQEND
  5
CB3
330
0
100
AcDbEntity
  8
siatka
  0
POLYLINE
  5
CB4
330
43
100
AcDbEntity
  8
siatka
  6
Continuous
 62
     7
370
    13
100
AcDb2dPolyline
 66
     1
 10
0.0
 20
0.0
 30
0.0
 70
   128
  0
VERTEX
  5
CB5
330
CB4
100
AcDbEntity
  8
siatka
100
AcDbVertex
100
AcDb2dVertex
 10
8392649.999999999
 20
5686647.5
 30
0.0
  0
VERTEX
  5
CB6
330
CB4
100
AcDbEntity
  8
siatka
100
AcDbVertex
100
AcDb2dVertex
 10
8392649.999999999
 20
5686652.5
 30
0.0
  0
SEQEND
  5
CB7
330
0
100
AcDbEntity
  8
siatka
  0
POLYLINE
  5
D60
330
43
100
AcDbEntity
  8
siatka
  6
Continuous
 62
     7
370
    13
100
AcDb2dPolyline
 66
     1
 10
0.0
 20
0.0
 30
0.0
 70
   128
  0
VERTEX
  5
D61
330
D60
100
AcDbEntity
  8
siatka
100
AcDbVertex
100
AcDb2dVertex
 10
8392497.499999999
 20
5686700.0
 30
0.0
  0
VERTEX
  5
D62
330
D60
100
AcDbEntity
  8
siatka
100
AcDbVertex
100
AcDb2dVertex
 10
8392502.500000002
 20
5686700.0
 30
0.0
  0
SEQEND
  5
D63
330
0
100
AcDbEntity
  8
siatka
  0
POLYLINE
  5
D64
330
43
100
AcDbEntity
  8
siatka
  6
Continuous
 62
     7
370
    13
100
AcDb2dPolyline
 66
     1
 10
0.0
 20
0.0
 30
0.0
 70
   128
  0
VERTEX
  5
D65
330
D64
100
AcDbEntity
  8
siatka
100
AcDbVertex
100
AcDb2dVertex
 10
8392500.0
 20
5686697.5
 30
0.0
  0
VERTEX
  5
D66
330
D64
100
AcDbEntity
  8
siatka
100
AcDbVertex
100
AcDb2dVertex
 10
8392500.0
 20
5686702.499999999
 30
0.0
  0
SEQEND
  5
D67
330
0
100
AcDbEntity
  8
siatka
  0
POLYLINE
  5
D68
330
43
100
AcDbEntity
  8
siatka
  6
Continuous
 62
     7
370
    13
100
AcDb2dPolyline
 66
     1
 10
0.0
 20
0.0
 30
0.0
 70
   128
  0
VERTEX
  5
D69
330
D68
100
AcDbEntity
  8
siatka
100
AcDbVertex
100
AcDb2dVertex
 10
8392547.499999999
 20
5686700.0
 30
0.0
  0
VERTEX
  5
D6A
330
D68
100
AcDbEntity
  8
siatka
100
AcDbVertex
100
AcDb2dVertex
 10
8392552.500000002
 20
5686700.0
 30
0.0
  0
SEQEND
  5
D6B
330
0
100
AcDbEntity
  8
siatka
  0
POLYLINE
  5
D6C
330
43
100
AcDbEntity
  8
siatka
  6
Continuous
 62
     7
370
    13
100
AcDb2dPolyline
 66
     1
 10
0.0
 20
0.0
 30
0.0
 70
   128
  0
VERTEX
  5
D6D
330
D6C
100
AcDbEntity
  8
siatka
100
AcDbVertex
100
AcDb2dVertex
 10
8392549.999999999
 20
5686697.5
 30
0.0
  0
VERTEX
  5
D6E
330
D6C
100
AcDbEntity
  8
siatka
100
AcDbVertex
100
AcDb2dVertex
 10
8392549.999999999
 20
5686702.499999999
 30
0.0
  0
SEQEND
  5
D6F
330
0
100
AcDbEntity
  8
siatka
  0
POLYLINE
  5
D70
330
43
100
AcDbEntity
  8
siatka
  6
Continuous
 62
     7
370
    13
100
AcDb2dPolyline
 66
     1
 10
0.0
 20
0.0
 30
0.0
 70
   128
  0
VERTEX
  5
D71
330
D70
100
AcDbEntity
  8
siatka
100
AcDbVertex
100
AcDb2dVertex
 10
8392597.500000002
 20
5686700.0
 30
0.0
  0
VERTEX
  5
D72
330
D70
100
AcDbEntity
  8
siatka
100
AcDbVertex
100
AcDb2dVertex
 10
8392602.5
 20
5686700.0
 30
0.0
  0
SEQEND
  5
D73
330
0
100
AcDbEntity
  8
siatka
  0
POLYLINE
  5
D74
330
43
100
AcDbEntity
  8
siatka
  6
Continuous
 62
     7
370
    13
100
AcDb2dPolyline
 66
     1
 10
0.0
 20
0.0
 30
0.0
 70
   128
  0
VERTEX
  5
D75
330
D74
100
AcDbEntity
  8
siatka
100
AcDbVertex
100
AcDb2dVertex
 10
8392599.999999999
 20
5686697.5
 30
0.0
  0
VERTEX
  5
D76
330
D74
100
AcDbEntity
  8
siatka
100
AcDbVertex
100
AcDb2dVertex
 10
8392599.999999999
 20
5686702.499999999
 30
0.0
  0
SEQEND
  5
D77
330
0
100
AcDbEntity
  8
siatka
  0
POLYLINE
  5
D78
330
43
100
AcDbEntity
  8
siatka
  6
Continuous
 62
     7
370
    13
100
AcDb2dPolyline
 66
     1
 10
0.0
 20
0.0
 30
0.0
 70
   128
  0
VERTEX
  5
D79
330
D78
100
AcDbEntity
  8
siatka
100
AcDbVertex
100
AcDb2dVertex
 10
8392647.500000002
 20
5686700.0
 30
0.0
  0
VERTEX
  5
D7A
330
D78
100
AcDbEntity
  8
siatka
100
AcDbVertex
100
AcDb2dVertex
 10
8392652.5
 20
5686700.0
 30
0.0
  0
SEQEND
  5
D7B
330
0
100
AcDbEntity
  8
siatka
  0
POLYLINE
  5
D7C
330
43
100
AcDbEntity
  8
siatka
  6
Continuous
 62
     7
370
    13
100
AcDb2dPolyline
 66
     1
 10
0.0
 20
0.0
 30
0.0
 70
   128
  0
VERTEX
  5
D7D
330
D7C
100
AcDbEntity
  8
siatka
100
AcDbVertex
100
AcDb2dVertex
 10
8392649.999999999
 20
5686697.5
 30
0.0
  0
VERTEX
  5
D7E
330
D7C
100
AcDbEntity
  8
siatka
100
AcDbVertex
100
AcDb2dVertex
 10
8392649.999999999
 20
5686702.499999999
 30
0.0
  0
SEQEND
  5
D7F
330
0
100
AcDbEntity
  8
siatka
  0
POLYLINE
  5
E28
330
43
100
AcDbEntity
  8
siatka
  6
Continuous
 62
     7
370
    13
100
AcDb2dPolyline
 66
     1
 10
0.0
 20
0.0
 30
0.0
 70
   128
  0
VERTEX
  5
E29
330
E28
100
AcDbEntity
  8
siatka
100
AcDbVertex
100
AcDb2dVertex
 10
8392497.499999999
 20
5686750.0
 30
0.0
  0
VERTEX
  5
E2A
330
E28
100
AcDbEntity
  8
siatka
100
AcDbVertex
100
AcDb2dVertex
 10
8392502.500000002
 20
5686750.0
 30
0.0
  0
SEQEND
  5
E2B
330
0
100
AcDbEntity
  8
siatka
  0
POLYLINE
  5
E2C
330
43
100
AcDbEntity
  8
siatka
  6
Continuous
 62
     7
370
    13
100
AcDb2dPolyline
 66
     1
 10
0.0
 20
0.0
 30
0.0
 70
   128
  0
VERTEX
  5
E2D
330
E2C
100
AcDbEntity
  8
siatka
100
AcDbVertex
100
AcDb2dVertex
 10
8392500.0
 20
5686747.5
 30
0.0
  0
VERTEX
  5
E2E
330
E2C
100
AcDbEntity
  8
siatka
100
AcDbVertex
100
AcDb2dVertex
 10
8392500.0
 20
5686752.499999999
 30
0.0
  0
SEQEND
  5
E2F
330
0
100
AcDbEntity
  8
siatka
  0
POLYLINE
  5
E30
330
43
100
AcDbEntity
  8
siatka
  6
Continuous
 62
     7
370
    13
100
AcDb2dPolyline
 66
     1
 10
0.0
 20
0.0
 30
0.0
 70
   128
  0
VERTEX
  5
E31
330
E30
100
AcDbEntity
  8
siatka
100
AcDbVertex
100
AcDb2dVertex
 10
8392547.499999999
 20
5686750.0
 30
0.0
  0
VERTEX
  5
E32
330
E30
100
AcDbEntity
  8
siatka
100
AcDbVertex
100
AcDb2dVertex
 10
8392552.500000002
 20
5686750.0
 30
0.0
  0
SEQEND
  5
E33
330
0
100
AcDbEntity
  8
siatka
  0
POLYLINE
  5
E34
330
43
100
AcDbEntity
  8
siatka
  6
Continuous
 62
     7
370
    13
100
AcDb2dPolyline
 66
     1
 10
0.0
 20
0.0
 30
0.0
 70
   128
  0
VERTEX
  5
E35
330
E34
100
AcDbEntity
  8
siatka
100
AcDbVertex
100
AcDb2dVertex
 10
8392549.999999999
 20
5686747.5
 30
0.0
  0
VERTEX
  5
E36
330
E34
100
AcDbEntity
  8
siatka
100
AcDbVertex
100
AcDb2dVertex
 10
8392549.999999999
 20
5686752.499999999
 30
0.0
  0
SEQEND
  5
E37
330
0
100
AcDbEntity
  8
siatka
  0
POLYLINE
  5
E38
330
43
100
AcDbEntity
  8
siatka
  6
Continuous
 62
     7
370
    13
100
AcDb2dPolyline
 66
     1
 10
0.0
 20
0.0
 30
0.0
 70
   128
  0
VERTEX
  5
E39
330
E38
100
AcDbEntity
  8
siatka
100
AcDbVertex
100
AcDb2dVertex
 10
8392597.500000002
 20
5686750.0
 30
0.0
  0
VERTEX
  5
E3A
330
E38
100
AcDbEntity
  8
siatka
100
AcDbVertex
100
AcDb2dVertex
 10
8392602.5
 20
5686750.0
 30
0.0
  0
SEQEND
  5
E3B
330
0
100
AcDbEntity
  8
siatka
  0
POLYLINE
  5
E3C
330
43
100
AcDbEntity
  8
siatka
  6
Continuous
 62
     7
370
    13
100
AcDb2dPolyline
 66
     1
 10
0.0
 20
0.0
 30
0.0
 70
   128
  0
VERTEX
  5
E3D
330
E3C
100
AcDbEntity
  8
siatka
100
AcDbVertex
100
AcDb2dVertex
 10
8392599.999999999
 20
5686747.5
 30
0.0
  0
VERTEX
  5
E3E
330
E3C
100
AcDbEntity
  8
siatka
100
AcDbVertex
100
AcDb2dVertex
 10
8392599.999999999
 20
5686752.499999999
 30
0.0
  0
SEQEND
  5
E3F
330
0
100
AcDbEntity
  8
siatka
  0
POLYLINE
  5
E40
330
43
100
AcDbEntity
  8
siatka
  6
Continuous
 62
     7
370
    13
100
AcDb2dPolyline
 66
     1
 10
0.0
 20
0.0
 30
0.0
 70
   128
  0
VERTEX
  5
E41
330
E40
100
AcDbEntity
  8
siatka
100
AcDbVertex
100
AcDb2dVertex
 10
8392647.500000002
 20
5686750.0
 30
0.0
  0
VERTEX
  5
E42
330
E40
100
AcDbEntity
  8
siatka
100
AcDbVertex
100
AcDb2dVertex
 10
8392652.5
 20
5686750.0
 30
0.0
  0
SEQEND
  5
E43
330
0
100
AcDbEntity
  8
siatka
  0
POLYLINE
  5
E44
330
43
100
AcDbEntity
  8
siatka
  6
Continuous
 62
     7
370
    13
100
AcDb2dPolyline
 66
     1
 10
0.0
 20
0.0
 30
0.0
 70
   128
  0
VERTEX
  5
E45
330
E44
100
AcDbEntity
  8
siatka
100
AcDbVertex
100
AcDb2dVertex
 10
8392649.999999999
 20
5686747.5
 30
0.0
  0
VERTEX
  5
E46
330
E44
100
AcDbEntity
  8
siatka
100
AcDbVertex
100
AcDb2dVertex
 10
8392649.999999999
 20
5686752.499999999
 30
0.0
  0
SEQEND
  5
E47
330
0
100
AcDbEntity
  8
siatka
  0
POLYLINE
  5
1340
330
43
100
AcDbEntity
  8
arkusz
  6
Continuous
370
    13
100
AcDb2dPolyline
 66
     1
 10
0.0
 20
0.0
 30
0.0
 70
   129
  0
VERTEX
  5
1341
330
1340
100
AcDbEntity
  8
arkusz
100
AcDbVertex
100
AcDb2dVertex
 10
8392515.212963875
 20
5686757.096653776
 30
0.0
  0
VERTEX
  5
1342
330
1340
100
AcDbEntity
  8
arkusz
100
AcDbVertex
100
AcDb2dVertex
 10
8392620.199630542
 20
5686757.096653776
 30
0.0
  0
VERTEX
  5
1343
330
1340
100
AcDbEntity
  8
arkusz
100
AcDbVertex
100
AcDb2dVertex
 10
8392620.199630542
 20
5686608.612487108
 30
0.0
  0
VERTEX
  5
1344
330
1340
100
AcDbEntity
  8
arkusz
100
AcDbVertex
100
AcDb2dVertex
 10
8392515.212963875
 20
5686608.612487108
 30
0.0
  0
SEQEND
  5
1345
330
0
100
AcDbEntity
  8
arkusz
  0
POLYLINE
  5
1346
330
43
100
AcDbEntity
  8
BUBZ_L_1
  6
Continuous
 62
     7
370
    18
100
AcDb2dPolyline
 66
     1
 10
0.0
 20
0.0
 30
0.0
 70
   128
  0
VERTEX
  5
1347
330
1346
100
AcDbEntity
  8
BUBZ_L_1
100
AcDbVertex
100
AcDb2dVertex
 10
8392628.867910438
 20
5686642.112679609
 30
0.0
  0
VERTEX
  5
1348
330
1346
100
AcDbEntity
  8
BUBZ_L_1
100
AcDbVertex
100
AcDb2dVertex
 10
8392628.961490542
 20
5686643.443614623
 30
0.0
  0
SEQEND
  5
1349
330
0
100
AcDbEntity
  8
BUBZ_L_1
  0
POLYLINE
  5
134A
330
43
100
AcDbEntity
  8
BUBZ_L_1
  6
Continuous
 62
     7
370
    18
100
AcDb2dPolyline
 66
     1
 10
0.0
 20
0.0
 30
0.0
 70
   128
  0
VERTEX
  5
134B
330
134A
100
AcDbEntity
  8
BUBZ_L_1
100
AcDbVertex
100
AcDb2dVertex
 10
8392628.202442931
 20
5686642.159469658
 30
0.0
  0
VERTEX
  5
134C
330
134A
100
AcDbEntity
  8
BUBZ_L_1
100
AcDbVertex
100
AcDb2dVertex
 10
8392628.248628748
 20
5686642.816343527
 30
0.0
  0
SEQEND
  5
134D
330
0
100
AcDbEntity
  8
BUBZ_L_1
  0
POLYLINE
  5
134E
330
43
100
AcDbEntity
  8
BUBZ_L_1
  6
Continuous
 62
     7
370
    18
100
AcDb2dPolyline
 66
     1
 10
0.0
 20
0.0
 30
0.0
 70
   128
  0
VERTEX
  5
134F
330
134E
100
AcDbEntity
  8
BUBZ_L_1
100
AcDbVertex
100
AcDb2dVertex
 10
8392627.545569064
 20
5686642.205655476
 30
0.0
  0
VERTEX
  5
1350
330
134E
100
AcDbEntity
  8
BUBZ_L_1
100
AcDbVertex
100
AcDb2dVertex
 10
8392627.636747841
 20
5686643.502437885
 30
0.0
  0
SEQEND
  5
1351
330
0
100
AcDbEntity
  8
BUBZ_L_1
  0
POLYLINE
  5
1352
330
43
100
AcDbEntity
  8
BUBZ_L_1
  6
Continuous
 62
     7
370
    18
100
AcDb2dPolyline
 66
     1
 10
0.0
 20
0.0
 30
0.0
 70
   128
  0
VERTEX
  5
1353
330
1352
100
AcDbEntity
  8
BUBZ_L_1
100
AcDbVertex
100
AcDb2dVertex
 10
8392626.897177859
 20
5686642.251244863
 30
0.0
  0
VERTEX
  5
1354
330
1352
100
AcDbEntity
  8
BUBZ_L_1
100
AcDbVertex
100
AcDb2dVertex
 10
8392626.94217852
 20
5686642.891262947
 30
0.0
  0
SEQEND
  5
1355
330
0
100
AcDbEntity
  8
BUBZ_L_1
  0
POLYLINE
  5
1356
330
43
100
AcDbEntity
  8
BUBZ_L_1
  6
Continuous
 62
     7
370
    18
100
AcDb2dPolyline
 66
     1
 10
0.0
 20
0.0
 30
0.0
 70
   128
  0
VERTEX
  5
1357
330
1356
100
AcDbEntity
  8
BUBZ_L_1
100
AcDbVertex
100
AcDb2dVertex
 10
8392626.257159777
 20
5686642.296245524
 30
0.0
  0
VERTEX
  5
1358
330
1356
100
AcDbEntity
  8
BUBZ_L_1
100
AcDbVertex
100
AcDb2dVertex
 10
8392626.345998847
 20
5686643.559751703
 30
0.0
  0
SEQEND
  5
1359
330
0
100
AcDbEntity
  8
BUBZ_L_1
  0
POLYLINE
  5
135A
330
43
100
AcDbEntity
  8
BUBZ_L_1
  6
Continuous
 62
     7
370
    18
100
AcDb2dPolyline
 66
     1
 10
0.0
 20
0.0
 30
0.0
 70
   128
  0
VERTEX
  5
135B
330
135A
100
AcDbEntity
  8
BUBZ_L_1
100
AcDbVertex
100
AcDb2dVertex
 10
8392625.62540669
 20
5686642.340665059
 30
0.0
  0
VERTEX
  5
135C
330
135A
100
AcDbEntity
  8
BUBZ_L_1
100
AcDbVertex
100
AcDb2dVertex
 10
8392625.669252604
 20
5686642.964259887
 30
0.0
  0
SEQEND
  5
135D
330
0
100
AcDbEntity
  8
BUBZ_L_1
  0
POLYLINE
  5
135E
330
43
100
AcDbEntity
  8
BUBZ_L_1
  6
Continuous
 62
     7
370
    18
100
AcDb2dPolyline
 66
     1
 10
0.0
 20
0.0
 30
0.0
 70
   128
  0
VERTEX
  5
135F
330
135E
100
AcDbEntity
  8
BUBZ_L_1
100
AcDbVertex
100
AcDb2dVertex
 10
8392625.001811857
 20
5686642.384510975
 30
0.0
  0
VERTEX
  5
1360
330
135E
100
AcDbEntity
  8
BUBZ_L_1
100
AcDbVertex
100
AcDb2dVertex
 10
8392625.088371266
 20
5686643.615594813
 30
0.0
  0
SEQEND
  5
1361
330
0
100
AcDbEntity
  8
BUBZ_L_1
  0
POLYLINE
  5
1362
330
43
100
AcDbEntity
  8
BUBZ_L_1
  6
Continuous
 62
     7
370
    18
100
AcDb2dPolyline
 66
     1
 10
0.0
 20
0.0
 30
0.0
 70
   128
  0
VERTEX
  5
1363
330
1362
100
AcDbEntity
  8
BUBZ_L_1
100
AcDbVertex
100
AcDb2dVertex
 10
8392624.386269941
 20
5686642.42779068
 30
0.0
  0
VERTEX
  5
1364
330
1362
100
AcDbEntity
  8
BUBZ_L_1
100
AcDbVertex
100
AcDb2dVertex
 10
8392624.428990746
 20
5686643.035383682
 30
0.0
  0
SEQEND
  5
1365
330
0
100
AcDbEntity
  8
BUBZ_L_1
  0
POLYLINE
  5
1366
330
43
100
AcDbEntity
  8
BUBZ_L_1
  6
Continuous
 62
     7
370
    18
100
AcDb2dPolyline
 66
     1
 10
0.0
 20
0.0
 30
0.0
 70
   128
  0
VERTEX
  5
1367
330
1366
100
AcDbEntity
  8
BUBZ_L_1
100
AcDbVertex
100
AcDb2dVertex
 10
8392623.778676941
 20
5686642.470511482
 30
0.0
  0
VERTEX
  5
1368
330
1366
100
AcDbEntity
  8
BUBZ_L_1
100
AcDbVertex
100
AcDb2dVertex
 10
8392623.863015179
 20
5686643.670004955
 30
0.0
  0
SEQEND
  5
1369
330
0
100
AcDbEntity
  8
BUBZ_L_1
  0
POLYLINE
  5
136A
330
43
100
AcDbEntity
  8
BUBZ_L_1
  6
Continuous
 62
     7
370
    18
100
AcDb2dPolyline
 66
     1
 10
0.0
 20
0.0
 30
0.0
 70
   128
  0
VERTEX
  5
136B
330
136A
100
AcDbEntity
  8
BUBZ_L_1
100
AcDbVertex
100
AcDb2dVertex
 10
8392623.178930204
 20
5686642.512680601
 30
0.0
  0
VERTEX
  5
136C
330
136A
100
AcDbEntity
  8
BUBZ_L_1
100
AcDbVertex
100
AcDb2dVertex
 10
8392623.220554765
 20
5686643.104682396
 30
0.0
  0
SEQEND
  5
136D
330
0
100
AcDbEntity
  8
BUBZ_L_1
  0
POLYLINE
  5
136E
330
43
100
AcDbEntity
  8
BUBZ_L_1
  6
Continuous
 62
     7
370
    18
100
AcDb2dPolyline
 66
     1
 10
0.0
 20
0.0
 30
0.0
 70
   128
  0
VERTEX
  5
136F
330
136E
100
AcDbEntity
  8
BUBZ_L_1
100
AcDbVertex
100
AcDb2dVertex
 10
8392622.586928411
 20
5686642.554305164
 30
0.0
  0
VERTEX
  5
1370
330
136E
100
AcDbEntity
  8
BUBZ_L_1
100
AcDbVertex
100
AcDb2dVertex
 10
8392622.669102479
 20
5686643.723018901
 30
0.0
  0
SEQEND
  5
1371
330
0
100
AcDbEntity
  8
BUBZ_L_1
  0
POLYLINE
  5
1372
330
43
100
AcDbEntity
  8
BUBZ_L_1
  6
Continuous
 62
     7
370
    18
100
AcDb2dPolyline
 66
     1
 10
0.0
 20
0.0
 30
0.0
 70
   128
  0
VERTEX
  5
1373
330
1372
100
AcDbEntity
  8
BUBZ_L_1
100
AcDbVertex
100
AcDb2dVertex
 10
8392622.002571538
 20
5686642.595392198
 30
0.0
  0
VERTEX
  5
1374
330
1372
100
AcDbEntity
  8
BUBZ_L_1
100
AcDbVertex
100
AcDb2dVertex
 10
8392622.043127989
 20
5686643.172202865
 30
0.0
  0
SEQEND
  5
1375
330
0
100
AcDbEntity
  8
BUBZ_L_1
  0
POLYLINE
  5
1376
330
43
100
AcDbEntity
  8
BUBZ_L_1
  6
Continuous
 62
     7
370
    18
100
AcDb2dPolyline
 66
     1
 10
0.0
 20
0.0
 30
0.0
 70
   128
  0
VERTEX
  5
1377
330
1376
100
AcDbEntity
  8
BUBZ_L_1
100
AcDbVertex
100
AcDb2dVertex
 10
8392621.425760875
 20
5686642.635948648
 30
0.0
  0
VERTEX
  5
1378
330
1376
100
AcDbEntity
  8
BUBZ_L_1
100
AcDbVertex
100
AcDb2dVertex
 10
8392621.505826308
 20
5686643.774672473
 30
0.0
  0
SEQEND
  5
1379
330
0
100
AcDbEntity
  8
BUBZ_L_1
  0
POLYLINE
  5
137A
330
43
100
AcDbEntity
  8
BUBZ_L_1
  6
Continuous
 62
     7
370
    18
100
AcDb2dPolyline
 66
     1
 10
0.0
 20
0.0
 30
0.0
 70
   128
  0
VERTEX
  5
137B
330
137A
100
AcDbEntity
  8
BUBZ_L_1
100
AcDbVertex
100
AcDb2dVertex
 10
8392620.856398959
 20
5686642.675981365
 30
0.0
  0
VERTEX
  5
137C
330
137A
100
AcDbEntity
  8
BUBZ_L_1
100
AcDbVertex
100
AcDb2dVertex
 10
8392620.895914706
 20
5686643.237990717
 30
0.0
  0
SEQEND
  5
137D
330
0
100
AcDbEntity
  8
BUBZ_L_1
  0
POLYLINE
  5
137E
330
43
100
AcDbEntity
  8
BUBZ_L_1
  6
Continuous
 62
     7
370
    18
100
AcDb2dPolyline
 66
     1
 10
0.0
 20
0.0
 30
0.0
 70
   128
  0
VERTEX
  5
137F
330
137E
100
AcDbEntity
  8
BUBZ_L_1
100
AcDbVertex
100
AcDb2dVertex
 10
8392620.294389615
 20
5686642.715497111
 30
0.0
  0
VERTEX
  5
1380
330
137E
100
AcDbEntity
  8
BUBZ_L_1
100
AcDbVertex
100
AcDb2dVertex
 10
8392620.372400513
 20
5686643.825000585
 30
0.0
  0
SEQEND
  5
1381
330
0
100
AcDbEntity
  8
BUBZ_L_1
  0
POLYLINE
  5
1382
330
43
100
AcDbEntity
  8
BUBZ_L_1
  6
Continuous
 62
     7
370
    18
100
AcDb2dPolyline
 66
     1
 10
0.0
 20
0.0
 30
0.0
 70
   128
  0
VERTEX
  5
1383
330
1382
100
AcDbEntity
  8
BUBZ_L_1
100
AcDbVertex
100
AcDb2dVertex
 10
8392619.739637876
 20
5686642.754502563
 30
0.0
  0
VERTEX
  5
1384
330
1382
100
AcDbEntity
  8
BUBZ_L_1
100
AcDbVertex
100
AcDb2dVertex
 10
8392619.778139623
 20
5686643.30209041
 30
0.0
  0
SEQEND
  5
1385
330
0
100
AcDbEntity
  8
BUBZ_L_1
  0
POLYLINE
  5
1386
330
43
100
AcDbEntity
  8
BUBZ_L_1
  6
Continuous
 62
     7
370
    18
100
AcDb2dPolyline
 66
     1
 10
0.0
 20
0.0
 30
0.0
 70
   128
  0
VERTEX
  5
1387
330
1386
100
AcDbEntity
  8
BUBZ_L_1
100
AcDbVertex
100
AcDb2dVertex
 10
8392619.192050025
 20
5686642.793004311
 30
0.0
  0
VERTEX
  5
1388
330
1386
100
AcDbEntity
  8
BUBZ_L_1
100
AcDbVertex
100
AcDb2dVertex
 10
8392619.268059123
 20
5686643.874037249
 30
0.0
  0
SEQEND
  5
1389
330
0
100
AcDbEntity
  8
BUBZ_L_1
  0
POLYLINE
  5
138A
330
43
100
AcDbEntity
  8
BUBZ_L_1
  6
Continuous
 62
     7
370
    18
100
AcDb2dPolyline
 66
     1
 10
0.0
 20
0.0
 30
0.0
 70
   128
  0
VERTEX
  5
138B
330
138A
100
AcDbEntity
  8
BUBZ_L_1
100
AcDbVertex
100
AcDb2dVertex
 10
8392618.651533554
 20
5686642.831008858
 30
0.0
  0
VERTEX
  5
138C
330
138A
100
AcDbEntity
  8
BUBZ_L_1
100
AcDbVertex
100
AcDb2dVertex
 10
8392618.689047326
 20
5686643.364545267
 30
0.0
  0
SEQEND
  5
138D
330
0
100
AcDbEntity
  8
BUBZ_L_1
  0
POLYLINE
  5
138E
330
43
100
AcDbEntity
  8
BUBZ_L_1
  6
Continuous
 62
     7
370
    18
100
AcDb2dPolyline
 66
     1
 10
0.0
 20
0.0
 30
0.0
 70
   128
  0
VERTEX
  5
138F
330
138E
100
AcDbEntity
  8
BUBZ_L_1
100
AcDbVertex
100
AcDb2dVertex
 10
8392618.11770765
 20
5686642.862590347
 30
0.0
  0
VERTEX
  5
1390
330
138E
100
AcDbEntity
  8
BUBZ_L_1
100
AcDbVertex
100
AcDb2dVertex
 10
8392618.146716815
 20
5686643.923828812
 30
0.0
  0
SEQEND
  5
1391
330
0
100
AcDbEntity
  8
BUBZ_L_1
  0
POLYLINE
  5
1392
330
43
100
AcDbEntity
  8
BUBZ_L_1
  6
Continuous
 62
     7
370
    18
100
AcDb2dPolyline
 66
     1
 10
0.0
 20
0.0
 30
0.0
 70
   128
  0
VERTEX
  5
1393
330
1392
100
AcDbEntity
  8
BUBZ_L_1
100
AcDbVertex
100
AcDb2dVertex
 10
8392617.587088416
 20
5686642.877094929
 30
0.0
  0
VERTEX
  5
1394
330
1392
100
AcDbEntity
  8
BUBZ_L_1
100
AcDbVertex
100
AcDb2dVertex
 10
8392617.601716635
 20
5686643.412237065
 30
0.0
  0
SEQEND
  5
1395
330
0
100
AcDbEntity
  8
BUBZ_L_1
  0
POLYLINE
  5
1396
330
43
100
AcDbEntity
  8
BUBZ_L_1
  6
Continuous
 62
     7
370
    18
100
AcDb2dPolyline
 66
     1
 10
0.0
 20
0.0
 30
0.0
 70
   128
  0
VERTEX
  5
1397
330
1396
100
AcDbEntity
  8
BUBZ_L_1
100
AcDbVertex
100
AcDb2dVertex
 10
8392617.051946279
 20
5686642.891723145
 30
0.0
  0
VERTEX
  5
1398
330
1396
100
AcDbEntity
  8
BUBZ_L_1
100
AcDbVertex
100
AcDb2dVertex
 10
8392617.081452096
 20
5686643.971130327
 30
0.0
  0
SEQEND
  5
1399
330
0
100
AcDbEntity
  8
BUBZ_L_1
  0
POLYLINE
  5
139A
330
43
100
AcDbEntity
  8
BUBZ_L_1
  6
Continuous
 62
     7
370
    18
100
AcDb2dPolyline
 66
     1
 10
0.0
 20
0.0
 30
0.0
 70
   128
  0
VERTEX
  5
139B
330
139A
100
AcDbEntity
  8
BUBZ_L_1
100
AcDbVertex
100
AcDb2dVertex
 10
8392616.512242691
 20
5686642.906476053
 30
0.0
  0
VERTEX
  5
139C
330
139A
100
AcDbEntity
  8
BUBZ_L_1
100
AcDbVertex
100
AcDb2dVertex
 10
8392616.527121344
 20
5686643.450779976
 30
0.0
  0
SEQEND
  5
139D
330
0
100
AcDbEntity
  8
BUBZ_L_1
  0
POLYLINE
  5
139E
330
43
100
AcDbEntity
  8
BUBZ_L_1
  6
Continuous
 62
     7
370
    18
100
AcDb2dPolyline
 66
     1
 10
0.0
 20
0.0
 30
0.0
 70
   128
  0
VERTEX
  5
139F
330
139E
100
AcDbEntity
  8
BUBZ_L_1
100
AcDbVertex
100
AcDb2dVertex
 10
8392615.967938766
 20
5686642.921354708
 30
0.0
  0
VERTEX
  5
13A0
330
139E
100
AcDbEntity
  8
BUBZ_L_1
100
AcDbVertex
100
AcDb2dVertex
 10
8392615.997949725
 20
5686644.019241657
 30
0.0
  0
SEQEND
  5
13A1
330
0
100
AcDbEntity
  8
BUBZ_L_1
  0
POLYLINE
  5
13A2
330
43
100
AcDbEntity
  8
BUBZ_L_1
  6
Continuous
 62
     7
370
    18
100
AcDb2dPolyline
 66
     1
 10
0.0
 20
0.0
 30
0.0
 70
   128
  0
VERTEX
  5
13A3
330
13A2
100
AcDbEntity
  8
BUBZ_L_1
100
AcDbVertex
100
AcDb2dVertex
 10
8392615.418995289
 20
5686642.936360187
 30
0.0
  0
VERTEX
  5
13A4
330
13A2
100
AcDbEntity
  8
BUBZ_L_1
100
AcDbVertex
100
AcDb2dVertex
 10
8392615.434128675
 20
5686643.489982758
 30
0.0
  0
SEQEND
  5
13A5
330
0
100
AcDbEntity
  8
BUBZ_L_1
  0
POLYLINE
  5
13A6
330
43
100
AcDbEntity
  8
BUBZ_L_1
  6
Continuous
 62
     7
370
    18
100
AcDb2dPolyline
 66
     1
 10
0.0
 20
0.0
 30
0.0
 70
   128
  0
VERTEX
  5
13A7
330
13A6
100
AcDbEntity
  8
BUBZ_L_1
100
AcDbVertex
100
AcDb2dVertex
 10
8392614.865372719
 20
5686642.951493572
 30
0.0
  0
VERTEX
  5
13A8
330
13A6
100
AcDbEntity
  8
BUBZ_L_1
100
AcDbVertex
100
AcDb2dVertex
 10
8392614.895897475
 20
5686644.068176668
 30
0.0
  0
SEQEND
  5
13A9
330
0
100
AcDbEntity
  8
BUBZ_L_1
  0
POLYLINE
  5
13AA
330
43
100
AcDbEntity
  8
BUBZ_L_1
  6
Continuous
 62
     7
370
    18
100
AcDb2dPolyline
 66
     1
 10
0.0
 20
0.0
 30
0.0
 70
   128
  0
VERTEX
  5
13AB
330
13AA
100
AcDbEntity
  8
BUBZ_L_1
100
AcDbVertex
100
AcDb2dVertex
 10
8392614.307031175
 20
5686642.966755947
 30
0.0
  0
VERTEX
  5
13AC
330
13AA
100
AcDbEntity
  8
BUBZ_L_1
100
AcDbVertex
100
AcDb2dVertex
 10
8392614.322423645
 20
5686643.529856701
 30
0.0
  0
SEQEND
  5
13AD
330
0
100
AcDbEntity
  8
BUBZ_L_1
  0
POLYLINE
  5
13AE
330
43
100
AcDbEntity
  8
BUBZ_L_1
  6
Continuous
 62
     7
370
    18
100
AcDb2dPolyline
 66
     1
 10
0.0
 20
0.0
 30
0.0
 70
   128
  0
VERTEX
  5
13AF
330
13AE
100
AcDbEntity
  8
BUBZ_L_1
100
AcDbVertex
100
AcDb2dVertex
 10
8392613.743930418
 20
5686642.982148419
 30
0.0
  0
VERTEX
  5
13B0
330
13AE
100
AcDbEntity
  8
BUBZ_L_1
100
AcDbVertex
100
AcDb2dVertex
 10
8392613.774977771
 20
5686644.117949462
 30
0.0
  0
SEQEND
  5
13B1
330
0
100
AcDbEntity
  8
BUBZ_L_1
  0
POLYLINE
  5
13B2
330
43
100
AcDbEntity
  8
BUBZ_L_1
  6
Continuous
 62
     7
370
    18
100
AcDb2dPolyline
 66
     1
 10
0.0
 20
0.0
 30
0.0
 70
   128
  0
VERTEX
  5
13B3
330
13B2
100
AcDbEntity
  8
BUBZ_L_1
100
AcDbVertex
100
AcDb2dVertex
 10
8392613.176029902
 20
5686642.997672095
 30
0.0
  0
VERTEX
  5
13B4
330
13B2
100
AcDbEntity
  8
BUBZ_L_1
100
AcDbVertex
100
AcDb2dVertex
 10
8392613.191685894
 20
5686643.570413296
 30
0.0
  0
SEQEND
  5
13B5
330
0
100
AcDbEntity
  8
BUBZ_L_1
  0
POLYLINE
  5
13B6
330
43
100
AcDbEntity
  8
BUBZ_L_1
  6
Continuous
 62
     7
370
    18
100
AcDb2dPolyline
 66
     1
 10
0.0
 20
0.0
 30
0.0
 70
   128
  0
VERTEX
  5
13B7
330
13B6
100
AcDbEntity
  8
BUBZ_L_1
100
AcDbVertex
100
AcDb2dVertex
 10
8392612.603288696
 20
5686643.013328088
 30
0.0
  0
VERTEX
  5
13B8
330
13B6
100
AcDbEntity
  8
BUBZ_L_1
100
AcDbVertex
100
AcDb2dVertex
 10
8392612.634867585
 20
5686644.168574381
 30
0.0
  0
SEQEND
  5
13B9
330
0
100
AcDbEntity
  8
BUBZ_L_1
  0
POLYLINE
  5
13BA
330
43
100
AcDbEntity
  8
BUBZ_L_1
  6
Continuous
 62
     7
370
    18
100
AcDb2dPolyline
 66
     1
 10
0.0
 20
0.0
 30
0.0
 70
   128
  0
VERTEX
  5
13BB
330
13BA
100
AcDbEntity
  8
BUBZ_L_1
100
AcDbVertex
100
AcDb2dVertex
 10
8392612.025665549
 20
5686643.029117532
 30
0.0
  0
VERTEX
  5
13BC
330
13BA
100
AcDbEntity
  8
BUBZ_L_1
100
AcDbVertex
100
AcDb2dVertex
 10
8392612.041589583
 20
5686643.611664234
 30
0.0
  0
SEQEND
  5
13BD
330
0
100
AcDbEntity
  8
BUBZ_L_1
  0
POLYLINE
  5
13BE
330
43
100
AcDbEntity
  8
BUBZ_L_1
  6
Continuous
 62
     7
370
    18
100
AcDb2dPolyline
 66
     1
 10
0.0
 20
0.0
 30
0.0
 70
   128
  0
VERTEX
  5
13BF
330
13BE
100
AcDbEntity
  8
BUBZ_L_1
100
AcDbVertex
100
AcDb2dVertex
 10
8392611.44311885
 20
5686643.045041561
 30
0.0
  0
VERTEX
  5
13C0
330
13BE
100
AcDbEntity
  8
BUBZ_L_1
100
AcDbVertex
100
AcDb2dVertex
 10
8392611.475238377
 20
5686644.220066012
 30
0.0
  0
SEQEND
  5
13C1
330
0
100
AcDbEntity
  8
BUBZ_L_1
  0
POLYLINE
  5
13C2
330
43
100
AcDbEntity
  8
BUBZ_L_1
  6
Continuous
 62
     7
370
    18
100
AcDb2dPolyline
 66
     1
 10
0.0
 20
0.0
 30
0.0
 70
   128
  0
VERTEX
  5
13C3
330
13C2
100
AcDbEntity
  8
BUBZ_L_1
100
AcDbVertex
100
AcDb2dVertex
 10
8392610.855606625
 20
5686643.061101327
 30
0.0
  0
VERTEX
  5
13C4
330
13C2
100
AcDbEntity
  8
BUBZ_L_1
100
AcDbVertex
100
AcDb2dVertex
 10
8392610.871803279
 20
5686643.653621401
 30
0.0
  0
SEQEND
  5
13C5
330
0
100
AcDbEntity
  8
BUBZ_L_1
  0
POLYLINE
  5
13C6
330
43
100
AcDbEntity
  8
BUBZ_L_1
  6
Continuous
 62
     7
370
    18
100
AcDb2dPolyline
 66
     1
 10
0.0
 20
0.0
 30
0.0
 70
   128
  0
VERTEX
  5
13C7
330
13C6
100
AcDbEntity
  8
BUBZ_L_1
100
AcDbVertex
100
AcDb2dVertex
 10
8392610.263086552
 20
5686643.077297981
 30
0.0
  0
VERTEX
  5
13C8
330
13C6
100
AcDbEntity
  8
BUBZ_L_1
100
AcDbVertex
100
AcDb2dVertex
 10
8392610.295755975
 20
5686644.272439196
 30
0.0
  0
SEQEND
  5
13C9
330
0
100
AcDbEntity
  8
BUBZ_L_1
  0
POLYLINE
  5
13CA
330
43
100
AcDbEntity
  8
BUBZ_L_1
  6
Continuous
 62
     7
370
    18
100
AcDb2dPolyline
 66
     1
 10
0.0
 20
0.0
 30
0.0
 70
   128
  0
VERTEX
  5
13CB
330
13CA
100
AcDbEntity
  8
BUBZ_L_1
100
AcDbVertex
100
AcDb2dVertex
 10
8392609.665515944
 20
5686643.093632692
 30
0.0
  0
VERTEX
  5
13CC
330
13CA
100
AcDbEntity
  8
BUBZ_L_1
100
AcDbVertex
100
AcDb2dVertex
 10
8392609.68198989
 20
5686643.696296884
 30
0.0
  0
SEQEND
  5
13CD
330
0
100
AcDbEntity
  8
BUBZ_L_1
  0
POLYLINE
  5
13CE
330
43
100
AcDbEntity
  8
BUBZ_L_1
  6
Continuous
 62
     7
370
    18
100
AcDb2dPolyline
 66
     1
 10
0.0
 20
0.0
 30
0.0
 70
   128
  0
VERTEX
  5
13CF
330
13CE
100
AcDbEntity
  8
BUBZ_L_1
100
AcDbVertex
100
AcDb2dVertex
 10
8392609.062851754
 20
5686643.110106642
 30
0.0
  0
VERTEX
  5
13D0
330
13CE
100
AcDbEntity
  8
BUBZ_L_1
100
AcDbVertex
100
AcDb2dVertex
 10
8392609.096080485
 20
5686644.325709026
 30
0.0
  0
SEQEND
  5
13D1
330
0
100
AcDbEntity
  8
BUBZ_L_1
  0
POLYLINE
  5
13D2
330
43
100
AcDbEntity
  8
BUBZ_L_1
  6
Continuous
 62
     7
370
    18
100
AcDb2dPolyline
 66
     1
 10
0.0
 20
0.0
 30
0.0
 70
   128
  0
VERTEX
  5
13D3
330
13D2
100
AcDbEntity
  8
BUBZ_L_1
100
AcDbVertex
100
AcDb2dVertex
 10
8392608.455050561
 20
5686643.126721007
 30
0.0
  0
VERTEX
  5
13D4
330
13D2
100
AcDbEntity
  8
BUBZ_L_1
100
AcDbVertex
100
AcDb2dVertex
 10
8392608.471806548
 20
5686643.739702986
 30
0.0
  0
SEQEND
  5
13D5
330
0
100
AcDbEntity
  8
BUBZ_L_1
  0
POLYLINE
  5
13D6
330
43
100
AcDbEntity
  8
BUBZ_L_1
  6
Continuous
 62
     7
370
    18
100
AcDb2dPolyline
 66
     1
 10
0.0
 20
0.0
 30
0.0
 70
   128
  0
VERTEX
  5
13D7
330
13D6
100
AcDbEntity
  8
BUBZ_L_1
100
AcDbVertex
100
AcDb2dVertex
 10
8392607.84206858
 20
5686643.143476991
 30
0.0
  0
VERTEX
  5
13D8
330
13D6
100
AcDbEntity
  8
BUBZ_L_1
100
AcDbVertex
100
AcDb2dVertex
 10
8392607.8758662
 20
5686644.379890848
 30
0.0
  0
SEQEND
  5
13D9
330
0
100
AcDbEntity
  8
BUBZ_L_1
  0
POLYLINE
  5
13DA
330
43
100
AcDbEntity
  8
BUBZ_L_1
  6
Continuous
 62
     7
370
    18
100
AcDb2dPolyline
 66
     1
 10
0.0
 20
0.0
 30
0.0
 70
   128
  0
VERTEX
  5
13DB
330
13DA
100
AcDbEntity
  8
BUBZ_L_1
100
AcDbVertex
100
AcDb2dVertex
 10
8392607.223861652
 20
5686643.1603758
 30
0.0
  0
VERTEX
  5
13DC
330
13DA
100
AcDbEntity
  8
BUBZ_L_1
100
AcDbVertex
100
AcDb2dVertex
 10
8392607.240904505
 20
5686643.783852211
 30
0.0
  0
SEQEND
  5
13DD
330
0
100
AcDbEntity
  8
BUBZ_L_1
  0
POLYLINE
  5
13DE
330
43
100
AcDbEntity
  8
BUBZ_L_1
  6
Continuous
 62
     7
370
    18
100
AcDb2dPolyline
 66
     1
 10
0.0
 20
0.0
 30
0.0
 70
   128
  0
VERTEX
  5
13DF
330
13DE
100
AcDbEntity
  8
BUBZ_L_1
100
AcDbVertex
100
AcDb2dVertex
 10
8392606.600385239
 20
5686643.177418654
 30
0.0
  0
VERTEX
  5
13E0
330
13DE
100
AcDbEntity
  8
BUBZ_L_1
100
AcDbVertex
100
AcDb2dVertex
 10
8392606.634761484
 20
5686644.435000279
 30
0.0
  0
SEQEND
  5
13E1
330
0
100
AcDbEntity
  8
BUBZ_L_1
  0
POLYLINE
  5
13E2
330
43
100
AcDbEntity
  8
BUBZ_L_1
  6
Continuous
 62
     7
370
    18
100
AcDb2dPolyline
 66
     1
 10
0.0
 20
0.0
 30
0.0
 70
   128
  0
VERTEX
  5
13E3
330
13E2
100
AcDbEntity
  8
BUBZ_L_1
100
AcDbVertex
100
AcDb2dVertex
 10
8392605.971594424
 20
5686643.194606776
 30
0.0
  0
VERTEX
  5
13E4
330
13E2
100
AcDbEntity
  8
BUBZ_L_1
100
AcDbVertex
100
AcDb2dVertex
 10
8392605.988929059
 20
5686643.828757288
 30
0.0
  0
SEQEND
  5
13E5
330
0
100
AcDbEntity
  8
BUBZ_L_1
  0
POLYLINE
  5
13E6
330
43
100
AcDbEntity
  8
BUBZ_L_1
  6
Continuous
 62
     7
370
    18
100
AcDb2dPolyline
 66
     1
 10
0.0
 20
0.0
 30
0.0
 70
   128
  0
VERTEX
  5
13E7
330
13E6
100
AcDbEntity
  8
BUBZ_L_1
100
AcDbVertex
100
AcDb2dVertex
 10
8392605.337443916
 20
5686643.211941405
 30
0.0
  0
VERTEX
  5
13E8
330
13E6
100
AcDbEntity
  8
BUBZ_L_1
100
AcDbVertex
100
AcDb2dVertex
 10
8392605.372408691
 20
5686644.4910532
 30
0.0
  0
SEQEND
  5
13E9
330
0
100
AcDbEntity
  8
BUBZ_L_1
  0
POLYLINE
  5
13EA
330
43
100
AcDbEntity
  8
BUBZ_L_1
  6
Continuous
 62
     7
370
    18
100
AcDb2dPolyline
 66
     1
 10
0.0
 20
0.0
 30
0.0
 70
   128
  0
VERTEX
  5
13EB
330
13EA
100
AcDbEntity
  8
BUBZ_L_1
100
AcDbVertex
100
AcDb2dVertex
 10
8392604.697888017
 20
5686643.229423793
 30
0.0
  0
VERTEX
  5
13EC
330
13EA
100
AcDbEntity
  8
BUBZ_L_1
100
AcDbVertex
100
AcDb2dVertex
 10
8392604.715519421
 20
5686643.874431151
 30
0.0
  0
SEQEND
  5
13ED
330
0
100
AcDbEntity
  8
BUBZ_L_1
  0
POLYLINE
  5
13EE
330
43
100
AcDbEntity
  8
BUBZ_L_1
  6
Continuous
 62
     7
370
    18
100
AcDb2dPolyline
 66
     1
 10
0.0
 20
0.0
 30
0.0
 70
   128
  0
VERTEX
  5
13EF
330
13EE
100
AcDbEntity
  8
BUBZ_L_1
100
AcDbVertex
100
AcDb2dVertex
 10
8392604.052880658
 20
5686643.247055196
 30
0.0
  0
VERTEX
  5
13F0
330
13EE
100
AcDbEntity
  8
BUBZ_L_1
100
AcDbVertex
100
AcDb2dVertex
 10
8392604.088444043
 20
5686644.548065764
 30
0.0
  0
SEQEND
  5
13F1
330
0
100
AcDbEntity
  8
BUBZ_L_1
  0
POLYLINE
  5
13F2
330
43
100
AcDbEntity
  8
BUBZ_L_1
  6
Continuous
 62
     7
370
    18
100
AcDb2dPolyline
 66
     1
 10
0.0
 20
0.0
 30
0.0
 70
   128
  0
VERTEX
  5
13F3
330
13F2
100
AcDbEntity
  8
BUBZ_L_1
100
AcDbVertex
100
AcDb2dVertex
 10
8392603.402375371
 20
5686643.26483689
 30
0.0
  0
VERTEX
  5
13F4
330
13F2
100
AcDbEntity
  8
BUBZ_L_1
100
AcDbVertex
100
AcDb2dVertex
 10
8392603.420308635
 20
5686643.920886963
 30
0.0
  0
SEQEND
  5
13F5
330
0
100
AcDbEntity
  8
BUBZ_L_1
  0
POLYLINE
  5
13F6
330
43
100
AcDbEntity
  8
BUBZ_L_1
  6
Continuous
 62
     7
370
    18
100
AcDb2dPolyline
 66
     1
 10
0.0
 20
0.0
 30
0.0
 70
   128
  0
VERTEX
  5
13F7
330
13F6
100
AcDbEntity
  8
BUBZ_L_1
100
AcDbVertex
100
AcDb2dVertex
 10
8392602.746325303
 20
5686643.282770148
 30
0.0
  0
VERTEX
  5
13F8
330
13F6
100
AcDbEntity
  8
BUBZ_L_1
100
AcDbVertex
100
AcDb2dVertex
 10
8392602.782497542
 20
5686644.606054401
 30
0.0
  0
SEQEND
  5
13F9
330
0
100
AcDbEntity
  8
BUBZ_L_1
  0
POLYLINE
  5
13FA
330
43
100
AcDbEntity
  8
BUBZ_L_1
  6
Continuous
 62
     7
370
    18
100
AcDb2dPolyline
 66
     1
 10
0.0
 20
0.0
 30
0.0
 70
   128
  0
VERTEX
  5
13FB
330
13FA
100
AcDbEntity
  8
BUBZ_L_1
100
AcDbVertex
100
AcDb2dVertex
 10
8392602.084683174
 20
5686643.300856269
 30
0.0
  0
VERTEX
  5
13FC
330
13FA
100
AcDbEntity
  8
BUBZ_L_1
100
AcDbVertex
100
AcDb2dVertex
 10
8392602.102923458
 20
5686643.968138112
 30
0.0
  0
SEQEND
  5
13FD
330
0
100
AcDbEntity
  8
BUBZ_L_1
  0
POLYLINE
  5
13FE
330
43
100
AcDbEntity
  8
BUBZ_L_1
  6
Continuous
 62
     7
370
    18
100
AcDb2dPolyline
 66
     1
 10
0.0
 20
0.0
 30
0.0
 70
   128
  0
VERTEX
  5
13FF
330
13FE
100
AcDbEntity
  8
BUBZ_L_1
100
AcDbVertex
100
AcDb2dVertex
 10
8392601.417401332
 20
5686643.319096551
 30
0.0
  0
VERTEX
  5
1400
330
13FE
100
AcDbEntity
  8
BUBZ_L_1
100
AcDbVertex
100
AcDb2dVertex
 10
8392601.454192851
 20
5686644.665035819
 30
0.0
  0
SEQEND
  5
1401
330
0
100
AcDbEntity
  8
BUBZ_L_1
  0
POLYLINE
  5
1402
330
43
100
AcDbEntity
  8
BUBZ_L_1
  6
Continuous
 62
     7
370
    18
100
AcDb2dPolyline
 66
     1
 10
0.0
 20
0.0
 30
0.0
 70
   128
  0
VERTEX
  5
1403
330
1402
100
AcDbEntity
  8
BUBZ_L_1
100
AcDbVertex
100
AcDb2dVertex
 10
8392600.744431698
 20
5686643.337492311
 30
0.0
  0
VERTEX
  5
1404
330
1402
100
AcDbEntity
  8
BUBZ_L_1
100
AcDbVertex
100
AcDb2dVertex
 10
8392600.762984258
 20
5686644.016198216
 30
0.0
  0
SEQEND
  5
1405
330
0
100
AcDbEntity
  8
BUBZ_L_1
  0
POLYLINE
  5
1406
330
43
100
AcDbEntity
  8
BUBZ_L_1
  6
Continuous
 62
     7
370
    18
100
AcDb2dPolyline
 66
     1
 10
0.0
 20
0.0
 30
0.0
 70
   128
  0
VERTEX
  5
1407
330
1406
100
AcDbEntity
  8
BUBZ_L_1
100
AcDbVertex
100
AcDb2dVertex
 10
8392600.06572579
 20
5686643.356044872
 30
0.0
  0
VERTEX
  5
1408
330
1406
100
AcDbEntity
  8
BUBZ_L_1
100
AcDbVertex
100
AcDb2dVertex
 10
8392600.103147188
 20
5686644.725027017
 30
0.0
  0
SEQEND
  5
1409
330
0
100
AcDbEntity
  8
BUBZ_L_1
  0
POLYLINE
  5
140A
330
43
100
AcDbEntity
  8
BUBZ_L_1
  6
Continuous
 62
     7
370
    18
100
AcDb2dPolyline
 66
     1
 10
0.0
 20
0.0
 30
0.0
 70
   128
  0
VERTEX
  5
140B
330
140A
100
AcDbEntity
  8
BUBZ_L_1
100
AcDbVertex
100
AcDb2dVertex
 10
8392599.381234717
 20
5686643.374755573
 30
0.0
  0
VERTEX
  5
140C
330
140A
100
AcDbEntity
  8
BUBZ_L_1
100
AcDbVertex
100
AcDb2dVertex
 10
8392599.400104902
 20
5686644.065081123
 30
0.0
  0
SEQEND
  5
140D
330
0
100
AcDbEntity
  8
BUBZ_L_1
  0
POLYLINE
  5
140E
330
43
100
AcDbEntity
  8
BUBZ_L_1
  6
Continuous
 62
     7
370
    18
100
AcDb2dPolyline
 66
     1
 10
0.0
 20
0.0
 30
0.0
 70
   128
  0
VERTEX
  5
140F
330
140E
100
AcDbEntity
  8
BUBZ_L_1
100
AcDbVertex
100
AcDb2dVertex
 10
8392598.690909165
 20
5686643.393625758
 30
0.0
  0
VERTEX
  5
1410
330
140E
100
AcDbEntity
  8
BUBZ_L_1
100
AcDbVertex
100
AcDb2dVertex
 10
8392598.728971231
 20
5686644.786045284
 30
0.0
  0
SEQEND
  5
1411
330
0
100
AcDbEntity
  8
BUBZ_L_1
  0
POLYLINE
  5
1412
330
43
100
AcDbEntity
  8
BUBZ_L_1
  6
Continuous
 62
     7
370
    18
100
AcDb2dPolyline
 66
     1
 10
0.0
 20
0.0
 30
0.0
 70
   128
  0
VERTEX
  5
1413
330
1412
100
AcDbEntity
  8
BUBZ_L_1
100
AcDbVertex
100
AcDb2dVertex
 10
8392597.994699404
 20
5686643.412656792
 30
0.0
  0
VERTEX
  5
1414
330
1412
100
AcDbEntity
  8
BUBZ_L_1
100
AcDbVertex
100
AcDb2dVertex
 10
8392598.013892651
 20
5686644.114800921
 30
0.0
  0
SEQEND
  5
1415
330
0
100
AcDbEntity
  8
BUBZ_L_1
  0
POLYLINE
  5
1416
330
43
100
AcDbEntity
  8
BUBZ_L_1
  6
Continuous
 62
     7
370
    18
100
AcDb2dPolyline
 66
     1
 10
0.0
 20
0.0
 30
0.0
 70
   128
  0
VERTEX
  5
1417
330
1416
100
AcDbEntity
  8
BUBZ_L_1
100
AcDbVertex
100
AcDb2dVertex
 10
8392597.292555276
 20
5686643.431850041
 30
0.0
  0
VERTEX
  5
1418
330
1416
100
AcDbEntity
  8
BUBZ_L_1
100
AcDbVertex
100
AcDb2dVertex
 10
8392597.331268971
 20
5686644.848108199
 30
0.0
  0
SEQEND
  5
1419
330
0
100
AcDbEntity
  8
BUBZ_L_1
  0
POLYLINE
  5
141A
330
43
100
AcDbEntity
  8
BUBZ_L_1
  6
Continuous
 62
     7
370
    18
100
AcDb2dPolyline
 66
     1
 10
0.0
 20
0.0
 30
0.0
 70
   128
  0
VERTEX
  5
141B
330
141A
100
AcDbEntity
  8
BUBZ_L_1
100
AcDbVertex
100
AcDb2dVertex
 10
8392596.584426193
 20
5686643.45120689
 30
0.0
  0
VERTEX
  5
141C
330
141A
100
AcDbEntity
  8
BUBZ_L_1
100
AcDbVertex
100
AcDb2dVertex
 10
8392596.603948035
 20
5686644.165371935
 30
0.0
  0
SEQEND
  5
141D
330
0
100
AcDbEntity
  8
BUBZ_L_1
  0
POLYLINE
  5
141E
330
43
100
AcDbEntity
  8
BUBZ_L_1
  6
Continuous
 62
     7
370
    18
100
AcDb2dPolyline
 66
     1
 10
0.0
 20
0.0
 30
0.0
 70
   128
  0
VERTEX
  5
141F
330
141E
100
AcDbEntity
  8
BUBZ_L_1
100
AcDbVertex
100
AcDb2dVertex
 10
8392595.87026115
 20
5686643.470728736
 30
0.0
  0
VERTEX
  5
1420
330
141E
100
AcDbEntity
  8
BUBZ_L_1
100
AcDbVertex
100
AcDb2dVertex
 10
8392595.909637639
 20
5686644.911233649
 30
0.0
  0
SEQEND
  5
1421
330
0
100
AcDbEntity
  8
BUBZ_L_1
  0
POLYLINE
  5
1422
330
43
100
AcDbEntity
  8
BUBZ_L_1
  6
Continuous
 62
     7
370
    18
100
AcDb2dPolyline
 66
     1
 10
0.0
 20
0.0
 30
0.0
 70
   128
  0
VERTEX
  5
1423
330
1422
100
AcDbEntity
  8
BUBZ_L_1
100
AcDbVertex
100
AcDb2dVertex
 10
8392595.150008691
 20
5686643.490416978
 30
0.0
  0
VERTEX
  5
1424
330
1422
100
AcDbEntity
  8
BUBZ_L_1
100
AcDbVertex
100
AcDb2dVertex
 10
8392595.169864755
 20
5686644.216808739
 30
0.0
  0
SEQEND
  5
1425
330
0
100
AcDbEntity
  8
BUBZ_L_1
  0
POLYLINE
  5
1426
330
43
100
AcDbEntity
  8
BUBZ_L_1
  6
Continuous
 62
     7
370
    18
100
AcDb2dPolyline
 66
     1
 10
0.0
 20
0.0
 30
0.0
 70
   128
  0
VERTEX
  5
1427
330
1426
100
AcDbEntity
  8
BUBZ_L_1
100
AcDbVertex
100
AcDb2dVertex
 10
8392594.42361693
 20
5686643.510273044
 30
0.0
  0
VERTEX
  5
1428
330
1426
100
AcDbEntity
  8
BUBZ_L_1
100
AcDbVertex
100
AcDb2dVertex
 10
8392594.46366756
 20
5686644.975439828
 30
0.0
  0
SEQEND
  5
1429
330
0
100
AcDbEntity
  8
BUBZ_L_1
  0
POLYLINE
  5
142A
330
43
100
AcDbEntity
  8
BUBZ_L_1
  6
Continuous
 62
     7
370
    18
100
AcDb2dPolyline
 66
     1
 10
0.0
 20
0.0
 30
0.0
 70
   128
  0
VERTEX
  5
142B
330
142A
100
AcDbEntity
  8
BUBZ_L_1
100
AcDbVertex
100
AcDb2dVertex
 10
8392593.691033537
 20
5686643.530298356
 30
0.0
  0
VERTEX
  5
142C
330
142A
100
AcDbEntity
  8
BUBZ_L_1
100
AcDbVertex
100
AcDb2dVertex
 10
8392593.711229544
 20
5686644.269126158
 30
0.0
  0
SEQEND
  5
142D
330
0
100
AcDbEntity
  8
BUBZ_L_1
  0
POLYLINE
  5
142E
330
43
100
AcDbEntity
  8
BUBZ_L_1
  6
Continuous
 62
     7
370
    18
100
AcDb2dPolyline
 66
     1
 10
0.0
 20
0.0
 30
0.0
 70
   128
  0
VERTEX
  5
142F
330
142E
100
AcDbEntity
  8
BUBZ_L_1
100
AcDbVertex
100
AcDb2dVertex
 10
8392592.952205735
 20
5686643.550494361
 30
0.0
  0
VERTEX
  5
1430
330
142E
100
AcDbEntity
  8
BUBZ_L_1
100
AcDbVertex
100
AcDb2dVertex
 10
8392592.99294204
 20
5686645.040745235
 30
0.0
  0
SEQEND
  5
1431
330
0
100
AcDbEntity
  8
BUBZ_L_1
  0
POLYLINE
  5
1432
330
43
100
AcDbEntity
  8
BUBZ_L_1
  6
Continuous
 62
     7
370
    18
100
AcDb2dPolyline
 66
     1
 10
0.0
 20
0.0
 30
0.0
 70
   128
  0
VERTEX
  5
1433
330
1432
100
AcDbEntity
  8
BUBZ_L_1
100
AcDbVertex
100
AcDb2dVertex
 10
8392592.207080296
 20
5686643.570862514
 30
0.0
  0
VERTEX
  5
1434
330
1432
100
AcDbEntity
  8
BUBZ_L_1
100
AcDbVertex
100
AcDb2dVertex
 10
8392592.227622069
 20
5686644.322339264
 30
0.0
  0
SEQEND
  5
1435
330
0
100
AcDbEntity
  8
BUBZ_L_1
  0
POLYLINE
  5
1436
330
43
100
AcDbEntity
  8
BUBZ_L_1
  6
Continuous
 62
     7
370
    18
100
AcDb2dPolyline
 66
     1
 10
0.0
 20
0.0
 30
0.0
 70
   128
  0
VERTEX
  5
1437
330
1436
100
AcDbEntity
  8
BUBZ_L_1
100
AcDbVertex
100
AcDb2dVertex
 10
8392591.455603545
 20
5686643.59140428
 30
0.0
  0
VERTEX
  5
1438
330
1436
100
AcDbEntity
  8
BUBZ_L_1
100
AcDbVertex
100
AcDb2dVertex
 10
8392591.497037269
 20
5686645.107168689
 30
0.0
  0
SEQEND
  5
1439
330
0
100
AcDbEntity
  8
BUBZ_L_1
  0
POLYLINE
  5
143A
330
43
100
AcDbEntity
  8
BUBZ_L_1
  6
Continuous
 62
     7
370
    18
100
AcDb2dPolyline
 66
     1
 10
0.0
 20
0.0
 30
0.0
 70
   128
  0
VERTEX
  5
143B
330
143A
100
AcDbEntity
  8
BUBZ_L_1
100
AcDbVertex
100
AcDb2dVertex
 10
8392590.697721344
 20
5686643.612121141
 30
0.0
  0
VERTEX
  5
143C
330
143A
100
AcDbEntity
  8
BUBZ_L_1
100
AcDbVertex
100
AcDb2dVertex
 10
8392590.718614791
 20
5686644.376463397
 30
0.0
  0
SEQEND
  5
143D
330
0
100
AcDbEntity
  8
BUBZ_L_1
  0
POLYLINE
  5
143E
330
43
100
AcDbEntity
  8
BUBZ_L_1
  6
Continuous
 62
     7
370
    18
100
AcDb2dPolyline
 66
     1
 10
0.0
 20
0.0
 30
0.0
 70
   128
  0
VERTEX
  5
143F
330
143E
100
AcDbEntity
  8
BUBZ_L_1
100
AcDbVertex
100
AcDb2dVertex
 10
8392589.933379085
 20
5686643.633014589
 30
0.0
  0
VERTEX
  5
1440
330
143E
100
AcDbEntity
  8
BUBZ_L_1
100
AcDbVertex
100
AcDb2dVertex
 10
8392589.975522167
 20
5686645.174729331
 30
0.0
  0
SEQEND
  5
1441
330
0
100
AcDbEntity
  8
BUBZ_L_1
  0
POLYLINE
  5
1442
330
43
100
AcDbEntity
  8
BUBZ_L_1
  6
Continuous
 62
     7
370
    18
100
AcDb2dPolyline
 66
     1
 10
0.0
 20
0.0
 30
0.0
 70
   128
  0
VERTEX
  5
1443
330
1442
100
AcDbEntity
  8
BUBZ_L_1
100
AcDbVertex
100
AcDb2dVertex
 10
8392589.162521714
 20
5686643.654086128
 30
0.0
  0
VERTEX
  5
1444
330
1442
100
AcDbEntity
  8
BUBZ_L_1
100
AcDbVertex
100
AcDb2dVertex
 10
8392589.183772866
 20
5686644.431514151
 30
0.0
  0
SEQEND
  5
1445
330
0
100
AcDbEntity
  8
BUBZ_L_1
  0
POLYLINE
  5
1446
330
43
100
AcDbEntity
  8
BUBZ_L_1
  6
Continuous
 62
     7
370
    18
100
AcDb2dPolyline
 66
     1
 10
0.0
 20
0.0
 30
0.0
 70
   128
  0
VERTEX
  5
1447
330
1446
100
AcDbEntity
  8
BUBZ_L_1
100
AcDbVertex
100
AcDb2dVertex
 10
8392588.385093693
 20
5686643.675337279
 30
0.0
  0
VERTEX
  5
1448
330
1446
100
AcDbEntity
  8
BUBZ_L_1
100
AcDbVertex
100
AcDb2dVertex
 10
8392588.427958278
 20
5686645.243446633
 30
0.0
  0
SEQEND
  5
1449
330
0
100
AcDbEntity
  8
BUBZ_L_1
  0
POLYLINE
  5
144A
330
43
100
AcDbEntity
  8
BUBZ_L_1
  6
Continuous
 62
     7
370
    18
100
AcDb2dPolyline
 66
     1
 10
0.0
 20
0.0
 30
0.0
 70
   128
  0
VERTEX
  5
144B
330
144A
100
AcDbEntity
  8
BUBZ_L_1
100
AcDbVertex
100
AcDb2dVertex
 10
8392587.601039018
 20
5686643.696769571
 30
0.0
  0
VERTEX
  5
144C
330
144A
100
AcDbEntity
  8
BUBZ_L_1
100
AcDbVertex
100
AcDb2dVertex
 10
8392587.622653993
 20
5686644.487507387
 30
0.0
  0
SEQEND
  5
144D
330
0
100
AcDbEntity
  8
BUBZ_L_1
  0
POLYLINE
  5
144E
330
43
100
AcDbEntity
  8
BUBZ_L_1
  6
Continuous
 62
     7
370
    18
100
AcDb2dPolyline
 66
     1
 10
0.0
 20
0.0
 30
0.0
 70
   128
  0
VERTEX
  5
144F
330
144E
100
AcDbEntity
  8
BUBZ_L_1
100
AcDbVertex
100
AcDb2dVertex
 10
8392586.8103012
 20
5686643.718384547
 30
0.0
  0
VERTEX
  5
1450
330
144E
100
AcDbEntity
  8
BUBZ_L_1
100
AcDbVertex
100
AcDb2dVertex
 10
8392586.853899636
 20
5686645.313340396
 30
0.0
  0
SEQEND
  5
1451
330
0
100
AcDbEntity
  8
BUBZ_L_1
  0
POLYLINE
  5
1452
330
43
100
AcDbEntity
  8
BUBZ_L_1
  6
Continuous
 62
     7
370
    18
100
AcDb2dPolyline
 66
     1
 10
0.0
 20
0.0
 30
0.0
 70
   128
  0
VERTEX
  5
1453
330
1452
100
AcDbEntity
  8
BUBZ_L_1
100
AcDbVertex
100
AcDb2dVertex
 10
8392586.012823274
 20
5686643.740183765
 30
0.0
  0
VERTEX
  5
1454
330
1452
100
AcDbEntity
  8
BUBZ_L_1
100
AcDbVertex
100
AcDb2dVertex
 10
8392586.034808303
 20
5686644.544459247
 30
0.0
  0
SEQEND
  5
1455
330
0
100
AcDbEntity
  8
BUBZ_L_1
  0
POLYLINE
  5
1456
330
43
100
AcDbEntity
  8
BUBZ_L_1
  6
Continuous
 62
     7
370
    18
100
AcDb2dPolyline
 66
     1
 10
0.0
 20
0.0
 30
0.0
 70
   128
  0
VERTEX
  5
1457
330
1456
100
AcDbEntity
  8
BUBZ_L_1
100
AcDbVertex
100
AcDb2dVertex
 10
8392585.20854779
 20
5686643.762168796
 30
0.0
  0
VERTEX
  5
1458
330
1456
100
AcDbEntity
  8
BUBZ_L_1
100
AcDbVertex
100
AcDb2dVertex
 10
8392585.252892647
 20
5686645.38443076
 30
0.0
  0
SEQEND
  5
1459
330
0
100
AcDbEntity
  8
BUBZ_L_1
  0
POLYLINE
  5
145A
330
43
100
AcDbEntity
  8
BUBZ_L_1
  6
Continuous
 62
     7
370
    18
100
AcDb2dPolyline
 66
     1
 10
0.0
 20
0.0
 30
0.0
 70
   128
  0
VERTEX
  5
145B
330
145A
100
AcDbEntity
  8
BUBZ_L_1
100
AcDbVertex
100
AcDb2dVertex
 10
8392584.397543275
 20
5686643.787910034
 30
0.0
  0
VERTEX
  5
145C
330
145A
100
AcDbEntity
  8
BUBZ_L_1
100
AcDbVertex
100
AcDb2dVertex
 10
8392584.433059361
 20
5686644.603583625
 30
0.0
  0
SEQEND
  5
145D
330
0
100
AcDbEntity
  8
BUBZ_L_1
  0
POLYLINE
  5
145E
330
43
100
AcDbEntity
  8
BUBZ_L_1
  6
Continuous
 62
     7
370
    18
100
AcDb2dPolyline
 66
     1
 10
0.0
 20
0.0
 30
0.0
 70
   128
  0
VERTEX
  5
145F
330
145E
100
AcDbEntity
  8
BUBZ_L_1
100
AcDbVertex
100
AcDb2dVertex
 10
8392583.581869686
 20
5686643.823426122
 30
0.0
  0
VERTEX
  5
1460
330
145E
100
AcDbEntity
  8
BUBZ_L_1
100
AcDbVertex
100
AcDb2dVertex
 10
8392583.652932396
 20
5686645.455474653
 30
0.0
  0
SEQEND
  5
1461
330
0
100
AcDbEntity
  8
BUBZ_L_1
  0
POLYLINE
  5
1462
330
43
100
AcDbEntity
  8
BUBZ_L_1
  6
Continuous
 62
     7
370
    18
100
AcDb2dPolyline
 66
     1
 10
0.0
 20
0.0
 30
0.0
 70
   128
  0
VERTEX
  5
1463
330
1462
100
AcDbEntity
  8
BUBZ_L_1
100
AcDbVertex
100
AcDb2dVertex
 10
8392582.765845418
 20
5686643.858957475
 30
0.0
  0
VERTEX
  5
1464
330
1462
100
AcDbEntity
  8
BUBZ_L_1
100
AcDbVertex
100
AcDb2dVertex
 10
8392582.801392046
 20
5686644.675332567
 30
0.0
  0
SEQEND
  5
1465
330
0
100
AcDbEntity
  8
BUBZ_L_1
  0
POLYLINE
  5
1466
330
43
100
AcDbEntity
  8
BUBZ_L_1
  6
Continuous
 62
     7
370
    18
100
AcDb2dPolyline
 66
     1
 10
0.0
 20
0.0
 30
0.0
 70
   128
  0
VERTEX
  5
1467
330
1466
100
AcDbEntity
  8
BUBZ_L_1
100
AcDbVertex
100
AcDb2dVertex
 10
8392581.949470327
 20
5686643.894504104
 30
0.0
  0
VERTEX
  5
1468
330
1466
100
AcDbEntity
  8
BUBZ_L_1
100
AcDbVertex
100
AcDb2dVertex
 10
8392582.020594153
 20
5686645.527956243
 30
0.0
  0
SEQEND
  5
1469
330
0
100
AcDbEntity
  8
BUBZ_L_1
  0
POLYLINE
  5
146A
330
43
100
AcDbEntity
  8
BUBZ_L_1
  6
Continuous
 62
     7
370
    18
100
AcDb2dPolyline
 66
     1
 10
0.0
 20
0.0
 30
0.0
 70
   128
  0
VERTEX
  5
146B
330
146A
100
AcDbEntity
  8
BUBZ_L_1
100
AcDbVertex
100
AcDb2dVertex
 10
8392581.132744263
 20
5686643.93006602
 30
0.0
  0
VERTEX
  5
146C
330
146A
100
AcDbEntity
  8
BUBZ_L_1
100
AcDbVertex
100
AcDb2dVertex
 10
8392581.168321461
 20
5686644.747143215
 30
0.0
  0
SEQEND
  5
146D
330
0
100
AcDbEntity
  8
BUBZ_L_1
  0
POLYLINE
  5
146E
330
43
100
AcDbEntity
  8
BUBZ_L_1
  6
Continuous
 62
     7
370
    18
100
AcDb2dPolyline
 66
     1
 10
0.0
 20
0.0
 30
0.0
 70
   128
  0
VERTEX
  5
146F
330
146E
100
AcDbEntity
  8
BUBZ_L_1
100
AcDbVertex
100
AcDb2dVertex
 10
8392580.315667062
 20
5686643.965643221
 30
0.0
  0
VERTEX
  5
1470
330
146E
100
AcDbEntity
  8
BUBZ_L_1
100
AcDbVertex
100
AcDb2dVertex
 10
8392580.386852062
 20
5686645.600500173
 30
0.0
  0
SEQEND
  5
1471
330
0
100
AcDbEntity
  8
BUBZ_L_1
  0
POLYLINE
  5
1472
330
43
100
AcDbEntity
  8
BUBZ_L_1
  6
Continuous
 62
     7
370
    18
100
AcDb2dPolyline
 66
     1
 10
0.0
 20
0.0
 30
0.0
 70
   128
  0
VERTEX
  5
1473
330
1472
100
AcDbEntity
  8
BUBZ_L_1
100
AcDbVertex
100
AcDb2dVertex
 10
8392579.498238589
 20
5686644.001235719
 30
0.0
  0
VERTEX
  5
1474
330
1472
100
AcDbEntity
  8
BUBZ_L_1
100
AcDbVertex
100
AcDb2dVertex
 10
8392579.533846387
 20
5686644.819015624
 30
0.0
  0
SEQEND
  5
1475
330
0
100
AcDbEntity
  8
BUBZ_L_1
  0
POLYLINE
  5
1476
330
43
100
AcDbEntity
  8
BUBZ_L_1
  6
Continuous
 62
     7
370
    18
100
AcDb2dPolyline
 66
     1
 10
0.0
 20
0.0
 30
0.0
 70
   128
  0
VERTEX
  5
1477
330
1476
100
AcDbEntity
  8
BUBZ_L_1
100
AcDbVertex
100
AcDb2dVertex
 10
8392578.680458685
 20
5686644.036843518
 30
0.0
  0
VERTEX
  5
1478
330
1476
100
AcDbEntity
  8
BUBZ_L_1
100
AcDbVertex
100
AcDb2dVertex
 10
8392578.751704901
 20
5686645.673106489
 30
0.0
  0
SEQEND
  5
1479
330
0
100
AcDbEntity
  8
BUBZ_L_1
  0
POLYLINE
  5
147A
330
43
100
AcDbEntity
  8
BUBZ_L_1
  6
Continuous
 62
     7
370
    18
100
AcDb2dPolyline
 66
     1
 10
0.0
 20
0.0
 30
0.0
 70
   128
  0
VERTEX
  5
147B
330
147A
100
AcDbEntity
  8
BUBZ_L_1
100
AcDbVertex
100
AcDb2dVertex
 10
8392577.8623272
 20
5686644.072466625
 30
0.0
  0
VERTEX
  5
147C
330
147A
100
AcDbEntity
  8
BUBZ_L_1
100
AcDbVertex
100
AcDb2dVertex
 10
8392577.897965621
 20
5686644.890949843
 30
0.0
  0
SEQEND
  5
147D
330
0
100
AcDbEntity
  8
BUBZ_L_1
  0
POLYLINE
  5
147E
330
43
100
AcDbEntity
  8
BUBZ_L_1
  6
Continuous
 62
     7
370
    18
100
AcDb2dPolyline
 66
     1
 10
0.0
 20
0.0
 30
0.0
 70
   128
  0
VERTEX
  5
147F
330
147E
100
AcDbEntity
  8
BUBZ_L_1
100
AcDbVertex
100
AcDb2dVertex
 10
8392577.043843981
 20
5686644.10810505
 30
0.0
  0
VERTEX
  5
1480
330
147E
100
AcDbEntity
  8
BUBZ_L_1
100
AcDbVertex
100
AcDb2dVertex
 10
8392577.115151471
 20
5686645.74577525
 30
0.0
  0
SEQEND
  5
1481
330
0
100
AcDbEntity
  8
BUBZ_L_1
  0
POLYLINE
  5
1482
330
43
100
AcDbEntity
  8
BUBZ_L_1
  6
Continuous
 62
     7
370
    18
100
AcDb2dPolyline
 66
     1
 10
0.0
 20
0.0
 30
0.0
 70
   128
  0
VERTEX
  5
1483
330
1482
100
AcDbEntity
  8
BUBZ_L_1
100
AcDbVertex
100
AcDb2dVertex
 10
8392576.22500888
 20
5686644.143758793
 30
0.0
  0
VERTEX
  5
1484
330
1482
100
AcDbEntity
  8
BUBZ_L_1
100
AcDbVertex
100
AcDb2dVertex
 10
8392576.260677955
 20
5686644.962945928
 30
0.0
  0
SEQEND
  5
1485
330
0
100
AcDbEntity
  8
BUBZ_L_1
  0
POLYLINE
  5
1486
330
43
100
AcDbEntity
  8
BUBZ_L_1
  6
Continuous
 62
     7
370
    18
100
AcDb2dPolyline
 66
     1
 10
0.0
 20
0.0
 30
0.0
 70
   128
  0
VERTEX
  5
1487
330
1486
100
AcDbEntity
  8
BUBZ_L_1
100
AcDbVertex
100
AcDb2dVertex
 10
8392575.405821748
 20
5686644.179427868
 30
0.0
  0
VERTEX
  5
1488
330
1486
100
AcDbEntity
  8
BUBZ_L_1
100
AcDbVertex
100
AcDb2dVertex
 10
8392575.477190563
 20
5686645.81850651
 30
0.0
  0
SEQEND
  5
1489
330
0
100
AcDbEntity
  8
BUBZ_L_1
  0
POLYLINE
  5
148A
330
43
100
AcDbEntity
  8
BUBZ_L_1
  6
Continuous
 62
     7
370
    18
100
AcDb2dPolyline
 66
     1
 10
0.0
 20
0.0
 30
0.0
 70
   128
  0
VERTEX
  5
148B
330
148A
100
AcDbEntity
  8
BUBZ_L_1
100
AcDbVertex
100
AcDb2dVertex
 10
8392574.586282425
 20
5686644.215112275
 30
0.0
  0
VERTEX
  5
148C
330
148A
100
AcDbEntity
  8
BUBZ_L_1
100
AcDbVertex
100
AcDb2dVertex
 10
8392574.621982175
 20
5686645.035003935
 30
0.0
  0
SEQEND
  5
148D
330
0
100
AcDbEntity
  8
BUBZ_L_1
  0
POLYLINE
  5
148E
330
43
100
AcDbEntity
  8
BUBZ_L_1
  6
Continuous
 62
     7
370
    18
100
AcDb2dPolyline
 66
     1
 10
0.0
 20
0.0
 30
0.0
 70
   128
  0
VERTEX
  5
148F
330
148E
100
AcDbEntity
  8
BUBZ_L_1
100
AcDbVertex
100
AcDb2dVertex
 10
8392573.766390766
 20
5686644.250812024
 30
0.0
  0
VERTEX
  5
1490
330
148E
100
AcDbEntity
  8
BUBZ_L_1
100
AcDbVertex
100
AcDb2dVertex
 10
8392573.837820961
 20
5686645.891300319
 30
0.0
  0
SEQEND
  5
1491
330
0
100
AcDbEntity
  8
BUBZ_L_1
  0
POLYLINE
  5
1492
330
43
100
AcDbEntity
  8
BUBZ_L_1
  6
Continuous
 62
     7
370
    18
100
AcDb2dPolyline
 66
     1
 10
0.0
 20
0.0
 30
0.0
 70
   128
  0
VERTEX
  5
1493
330
1492
100
AcDbEntity
  8
BUBZ_L_1
100
AcDbVertex
100
AcDb2dVertex
 10
8392572.946146621
 20
5686644.286527122
 30
0.0
  0
VERTEX
  5
1494
330
1492
100
AcDbEntity
  8
BUBZ_L_1
100
AcDbVertex
100
AcDb2dVertex
 10
8392572.981877076
 20
5686645.107123909
 30
0.0
  0
SEQEND
  5
1495
330
0
100
AcDbEntity
  8
BUBZ_L_1
  0
POLYLINE
  5
1496
330
43
100
AcDbEntity
  8
BUBZ_L_1
  6
Continuous
 62
     7
370
    18
100
AcDb2dPolyline
 66
     1
 10
0.0
 20
0.0
 30
0.0
 70
   128
  0
VERTEX
  5
1497
330
1496
100
AcDbEntity
  8
BUBZ_L_1
100
AcDbVertex
100
AcDb2dVertex
 10
8392572.125549834
 20
5686644.322257574
 30
0.0
  0
VERTEX
  5
1498
330
1496
100
AcDbEntity
  8
BUBZ_L_1
100
AcDbVertex
100
AcDb2dVertex
 10
8392572.197041459
 20
5686645.964156733
 30
0.0
  0
SEQEND
  5
1499
330
0
100
AcDbEntity
  8
BUBZ_L_1
  0
POLYLINE
  5
149A
330
43
100
AcDbEntity
  8
BUBZ_L_1
  6
Continuous
 62
     7
370
    18
100
AcDb2dPolyline
 66
     1
 10
0.0
 20
0.0
 30
0.0
 70
   128
  0
VERTEX
  5
149B
330
149A
100
AcDbEntity
  8
BUBZ_L_1
100
AcDbVertex
100
AcDb2dVertex
 10
8392571.304600256
 20
5686644.358003385
 30
0.0
  0
VERTEX
  5
149C
330
149A
100
AcDbEntity
  8
BUBZ_L_1
100
AcDbVertex
100
AcDb2dVertex
 10
8392571.340361433
 20
5686645.17930591
 30
0.0
  0
SEQEND
  5
149D
330
0
100
AcDbEntity
  8
BUBZ_L_1
  0
POLYLINE
  5
149E
330
43
100
AcDbEntity
  8
BUBZ_L_1
  6
Continuous
 62
     7
370
    18
100
AcDb2dPolyline
 66
     1
 10
0.0
 20
0.0
 30
0.0
 70
   128
  0
VERTEX
  5
149F
330
149E
100
AcDbEntity
  8
BUBZ_L_1
100
AcDbVertex
100
AcDb2dVertex
 10
8392570.483297729
 20
5686644.393764567
 30
0.0
  0
VERTEX
  5
14A0
330
149E
100
AcDbEntity
  8
BUBZ_L_1
100
AcDbVertex
100
AcDb2dVertex
 10
8392570.554850845
 20
5686646.037075804
 30
0.0
  0
SEQEND
  5
14A1
330
0
100
AcDbEntity
  8
BUBZ_L_1
  0
POLYLINE
  5
14A2
330
43
100
AcDbEntity
  8
BUBZ_L_1
  6
Continuous
 62
     7
370
    18
100
AcDb2dPolyline
 66
     1
 10
0.0
 20
0.0
 30
0.0
 70
   128
  0
VERTEX
  5
14A3
330
14A2
100
AcDbEntity
  8
BUBZ_L_1
100
AcDbVertex
100
AcDb2dVertex
 10
8392569.661642109
 20
5686644.429541124
 30
0.0
  0
VERTEX
  5
14A4
330
14A2
100
AcDbEntity
  8
BUBZ_L_1
100
AcDbVertex
100
AcDb2dVertex
 10
8392569.697434048
 20
5686645.251549991
 30
0.0
  0
SEQEND
  5
14A5
330
0
100
AcDbEntity
  8
BUBZ_L_1
  0
POLYLINE
  5
14A6
330
43
100
AcDbEntity
  8
BUBZ_L_1
  6
Continuous
 62
     7
370
    18
100
AcDb2dPolyline
 66
     1
 10
0.0
 20
0.0
 30
0.0
 70
   128
  0
VERTEX
  5
14A7
330
14A6
100
AcDbEntity
  8
BUBZ_L_1
100
AcDbVertex
100
AcDb2dVertex
 10
8392568.839633247
 20
5686644.465333062
 30
0.0
  0
VERTEX
  5
14A8
330
14A6
100
AcDbEntity
  8
BUBZ_L_1
100
AcDbVertex
100
AcDb2dVertex
 10
8392568.911247895
 20
5686646.110057589
 30
0.0
  0
SEQEND
  5
14A9
330
0
100
AcDbEntity
  8
BUBZ_L_1
  0
POLYLINE
  5
14AA
330
43
100
AcDbEntity
  8
BUBZ_L_1
  6
Continuous
 62
     7
370
    18
100
AcDb2dPolyline
 66
     1
 10
0.0
 20
0.0
 30
0.0
 70
   128
  0
VERTEX
  5
14AB
330
14AA
100
AcDbEntity
  8
BUBZ_L_1
100
AcDbVertex
100
AcDb2dVertex
 10
8392568.017270983
 20
5686644.501140385
 30
0.0
  0
VERTEX
  5
14AC
330
14AA
100
AcDbEntity
  8
BUBZ_L_1
100
AcDbVertex
100
AcDb2dVertex
 10
8392568.053093702
 20
5686645.3238562
 30
0.0
  0
SEQEND
  5
14AD
330
0
100
AcDbEntity
  8
BUBZ_L_1
  0
POLYLINE
  5
14AE
330
43
100
AcDbEntity
  8
BUBZ_L_1
  6
Continuous
 62
     7
370
    18
100
AcDb2dPolyline
 66
     1
 10
0.0
 20
0.0
 30
0.0
 70
   128
  0
VERTEX
  5
14AF
330
14AE
100
AcDbEntity
  8
BUBZ_L_1
100
AcDbVertex
100
AcDb2dVertex
 10
8392567.194555168
 20
5686644.536963106
 30
0.0
  0
VERTEX
  5
14B0
330
14AE
100
AcDbEntity
  8
BUBZ_L_1
100
AcDbVertex
100
AcDb2dVertex
 10
8392567.266231406
 20
5686646.183102141
 30
0.0
  0
SEQEND
  5
14B1
330
0
100
AcDbEntity
  8
BUBZ_L_1
  0
POLYLINE
  5
14B2
330
43
100
AcDbEntity
  8
BUBZ_L_1
  6
Continuous
 62
     7
370
    18
100
AcDb2dPolyline
 66
     1
 10
0.0
 20
0.0
 30
0.0
 70
   128
  0
VERTEX
  5
14B3
330
14B2
100
AcDbEntity
  8
BUBZ_L_1
100
AcDbVertex
100
AcDb2dVertex
 10
8392566.371485647
 20
5686644.572801224
 30
0.0
  0
VERTEX
  5
14B4
330
14B2
100
AcDbEntity
  8
BUBZ_L_1
100
AcDbVertex
100
AcDb2dVertex
 10
8392566.407339174
 20
5686645.396224598
 30
0.0
  0
SEQEND
  5
14B5
330
0
100
AcDbEntity
  8
BUBZ_L_1
  0
POLYLINE
  5
14B6
330
43
100
AcDbEntity
  8
BUBZ_L_1
  6
Continuous
 62
     7
370
    18
100
AcDb2dPolyline
 66
     1
 10
0.0
 20
0.0
 30
0.0
 70
   128
  0
VERTEX
  5
14B7
330
14B6
100
AcDbEntity
  8
BUBZ_L_1
100
AcDbVertex
100
AcDb2dVertex
 10
8392565.548062274
 20
5686644.608654752
 30
0.0
  0
VERTEX
  5
14B8
330
14B6
100
AcDbEntity
  8
BUBZ_L_1
100
AcDbVertex
100
AcDb2dVertex
 10
8392565.619800155
 20
5686646.256209512
 30
0.0
  0
SEQEND
  5
14B9
330
0
100
AcDbEntity
  8
BUBZ_L_1
  0
POLYLINE
  5
14BA
330
43
100
AcDbEntity
  8
BUBZ_L_1
  6
Continuous
 62
     7
370
    18
100
AcDb2dPolyline
 66
     1
 10
0.0
 20
0.0
 30
0.0
 70
   128
  0
VERTEX
  5
14BB
330
14BA
100
AcDbEntity
  8
BUBZ_L_1
100
AcDbVertex
100
AcDb2dVertex
 10
8392564.727259966
 20
5686644.67969283
 30
0.0
  0
VERTEX
  5
14BC
330
14BA
100
AcDbEntity
  8
BUBZ_L_1
100
AcDbVertex
100
AcDb2dVertex
 10
8392564.830299782
 20
5686645.497928236
 30
0.0
  0
SEQEND
  5
14BD
330
0
100
AcDbEntity
  8
BUBZ_L_1
  0
POLYLINE
  5
14BE
330
43
100
AcDbEntity
  8
BUBZ_L_1
  6
Continuous
 62
     7
370
    18
100
AcDb2dPolyline
 66
     1
 10
0.0
 20
0.0
 30
0.0
 70
   128
  0
VERTEX
  5
14BF
330
14BE
100
AcDbEntity
  8
BUBZ_L_1
100
AcDbVertex
100
AcDb2dVertex
 10
8392563.909024559
 20
5686644.782732649
 30
0.0
  0
VERTEX
  5
14C0
330
14BE
100
AcDbEntity
  8
BUBZ_L_1
100
AcDbVertex
100
AcDb2dVertex
 10
8392564.103059649
 20
5686646.323558156
 30
0.0
  0
SEQEND
  5
14C1
330
0
100
AcDbEntity
  8
BUBZ_L_1
  0
POLYLINE
  5
14C2
330
43
100
AcDbEntity
  8
BUBZ_L_1
  6
Continuous
 62
     7
370
    18
100
AcDb2dPolyline
 66
     1
 10
0.0
 20
0.0
 30
0.0
 70
   128
  0
VERTEX
  5
14C3
330
14C2
100
AcDbEntity
  8
BUBZ_L_1
100
AcDbVertex
100
AcDb2dVertex
 10
8392563.090789154
 20
5686644.885772468
 30
0.0
  0
VERTEX
  5
14C4
330
14C2
100
AcDbEntity
  8
BUBZ_L_1
100
AcDbVertex
100
AcDb2dVertex
 10
8392563.193828973
 20
5686645.704007873
 30
0.0
  0
SEQEND
  5
14C5
330
0
100
AcDbEntity
  8
BUBZ_L_1
  0
POLYLINE
  5
14C6
330
43
100
AcDbEntity
  8
BUBZ_L_1
  6
Continuous
 62
     7
370
    18
100
AcDb2dPolyline
 66
     1
 10
0.0
 20
0.0
 30
0.0
 70
   128
  0
VERTEX
  5
14C7
330
14C6
100
AcDbEntity
  8
BUBZ_L_1
100
AcDbVertex
100
AcDb2dVertex
 10
8392562.272553748
 20
5686644.988812289
 30
0.0
  0
VERTEX
  5
14C8
330
14C6
100
AcDbEntity
  8
BUBZ_L_1
100
AcDbVertex
100
AcDb2dVertex
 10
8392562.449881456
 20
5686646.396965113
 30
0.0
  0
SEQEND
  5
14C9
330
0
100
AcDbEntity
  8
BUBZ_L_1
  0
POLYLINE
  5
14CA
330
43
100
AcDbEntity
  8
BUBZ_L_1
  6
Continuous
 62
     7
370
    18
100
AcDb2dPolyline
 66
     1
 10
0.0
 20
0.0
 30
0.0
 70
   128
  0
VERTEX
  5
14CB
330
14CA
100
AcDbEntity
  8
BUBZ_L_1
100
AcDbVertex
100
AcDb2dVertex
 10
8392561.454318339
 20
5686645.091852106
 30
0.0
  0
VERTEX
  5
14CC
330
14CA
100
AcDbEntity
  8
BUBZ_L_1
100
AcDbVertex
100
AcDb2dVertex
 10
8392561.557358162
 20
5686645.910087513
 30
0.0
  0
SEQEND
  5
14CD
330
0
100
AcDbEntity
  8
BUBZ_L_1
  0
POLYLINE
  5
14CE
330
43
100
AcDbEntity
  8
BUBZ_L_1
  6
Continuous
 62
     7
370
    18
100
AcDb2dPolyline
 66
     1
 10
0.0
 20
0.0
 30
0.0
 70
   128
  0
VERTEX
  5
14CF
330
14CE
100
AcDbEntity
  8
BUBZ_L_1
100
AcDbVertex
100
AcDb2dVertex
 10
8392560.636082935
 20
5686645.194891929
 30
0.0
  0
VERTEX
  5
14D0
330
14CE
100
AcDbEntity
  8
BUBZ_L_1
100
AcDbVertex
100
AcDb2dVertex
 10
8392560.796703268
 20
5686646.470372072
 30
0.0
  0
SEQEND
  5
14D1
330
0
100
AcDbEntity
  8
BUBZ_L_1
  0
POLYLINE
  5
14D2
330
43
100
AcDbEntity
  8
BUBZ_L_1
  6
Continuous
 62
     7
370
    18
100
AcDb2dPolyline
 66
     1
 10
0.0
 20
0.0
 30
0.0
 70
   128
  0
VERTEX
  5
14D3
330
14D2
100
AcDbEntity
  8
BUBZ_L_1
100
AcDbVertex
100
AcDb2dVertex
 10
8392559.81784753
 20
5686645.297931748
 30
0.0
  0
VERTEX
  5
14D4
330
14D2
100
AcDbEntity
  8
BUBZ_L_1
100
AcDbVertex
100
AcDb2dVertex
 10
8392559.920887347
 20
5686646.116167151
 30
0.0
  0
SEQEND
  5
14D5
330
0
100
AcDbEntity
  8
BUBZ_L_1
  0
POLYLINE
  5
14D6
330
43
100
AcDbEntity
  8
BUBZ_L_1
  6
Continuous
 62
     7
370
    18
100
AcDb2dPolyline
 66
     1
 10
0.0
 20
0.0
 30
0.0
 70
   128
  0
VERTEX
  5
14D7
330
14D6
100
AcDbEntity
  8
BUBZ_L_1
100
AcDbVertex
100
AcDb2dVertex
 10
8392558.999612125
 20
5686645.400971567
 30
0.0
  0
VERTEX
  5
14D8
330
14D6
100
AcDbEntity
  8
BUBZ_L_1
100
AcDbVertex
100
AcDb2dVertex
 10
8392559.143525081
 20
5686646.54377903
 30
0.0
  0
SEQEND
  5
14D9
330
0
100
AcDbEntity
  8
BUBZ_L_1
  0
POLYLINE
  5
14DA
330
43
100
AcDbEntity
  8
BUBZ_L_1
  6
Continuous
 62
     7
370
    18
100
AcDb2dPolyline
 66
     1
 10
0.0
 20
0.0
 30
0.0
 70
   128
  0
VERTEX
  5
14DB
330
14DA
100
AcDbEntity
  8
BUBZ_L_1
100
AcDbVertex
100
AcDb2dVertex
 10
8392558.181376717
 20
5686645.504011385
 30
0.0
  0
VERTEX
  5
14DC
330
14DA
100
AcDbEntity
  8
BUBZ_L_1
100
AcDbVertex
100
AcDb2dVertex
 10
8392558.284416537
 20
5686646.32224679
 30
0.0
  0
SEQEND
  5
14DD
330
0
100
AcDbEntity
  8
BUBZ_L_1
  0
POLYLINE
  5
14DE
330
43
100
AcDbEntity
  8
BUBZ_L_1
  6
Continuous
 62
     7
370
    18
100
AcDb2dPolyline
 66
     1
 10
0.0
 20
0.0
 30
0.0
 70
   128
  0
VERTEX
  5
14DF
330
14DE
100
AcDbEntity
  8
BUBZ_L_1
100
AcDbVertex
100
AcDb2dVertex
 10
8392557.363141314
 20
5686645.607051206
 30
0.0
  0
VERTEX
  5
14E0
330
14DE
100
AcDbEntity
  8
BUBZ_L_1
100
AcDbVertex
100
AcDb2dVertex
 10
8392557.490346892
 20
5686646.617185987
 30
0.0
  0
SEQEND
  5
14E1
330
0
100
AcDbEntity
  8
BUBZ_L_1
  0
POLYLINE
  5
14E2
330
43
100
AcDbEntity
  8
BUBZ_L_1
  6
Continuous
 62
     7
370
    18
100
AcDb2dPolyline
 66
     1
 10
0.0
 20
0.0
 30
0.0
 70
   128
  0
VERTEX
  5
14E3
330
14E2
100
AcDbEntity
  8
BUBZ_L_1
100
AcDbVertex
100
AcDb2dVertex
 10
8392556.544905909
 20
5686645.710091027
 30
0.0
  0
VERTEX
  5
14E4
330
14E2
100
AcDbEntity
  8
BUBZ_L_1
100
AcDbVertex
100
AcDb2dVertex
 10
8392556.647945729
 20
5686646.52832643
 30
0.0
  0
SEQEND
  5
14E5
330
0
100
AcDbEntity
  8
BUBZ_L_1
  0
POLYLINE
  5
14E6
330
43
100
AcDbEntity
  8
BUBZ_L_1
  6
Continuous
 62
     7
370
    18
100
AcDb2dPolyline
 66
     1
 10
0.0
 20
0.0
 30
0.0
 70
   128
  0
VERTEX
  5
14E7
330
14E6
100
AcDbEntity
  8
BUBZ_L_1
100
AcDbVertex
100
AcDb2dVertex
 10
8392555.726670506
 20
5686645.813130845
 30
0.0
  0
VERTEX
  5
14E8
330
14E6
100
AcDbEntity
  8
BUBZ_L_1
100
AcDbVertex
100
AcDb2dVertex
 10
8392555.837168703
 20
5686646.690592944
 30
0.0
  0
SEQEND
  5
14E9
330
0
100
AcDbEntity
  8
BUBZ_L_1
  0
POLYLINE
  5
14EA
330
43
100
AcDbEntity
  8
BUBZ_L_1
  6
Continuous
 62
     7
370
    18
100
AcDb2dPolyline
 66
     1
 10
0.0
 20
0.0
 30
0.0
 70
   128
  0
VERTEX
  5
14EB
330
14EA
100
AcDbEntity
  8
BUBZ_L_1
100
AcDbVertex
100
AcDb2dVertex
 10
8392554.908435098
 20
5686645.916170664
 30
0.0
  0
VERTEX
  5
14EC
330
14EA
100
AcDbEntity
  8
BUBZ_L_1
100
AcDbVertex
100
AcDb2dVertex
 10
8392555.010579604
 20
5686646.727296424
 30
0.0
  0
SEQEND
  5
14ED
330
0
100
AcDbEntity
  8
BUBZ_L_1
  0
POLYLINE
  5
14EE
330
43
100
AcDbEntity
  8
BUBZ_L_1
  6
Continuous
 62
     7
370
    18
100
AcDb2dPolyline
 66
     1
 10
0.0
 20
0.0
 30
0.0
 70
   128
  0
VERTEX
  5
14EF
330
14EE
100
AcDbEntity
  8
BUBZ_L_1
100
AcDbVertex
100
AcDb2dVertex
 10
8392554.090199697
 20
5686646.019210484
 30
0.0
  0
VERTEX
  5
14F0
330
14EE
100
AcDbEntity
  8
BUBZ_L_1
100
AcDbVertex
100
AcDb2dVertex
 10
8392554.183990512
 20
5686646.763999903
 30
0.0
  0
SEQEND
  5
14F1
330
0
100
AcDbEntity
  8
BUBZ_L_1
  0
POLYLINE
  5
14F2
330
43
100
AcDbEntity
  8
BUBZ_L_1
  6
Continuous
 62
     7
370
    18
100
AcDb2dPolyline
 66
     1
 10
0.0
 20
0.0
 30
0.0
 70
   128
  0
VERTEX
  5
14F3
330
14F2
100
AcDbEntity
  8
BUBZ_L_1
100
AcDbVertex
100
AcDb2dVertex
 10
8392553.27196429
 20
5686646.122250303
 30
0.0
  0
VERTEX
  5
14F4
330
14F2
100
AcDbEntity
  8
BUBZ_L_1
100
AcDbVertex
100
AcDb2dVertex
 10
8392553.357401418
 20
5686646.800703381
 30
0.0
  0
SEQEND
  5
14F5
330
0
100
AcDbEntity
  8
BUBZ_L_1
  0
POLYLINE
  5
14F6
330
43
100
AcDbEntity
  8
BUBZ_L_1
  6
Continuous
 62
     7
370
    18
100
AcDb2dPolyline
 66
     1
 10
0.0
 20
0.0
 30
0.0
 70
   128
  0
VERTEX
  5
14F7
330
14F6
100
AcDbEntity
  8
BUBZ_L_1
100
AcDbVertex
100
AcDb2dVertex
 10
8392552.453728884
 20
5686646.225290123
 30
0.0
  0
VERTEX
  5
14F8
330
14F6
100
AcDbEntity
  8
BUBZ_L_1
100
AcDbVertex
100
AcDb2dVertex
 10
8392552.53081232
 20
5686646.837406861
 30
0.0
  0
SEQEND
  5
14F9
330
0
100
AcDbEntity
  8
BUBZ_L_1
  0
POLYLINE
  5
14FA
330
43
100
AcDbEntity
  8
BUBZ_L_1
  6
Continuous
 62
     7
370
    18
100
AcDb2dPolyline
 66
     1
 10
0.0
 20
0.0
 30
0.0
 70
   128
  0
VERTEX
  5
14FB
330
14FA
100
AcDbEntity
  8
BUBZ_L_1
100
AcDbVertex
100
AcDb2dVertex
 10
8392551.635493477
 20
5686646.328329942
 30
0.0
  0
VERTEX
  5
14FC
330
14FA
100
AcDbEntity
  8
BUBZ_L_1
100
AcDbVertex
100
AcDb2dVertex
 10
8392551.704223222
 20
5686646.874110339
 30
0.0
  0
SEQEND
  5
14FD
330
0
100
AcDbEntity
  8
BUBZ_L_1
  0
POLYLINE
  5
14FE
330
43
100
AcDbEntity
  8
BUBZ_L_1
  6
Continuous
 62
     7
370
    18
100
AcDb2dPolyline
 66
     1
 10
0.0
 20
0.0
 30
0.0
 70
   128
  0
VERTEX
  5
14FF
330
14FE
100
AcDbEntity
  8
BUBZ_L_1
100
AcDbVertex
100
AcDb2dVertex
 10
8392550.817258074
 20
5686646.43136976
 30
0.0
  0
VERTEX
  5
1500
330
14FE
100
AcDbEntity
  8
BUBZ_L_1
100
AcDbVertex
100
AcDb2dVertex
 10
8392550.87763413
 20
5686646.910813817
 30
0.0
  0
SEQEND
  5
1501
330
0
100
AcDbEntity
  8
BUBZ_L_1
  0
POLYLINE
  5
1502
330
43
100
AcDbEntity
  8
BUBZ_L_1
  6
Continuous
 62
     7
370
    18
100
AcDb2dPolyline
 66
     1
 10
0.0
 20
0.0
 30
0.0
 70
   128
  0
VERTEX
  5
1503
330
1502
100
AcDbEntity
  8
BUBZ_L_1
100
AcDbVertex
100
AcDb2dVertex
 10
8392549.999022667
 20
5686646.534409582
 30
0.0
  0
VERTEX
  5
1504
330
1502
100
AcDbEntity
  8
BUBZ_L_1
100
AcDbVertex
100
AcDb2dVertex
 10
8392550.05104504
 20
5686646.947517297
 30
0.0
  0
SEQEND
  5
1505
330
0
100
AcDbEntity
  8
BUBZ_L_1
  0
POLYLINE
  5
1506
330
43
100
AcDbEntity
  8
BUBZ_L_1
  6
Continuous
 62
     7
370
    18
100
AcDb2dPolyline
 66
     1
 10
0.0
 20
0.0
 30
0.0
 70
   128
  0
VERTEX
  5
1507
330
1506
100
AcDbEntity
  8
BUBZ_L_1
100
AcDbVertex
100
AcDb2dVertex
 10
8392549.180787261
 20
5686646.637449402
 30
0.0
  0
VERTEX
  5
1508
330
1506
100
AcDbEntity
  8
BUBZ_L_1
100
AcDbVertex
100
AcDb2dVertex
 10
8392549.224455942
 20
5686646.984220775
 30
0.0
  0
SEQEND
  5
1509
330
0
100
AcDbEntity
  8
BUBZ_L_1
  0
POLYLINE
  5
150A
330
43
100
AcDbEntity
  8
BUBZ_L_1
  6
Continuous
 62
     7
370
    18
100
AcDb2dPolyline
 66
     1
 10
0.0
 20
0.0
 30
0.0
 70
   128
  0
VERTEX
  5
150B
330
150A
100
AcDbEntity
  8
BUBZ_L_1
100
AcDbVertex
100
AcDb2dVertex
 10
8392548.362551858
 20
5686646.74048922
 30
0.0
  0
VERTEX
  5
150C
330
150A
100
AcDbEntity
  8
BUBZ_L_1
100
AcDbVertex
100
AcDb2dVertex
 10
8392548.397866848
 20
5686647.020924255
 30
0.0
  0
SEQEND
  5
150D
330
0
100
AcDbEntity
  8
BUBZ_L_1
  0
POLYLINE
  5
150E
330
43
100
AcDbEntity
  8
BUBZ_L_1
  6
Continuous
 62
     7
370
    18
100
AcDb2dPolyline
 66
     1
 10
0.0
 20
0.0
 30
0.0
 70
   128
  0
VERTEX
  5
150F
330
150E
100
AcDbEntity
  8
BUBZ_L_1
100
AcDbVertex
100
AcDb2dVertex
 10
8392547.544316451
 20
5686646.84352904
 30
0.0
  0
VERTEX
  5
1510
330
150E
100
AcDbEntity
  8
BUBZ_L_1
100
AcDbVertex
100
AcDb2dVertex
 10
8392547.571277752
 20
5686647.057627734
 30
0.0
  0
SEQEND
  5
1511
330
0
100
AcDbEntity
  8
BUBZ_L_1
  0
POLYLINE
  5
1512
330
43
100
AcDbEntity
  8
BUBZ_L_1
  6
Continuous
 62
     7
370
    18
100
AcDb2dPolyline
 66
     1
 10
0.0
 20
0.0
 30
0.0
 70
   128
  0
VERTEX
  5
1513
330
1512
100
AcDbEntity
  8
BUBZ_L_1
100
AcDbVertex
100
AcDb2dVertex
 10
8392546.726081045
 20
5686646.94656886
 30
0.0
  0
VERTEX
  5
1514
330
1512
100
AcDbEntity
  8
BUBZ_L_1
100
AcDbVertex
100
AcDb2dVertex
 10
8392546.744688658
 20
5686647.094331209
 30
0.0
  0
SEQEND
  5
1515
330
0
100
AcDbEntity
  8
BUBZ_L_1
  0
POLYLINE
  5
1516
330
43
100
AcDbEntity
  8
BUBZ_L_1
  6
Continuous
 62
     7
370
    18
100
AcDb2dPolyline
 66
     1
 10
0.0
 20
0.0
 30
0.0
 70
   128
  0
VERTEX
  5
1517
330
1516
100
AcDbEntity
  8
BUBZ_L_1
100
AcDbVertex
100
AcDb2dVertex
 10
8392545.90784564
 20
5686647.049608681
 30
0.0
  0
VERTEX
  5
1518
330
1516
100
AcDbEntity
  8
BUBZ_L_1
100
AcDbVertex
100
AcDb2dVertex
 10
8392545.918099562
 20
5686647.131034693
 30
0.0
  0
SEQEND
  5
1519
330
0
100
AcDbEntity
  8
BUBZ_L_1
  0
POLYLINE
  5
151A
330
43
100
AcDbEntity
  8
BUBZ_L_1
  6
Continuous
 62
     7
370
    18
100
AcDb2dPolyline
 66
     1
 10
0.0
 20
0.0
 30
0.0
 70
   128
  0
VERTEX
  5
151B
330
151A
100
AcDbEntity
  8
BUBZ_L_1
100
AcDbVertex
100
AcDb2dVertex
 10
8392545.089610235
 20
5686647.152648497
 30
0.0
  0
VERTEX
  5
151C
330
151A
100
AcDbEntity
  8
BUBZ_L_1
100
AcDbVertex
100
AcDb2dVertex
 10
8392545.091510468
 20
5686647.16773817
 30
0.0
  0
SEQEND
  5
151D
330
0
100
AcDbEntity
  8
BUBZ_L_1
  0
POLYLINE
  5
151E
330
43
100
AcDbEntity
  8
BUBZ_L_1
  6
Continuous
 62
     7
370
    18
100
AcDb2dPolyline
 66
     1
 10
0.0
 20
0.0
 30
0.0
 70
   128
  0
VERTEX
  5
151F
330
151E
100
AcDbEntity
  8
BUBZ_L_1
100
AcDbVertex
100
AcDb2dVertex
 10
8392643.893287049
 20
5686642.780590071
 30
0.0
  0
VERTEX
  5
1520
330
151E
100
AcDbEntity
  8
BUBZ_L_1
100
AcDbVertex
100
AcDb2dVertex
 10
8392544.90348445
 20
5686647.17608719
 30
0.0
  0
SEQEND
  5
1521
330
0
100
AcDbEntity
  8
BUBZ_L_1
  0
POLYLINE
  5
1522
330
43
100
AcDbEntity
  8
BUBZ_L_1
  6
Continuous
 62
     7
370
    18
100
AcDb2dPolyline
 66
     1
 10
0.0
 20
0.0
 30
0.0
 70
   128
  0
VERTEX
  5
1523
330
1522
100
AcDbEntity
  8
BUBZ_L_1
100
AcDbVertex
100
AcDb2dVertex
 10
8392544.90348445
 20
5686647.17608719
 30
0.0
  0
VERTEX
  5
1524
330
1522
100
AcDbEntity
  8
BUBZ_L_1
100
AcDbVertex
100
AcDb2dVertex
 10
8392565.155708119
 20
5686644.625738649
 30
0.0
  0
SEQEND
  5
1525
330
0
100
AcDbEntity
  8
BUBZ_L_1
  0
POLYLINE
  5
1526
330
43
100
AcDbEntity
  8
BUBZ_L_1
  6
Continuous
 62
     7
370
    18
100
AcDb2dPolyline
 66
     1
 10
0.0
 20
0.0
 30
0.0
 70
   128
  0
VERTEX
  5
1527
330
1526
100
AcDbEntity
  8
BUBZ_L_1
100
AcDbVertex
100
AcDb2dVertex
 10
8392565.155708119
 20
5686644.625738649
 30
0.0
  0
VERTEX
  5
1528
330
1526
100
AcDbEntity
  8
BUBZ_L_1
100
AcDbVertex
100
AcDb2dVertex
 10
8392584.617960737
 20
5686643.778312609
 30
0.0
  0
SEQEND
  5
1529
330
0
100
AcDbEntity
  8
BUBZ_L_1
  0
POLYLINE
  5
152A
330
43
100
AcDbEntity
  8
BUBZ_L_1
  6
Continuous
 62
     7
370
    18
100
AcDb2dPolyline
 66
     1
 10
0.0
 20
0.0
 30
0.0
 70
   128
  0
VERTEX
  5
152B
330
152A
100
AcDbEntity
  8
BUBZ_L_1
100
AcDbVertex
100
AcDb2dVertex
 10
8392584.617960737
 20
5686643.778312609
 30
0.0
  0
VERTEX
  5
152C
330
152A
100
AcDbEntity
  8
BUBZ_L_1
100
AcDbVertex
100
AcDb2dVertex
 10
8392618.25621725
 20
5686642.858804161
 30
0.0
  0
SEQEND
  5
152D
330
0
100
AcDbEntity
  8
BUBZ_L_1
  0
POLYLINE
  5
152E
330
43
100
AcDbEntity
  8
Dzialki
  6
Continuous
370
    18
100
AcDb2dPolyline
 66
     1
 10
0.0
 20
0.0
 30
0.0
 70
   128
  0
VERTEX
  5
152F
330
152E
100
AcDbEntity
  8
Dzialki
100
AcDbVertex
100
AcDb2dVertex
 10
8392529.779999996
 20
5686652.119999999
 30
0.0
  0
VERTEX
  5
1530
330
152E
100
AcDbEntity
  8
Dzialki
100
AcDbVertex
100
AcDb2dVertex
 10
8392536.300000001
 20
5687080.9
 30
0.0
  0
SEQEND
  5
1531
330
0
100
AcDbEntity
  8
Dzialki
  0
POLYLINE
  5
1536
330
43
100
AcDbEntity
  8
Dzialki
  6
Continuous
370
    18
100
AcDb2dPolyline
 66
     1
 10
0.0
 20
0.0
 30
0.0
 70
   128
  0
VERTEX
  5
1537
330
1536
100
AcDbEntity
  8
Dzialki
100
AcDbVertex
100
AcDb2dVertex
 10
8392513.109999999
 20
5687082.5
 30
0.0
  0
VERTEX
  5
1538
330
1536
100
AcDbEntity
  8
Dzialki
100
AcDbVertex
100
AcDb2dVertex
 10
8392506.469999998
 20
5686653.280000001
 30
0.0
  0
SEQEND
  5
1539
330
0
100
AcDbEntity
  8
Dzialki
  0
POLYLINE
  5
153A
330
43
100
AcDbEntity
  8
Dzialki
  6
Continuous
370
    18
100
AcDb2dPolyline
 66
     1
 10
0.0
 20
0.0
 30
0.0
 70
   128
  0
VERTEX
  5
153B
330
153A
100
AcDbEntity
  8
Dzialki
100
AcDbVertex
100
AcDb2dVertex
 10
8392506.469999998
 20
5686653.280000001
 30
0.0
  0
VERTEX
  5
153C
330
153A
100
AcDbEntity
  8
Dzialki
100
AcDbVertex
100
AcDb2dVertex
 10
8392529.779999996
 20
5686652.119999999
 30
0.0
  0
SEQEND
  5
153D
330
0
100
AcDbEntity
  8
Dzialki
  0
POLYLINE
  5
153E
330
43
100
AcDbEntity
  8
Dzialki
  6
Continuous
370
    18
100
AcDb2dPolyline
 66
     1
 10
0.0
 20
0.0
 30
0.0
 70
   128
  0
VERTEX
  5
153F
330
153E
100
AcDbEntity
  8
Dzialki
100
AcDbVertex
100
AcDb2dVertex
 10
8392580.339999998
 20
5686649.72
 30
0.0
  0
VERTEX
  5
1540
330
153E
100
AcDbEntity
  8
Dzialki
100
AcDbVertex
100
AcDb2dVertex
 10
8392580.9
 20
5686705.929999999
 30
0.0
  0
SEQEND
  5
1541
330
0
100
AcDbEntity
  8
Dzialki
  0
POLYLINE
  5
1542
330
43
100
AcDbEntity
  8
Dzialki
  6
Continuous
370
    18
100
AcDb2dPolyline
 66
     1
 10
0.0
 20
0.0
 30
0.0
 70
   128
  0
VERTEX
  5
1543
330
1542
100
AcDbEntity
  8
Dzialki
100
AcDbVertex
100
AcDb2dVertex
 10
8392580.9
 20
5686705.929999999
 30
0.0
  0
VERTEX
  5
1544
330
1542
100
AcDbEntity
  8
Dzialki
100
AcDbVertex
100
AcDb2dVertex
 10
8392553.989999999
 20
5686706.190000001
 30
0.0
  0
SEQEND
  5
1545
330
0
100
AcDbEntity
  8
Dzialki
  0
POLYLINE
  5
1546
330
43
100
AcDbEntity
  8
Dzialki
  6
Continuous
370
    18
100
AcDb2dPolyline
 66
     1
 10
0.0
 20
0.0
 30
0.0
 70
   128
  0
VERTEX
  5
1547
330
1546
100
AcDbEntity
  8
Dzialki
100
AcDbVertex
100
AcDb2dVertex
 10
8392553.989999999
 20
5686706.190000001
 30
0.0
  0
VERTEX
  5
1548
330
1546
100
AcDbEntity
  8
Dzialki
100
AcDbVertex
100
AcDb2dVertex
 10
8392553.460000002
 20
5686650.679999998
 30
0.0
  0
SEQEND
  5
1549
330
0
100
AcDbEntity
  8
Dzialki
  0
POLYLINE
  5
154A
330
43
100
AcDbEntity
  8
Dzialki
  6
Continuous
370
    18
100
AcDb2dPolyline
 66
     1
 10
0.0
 20
0.0
 30
0.0
 70
   128
  0
VERTEX
  5
154B
330
154A
100
AcDbEntity
  8
Dzialki
100
AcDbVertex
100
AcDb2dVertex
 10
8392553.460000002
 20
5686650.679999998
 30
0.0
  0
VERTEX
  5
154C
330
154A
100
AcDbEntity
  8
Dzialki
100
AcDbVertex
100
AcDb2dVertex
 10
8392580.339999998
 20
5686649.72
 30
0.0
  0
SEQEND
  5
154D
330
0
100
AcDbEntity
  8
Dzialki
  0
POLYLINE
  5
154E
330
43
100
AcDbEntity
  8
Dzialki
  6
Continuous
370
    18
100
AcDb2dPolyline
 66
     1
 10
0.0
 20
0.0
 30
0.0
 70
   128
  0
VERTEX
  5
154F
330
154E
100
AcDbEntity
  8
Dzialki
100
AcDbVertex
100
AcDb2dVertex
 10
8392566.94
 20
5686550.860000002
 30
0.0
  0
VERTEX
  5
1550
330
154E
100
AcDbEntity
  8
Dzialki
100
AcDbVertex
100
AcDb2dVertex
 10
8392567.130000001
 20
5686646.179999999
 30
0.0
  0
SEQEND
  5
1551
330
0
100
AcDbEntity
  8
Dzialki
  0
POLYLINE
  5
1552
330
43
100
AcDbEntity
  8
Dzialki
  6
Continuous
370
    18
100
AcDb2dPolyline
 66
     1
 10
0.0
 20
0.0
 30
0.0
 70
   128
  0
VERTEX
  5
1553
330
1552
100
AcDbEntity
  8
Dzialki
100
AcDbVertex
100
AcDb2dVertex
 10
8392567.130000001
 20
5686646.179999999
 30
0.0
  0
VERTEX
  5
1554
330
1552
100
AcDbEntity
  8
Dzialki
100
AcDbVertex
100
AcDb2dVertex
 10
8392553.320000002
 20
5686646.679999999
 30
0.0
  0
SEQEND
  5
1555
330
0
100
AcDbEntity
  8
Dzialki
  0
POLYLINE
  5
1556
330
43
100
AcDbEntity
  8
Dzialki
  6
Continuous
370
    18
100
AcDb2dPolyline
 66
     1
 10
0.0
 20
0.0
 30
0.0
 70
   128
  0
VERTEX
  5
1557
330
1556
100
AcDbEntity
  8
Dzialki
100
AcDbVertex
100
AcDb2dVertex
 10
8392553.320000002
 20
5686646.679999999
 30
0.0
  0
VERTEX
  5
1558
330
1556
100
AcDbEntity
  8
Dzialki
100
AcDbVertex
100
AcDb2dVertex
 10
8392532.759999998
 20
5686647.89
 30
0.0
  0
SEQEND
  5
1559
330
0
100
AcDbEntity
  8
Dzialki
  0
POLYLINE
  5
155A
330
43
100
AcDbEntity
  8
Dzialki
  6
Continuous
370
    18
100
AcDb2dPolyline
 66
     1
 10
0.0
 20
0.0
 30
0.0
 70
   128
  0
VERTEX
  5
155B
330
155A
100
AcDbEntity
  8
Dzialki
100
AcDbVertex
100
AcDb2dVertex
 10
8392532.759999998
 20
5686647.89
 30
0.0
  0
VERTEX
  5
155C
330
155A
100
AcDbEntity
  8
Dzialki
100
AcDbVertex
100
AcDb2dVertex
 10
8392530.259999997
 20
5686645.54
 30
0.0
  0
SEQEND
  5
155D
330
0
100
AcDbEntity
  8
Dzialki
  0
POLYLINE
  5
155E
330
43
100
AcDbEntity
  8
Dzialki
  6
Continuous
370
    18
100
AcDb2dPolyline
 66
     1
 10
0.0
 20
0.0
 30
0.0
 70
   128
  0
VERTEX
  5
155F
330
155E
100
AcDbEntity
  8
Dzialki
100
AcDbVertex
100
AcDb2dVertex
 10
8392530.259999997
 20
5686645.54
 30
0.0
  0
VERTEX
  5
1560
330
155E
100
AcDbEntity
  8
Dzialki
100
AcDbVertex
100
AcDb2dVertex
 10
8392530.050000001
 20
5686553.370000001
 30
0.0
  0
SEQEND
  5
1561
330
0
100
AcDbEntity
  8
Dzialki
  0
POLYLINE
  5
156A
330
43
100
AcDbEntity
  8
Dzialki
  6
Continuous
370
    18
100
AcDb2dPolyline
 66
     1
 10
0.0
 20
0.0
 30
0.0
 70
   128
  0
VERTEX
  5
156B
330
156A
100
AcDbEntity
  8
Dzialki
100
AcDbVertex
100
AcDb2dVertex
 10
8392628.980000001
 20
5686550.839999999
 30
0.0
  0
VERTEX
  5
156C
330
156A
100
AcDbEntity
  8
Dzialki
100
AcDbVertex
100
AcDb2dVertex
 10
8392629.29
 20
5686643.950000001
 30
0.0
  0
SEQEND
  5
156D
330
0
100
AcDbEntity
  8
Dzialki
  0
POLYLINE
  5
156E
330
43
100
AcDbEntity
  8
Dzialki
  6
Continuous
370
    18
100
AcDb2dPolyline
 66
     1
 10
0.0
 20
0.0
 30
0.0
 70
   128
  0
VERTEX
  5
156F
330
156E
100
AcDbEntity
  8
Dzialki
100
AcDbVertex
100
AcDb2dVertex
 10
8392629.29
 20
5686643.950000001
 30
0.0
  0
VERTEX
  5
1570
330
156E
100
AcDbEntity
  8
Dzialki
100
AcDbVertex
100
AcDb2dVertex
 10
8392567.130000001
 20
5686646.179999999
 30
0.0
  0
SEQEND
  5
1571
330
0
100
AcDbEntity
  8
Dzialki
  0
POLYLINE
  5
157E
330
43
100
AcDbEntity
  8
Dzialki
  6
Continuous
370
    18
100
AcDb2dPolyline
 66
     1
 10
0.0
 20
0.0
 30
0.0
 70
   128
  0
VERTEX
  5
157F
330
157E
100
AcDbEntity
  8
Dzialki
100
AcDbVertex
100
AcDb2dVertex
 10
8392532.759999998
 20
5686647.89
 30
0.0
  0
VERTEX
  5
1580
330
157E
100
AcDbEntity
  8
Dzialki
100
AcDbVertex
100
AcDb2dVertex
 10
8392525.279999997
 20
5686648.33
 30
0.0
  0
SEQEND
  5
1581
330
0
100
AcDbEntity
  8
Dzialki
  0
POLYLINE
  5
1582
330
43
100
AcDbEntity
  8
Dzialki
  6
Continuous
370
    18
100
AcDb2dPolyline
 66
     1
 10
0.0
 20
0.0
 30
0.0
 70
   128
  0
VERTEX
  5
1583
330
1582
100
AcDbEntity
  8
Dzialki
100
AcDbVertex
100
AcDb2dVertex
 10
8392525.279999997
 20
5686648.33
 30
0.0
  0
VERTEX
  5
1584
330
1582
100
AcDbEntity
  8
Dzialki
100
AcDbVertex
100
AcDb2dVertex
 10
8392524.849999999
 20
5686467.860000001
 30
0.0
  0
SEQEND
  5
1585
330
0
100
AcDbEntity
  8
Dzialki
  0
POLYLINE
  5
15BA
330
43
100
AcDbEntity
  8
Dzialki
  6
Continuous
370
    18
100
AcDb2dPolyline
 66
     1
 10
0.0
 20
0.0
 30
0.0
 70
   128
  0
VERTEX
  5
15BB
330
15BA
100
AcDbEntity
  8
Dzialki
100
AcDbVertex
100
AcDb2dVertex
 10
8392585.35
 20
5686649.809999998
 30
0.0
  0
VERTEX
  5
15BC
330
15BA
100
AcDbEntity
  8
Dzialki
100
AcDbVertex
100
AcDb2dVertex
 10
8392587.1
 20
5686825.3
 30
0.0
  0
SEQEND
  5
15BD
330
0
100
AcDbEntity
  8
Dzialki
  0
POLYLINE
  5
15C2
330
43
100
AcDbEntity
  8
Dzialki
  6
Continuous
370
    18
100
AcDb2dPolyline
 66
     1
 10
0.0
 20
0.0
 30
0.0
 70
   128
  0
VERTEX
  5
15C3
330
15C2
100
AcDbEntity
  8
Dzialki
100
AcDbVertex
100
AcDb2dVertex
 10
8392555.14
 20
5686826.660000001
 30
0.0
  0
VERTEX
  5
15C4
330
15C2
100
AcDbEntity
  8
Dzialki
100
AcDbVertex
100
AcDb2dVertex
 10
8392553.989999999
 20
5686706.190000001
 30
0.0
  0
SEQEND
  5
15C5
330
0
100
AcDbEntity
  8
Dzialki
  0
POLYLINE
  5
15C6
330
43
100
AcDbEntity
  8
Dzialki
  6
Continuous
370
    18
100
AcDb2dPolyline
 66
     1
 10
0.0
 20
0.0
 30
0.0
 70
   128
  0
VERTEX
  5
15C7
330
15C6
100
AcDbEntity
  8
Dzialki
100
AcDbVertex
100
AcDb2dVertex
 10
8392580.339999998
 20
5686649.72
 30
0.0
  0
VERTEX
  5
15C8
330
15C6
100
AcDbEntity
  8
Dzialki
100
AcDbVertex
100
AcDb2dVertex
 10
8392585.339999998
 20
5686649.540000001
 30
0.0
  0
SEQEND
  5
15C9
330
0
100
AcDbEntity
  8
Dzialki
  0
POLYLINE
  5
15CA
330
43
100
AcDbEntity
  8
Dzialki
  6
Continuous
370
    18
100
AcDb2dPolyline
 66
     1
 10
0.0
 20
0.0
 30
0.0
 70
   128
  0
VERTEX
  5
15CB
330
15CA
100
AcDbEntity
  8
Dzialki
100
AcDbVertex
100
AcDb2dVertex
 10
8392585.339999998
 20
5686649.540000001
 30
0.0
  0
VERTEX
  5
15CC
330
15CA
100
AcDbEntity
  8
Dzialki
100
AcDbVertex
100
AcDb2dVertex
 10
8392585.35
 20
5686649.809999998
 30
0.0
  0
SEQEND
  5
15CD
330
0
100
AcDbEntity
  8
Dzialki
  0
POLYLINE
  5
15E2
330
43
100
AcDbEntity
  8
Dzialki
  6
Continuous
370
    18
100
AcDb2dPolyline
 66
     1
 10
0.0
 20
0.0
 30
0.0
 70
   128
  0
VERTEX
  5
15E3
330
15E2
100
AcDbEntity
  8
Dzialki
100
AcDbVertex
100
AcDb2dVertex
 10
8392529.779999996
 20
5686652.119999999
 30
0.0
  0
VERTEX
  5
15E4
330
15E2
100
AcDbEntity
  8
Dzialki
100
AcDbVertex
100
AcDb2dVertex
 10
8392553.460000002
 20
5686650.679999998
 30
0.0
  0
SEQEND
  5
15E5
330
0
100
AcDbEntity
  8
Dzialki
  0
POLYLINE
  5
15E6
330
43
100
AcDbEntity
  8
Dzialki
  6
Continuous
370
    18
100
AcDb2dPolyline
 66
     1
 10
0.0
 20
0.0
 30
0.0
 70
   128
  0
VERTEX
  5
15E7
330
15E6
100
AcDbEntity
  8
Dzialki
100
AcDbVertex
100
AcDb2dVertex
 10
8392654.509999996
 20
5686647.030000001
 30
0.0
  0
VERTEX
  5
15E8
330
15E6
100
AcDbEntity
  8
Dzialki
100
AcDbVertex
100
AcDb2dVertex
 10
8392656.269999999
 20
5686698.500000001
 30
0.0
  0
SEQEND
  5
15E9
330
0
100
AcDbEntity
  8
Dzialki
  0
POLYLINE
  5
15EA
330
43
100
AcDbEntity
  8
Dzialki
  6
Continuous
370
    18
100
AcDb2dPolyline
 66
     1
 10
0.0
 20
0.0
 30
0.0
 70
   128
  0
VERTEX
  5
15EB
330
15EA
100
AcDbEntity
  8
Dzialki
100
AcDbVertex
100
AcDb2dVertex
 10
8392656.269999999
 20
5686698.500000001
 30
0.0
  0
VERTEX
  5
15EC
330
15EA
100
AcDbEntity
  8
Dzialki
100
AcDbVertex
100
AcDb2dVertex
 10
8392590.86
 20
5686700.870000001
 30
0.0
  0
SEQEND
  5
15ED
330
0
100
AcDbEntity
  8
Dzialki
  0
POLYLINE
  5
15EE
330
43
100
AcDbEntity
  8
Dzialki
  6
Continuous
370
    18
100
AcDb2dPolyline
 66
     1
 10
0.0
 20
0.0
 30
0.0
 70
   128
  0
VERTEX
  5
15EF
330
15EE
100
AcDbEntity
  8
Dzialki
100
AcDbVertex
100
AcDb2dVertex
 10
8392590.86
 20
5686700.870000001
 30
0.0
  0
VERTEX
  5
15F0
330
15EE
100
AcDbEntity
  8
Dzialki
100
AcDbVertex
100
AcDb2dVertex
 10
8392590.35
 20
5686649.689999999
 30
0.0
  0
SEQEND
  5
15F1
330
0
100
AcDbEntity
  8
Dzialki
  0
POLYLINE
  5
15F2
330
43
100
AcDbEntity
  8
Dzialki
  6
Continuous
370
    18
100
AcDb2dPolyline
 66
     1
 10
0.0
 20
0.0
 30
0.0
 70
   128
  0
VERTEX
  5
15F3
330
15F2
100
AcDbEntity
  8
Dzialki
100
AcDbVertex
100
AcDb2dVertex
 10
8392590.35
 20
5686649.689999999
 30
0.0
  0
VERTEX
  5
15F4
330
15F2
100
AcDbEntity
  8
Dzialki
100
AcDbVertex
100
AcDb2dVertex
 10
8392590.339999998
 20
5686649.360000001
 30
0.0
  0
SEQEND
  5
15F5
330
0
100
AcDbEntity
  8
Dzialki
  0
POLYLINE
  5
15F6
330
43
100
AcDbEntity
  8
Dzialki
  6
Continuous
370
    18
100
AcDb2dPolyline
 66
     1
 10
0.0
 20
0.0
 30
0.0
 70
   128
  0
VERTEX
  5
15F7
330
15F6
100
AcDbEntity
  8
Dzialki
100
AcDbVertex
100
AcDb2dVertex
 10
8392590.339999998
 20
5686649.360000001
 30
0.0
  0
VERTEX
  5
15F8
330
15F6
100
AcDbEntity
  8
Dzialki
100
AcDbVertex
100
AcDb2dVertex
 10
8392621.740000002
 20
5686648.240000001
 30
0.0
  0
SEQEND
  5
15F9
330
0
100
AcDbEntity
  8
Dzialki
  0
POLYLINE
  5
15FA
330
43
100
AcDbEntity
  8
Dzialki
  6
Continuous
370
    18
100
AcDb2dPolyline
 66
     1
 10
0.0
 20
0.0
 30
0.0
 70
   128
  0
VERTEX
  5
15FB
330
15FA
100
AcDbEntity
  8
Dzialki
100
AcDbVertex
100
AcDb2dVertex
 10
8392621.740000002
 20
5686648.240000001
 30
0.0
  0
VERTEX
  5
15FC
330
15FA
100
AcDbEntity
  8
Dzialki
100
AcDbVertex
100
AcDb2dVertex
 10
8392654.509999996
 20
5686647.030000001
 30
0.0
  0
SEQEND
  5
15FD
330
0
100
AcDbEntity
  8
Dzialki
  0
POLYLINE
  5
15FE
330
43
100
AcDbEntity
  8
Dzialki
  6
Continuous
370
    18
100
AcDb2dPolyline
 66
     1
 10
0.0
 20
0.0
 30
0.0
 70
   128
  0
VERTEX
  5
15FF
330
15FE
100
AcDbEntity
  8
Dzialki
100
AcDbVertex
100
AcDb2dVertex
 10
8392656.269999999
 20
5686698.500000001
 30
0.0
  0
VERTEX
  5
1600
330
15FE
100
AcDbEntity
  8
Dzialki
100
AcDbVertex
100
AcDb2dVertex
 10
8392657.99
 20
5686748.99
 30
0.0
  0
SEQEND
  5
1601
330
0
100
AcDbEntity
  8
Dzialki
  0
POLYLINE
  5
1602
330
43
100
AcDbEntity
  8
Dzialki
  6
Continuous
370
    18
100
AcDb2dPolyline
 66
     1
 10
0.0
 20
0.0
 30
0.0
 70
   128
  0
VERTEX
  5
1603
330
1602
100
AcDbEntity
  8
Dzialki
100
AcDbVertex
100
AcDb2dVertex
 10
8392657.99
 20
5686748.99
 30
0.0
  0
VERTEX
  5
1604
330
1602
100
AcDbEntity
  8
Dzialki
100
AcDbVertex
100
AcDb2dVertex
 10
8392591.369999999
 20
5686751.47
 30
0.0
  0
SEQEND
  5
1605
330
0
100
AcDbEntity
  8
Dzialki
  0
POLYLINE
  5
1606
330
43
100
AcDbEntity
  8
Dzialki
  6
Continuous
370
    18
100
AcDb2dPolyline
 66
     1
 10
0.0
 20
0.0
 30
0.0
 70
   128
  0
VERTEX
  5
1607
330
1606
100
AcDbEntity
  8
Dzialki
100
AcDbVertex
100
AcDb2dVertex
 10
8392591.369999999
 20
5686751.47
 30
0.0
  0
VERTEX
  5
1608
330
1606
100
AcDbEntity
  8
Dzialki
100
AcDbVertex
100
AcDb2dVertex
 10
8392590.86
 20
5686700.870000001
 30
0.0
  0
SEQEND
  5
1609
330
0
100
AcDbEntity
  8
Dzialki
  0
POLYLINE
  5
160A
330
43
100
AcDbEntity
  8
Dzialki
  6
Continuous
370
    18
100
AcDb2dPolyline
 66
     1
 10
0.0
 20
0.0
 30
0.0
 70
   128
  0
VERTEX
  5
160B
330
160A
100
AcDbEntity
  8
Dzialki
100
AcDbVertex
100
AcDb2dVertex
 10
8392591.369999999
 20
5686751.47
 30
0.0
  0
VERTEX
  5
160C
330
160A
100
AcDbEntity
  8
Dzialki
100
AcDbVertex
100
AcDb2dVertex
 10
8392592.099999999
 20
5686825.049999998
 30
0.0
  0
SEQEND
  5
160D
330
0
100
AcDbEntity
  8
Dzialki
  0
POLYLINE
  5
1612
330
43
100
AcDbEntity
  8
Dzialki
  6
Continuous
370
    18
100
AcDb2dPolyline
 66
     1
 10
0.0
 20
0.0
 30
0.0
 70
   128
  0
VERTEX
  5
1613
330
1612
100
AcDbEntity
  8
Dzialki
100
AcDbVertex
100
AcDb2dVertex
 10
8392585.339999998
 20
5686649.540000001
 30
0.0
  0
VERTEX
  5
1614
330
1612
100
AcDbEntity
  8
Dzialki
100
AcDbVertex
100
AcDb2dVertex
 10
8392590.339999998
 20
5686649.360000001
 30
0.0
  0
SEQEND
  5
1615
330
0
100
AcDbEntity
  8
Dzialki
  0
POLYLINE
  5
1616
330
43
100
AcDbEntity
  8
Dzialki
  6
Continuous
370
    18
100
AcDb2dPolyline
 66
     1
 10
0.0
 20
0.0
 30
0.0
 70
   128
  0
VERTEX
  5
1617
330
1616
100
AcDbEntity
  8
Dzialki
100
AcDbVertex
100
AcDb2dVertex
 10
8392525.279999997
 20
5686648.33
 30
0.0
  0
VERTEX
  5
1618
330
1616
100
AcDbEntity
  8
Dzialki
100
AcDbVertex
100
AcDb2dVertex
 10
8392493.089999998
 20
5686648.869999999
 30
0.0
  0
SEQEND
  5
1619
330
0
100
AcDbEntity
  8
Dzialki
  0
POLYLINE
  5
161A
330
43
100
AcDbEntity
  8
Dzialki
  6
Continuous
370
    18
100
AcDb2dPolyline
 66
     1
 10
0.0
 20
0.0
 30
0.0
 70
   128
  0
VERTEX
  5
161B
330
161A
100
AcDbEntity
  8
Dzialki
100
AcDbVertex
100
AcDb2dVertex
 10
8392493.089999998
 20
5686648.869999999
 30
0.0
  0
VERTEX
  5
161C
330
161A
100
AcDbEntity
  8
Dzialki
100
AcDbVertex
100
AcDb2dVertex
 10
8392493.550000001
 20
5686566.74
 30
0.0
  0
SEQEND
  5
161D
330
0
100
AcDbEntity
  8
Dzialki
  0
POLYLINE
  5
1636
330
43
100
AcDbEntity
  8
Dzialki
  6
Continuous
370
    18
100
AcDb2dPolyline
 66
     1
 10
0.0
 20
0.0
 30
0.0
 70
   128
  0
VERTEX
  5
1637
330
1636
100
AcDbEntity
  8
Dzialki
100
AcDbVertex
100
AcDb2dVertex
 10
8392506.469999998
 20
5686653.280000001
 30
0.0
  0
VERTEX
  5
1638
330
1636
100
AcDbEntity
  8
Dzialki
100
AcDbVertex
100
AcDb2dVertex
 10
8392483.539999998
 20
5686654.41
 30
0.0
  0
SEQEND
  5
1639
330
0
100
AcDbEntity
  8
Dzialki
  0
POLYLINE
  5
16FE
330
43
100
AcDbEntity
  8
Dzialki
  6
Continuous
370
    18
100
AcDb2dPolyline
 66
     1
 10
0.0
 20
0.0
 30
0.0
 70
   128
  0
VERTEX
  5
16FF
330
16FE
100
AcDbEntity
  8
Dzialki
100
AcDbVertex
100
AcDb2dVertex
 10
8392485.369999995
 20
5686649.0
 30
0.0
  0
VERTEX
  5
1700
330
16FE
100
AcDbEntity
  8
Dzialki
100
AcDbVertex
100
AcDb2dVertex
 10
8392493.089999998
 20
5686648.869999999
 30
0.0
  0
SEQEND
  5
1701
330
0
100
AcDbEntity
  8
Dzialki
  0
POLYLINE
  5
1702
330
43
100
AcDbEntity
  8
Dzialki
  6
Continuous
370
    18
100
AcDb2dPolyline
 66
     1
 10
0.0
 20
0.0
 30
0.0
 70
   128
  0
VERTEX
  5
1703
330
1702
100
AcDbEntity
  8
Dzialki
100
AcDbVertex
100
AcDb2dVertex
 10
8392629.29
 20
5686643.950000001
 30
0.0
  0
VERTEX
  5
1704
330
1702
100
AcDbEntity
  8
Dzialki
100
AcDbVertex
100
AcDb2dVertex
 10
8392673.86
 20
5686642.219999998
 30
0.0
  0
SEQEND
  5
1705
330
0
100
AcDbEntity
  8
Dzialki
  0
POLYLINE
  5
1706
330
43
100
AcDbEntity
  8
Dzialki
  6
Continuous
370
    18
100
AcDb2dPolyline
 66
     1
 10
0.0
 20
0.0
 30
0.0
 70
   128
  0
VERTEX
  5
1707
330
1706
100
AcDbEntity
  8
Dzialki
100
AcDbVertex
100
AcDb2dVertex
 10
8392673.86
 20
5686642.219999998
 30
0.0
  0
VERTEX
  5
1708
330
1706
100
AcDbEntity
  8
Dzialki
100
AcDbVertex
100
AcDb2dVertex
 10
8392713.929999999
 20
5686640.7
 30
0.0
  0
SEQEND
  5
1709
330
0
100
AcDbEntity
  8
Dzialki
  0
POLYLINE
  5
175E
330
43
100
AcDbEntity
  8
Dzialki
  6
Continuous
370
    18
100
AcDb2dPolyline
 66
     1
 10
0.0
 20
0.0
 30
0.0
 70
   128
  0
VERTEX
  5
175F
330
175E
100
AcDbEntity
  8
Dzialki
100
AcDbVertex
100
AcDb2dVertex
 10
8392714.079999999
 20
5686644.679999999
 30
0.0
  0
VERTEX
  5
1760
330
175E
100
AcDbEntity
  8
Dzialki
100
AcDbVertex
100
AcDb2dVertex
 10
8392689.089999997
 20
5686645.570000002
 30
0.0
  0
SEQEND
  5
1761
330
0
100
AcDbEntity
  8
Dzialki
  0
POLYLINE
  5
1762
330
43
100
AcDbEntity
  8
Dzialki
  6
Continuous
370
    18
100
AcDb2dPolyline
 66
     1
 10
0.0
 20
0.0
 30
0.0
 70
   128
  0
VERTEX
  5
1763
330
1762
100
AcDbEntity
  8
Dzialki
100
AcDbVertex
100
AcDb2dVertex
 10
8392689.089999997
 20
5686645.570000002
 30
0.0
  0
VERTEX
  5
1764
330
1762
100
AcDbEntity
  8
Dzialki
100
AcDbVertex
100
AcDb2dVertex
 10
8392659.509999996
 20
5686646.860000002
 30
0.0
  0
SEQEND
  5
1765
330
0
100
AcDbEntity
  8
Dzialki
  0
POLYLINE
  5
1766
330
43
100
AcDbEntity
  8
Dzialki
  6
Continuous
370
    18
100
AcDb2dPolyline
 66
     1
 10
0.0
 20
0.0
 30
0.0
 70
   128
  0
VERTEX
  5
1767
330
1766
100
AcDbEntity
  8
Dzialki
100
AcDbVertex
100
AcDb2dVertex
 10
8392659.509999996
 20
5686646.860000002
 30
0.0
  0
VERTEX
  5
1768
330
1766
100
AcDbEntity
  8
Dzialki
100
AcDbVertex
100
AcDb2dVertex
 10
8392654.509999996
 20
5686647.030000001
 30
0.0
  0
SEQEND
  5
1769
330
0
100
AcDbEntity
  8
Dzialki
  0
POLYLINE
  5
176A
330
43
100
AcDbEntity
  8
Kontury
  6
L_0_06
370
    18
100
AcDb2dPolyline
 66
     1
 10
0.0
 20
0.0
 30
0.0
 70
   128
  0
VERTEX
  5
176B
330
176A
100
AcDbEntity
  8
Kontury
100
AcDbVertex
100
AcDb2dVertex
 10
8392623.64
 20
5686766.46
 30
0.0
  0
VERTEX
  5
176C
330
176A
100
AcDbEntity
  8
Kontury
100
AcDbVertex
100
AcDb2dVertex
 10
8392681.029999996
 20
5686789.21
 30
0.0
  0
SEQEND
  5
176D
330
0
100
AcDbEntity
  8
Kontury
  0
POLYLINE
  5
17E6
330
43
100
AcDbEntity
  8
Kontury
  6
L_0_06
370
    18
100
AcDb2dPolyline
 66
     1
 10
0.0
 20
0.0
 30
0.0
 70
   128
  0
VERTEX
  5
17E7
330
17E6
100
AcDbEntity
  8
Kontury
100
AcDbVertex
100
AcDb2dVertex
 10
8392422.67
 20
5686665.83
 30
0.0
  0
VERTEX
  5
17E8
330
17E6
100
AcDbEntity
  8
Kontury
100
AcDbVertex
100
AcDb2dVertex
 10
8392530.71
 20
5686676.39
 30
0.0
  0
SEQEND
  5
17E9
330
0
100
AcDbEntity
  8
Kontury
  0
POLYLINE
  5
17EA
330
43
100
AcDbEntity
  8
Kontury
  6
L_0_06
370
    18
100
AcDb2dPolyline
 66
     1
 10
0.0
 20
0.0
 30
0.0
 70
   128
  0
VERTEX
  5
17EB
330
17EA
100
AcDbEntity
  8
Kontury
100
AcDbVertex
100
AcDb2dVertex
 10
8392530.71
 20
5686676.39
 30
0.0
  0
VERTEX
  5
17EC
330
17EA
100
AcDbEntity
  8
Kontury
100
AcDbVertex
100
AcDb2dVertex
 10
8392623.64
 20
5686766.46
 30
0.0
  0
SEQEND
  5
17ED
330
0
100
AcDbEntity
  8
Kontury
  0
POLYLINE
  5
189A
330
43
100
AcDbEntity
  8
Kontury
  6
L_0_06
370
    18
100
AcDb2dPolyline
 66
     1
 10
0.0
 20
0.0
 30
0.0
 70
   128
  0
VERTEX
  5
189B
330
189A
100
AcDbEntity
  8
Kontury
100
AcDbVertex
100
AcDb2dVertex
 10
8392483.199999999
 20
5686654.399999999
 30
0.0
  0
VERTEX
  5
189C
330
189A
100
AcDbEntity
  8
Kontury
100
AcDbVertex
100
AcDb2dVertex
 10
8392506.66
 20
5686653.26
 30
0.0
  0
SEQEND
  5
189D
330
0
100
AcDbEntity
  8
Kontury
  0
POLYLINE
  5
189E
330
43
100
AcDbEntity
  8
Kontury
  6
L_0_06
370
    18
100
AcDb2dPolyline
 66
     1
 10
0.0
 20
0.0
 30
0.0
 70
   128
  0
VERTEX
  5
189F
330
189E
100
AcDbEntity
  8
Kontury
100
AcDbVertex
100
AcDb2dVertex
 10
8392506.66
 20
5686653.26
 30
0.0
  0
VERTEX
  5
18A0
330
189E
100
AcDbEntity
  8
Kontury
100
AcDbVertex
100
AcDb2dVertex
 10
8392529.779999996
 20
5686652.119999999
 30
0.0
  0
SEQEND
  5
18A1
330
0
100
AcDbEntity
  8
Kontury
  0
POLYLINE
  5
18A2
330
43
100
AcDbEntity
  8
Kontury
  6
L_0_06
370
    18
100
AcDb2dPolyline
 66
     1
 10
0.0
 20
0.0
 30
0.0
 70
   128
  0
VERTEX
  5
18A3
330
18A2
100
AcDbEntity
  8
Kontury
100
AcDbVertex
100
AcDb2dVertex
 10
8392529.779999996
 20
5686652.119999999
 30
0.0
  0
VERTEX
  5
18A4
330
18A2
100
AcDbEntity
  8
Kontury
100
AcDbVertex
100
AcDb2dVertex
 10
8392553.460000002
 20
5686650.679999998
 30
0.0
  0
SEQEND
  5
18A5
330
0
100
AcDbEntity
  8
Kontury
  0
POLYLINE
  5
18A6
330
43
100
AcDbEntity
  8
Kontury
  6
L_0_06
370
    18
100
AcDb2dPolyline
 66
     1
 10
0.0
 20
0.0
 30
0.0
 70
   128
  0
VERTEX
  5
18A7
330
18A6
100
AcDbEntity
  8
Kontury
100
AcDbVertex
100
AcDb2dVertex
 10
8392553.460000002
 20
5686650.679999998
 30
0.0
  0
VERTEX
  5
18A8
330
18A6
100
AcDbEntity
  8
Kontury
100
AcDbVertex
100
AcDb2dVertex
 10
8392580.339999998
 20
5686649.72
 30
0.0
  0
SEQEND
  5
18A9
330
0
100
AcDbEntity
  8
Kontury
  0
POLYLINE
  5
18AA
330
43
100
AcDbEntity
  8
Kontury
  6
L_0_06
370
    18
100
AcDb2dPolyline
 66
     1
 10
0.0
 20
0.0
 30
0.0
 70
   128
  0
VERTEX
  5
18AB
330
18AA
100
AcDbEntity
  8
Kontury
100
AcDbVertex
100
AcDb2dVertex
 10
8392580.339999998
 20
5686649.72
 30
0.0
  0
VERTEX
  5
18AC
330
18AA
100
AcDbEntity
  8
Kontury
100
AcDbVertex
100
AcDb2dVertex
 10
8392585.339999998
 20
5686649.540000001
 30
0.0
  0
SEQEND
  5
18AD
330
0
100
AcDbEntity
  8
Kontury
  0
POLYLINE
  5
18AE
330
43
100
AcDbEntity
  8
Kontury
  6
L_0_06
370
    18
100
AcDb2dPolyline
 66
     1
 10
0.0
 20
0.0
 30
0.0
 70
   128
  0
VERTEX
  5
18AF
330
18AE
100
AcDbEntity
  8
Kontury
100
AcDbVertex
100
AcDb2dVertex
 10
8392585.339999998
 20
5686649.540000001
 30
0.0
  0
VERTEX
  5
18B0
330
18AE
100
AcDbEntity
  8
Kontury
100
AcDbVertex
100
AcDb2dVertex
 10
8392621.740000002
 20
5686648.240000001
 30
0.0
  0
SEQEND
  5
18B1
330
0
100
AcDbEntity
  8
Kontury
  0
POLYLINE
  5
18B2
330
43
100
AcDbEntity
  8
Kontury
  6
L_0_06
370
    18
100
AcDb2dPolyline
 66
     1
 10
0.0
 20
0.0
 30
0.0
 70
   128
  0
VERTEX
  5
18B3
330
18B2
100
AcDbEntity
  8
Kontury
100
AcDbVertex
100
AcDb2dVertex
 10
8392621.740000002
 20
5686648.240000001
 30
0.0
  0
VERTEX
  5
18B4
330
18B2
100
AcDbEntity
  8
Kontury
100
AcDbVertex
100
AcDb2dVertex
 10
8392659.509999996
 20
5686646.860000002
 30
0.0
  0
SEQEND
  5
18B5
330
0
100
AcDbEntity
  8
Kontury
  0
POLYLINE
  5
18B6
330
43
100
AcDbEntity
  8
Kontury
  6
L_0_06
370
    18
100
AcDb2dPolyline
 66
     1
 10
0.0
 20
0.0
 30
0.0
 70
   128
  0
VERTEX
  5
18B7
330
18B6
100
AcDbEntity
  8
Kontury
100
AcDbVertex
100
AcDb2dVertex
 10
8392659.509999996
 20
5686646.860000002
 30
0.0
  0
VERTEX
  5
18B8
330
18B6
100
AcDbEntity
  8
Kontury
100
AcDbVertex
100
AcDb2dVertex
 10
8392689.089999997
 20
5686645.570000002
 30
0.0
  0
SEQEND
  5
18B9
330
0
100
AcDbEntity
  8
Kontury
  0
POLYLINE
  5
18BA
330
43
100
AcDbEntity
  8
Kontury
  6
L_0_06
370
    18
100
AcDb2dPolyline
 66
     1
 10
0.0
 20
0.0
 30
0.0
 70
   128
  0
VERTEX
  5
18BB
330
18BA
100
AcDbEntity
  8
Kontury
100
AcDbVertex
100
AcDb2dVertex
 10
8392689.089999997
 20
5686645.570000002
 30
0.0
  0
VERTEX
  5
18BC
330
18BA
100
AcDbEntity
  8
Kontury
100
AcDbVertex
100
AcDb2dVertex
 10
8392714.079999999
 20
5686644.679999999
 30
0.0
  0
SEQEND
  5
18BD
330
0
100
AcDbEntity
  8
Kontury
  0
POLYLINE
  5
19AE
330
43
100
AcDbEntity
  8
Kontury
  6
L_0_06
370
    18
100
AcDb2dPolyline
 66
     1
 10
0.0
 20
0.0
 30
0.0
 70
   128
  0
VERTEX
  5
19AF
330
19AE
100
AcDbEntity
  8
Kontury
100
AcDbVertex
100
AcDb2dVertex
 10
8392713.929999999
 20
5686640.7
 30
0.0
  0
VERTEX
  5
19B0
330
19AE
100
AcDbEntity
  8
Kontury
100
AcDbVertex
100
AcDb2dVertex
 10
8392673.86
 20
5686642.219999998
 30
0.0
  0
SEQEND
  5
19B1
330
0
100
AcDbEntity
  8
Kontury
  0
POLYLINE
  5
19B2
330
43
100
AcDbEntity
  8
Kontury
  6
L_0_06
370
    18
100
AcDb2dPolyline
 66
     1
 10
0.0
 20
0.0
 30
0.0
 70
   128
  0
VERTEX
  5
19B3
330
19B2
100
AcDbEntity
  8
Kontury
100
AcDbVertex
100
AcDb2dVertex
 10
8392673.86
 20
5686642.219999998
 30
0.0
  0
VERTEX
  5
19B4
330
19B2
100
AcDbEntity
  8
Kontury
100
AcDbVertex
100
AcDb2dVertex
 10
8392674.140000002
 20
5686620.709999999
 30
0.0
  0
SEQEND
  5
19B5
330
0
100
AcDbEntity
  8
Kontury
  0
POLYLINE
  5
19C2
330
43
100
AcDbEntity
  8
Kontury
  6
L_0_06
370
    18
100
AcDb2dPolyline
 66
     1
 10
0.0
 20
0.0
 30
0.0
 70
   128
  0
VERTEX
  5
19C3
330
19C2
100
AcDbEntity
  8
Kontury
100
AcDbVertex
100
AcDb2dVertex
 10
8392673.86
 20
5686642.219999998
 30
0.0
  0
VERTEX
  5
19C4
330
19C2
100
AcDbEntity
  8
Kontury
100
AcDbVertex
100
AcDb2dVertex
 10
8392636.880000001
 20
5686643.679999998
 30
0.0
  0
SEQEND
  5
19C5
330
0
100
AcDbEntity
  8
Kontury
  0
POLYLINE
  5
19C6
330
43
100
AcDbEntity
  8
Kontury
  6
L_0_06
370
    18
100
AcDb2dPolyline
 66
     1
 10
0.0
 20
0.0
 30
0.0
 70
   128
  0
VERTEX
  5
19C7
330
19C6
100
AcDbEntity
  8
Kontury
100
AcDbVertex
100
AcDb2dVertex
 10
8392636.880000001
 20
5686643.679999998
 30
0.0
  0
VERTEX
  5
19C8
330
19C6
100
AcDbEntity
  8
Kontury
100
AcDbVertex
100
AcDb2dVertex
 10
8392642.58
 20
5686612.149999998
 30
0.0
  0
SEQEND
  5
19C9
330
0
100
AcDbEntity
  8
Kontury
  0
POLYLINE
  5
19CA
330
43
100
AcDbEntity
  8
Kontury
  6
L_0_06
370
    18
100
AcDb2dPolyline
 66
     1
 10
0.0
 20
0.0
 30
0.0
 70
   128
  0
VERTEX
  5
19CB
330
19CA
100
AcDbEntity
  8
Kontury
100
AcDbVertex
100
AcDb2dVertex
 10
8392642.58
 20
5686612.149999998
 30
0.0
  0
VERTEX
  5
19CC
330
19CA
100
AcDbEntity
  8
Kontury
100
AcDbVertex
100
AcDb2dVertex
 10
8392642.63
 20
5686601.34
 30
0.0
  0
SEQEND
  5
19CD
330
0
100
AcDbEntity
  8
Kontury
  0
POLYLINE
  5
19CE
330
43
100
AcDbEntity
  8
Kontury
  6
L_0_06
370
    18
100
AcDb2dPolyline
 66
     1
 10
0.0
 20
0.0
 30
0.0
 70
   128
  0
VERTEX
  5
19CF
330
19CE
100
AcDbEntity
  8
Kontury
100
AcDbVertex
100
AcDb2dVertex
 10
8392642.63
 20
5686601.34
 30
0.0
  0
VERTEX
  5
19D0
330
19CE
100
AcDbEntity
  8
Kontury
100
AcDbVertex
100
AcDb2dVertex
 10
8392629.619999995
 20
5686572.269999999
 30
0.0
  0
SEQEND
  5
19D1
330
0
100
AcDbEntity
  8
Kontury
  0
POLYLINE
  5
1A06
330
43
100
AcDbEntity
  8
Kontury
  6
L_0_06
370
    18
100
AcDb2dPolyline
 66
     1
 10
0.0
 20
0.0
 30
0.0
 70
   128
  0
VERTEX
  5
1A07
330
1A06
100
AcDbEntity
  8
Kontury
100
AcDbVertex
100
AcDb2dVertex
 10
8392530.330000001
 20
5686567.19
 30
0.0
  0
VERTEX
  5
1A08
330
1A06
100
AcDbEntity
  8
Kontury
100
AcDbVertex
100
AcDb2dVertex
 10
8392541.969999999
 20
5686586.22
 30
0.0
  0
SEQEND
  5
1A09
330
0
100
AcDbEntity
  8
Kontury
  0
POLYLINE
  5
1A0A
330
43
100
AcDbEntity
  8
Kontury
  6
L_0_06
370
    18
100
AcDb2dPolyline
 66
     1
 10
0.0
 20
0.0
 30
0.0
 70
   128
  0
VERTEX
  5
1A0B
330
1A0A
100
AcDbEntity
  8
Kontury
100
AcDbVertex
100
AcDb2dVertex
 10
8392541.969999999
 20
5686586.22
 30
0.0
  0
VERTEX
  5
1A0C
330
1A0A
100
AcDbEntity
  8
Kontury
100
AcDbVertex
100
AcDb2dVertex
 10
8392557.14
 20
5686602.21
 30
0.0
  0
SEQEND
  5
1A0D
330
0
100
AcDbEntity
  8
Kontury
  0
POLYLINE
  5
1A0E
330
43
100
AcDbEntity
  8
Kontury
  6
L_0_06
370
    18
100
AcDb2dPolyline
 66
     1
 10
0.0
 20
0.0
 30
0.0
 70
   128
  0
VERTEX
  5
1A0F
330
1A0E
100
AcDbEntity
  8
Kontury
100
AcDbVertex
100
AcDb2dVertex
 10
8392557.14
 20
5686602.21
 30
0.0
  0
VERTEX
  5
1A10
330
1A0E
100
AcDbEntity
  8
Kontury
100
AcDbVertex
100
AcDb2dVertex
 10
8392576.65
 20
5686610.24
 30
0.0
  0
SEQEND
  5
1A11
330
0
100
AcDbEntity
  8
Kontury
  0
POLYLINE
  5
1A12
330
43
100
AcDbEntity
  8
Kontury
  6
L_0_06
370
    18
100
AcDb2dPolyline
 66
     1
 10
0.0
 20
0.0
 30
0.0
 70
   128
  0
VERTEX
  5
1A13
330
1A12
100
AcDbEntity
  8
Kontury
100
AcDbVertex
100
AcDb2dVertex
 10
8392576.65
 20
5686610.24
 30
0.0
  0
VERTEX
  5
1A14
330
1A12
100
AcDbEntity
  8
Kontury
100
AcDbVertex
100
AcDb2dVertex
 10
8392574.169999999
 20
5686621.280000001
 30
0.0
  0
SEQEND
  5
1A15
330
0
100
AcDbEntity
  8
Kontury
  0
POLYLINE
  5
1A16
330
43
100
AcDbEntity
  8
Kontury
  6
L_0_06
370
    18
100
AcDb2dPolyline
 66
     1
 10
0.0
 20
0.0
 30
0.0
 70
   128
  0
VERTEX
  5
1A17
330
1A16
100
AcDbEntity
  8
Kontury
100
AcDbVertex
100
AcDb2dVertex
 10
8392574.169999999
 20
5686621.280000001
 30
0.0
  0
VERTEX
  5
1A18
330
1A16
100
AcDbEntity
  8
Kontury
100
AcDbVertex
100
AcDb2dVertex
 10
8392581.18
 20
5686624.199999999
 30
0.0
  0
SEQEND
  5
1A19
330
0
100
AcDbEntity
  8
Kontury
  0
POLYLINE
  5
1A1A
330
43
100
AcDbEntity
  8
Kontury
  6
L_0_06
370
    18
100
AcDb2dPolyline
 66
     1
 10
0.0
 20
0.0
 30
0.0
 70
   128
  0
VERTEX
  5
1A1B
330
1A1A
100
AcDbEntity
  8
Kontury
100
AcDbVertex
100
AcDb2dVertex
 10
8392581.18
 20
5686624.199999999
 30
0.0
  0
VERTEX
  5
1A1C
330
1A1A
100
AcDbEntity
  8
Kontury
100
AcDbVertex
100
AcDb2dVertex
 10
8392585.210000001
 20
5686614.040000001
 30
0.0
  0
SEQEND
  5
1A1D
330
0
100
AcDbEntity
  8
Kontury
  0
POLYLINE
  5
1A1E
330
43
100
AcDbEntity
  8
Kontury
  6
L_0_06
370
    18
100
AcDb2dPolyline
 66
     1
 10
0.0
 20
0.0
 30
0.0
 70
   128
  0
VERTEX
  5
1A1F
330
1A1E
100
AcDbEntity
  8
Kontury
100
AcDbVertex
100
AcDb2dVertex
 10
8392585.210000001
 20
5686614.040000001
 30
0.0
  0
VERTEX
  5
1A20
330
1A1E
100
AcDbEntity
  8
Kontury
100
AcDbVertex
100
AcDb2dVertex
 10
8392612.339999995
 20
5686634.29
 30
0.0
  0
SEQEND
  5
1A21
330
0
100
AcDbEntity
  8
Kontury
  0
POLYLINE
  5
1A22
330
43
100
AcDbEntity
  8
Kontury
  6
L_0_06
370
    18
100
AcDb2dPolyline
 66
     1
 10
0.0
 20
0.0
 30
0.0
 70
   128
  0
VERTEX
  5
1A23
330
1A22
100
AcDbEntity
  8
Kontury
100
AcDbVertex
100
AcDb2dVertex
 10
8392612.339999995
 20
5686634.29
 30
0.0
  0
VERTEX
  5
1A24
330
1A22
100
AcDbEntity
  8
Kontury
100
AcDbVertex
100
AcDb2dVertex
 10
8392628.890000001
 20
5686643.959999998
 30
0.0
  0
SEQEND
  5
1A25
330
0
100
AcDbEntity
  8
Kontury
  0
POLYLINE
  5
1A26
330
43
100
AcDbEntity
  8
Kontury
  6
L_0_06
370
    18
100
AcDb2dPolyline
 66
     1
 10
0.0
 20
0.0
 30
0.0
 70
   128
  0
VERTEX
  5
1A27
330
1A26
100
AcDbEntity
  8
Kontury
100
AcDbVertex
100
AcDb2dVertex
 10
8392628.890000001
 20
5686643.959999998
 30
0.0
  0
VERTEX
  5
1A28
330
1A26
100
AcDbEntity
  8
Kontury
100
AcDbVertex
100
AcDb2dVertex
 10
8392567.130000001
 20
5686646.179999999
 30
0.0
  0
SEQEND
  5
1A29
330
0
100
AcDbEntity
  8
Kontury
  0
POLYLINE
  5
1A2A
330
43
100
AcDbEntity
  8
Kontury
  6
L_0_06
370
    18
100
AcDb2dPolyline
 66
     1
 10
0.0
 20
0.0
 30
0.0
 70
   128
  0
VERTEX
  5
1A2B
330
1A2A
100
AcDbEntity
  8
Kontury
100
AcDbVertex
100
AcDb2dVertex
 10
8392567.130000001
 20
5686646.179999999
 30
0.0
  0
VERTEX
  5
1A2C
330
1A2A
100
AcDbEntity
  8
Kontury
100
AcDbVertex
100
AcDb2dVertex
 10
8392553.320000002
 20
5686646.679999999
 30
0.0
  0
SEQEND
  5
1A2D
330
0
100
AcDbEntity
  8
Kontury
  0
POLYLINE
  5
1A2E
330
43
100
AcDbEntity
  8
Kontury
  6
L_0_06
370
    18
100
AcDb2dPolyline
 66
     1
 10
0.0
 20
0.0
 30
0.0
 70
   128
  0
VERTEX
  5
1A2F
330
1A2E
100
AcDbEntity
  8
Kontury
100
AcDbVertex
100
AcDb2dVertex
 10
8392553.320000002
 20
5686646.679999999
 30
0.0
  0
VERTEX
  5
1A30
330
1A2E
100
AcDbEntity
  8
Kontury
100
AcDbVertex
100
AcDb2dVertex
 10
8392525.279999997
 20
5686648.33
 30
0.0
  0
SEQEND
  5
1A31
330
0
100
AcDbEntity
  8
Kontury
  0
POLYLINE
  5
1A32
330
43
100
AcDbEntity
  8
Kontury
  6
L_0_06
370
    18
100
AcDb2dPolyline
 66
     1
 10
0.0
 20
0.0
 30
0.0
 70
   128
  0
VERTEX
  5
1A33
330
1A32
100
AcDbEntity
  8
Kontury
100
AcDbVertex
100
AcDb2dVertex
 10
8392525.279999997
 20
5686648.33
 30
0.0
  0
VERTEX
  5
1A34
330
1A32
100
AcDbEntity
  8
Kontury
100
AcDbVertex
100
AcDb2dVertex
 10
8392493.089999998
 20
5686648.869999999
 30
0.0
  0
SEQEND
  5
1A35
330
0
100
AcDbEntity
  8
Kontury
  0
POLYLINE
  5
1A36
330
43
100
AcDbEntity
  8
Kontury
  6
L_0_06
370
    18
100
AcDb2dPolyline
 66
     1
 10
0.0
 20
0.0
 30
0.0
 70
   128
  0
VERTEX
  5
1A37
330
1A36
100
AcDbEntity
  8
Kontury
100
AcDbVertex
100
AcDb2dVertex
 10
8392493.089999998
 20
5686648.869999999
 30
0.0
  0
VERTEX
  5
1A38
330
1A36
100
AcDbEntity
  8
Kontury
100
AcDbVertex
100
AcDb2dVertex
 10
8392485.369999995
 20
5686649.0
 30
0.0
  0
SEQEND
  5
1A39
330
0
100
AcDbEntity
  8
Kontury
  0
POLYLINE
  5
1C12
330
43
100
AcDbEntity
  8
KTJZ_L_0
370
    18
100
AcDb2dPolyline
 66
     1
 10
0.0
 20
0.0
 30
0.0
 70
   128
  0
VERTEX
  5
1C13
330
1C12
100
AcDbEntity
  8
KTJZ_L_0
100
AcDbVertex
100
AcDb2dVertex
 10
8392527.480000001
 20
5686648.250000001
 30
0.0
  0
VERTEX
  5
1C14
330
1C12
100
AcDbEntity
  8
KTJZ_L_0
100
AcDbVertex
100
AcDb2dVertex
 10
8392527.349999999
 20
5686572.469999999
 30
0.0
  0
SEQEND
  5
1C15
330
0
100
AcDbEntity
  8
KTJZ_L_0
  0
POLYLINE
  5
1C16
330
43
100
AcDbEntity
  8
KTJZ_L_0
370
    18
100
AcDb2dPolyline
 66
     1
 10
0.0
 20
0.0
 30
0.0
 70
   128
  0
VERTEX
  5
1C17
330
1C16
100
AcDbEntity
  8
KTJZ_L_0
100
AcDbVertex
100
AcDb2dVertex
 10
8392525.349999999
 20
5686571.95
 30
0.0
  0
VERTEX
  5
1C18
330
1C16
100
AcDbEntity
  8
KTJZ_L_0
100
AcDbVertex
100
AcDb2dVertex
 10
8392525.479999999
 20
5686648.33
 30
0.0
  0
SEQEND
  5
1C19
330
0
100
AcDbEntity
  8
KTJZ_L_0
  0
POLYLINE
  5
1C1A
330
43
100
AcDbEntity
  8
KTJZ_L_0
370
    18
100
AcDb2dPolyline
 66
     1
 10
0.0
 20
0.0
 30
0.0
 70
   128
  0
VERTEX
  5
1C1B
330
1C1A
100
AcDbEntity
  8
KTJZ_L_0
100
AcDbVertex
100
AcDb2dVertex
 10
8392590.409
 20
5686757.712999998
 30
0.0
  0
VERTEX
  5
1C1C
330
1C1A
100
AcDbEntity
  8
KTJZ_L_0
100
AcDbVertex
100
AcDb2dVertex
 10
8392590.392000002
 20
5686733.482999999
 30
0.0
  0
SEQEND
  5
1C1D
330
0
100
AcDbEntity
  8
KTJZ_L_0
  0
POLYLINE
  5
1C1E
330
43
100
AcDbEntity
  8
KTJZ_L_0
370
    18
100
AcDb2dPolyline
 66
     1
 10
0.0
 20
0.0
 30
0.0
 70
   128
  0
VERTEX
  5
1C1F
330
1C1E
100
AcDbEntity
  8
KTJZ_L_0
100
AcDbVertex
100
AcDb2dVertex
 10
8392590.392000002
 20
5686733.482999999
 30
0.0
  0
VERTEX
  5
1C20
330
1C1E
100
AcDbEntity
  8
KTJZ_L_0
100
AcDbVertex
100
AcDb2dVertex
 10
8392590.145999999
 20
5686709.632999999
 30
0.0
  0
SEQEND
  5
1C21
330
0
100
AcDbEntity
  8
KTJZ_L_0
  0
POLYLINE
  5
1C22
330
43
100
AcDbEntity
  8
KTJZ_L_0
370
    18
100
AcDb2dPolyline
 66
     1
 10
0.0
 20
0.0
 30
0.0
 70
   128
  0
VERTEX
  5
1C23
330
1C22
100
AcDbEntity
  8
KTJZ_L_0
100
AcDbVertex
100
AcDb2dVertex
 10
8392590.145999999
 20
5686709.632999999
 30
0.0
  0
VERTEX
  5
1C24
330
1C22
100
AcDbEntity
  8
KTJZ_L_0
100
AcDbVertex
100
AcDb2dVertex
 10
8392589.766
 20
5686686.456000001
 30
0.0
  0
SEQEND
  5
1C25
330
0
100
AcDbEntity
  8
KTJZ_L_0
  0
POLYLINE
  5
1C26
330
43
100
AcDbEntity
  8
KTJZ_L_0
370
    18
100
AcDb2dPolyline
 66
     1
 10
0.0
 20
0.0
 30
0.0
 70
   128
  0
VERTEX
  5
1C27
330
1C26
100
AcDbEntity
  8
KTJZ_L_0
100
AcDbVertex
100
AcDb2dVertex
 10
8392586.800000001
 20
5686686.823000001
 30
0.0
  0
VERTEX
  5
1C28
330
1C26
100
AcDbEntity
  8
KTJZ_L_0
100
AcDbVertex
100
AcDb2dVertex
 10
8392587.311000001
 20
5686709.612999999
 30
0.0
  0
SEQEND
  5
1C29
330
0
100
AcDbEntity
  8
KTJZ_L_0
  0
POLYLINE
  5
1C2A
330
43
100
AcDbEntity
  8
KTJZ_L_0
370
    18
100
AcDb2dPolyline
 66
     1
 10
0.0
 20
0.0
 30
0.0
 70
   128
  0
VERTEX
  5
1C2B
330
1C2A
100
AcDbEntity
  8
KTJZ_L_0
100
AcDbVertex
100
AcDb2dVertex
 10
8392587.311000001
 20
5686709.612999999
 30
0.0
  0
VERTEX
  5
1C2C
330
1C2A
100
AcDbEntity
  8
KTJZ_L_0
100
AcDbVertex
100
AcDb2dVertex
 10
8392587.195000002
 20
5686733.287000001
 30
0.0
  0
SEQEND
  5
1C2D
330
0
100
AcDbEntity
  8
KTJZ_L_0
  0
POLYLINE
  5
1C2E
330
43
100
AcDbEntity
  8
KTJZ_L_0
370
    18
100
AcDb2dPolyline
 66
     1
 10
0.0
 20
0.0
 30
0.0
 70
   128
  0
VERTEX
  5
1C2F
330
1C2E
100
AcDbEntity
  8
KTJZ_L_0
100
AcDbVertex
100
AcDb2dVertex
 10
8392587.195000002
 20
5686733.287000001
 30
0.0
  0
VERTEX
  5
1C30
330
1C2E
100
AcDbEntity
  8
KTJZ_L_0
100
AcDbVertex
100
AcDb2dVertex
 10
8392587.45
 20
5686757.772999999
 30
0.0
  0
SEQEND
  5
1C31
330
0
100
AcDbEntity
  8
KTJZ_L_0
  0
POLYLINE
  5
1C32
330
43
100
AcDbEntity
  8
KTJZ_L_0
370
    18
100
AcDb2dPolyline
 66
     1
 10
0.0
 20
0.0
 30
0.0
 70
   128
  0
VERTEX
  5
1C33
330
1C32
100
AcDbEntity
  8
KTJZ_L_0
100
AcDbVertex
100
AcDb2dVertex
 10
8392525.479999999
 20
5686648.33
 30
0.0
  0
VERTEX
  5
1C34
330
1C32
100
AcDbEntity
  8
KTJZ_L_0
100
AcDbVertex
100
AcDb2dVertex
 10
8392527.480000001
 20
5686648.250000001
 30
0.0
  0
SEQEND
  5
1C35
330
0
100
AcDbEntity
  8
KTJZ_L_0
  0
POLYLINE
  5
1C36
330
43
100
AcDbEntity
  8
KTJZ_L_0
370
    18
100
AcDb2dPolyline
 66
     1
 10
0.0
 20
0.0
 30
0.0
 70
   128
  0
VERTEX
  5
1C37
330
1C36
100
AcDbEntity
  8
KTJZ_L_0
100
AcDbVertex
100
AcDb2dVertex
 10
8392526.629317389
 20
5686653.327879321
 30
0.0
  0
VERTEX
  5
1C38
330
1C36
100
AcDbEntity
  8
KTJZ_L_0
100
AcDbVertex
100
AcDb2dVertex
 10
8392505.539806718
 20
5686654.268944441
 30
0.0
  0
SEQEND
  5
1C39
330
0
100
AcDbEntity
  8
KTJZ_L_0
  0
POLYLINE
  5
1C3A
330
43
100
AcDbEntity
  8
KTJZ_L_0
370
    18
100
AcDb2dPolyline
 66
     1
 10
0.0
 20
0.0
 30
0.0
 70
   128
  0
VERTEX
  5
1C3B
330
1C3A
100
AcDbEntity
  8
KTJZ_L_0
100
AcDbVertex
100
AcDb2dVertex
 10
8392502.151130331
 20
5686650.10880526
 30
0.0
  0
VERTEX
  5
1C3C
330
1C3A
100
AcDbEntity
  8
KTJZ_L_0
100
AcDbVertex
100
AcDb2dVertex
 10
8392525.289276811
 20
5686649.27759705
 30
0.0
  0
SEQEND
  5
1C3D
330
0
100
AcDbEntity
  8
KTJZ_L_0
  0
POLYLINE
  5
1C3E
330
43
100
AcDbEntity
  8
KTJZ_L_0
370
    18
100
AcDb2dPolyline
 66
     1
 10
0.0
 20
0.0
 30
0.0
 70
   128
  0
VERTEX
  5
1C3F
330
1C3E
100
AcDbEntity
  8
KTJZ_L_0
100
AcDbVertex
100
AcDb2dVertex
 10
8392525.289276811
 20
5686649.27759705
 30
0.0
  0
VERTEX
  5
1C40
330
1C3E
100
AcDbEntity
  8
KTJZ_L_0
100
AcDbVertex
100
AcDb2dVertex
 10
8392531.390000002
 20
5686648.96
 30
0.0
  0
SEQEND
  5
1C41
330
0
100
AcDbEntity
  8
KTJZ_L_0
  0
POLYLINE
  5
1C42
330
43
100
AcDbEntity
  8
KTJZ_L_0
370
    18
100
AcDb2dPolyline
 66
     1
 10
0.0
 20
0.0
 30
0.0
 70
   128
  0
VERTEX
  5
1C43
330
1C42
100
AcDbEntity
  8
KTJZ_L_0
100
AcDbVertex
100
AcDb2dVertex
 10
8392531.560000001
 20
5686652.149999998
 30
0.0
  0
VERTEX
  5
1C44
330
1C42
100
AcDbEntity
  8
KTJZ_L_0
100
AcDbVertex
100
AcDb2dVertex
 10
8392526.629317389
 20
5686653.327879321
 30
0.0
  0
SEQEND
  5
1C45
330
0
100
AcDbEntity
  8
KTJZ_L_0
  0
POLYLINE
  5
1C46
330
43
100
AcDbEntity
  8
KTJZ_L_0
370
    18
100
AcDb2dPolyline
 66
     1
 10
0.0
 20
0.0
 30
0.0
 70
   128
  0
VERTEX
  5
1C47
330
1C46
100
AcDbEntity
  8
KTJZ_L_0
100
AcDbVertex
100
AcDb2dVertex
 10
8392531.390000002
 20
5686648.96
 30
0.0
  0
VERTEX
  5
1C48
330
1C46
100
AcDbEntity
  8
KTJZ_L_0
100
AcDbVertex
100
AcDb2dVertex
 10
8392531.560000001
 20
5686652.149999998
 30
0.0
  0
SEQEND
  5
1C49
330
0
100
AcDbEntity
  8
KTJZ_L_0
  0
POLYLINE
  5
1C4A
330
43
100
AcDbEntity
  8
KTJZ_L_0
370
    18
100
AcDb2dPolyline
 66
     1
 10
0.0
 20
0.0
 30
0.0
 70
   128
  0
VERTEX
  5
1C4B
330
1C4A
100
AcDbEntity
  8
KTJZ_L_0
100
AcDbVertex
100
AcDb2dVertex
 10
8392531.560000001
 20
5686652.149999998
 30
0.0
  0
VERTEX
  5
1C4C
330
1C4A
100
AcDbEntity
  8
KTJZ_L_0
100
AcDbVertex
100
AcDb2dVertex
 10
8392540.69
 20
5686650.92
 30
0.0
  0
SEQEND
  5
1C4D
330
0
100
AcDbEntity
  8
KTJZ_L_0
  0
POLYLINE
  5
1C4E
330
43
100
AcDbEntity
  8
KTJZ_L_0
370
    18
100
AcDb2dPolyline
 66
     1
 10
0.0
 20
0.0
 30
0.0
 70
   128
  0
VERTEX
  5
1C4F
330
1C4E
100
AcDbEntity
  8
KTJZ_L_0
100
AcDbVertex
100
AcDb2dVertex
 10
8392540.69
 20
5686650.92
 30
0.0
  0
VERTEX
  5
1C50
330
1C4E
100
AcDbEntity
  8
KTJZ_L_0
100
AcDbVertex
100
AcDb2dVertex
 10
8392553.57
 20
5686650.23
 30
0.0
  0
SEQEND
  5
1C51
330
0
100
AcDbEntity
  8
KTJZ_L_0
  0
POLYLINE
  5
1C52
330
43
100
AcDbEntity
  8
KTJZ_L_0
370
    18
100
AcDb2dPolyline
 66
     1
 10
0.0
 20
0.0
 30
0.0
 70
   128
  0
VERTEX
  5
1C53
330
1C52
100
AcDbEntity
  8
KTJZ_L_0
100
AcDbVertex
100
AcDb2dVertex
 10
8392553.57
 20
5686650.23
 30
0.0
  0
VERTEX
  5
1C54
330
1C52
100
AcDbEntity
  8
KTJZ_L_0
100
AcDbVertex
100
AcDb2dVertex
 10
8392558.72
 20
5686649.88
 30
0.0
  0
SEQEND
  5
1C55
330
0
100
AcDbEntity
  8
KTJZ_L_0
  0
POLYLINE
  5
1C56
330
43
100
AcDbEntity
  8
KTJZ_L_0
370
    18
100
AcDb2dPolyline
 66
     1
 10
0.0
 20
0.0
 30
0.0
 70
   128
  0
VERTEX
  5
1C57
330
1C56
100
AcDbEntity
  8
KTJZ_L_0
100
AcDbVertex
100
AcDb2dVertex
 10
8392558.72
 20
5686649.88
 30
0.0
  0
VERTEX
  5
1C58
330
1C56
100
AcDbEntity
  8
KTJZ_L_0
100
AcDbVertex
100
AcDb2dVertex
 10
8392576.289999999
 20
5686649.259999999
 30
0.0
  0
SEQEND
  5
1C59
330
0
100
AcDbEntity
  8
KTJZ_L_0
  0
POLYLINE
  5
1C5A
330
43
100
AcDbEntity
  8
KTJZ_L_0
370
    18
100
AcDb2dPolyline
 66
     1
 10
0.0
 20
0.0
 30
0.0
 70
   128
  0
VERTEX
  5
1C5B
330
1C5A
100
AcDbEntity
  8
KTJZ_L_0
100
AcDbVertex
100
AcDb2dVertex
 10
8392576.289999999
 20
5686649.259999999
 30
0.0
  0
VERTEX
  5
1C5C
330
1C5A
100
AcDbEntity
  8
KTJZ_L_0
100
AcDbVertex
100
AcDb2dVertex
 10
8392580.140000001
 20
5686650.339999999
 30
0.0
  0
SEQEND
  5
1C5D
330
0
100
AcDbEntity
  8
KTJZ_L_0
  0
POLYLINE
  5
1C5E
330
43
100
AcDbEntity
  8
KTJZ_L_0
370
    18
100
AcDb2dPolyline
 66
     1
 10
0.0
 20
0.0
 30
0.0
 70
   128
  0
VERTEX
  5
1C5F
330
1C5E
100
AcDbEntity
  8
KTJZ_L_0
100
AcDbVertex
100
AcDb2dVertex
 10
8392580.140000001
 20
5686650.339999999
 30
0.0
  0
VERTEX
  5
1C60
330
1C5E
100
AcDbEntity
  8
KTJZ_L_0
100
AcDbVertex
100
AcDb2dVertex
 10
8392582.349999999
 20
5686652.22
 30
0.0
  0
SEQEND
  5
1C61
330
0
100
AcDbEntity
  8
KTJZ_L_0
  0
POLYLINE
  5
1C62
330
43
100
AcDbEntity
  8
KTJZ_L_0
370
    18
100
AcDb2dPolyline
 66
     1
 10
0.0
 20
0.0
 30
0.0
 70
   128
  0
VERTEX
  5
1C63
330
1C62
100
AcDbEntity
  8
KTJZ_L_0
100
AcDbVertex
100
AcDb2dVertex
 10
8392582.349999999
 20
5686652.22
 30
0.0
  0
VERTEX
  5
1C64
330
1C62
100
AcDbEntity
  8
KTJZ_L_0
100
AcDbVertex
100
AcDb2dVertex
 10
8392584.44
 20
5686655.299999999
 30
0.0
  0
SEQEND
  5
1C65
330
0
100
AcDbEntity
  8
KTJZ_L_0
  0
POLYLINE
  5
1C66
330
43
100
AcDbEntity
  8
KTJZ_L_0
370
    18
100
AcDb2dPolyline
 66
     1
 10
0.0
 20
0.0
 30
0.0
 70
   128
  0
VERTEX
  5
1C67
330
1C66
100
AcDbEntity
  8
KTJZ_L_0
100
AcDbVertex
100
AcDb2dVertex
 10
8392584.44
 20
5686655.299999999
 30
0.0
  0
VERTEX
  5
1C68
330
1C66
100
AcDbEntity
  8
KTJZ_L_0
100
AcDbVertex
100
AcDb2dVertex
 10
8392585.75
 20
5686659.099999999
 30
0.0
  0
SEQEND
  5
1C69
330
0
100
AcDbEntity
  8
KTJZ_L_0
  0
POLYLINE
  5
1C6A
330
43
100
AcDbEntity
  8
KTJZ_L_0
370
    18
100
AcDb2dPolyline
 66
     1
 10
0.0
 20
0.0
 30
0.0
 70
   128
  0
VERTEX
  5
1C6B
330
1C6A
100
AcDbEntity
  8
KTJZ_L_0
100
AcDbVertex
100
AcDb2dVertex
 10
8392585.75
 20
5686659.099999999
 30
0.0
  0
VERTEX
  5
1C6C
330
1C6A
100
AcDbEntity
  8
KTJZ_L_0
100
AcDbVertex
100
AcDb2dVertex
 10
8392586.339999997
 20
5686663.23
 30
0.0
  0
SEQEND
  5
1C6D
330
0
100
AcDbEntity
  8
KTJZ_L_0
  0
POLYLINE
  5
1C6E
330
43
100
AcDbEntity
  8
KTJZ_L_0
370
    18
100
AcDb2dPolyline
 66
     1
 10
0.0
 20
0.0
 30
0.0
 70
   128
  0
VERTEX
  5
1C6F
330
1C6E
100
AcDbEntity
  8
KTJZ_L_0
100
AcDbVertex
100
AcDb2dVertex
 10
8392586.339999997
 20
5686663.23
 30
0.0
  0
VERTEX
  5
1C70
330
1C6E
100
AcDbEntity
  8
KTJZ_L_0
100
AcDbVertex
100
AcDb2dVertex
 10
8392586.61
 20
5686668.059999999
 30
0.0
  0
SEQEND
  5
1C71
330
0
100
AcDbEntity
  8
KTJZ_L_0
  0
POLYLINE
  5
1C72
330
43
100
AcDbEntity
  8
KTJZ_L_0
370
    18
100
AcDb2dPolyline
 66
     1
 10
0.0
 20
0.0
 30
0.0
 70
   128
  0
VERTEX
  5
1C73
330
1C72
100
AcDbEntity
  8
KTJZ_L_0
100
AcDbVertex
100
AcDb2dVertex
 10
8392589.050000001
 20
5686667.55
 30
0.0
  0
VERTEX
  5
1C74
330
1C72
100
AcDbEntity
  8
KTJZ_L_0
100
AcDbVertex
100
AcDb2dVertex
 10
8392588.89
 20
5686662.899999999
 30
0.0
  0
SEQEND
  5
1C75
330
0
100
AcDbEntity
  8
KTJZ_L_0
  0
POLYLINE
  5
1C76
330
43
100
AcDbEntity
  8
KTJZ_L_0
370
    18
100
AcDb2dPolyline
 66
     1
 10
0.0
 20
0.0
 30
0.0
 70
   128
  0
VERTEX
  5
1C77
330
1C76
100
AcDbEntity
  8
KTJZ_L_0
100
AcDbVertex
100
AcDb2dVertex
 10
8392588.89
 20
5686662.899999999
 30
0.0
  0
VERTEX
  5
1C78
330
1C76
100
AcDbEntity
  8
KTJZ_L_0
100
AcDbVertex
100
AcDb2dVertex
 10
8392588.56
 20
5686657.009999999
 30
0.0
  0
SEQEND
  5
1C79
330
0
100
AcDbEntity
  8
KTJZ_L_0
  0
POLYLINE
  5
1C7A
330
43
100
AcDbEntity
  8
KTJZ_L_0
370
    18
100
AcDb2dPolyline
 66
     1
 10
0.0
 20
0.0
 30
0.0
 70
   128
  0
VERTEX
  5
1C7B
330
1C7A
100
AcDbEntity
  8
KTJZ_L_0
100
AcDbVertex
100
AcDb2dVertex
 10
8392588.56
 20
5686657.009999999
 30
0.0
  0
VERTEX
  5
1C7C
330
1C7A
100
AcDbEntity
  8
KTJZ_L_0
100
AcDbVertex
100
AcDb2dVertex
 10
8392588.579999999
 20
5686652.62
 30
0.0
  0
SEQEND
  5
1C7D
330
0
100
AcDbEntity
  8
KTJZ_L_0
  0
POLYLINE
  5
1C7E
330
43
100
AcDbEntity
  8
KTJZ_L_0
370
    18
100
AcDb2dPolyline
 66
     1
 10
0.0
 20
0.0
 30
0.0
 70
   128
  0
VERTEX
  5
1C7F
330
1C7E
100
AcDbEntity
  8
KTJZ_L_0
100
AcDbVertex
100
AcDb2dVertex
 10
8392588.579999999
 20
5686652.62
 30
0.0
  0
VERTEX
  5
1C80
330
1C7E
100
AcDbEntity
  8
KTJZ_L_0
100
AcDbVertex
100
AcDb2dVertex
 10
8392589.759999998
 20
5686650.66
 30
0.0
  0
SEQEND
  5
1C81
330
0
100
AcDbEntity
  8
KTJZ_L_0
  0
POLYLINE
  5
1C82
330
43
100
AcDbEntity
  8
KTJZ_L_0
370
    18
100
AcDb2dPolyline
 66
     1
 10
0.0
 20
0.0
 30
0.0
 70
   128
  0
VERTEX
  5
1C83
330
1C82
100
AcDbEntity
  8
KTJZ_L_0
100
AcDbVertex
100
AcDb2dVertex
 10
8392589.759999998
 20
5686650.66
 30
0.0
  0
VERTEX
  5
1C84
330
1C82
100
AcDbEntity
  8
KTJZ_L_0
100
AcDbVertex
100
AcDb2dVertex
 10
8392592.3
 20
5686649.570000001
 30
0.0
  0
SEQEND
  5
1C85
330
0
100
AcDbEntity
  8
KTJZ_L_0
  0
POLYLINE
  5
1C86
330
43
100
AcDbEntity
  8
KTJZ_L_0
370
    18
100
AcDb2dPolyline
 66
     1
 10
0.0
 20
0.0
 30
0.0
 70
   128
  0
VERTEX
  5
1C87
330
1C86
100
AcDbEntity
  8
KTJZ_L_0
100
AcDbVertex
100
AcDb2dVertex
 10
8392592.3
 20
5686649.570000001
 30
0.0
  0
VERTEX
  5
1C88
330
1C86
100
AcDbEntity
  8
KTJZ_L_0
100
AcDbVertex
100
AcDb2dVertex
 10
8392600.719999999
 20
5686649.509999998
 30
0.0
  0
SEQEND
  5
1C89
330
0
100
AcDbEntity
  8
KTJZ_L_0
  0
POLYLINE
  5
1C8A
330
43
100
AcDbEntity
  8
KTJZ_L_0
370
    18
100
AcDb2dPolyline
 66
     1
 10
0.0
 20
0.0
 30
0.0
 70
   128
  0
VERTEX
  5
1C8B
330
1C8A
100
AcDbEntity
  8
KTJZ_L_0
100
AcDbVertex
100
AcDb2dVertex
 10
8392600.719999999
 20
5686649.509999998
 30
0.0
  0
VERTEX
  5
1C8C
330
1C8A
100
AcDbEntity
  8
KTJZ_L_0
100
AcDbVertex
100
AcDb2dVertex
 10
8392609.589999995
 20
5686649.319999999
 30
0.0
  0
SEQEND
  5
1C8D
330
0
100
AcDbEntity
  8
KTJZ_L_0
  0
POLYLINE
  5
1C8E
330
43
100
AcDbEntity
  8
KTJZ_L_0
370
    18
100
AcDb2dPolyline
 66
     1
 10
0.0
 20
0.0
 30
0.0
 70
   128
  0
VERTEX
  5
1C8F
330
1C8E
100
AcDbEntity
  8
KTJZ_L_0
100
AcDbVertex
100
AcDb2dVertex
 10
8392609.589999995
 20
5686649.319999999
 30
0.0
  0
VERTEX
  5
1C90
330
1C8E
100
AcDbEntity
  8
KTJZ_L_0
100
AcDbVertex
100
AcDb2dVertex
 10
8392617.72
 20
5686649.0
 30
0.0
  0
SEQEND
  5
1C91
330
0
100
AcDbEntity
  8
KTJZ_L_0
  0
POLYLINE
  5
1C92
330
43
100
AcDbEntity
  8
KTJZ_L_0
370
    18
100
AcDb2dPolyline
 66
     1
 10
0.0
 20
0.0
 30
0.0
 70
   128
  0
VERTEX
  5
1C93
330
1C92
100
AcDbEntity
  8
KTJZ_L_0
100
AcDbVertex
100
AcDb2dVertex
 10
8392617.259999996
 20
5686646.09
 30
0.0
  0
VERTEX
  5
1C94
330
1C92
100
AcDbEntity
  8
KTJZ_L_0
100
AcDbVertex
100
AcDb2dVertex
 10
8392608.66
 20
5686646.33
 30
0.0
  0
SEQEND
  5
1C95
330
0
100
AcDbEntity
  8
KTJZ_L_0
  0
POLYLINE
  5
1C96
330
43
100
AcDbEntity
  8
KTJZ_L_0
370
    18
100
AcDb2dPolyline
 66
     1
 10
0.0
 20
0.0
 30
0.0
 70
   128
  0
VERTEX
  5
1C97
330
1C96
100
AcDbEntity
  8
KTJZ_L_0
100
AcDbVertex
100
AcDb2dVertex
 10
8392608.66
 20
5686646.33
 30
0.0
  0
VERTEX
  5
1C98
330
1C96
100
AcDbEntity
  8
KTJZ_L_0
100
AcDbVertex
100
AcDb2dVertex
 10
8392600.130000001
 20
5686646.56
 30
0.0
  0
SEQEND
  5
1C99
330
0
100
AcDbEntity
  8
KTJZ_L_0
  0
POLYLINE
  5
1C9A
330
43
100
AcDbEntity
  8
KTJZ_L_0
370
    18
100
AcDb2dPolyline
 66
     1
 10
0.0
 20
0.0
 30
0.0
 70
   128
  0
VERTEX
  5
1C9B
330
1C9A
100
AcDbEntity
  8
KTJZ_L_0
100
AcDbVertex
100
AcDb2dVertex
 10
8392600.130000001
 20
5686646.56
 30
0.0
  0
VERTEX
  5
1C9C
330
1C9A
100
AcDbEntity
  8
KTJZ_L_0
100
AcDbVertex
100
AcDb2dVertex
 10
8392590.399999999
 20
5686646.53
 30
0.0
  0
SEQEND
  5
1C9D
330
0
100
AcDbEntity
  8
KTJZ_L_0
  0
POLYLINE
  5
1C9E
330
43
100
AcDbEntity
  8
KTJZ_L_0
370
    18
100
AcDb2dPolyline
 66
     1
 10
0.0
 20
0.0
 30
0.0
 70
   128
  0
VERTEX
  5
1C9F
330
1C9E
100
AcDbEntity
  8
KTJZ_L_0
100
AcDbVertex
100
AcDb2dVertex
 10
8392590.399999999
 20
5686646.53
 30
0.0
  0
VERTEX
  5
1CA0
330
1C9E
100
AcDbEntity
  8
KTJZ_L_0
100
AcDbVertex
100
AcDb2dVertex
 10
8392587.32
 20
5686646.579999999
 30
0.0
  0
SEQEND
  5
1CA1
330
0
100
AcDbEntity
  8
KTJZ_L_0
  0
POLYLINE
  5
1CA2
330
43
100
AcDbEntity
  8
KTJZ_L_0
370
    18
100
AcDb2dPolyline
 66
     1
 10
0.0
 20
0.0
 30
0.0
 70
   128
  0
VERTEX
  5
1CA3
330
1CA2
100
AcDbEntity
  8
KTJZ_L_0
100
AcDbVertex
100
AcDb2dVertex
 10
8392587.32
 20
5686646.579999999
 30
0.0
  0
VERTEX
  5
1CA4
330
1CA2
100
AcDbEntity
  8
KTJZ_L_0
100
AcDbVertex
100
AcDb2dVertex
 10
8392583.570000002
 20
5686646.67
 30
0.0
  0
SEQEND
  5
1CA5
330
0
100
AcDbEntity
  8
KTJZ_L_0
  0
POLYLINE
  5
1CA6
330
43
100
AcDbEntity
  8
KTJZ_L_0
370
    18
100
AcDb2dPolyline
 66
     1
 10
0.0
 20
0.0
 30
0.0
 70
   128
  0
VERTEX
  5
1CA7
330
1CA6
100
AcDbEntity
  8
KTJZ_L_0
100
AcDbVertex
100
AcDb2dVertex
 10
8392583.570000002
 20
5686646.67
 30
0.0
  0
VERTEX
  5
1CA8
330
1CA6
100
AcDbEntity
  8
KTJZ_L_0
100
AcDbVertex
100
AcDb2dVertex
 10
8392576.960000001
 20
5686646.38
 30
0.0
  0
SEQEND
  5
1CA9
330
0
100
AcDbEntity
  8
KTJZ_L_0
  0
POLYLINE
  5
1CAA
330
43
100
AcDbEntity
  8
KTJZ_L_0
370
    18
100
AcDb2dPolyline
 66
     1
 10
0.0
 20
0.0
 30
0.0
 70
   128
  0
VERTEX
  5
1CAB
330
1CAA
100
AcDbEntity
  8
KTJZ_L_0
100
AcDbVertex
100
AcDb2dVertex
 10
8392576.960000001
 20
5686646.38
 30
0.0
  0
VERTEX
  5
1CAC
330
1CAA
100
AcDbEntity
  8
KTJZ_L_0
100
AcDbVertex
100
AcDb2dVertex
 10
8392559.11
 20
5686647.11
 30
0.0
  0
SEQEND
  5
1CAD
330
0
100
AcDbEntity
  8
KTJZ_L_0
  0
POLYLINE
  5
1CAE
330
43
100
AcDbEntity
  8
KTJZ_L_0
370
    18
100
AcDb2dPolyline
 66
     1
 10
0.0
 20
0.0
 30
0.0
 70
   128
  0
VERTEX
  5
1CAF
330
1CAE
100
AcDbEntity
  8
KTJZ_L_0
100
AcDbVertex
100
AcDb2dVertex
 10
8392559.11
 20
5686647.11
 30
0.0
  0
VERTEX
  5
1CB0
330
1CAE
100
AcDbEntity
  8
KTJZ_L_0
100
AcDbVertex
100
AcDb2dVertex
 10
8392553.519999999
 20
5686647.399999998
 30
0.0
  0
SEQEND
  5
1CB1
330
0
100
AcDbEntity
  8
KTJZ_L_0
  0
POLYLINE
  5
1CB2
330
43
100
AcDbEntity
  8
KTJZ_L_0
370
    18
100
AcDb2dPolyline
 66
     1
 10
0.0
 20
0.0
 30
0.0
 70
   128
  0
VERTEX
  5
1CB3
330
1CB2
100
AcDbEntity
  8
KTJZ_L_0
100
AcDbVertex
100
AcDb2dVertex
 10
8392553.519999999
 20
5686647.399999998
 30
0.0
  0
VERTEX
  5
1CB4
330
1CB2
100
AcDbEntity
  8
KTJZ_L_0
100
AcDbVertex
100
AcDb2dVertex
 10
8392540.17
 20
5686648.059999998
 30
0.0
  0
SEQEND
  5
1CB5
330
0
100
AcDbEntity
  8
KTJZ_L_0
  0
POLYLINE
  5
1CB6
330
43
100
AcDbEntity
  8
KTJZ_L_0
370
    18
100
AcDb2dPolyline
 66
     1
 10
0.0
 20
0.0
 30
0.0
 70
   128
  0
VERTEX
  5
1CB7
330
1CB6
100
AcDbEntity
  8
KTJZ_L_0
100
AcDbVertex
100
AcDb2dVertex
 10
8392540.17
 20
5686648.059999998
 30
0.0
  0
VERTEX
  5
1CB8
330
1CB6
100
AcDbEntity
  8
KTJZ_L_0
100
AcDbVertex
100
AcDb2dVertex
 10
8392531.390000002
 20
5686648.96
 30
0.0
  0
SEQEND
  5
1CB9
330
0
100
AcDbEntity
  8
KTJZ_L_0
  0
POLYLINE
  5
1CBA
330
43
100
AcDbEntity
  8
KTJZ_L_0
370
    18
100
AcDb2dPolyline
 66
     1
 10
0.0
 20
0.0
 30
0.0
 70
   128
  0
VERTEX
  5
1CBB
330
1CBA
100
AcDbEntity
  8
KTJZ_L_0
100
AcDbVertex
100
AcDb2dVertex
 10
8392589.766
 20
5686686.456000001
 30
0.0
  0
VERTEX
  5
1CBC
330
1CBA
100
AcDbEntity
  8
KTJZ_L_0
100
AcDbVertex
100
AcDb2dVertex
 10
8392589.050000001
 20
5686667.55
 30
0.0
  0
SEQEND
  5
1CBD
330
0
100
AcDbEntity
  8
KTJZ_L_0
  0
POLYLINE
  5
1CBE
330
43
100
AcDbEntity
  8
KTJZ_L_0
370
    18
100
AcDb2dPolyline
 66
     1
 10
0.0
 20
0.0
 30
0.0
 70
   128
  0
VERTEX
  5
1CBF
330
1CBE
100
AcDbEntity
  8
KTJZ_L_0
100
AcDbVertex
100
AcDb2dVertex
 10
8392586.61
 20
5686668.059999999
 30
0.0
  0
VERTEX
  5
1CC0
330
1CBE
100
AcDbEntity
  8
KTJZ_L_0
100
AcDbVertex
100
AcDb2dVertex
 10
8392586.800000001
 20
5686686.823000001
 30
0.0
  0
SEQEND
  5
1CC1
330
0
100
AcDbEntity
  8
KTJZ_L_0
  0
POLYLINE
  5
1CC2
330
43
100
AcDbEntity
  8
KTJZ_L_0
370
    18
100
AcDb2dPolyline
 66
     1
 10
0.0
 20
0.0
 30
0.0
 70
   128
  0
VERTEX
  5
1CC3
330
1CC2
100
AcDbEntity
  8
KTJZ_L_0
100
AcDbVertex
100
AcDb2dVertex
 10
8392586.61
 20
5686668.059999999
 30
0.0
  0
VERTEX
  5
1CC4
330
1CC2
100
AcDbEntity
  8
KTJZ_L_0
100
AcDbVertex
100
AcDb2dVertex
 10
8392589.050000001
 20
5686667.55
 30
0.0
  0
SEQEND
  5
1CC5
330
0
100
AcDbEntity
  8
KTJZ_L_0
  0
ARC
  5
1CC6
330
43
100
AcDbEntity
  8
KTOK_L_1
  6
Continuous
 62
     7
370
    18
100
AcDbCircle
 10
8392581.242528766
 20
5686705.841577821
 30
0.0
 40
1.999999997799999
100
AcDbArc
 50
7.590780096799999
 51
51.6651523856
  0
ARC
  5
1CC7
330
43
100
AcDbEntity
  8
KTOK_L_1
  6
Continuous
 62
     7
370
    18
100
AcDbCircle
 10
8392585.204063406
 20
5686705.817123899
 30
0.0
 40
2.0000000065
100
AcDbArc
 50
127.6275014534
 51
171.7018735395
  0
CIRCLE
  5
1CC8
330
43
100
AcDbEntity
  8
KTOK_L_1
  6
Continuous
 62
     7
370
    18
100
AcDbCircle
 10
8392580.92
 20
5686706.12
 30
0.0
 40
0.169999999925
  0
CIRCLE
  5
1CC9
330
43
100
AcDbEntity
  8
KTOK_L_1
  6
Continuous
 62
     7
370
    18
100
AcDbCircle
 10
8392585.779999995
 20
5686706.089999999
 30
0.0
 40
0.169999999925
  0
POLYLINE
  5
1CCA
330
43
100
AcDbEntity
  8
KTOK_L_1
  6
Continuous
 62
     7
370
    18
100
AcDb2dPolyline
 66
     1
 10
0.0
 20
0.0
 30
0.0
 70
   128
  0
VERTEX
  5
1CCB
330
1CCA
100
AcDbEntity
  8
KTOK_L_1
100
AcDbVertex
100
AcDb2dVertex
 10
8392580.92
 20
5686706.12
 30
0.0
  0
VERTEX
  5
1CCC
330
1CCA
100
AcDbEntity
  8
KTOK_L_1
100
AcDbVertex
100
AcDb2dVertex
 10
8392582.725011905
 20
5686706.108857951
 30
0.0
  0
SEQEND
  5
1CCD
330
0
100
AcDbEntity
  8
KTOK_L_1
  0
POLYLINE
  5
1CCE
330
43
100
AcDbEntity
  8
KTOK_L_1
  6
Continuous
 62
     7
370
    18
100
AcDb2dPolyline
 66
     1
 10
0.0
 20
0.0
 30
0.0
 70
   128
  0
VERTEX
  5
1CCF
330
1CCE
100
AcDbEntity
  8
KTOK_L_1
100
AcDbVertex
100
AcDb2dVertex
 10
8392582.47501667
 20
5686706.11040113
 30
0.0
  0
VERTEX
  5
1CD0
330
1CCE
100
AcDbEntity
  8
KTOK_L_1
100
AcDbVertex
100
AcDb2dVertex
 10
8392583.974988092
 20
5686706.101142049
 30
0.0
  0
SEQEND
  5
1CD1
330
0
100
AcDbEntity
  8
KTOK_L_1
  0
POLYLINE
  5
1CD2
330
43
100
AcDbEntity
  8
KTOK_L_1
  6
Continuous
 62
     7
370
    18
100
AcDb2dPolyline
 66
     1
 10
0.0
 20
0.0
 30
0.0
 70
   128
  0
VERTEX
  5
1CD3
330
1CD2
100
AcDbEntity
  8
KTOK_L_1
100
AcDbVertex
100
AcDb2dVertex
 10
8392583.974988092
 20
5686706.101142049
 30
0.0
  0
VERTEX
  5
1CD4
330
1CD2
100
AcDbEntity
  8
KTOK_L_1
100
AcDbVertex
100
AcDb2dVertex
 10
8392585.779999995
 20
5686706.089999999
 30
0.0
  0
SEQEND
  5
1CD5
330
0
100
AcDbEntity
  8
KTOK_L_1
  0
CIRCLE
  5
1CD6
330
43
100
AcDbEntity
  8
KTOK_L_4
  6
Continuous
 62
     7
370
    35
100
AcDbCircle
 10
8392561.659672729
 20
5686706.299935792
 30
0.0
 40
0.169999999925
  0
CIRCLE
  5
1CD7
330
43
100
AcDbEntity
  8
KTOK_L_4
  6
Continuous
 62
     7
370
    35
100
AcDbCircle
 10
8392568.079781817
 20
5686706.239957195
 30
0.0
 40
0.169999999925
  0
CIRCLE
  5
1CD8
330
43
100
AcDbEntity
  8
KTOK_L_4
  6
Continuous
 62
     7
370
    35
100
AcDbCircle
 10
8392574.499890908
 20
5686706.179978596
 30
0.0
 40
0.169999999925
  0
CIRCLE
  5
1CD9
330
43
100
AcDbEntity
  8
KTOK_L_4
  6
Continuous
 62
     7
370
    35
100
AcDbCircle
 10
8392585.852676999
 20
5686713.589647864
 30
0.0
 40
0.169999999925
  0
CIRCLE
  5
1CDA
330
43
100
AcDbEntity
  8
KTOK_L_4
  6
Continuous
 62
     7
370
    35
100
AcDbCircle
 10
8392585.918897498
 20
5686720.423039885
 30
0.0
 40
0.169999999925
  0
CIRCLE
  5
1CDB
330
43
100
AcDbEntity
  8
KTOK_L_4
  6
Continuous
 62
     7
370
    35
100
AcDbCircle
 10
8392585.985117998
 20
5686727.256431908
 30
0.0
 40
0.169999999925
  0
CIRCLE
  5
1CDC
330
43
100
AcDbEntity
  8
KTOK_L_4
  6
Continuous
 62
     7
370
    35
100
AcDbCircle
 10
8392586.051338497
 20
5686734.08982393
 30
0.0
 40
0.169999999925
  0
CIRCLE
  5
1CDD
330
43
100
AcDbEntity
  8
KTOK_L_4
  6
Continuous
 62
     7
370
    35
100
AcDbCircle
 10
8392586.117558995
 20
5686740.923215954
 30
0.0
 40
0.169999999925
  0
CIRCLE
  5
1CDE
330
43
100
AcDbEntity
  8
KTOK_L_4
  6
Continuous
 62
     7
370
    35
100
AcDbCircle
 10
8392586.183779496
 20
5686747.756607977
 30
0.0
 40
0.169999999925
  0
CIRCLE
  5
1CDF
330
43
100
AcDbEntity
  8
KTOK_L_4
  6
Continuous
 62
     7
370
    35
100
AcDbCircle
 10
8392554.686558113
 20
5686760.140359589
 30
0.0
 40
0.169999999925
  0
CIRCLE
  5
1CE0
330
43
100
AcDbEntity
  8
KTOK_L_4
  6
Continuous
 62
     7
370
    35
100
AcDbCircle
 10
8392554.611335532
 20
5686752.458879648
 30
0.0
 40
0.169999999925
  0
CIRCLE
  5
1CE1
330
43
100
AcDbEntity
  8
KTOK_L_4
  6
Continuous
 62
     7
370
    35
100
AcDbCircle
 10
8392554.536112942
 20
5686744.777399704
 30
0.0
 40
0.169999999925
  0
CIRCLE
  5
1CE2
330
43
100
AcDbEntity
  8
KTOK_L_4
  6
Continuous
 62
     7
370
    35
100
AcDbCircle
 10
8392554.460890353
 20
5686737.095919765
 30
0.0
 40
0.169999999925
  0
CIRCLE
  5
1CE3
330
43
100
AcDbEntity
  8
KTOK_L_4
  6
Continuous
 62
     7
370
    35
100
AcDbCircle
 10
8392554.385667764
 20
5686729.414439823
 30
0.0
 40
0.169999999925
  0
CIRCLE
  5
1CE4
330
43
100
AcDbEntity
  8
KTOK_L_4
  6
Continuous
 62
     7
370
    35
100
AcDbCircle
 10
8392554.310445179
 20
5686721.732959884
 30
0.0
 40
0.169999999925
  0
CIRCLE
  5
1CE5
330
43
100
AcDbEntity
  8
KTOK_L_4
  6
Continuous
 62
     7
370
    35
100
AcDbCircle
 10
8392554.235222593
 20
5686714.051479943
 30
0.0
 40
0.169999999925
  0
POLYLINE
  5
1CE6
330
43
100
AcDbEntity
  8
KTOK_L_4
  6
Continuous
 62
     7
370
    35
100
AcDb2dPolyline
 66
     1
 10
0.0
 20
0.0
 30
0.0
 70
   128
  0
VERTEX
  5
1CE7
330
1CE6
100
AcDbEntity
  8
KTOK_L_4
100
AcDbVertex
100
AcDb2dVertex
 10
8392554.160000001
 20
5686706.370000002
 30
0.0
  0
VERTEX
  5
1CE8
330
1CE6
100
AcDbEntity
  8
KTOK_L_4
100
AcDbVertex
100
AcDb2dVertex
 10
8392561.659672729
 20
5686706.299935792
 30
0.0
  0
SEQEND
  5
1CE9
330
0
100
AcDbEntity
  8
KTOK_L_4
  0
POLYLINE
  5
1CEA
330
43
100
AcDbEntity
  8
KTOK_L_4
  6
Continuous
 62
     7
370
    35
100
AcDb2dPolyline
 66
     1
 10
0.0
 20
0.0
 30
0.0
 70
   128
  0
VERTEX
  5
1CEB
330
1CEA
100
AcDbEntity
  8
KTOK_L_4
100
AcDbVertex
100
AcDb2dVertex
 10
8392561.659672729
 20
5686706.299935792
 30
0.0
  0
VERTEX
  5
1CEC
330
1CEA
100
AcDbEntity
  8
KTOK_L_4
100
AcDbVertex
100
AcDb2dVertex
 10
8392568.079781817
 20
5686706.239957195
 30
0.0
  0
SEQEND
  5
1CED
330
0
100
AcDbEntity
  8
KTOK_L_4
  0
POLYLINE
  5
1CEE
330
43
100
AcDbEntity
  8
KTOK_L_4
  6
Continuous
 62
     7
370
    35
100
AcDb2dPolyline
 66
     1
 10
0.0
 20
0.0
 30
0.0
 70
   128
  0
VERTEX
  5
1CEF
330
1CEE
100
AcDbEntity
  8
KTOK_L_4
100
AcDbVertex
100
AcDb2dVertex
 10
8392568.079781817
 20
5686706.239957195
 30
0.0
  0
VERTEX
  5
1CF0
330
1CEE
100
AcDbEntity
  8
KTOK_L_4
100
AcDbVertex
100
AcDb2dVertex
 10
8392574.499890908
 20
5686706.179978596
 30
0.0
  0
SEQEND
  5
1CF1
330
0
100
AcDbEntity
  8
KTOK_L_4
  0
POLYLINE
  5
1CF2
330
43
100
AcDbEntity
  8
KTOK_L_4
  6
Continuous
 62
     7
370
    35
100
AcDb2dPolyline
 66
     1
 10
0.0
 20
0.0
 30
0.0
 70
   128
  0
VERTEX
  5
1CF3
330
1CF2
100
AcDbEntity
  8
KTOK_L_4
100
AcDbVertex
100
AcDb2dVertex
 10
8392574.499890908
 20
5686706.179978596
 30
0.0
  0
VERTEX
  5
1CF4
330
1CF2
100
AcDbEntity
  8
KTOK_L_4
100
AcDbVertex
100
AcDb2dVertex
 10
8392580.92
 20
5686706.119999999
 30
0.0
  0
SEQEND
  5
1CF5
330
0
100
AcDbEntity
  8
KTOK_L_4
  0
POLYLINE
  5
1CF6
330
43
100
AcDbEntity
  8
KTOK_L_4
  6
Continuous
 62
     7
370
    35
100
AcDb2dPolyline
 66
     1
 10
0.0
 20
0.0
 30
0.0
 70
   128
  0
VERTEX
  5
1CF7
330
1CF6
100
AcDbEntity
  8
KTOK_L_4
100
AcDbVertex
100
AcDb2dVertex
 10
8392585.779999995
 20
5686706.089999999
 30
0.0
  0
VERTEX
  5
1CF8
330
1CF6
100
AcDbEntity
  8
KTOK_L_4
100
AcDbVertex
100
AcDb2dVertex
 10
8392585.852676999
 20
5686713.589647864
 30
0.0
  0
SEQEND
  5
1CF9
330
0
100
AcDbEntity
  8
KTOK_L_4
  0
POLYLINE
  5
1CFA
330
43
100
AcDbEntity
  8
KTOK_L_4
  6
Continuous
 62
     7
370
    35
100
AcDb2dPolyline
 66
     1
 10
0.0
 20
0.0
 30
0.0
 70
   128
  0
VERTEX
  5
1CFB
330
1CFA
100
AcDbEntity
  8
KTOK_L_4
100
AcDbVertex
100
AcDb2dVertex
 10
8392585.852676999
 20
5686713.589647864
 30
0.0
  0
VERTEX
  5
1CFC
330
1CFA
100
AcDbEntity
  8
KTOK_L_4
100
AcDbVertex
100
AcDb2dVertex
 10
8392585.918897498
 20
5686720.423039885
 30
0.0
  0
SEQEND
  5
1CFD
330
0
100
AcDbEntity
  8
KTOK_L_4
  0
POLYLINE
  5
1CFE
330
43
100
AcDbEntity
  8
KTOK_L_4
  6
Continuous
 62
     7
370
    35
100
AcDb2dPolyline
 66
     1
 10
0.0
 20
0.0
 30
0.0
 70
   128
  0
VERTEX
  5
1CFF
330
1CFE
100
AcDbEntity
  8
KTOK_L_4
100
AcDbVertex
100
AcDb2dVertex
 10
8392585.918897498
 20
5686720.423039885
 30
0.0
  0
VERTEX
  5
1D00
330
1CFE
100
AcDbEntity
  8
KTOK_L_4
100
AcDbVertex
100
AcDb2dVertex
 10
8392585.985117998
 20
5686727.256431908
 30
0.0
  0
SEQEND
  5
1D01
330
0
100
AcDbEntity
  8
KTOK_L_4
  0
POLYLINE
  5
1D02
330
43
100
AcDbEntity
  8
KTOK_L_4
  6
Continuous
 62
     7
370
    35
100
AcDb2dPolyline
 66
     1
 10
0.0
 20
0.0
 30
0.0
 70
   128
  0
VERTEX
  5
1D03
330
1D02
100
AcDbEntity
  8
KTOK_L_4
100
AcDbVertex
100
AcDb2dVertex
 10
8392585.985117998
 20
5686727.256431908
 30
0.0
  0
VERTEX
  5
1D04
330
1D02
100
AcDbEntity
  8
KTOK_L_4
100
AcDbVertex
100
AcDb2dVertex
 10
8392586.051338497
 20
5686734.08982393
 30
0.0
  0
SEQEND
  5
1D05
330
0
100
AcDbEntity
  8
KTOK_L_4
  0
POLYLINE
  5
1D06
330
43
100
AcDbEntity
  8
KTOK_L_4
  6
Continuous
 62
     7
370
    35
100
AcDb2dPolyline
 66
     1
 10
0.0
 20
0.0
 30
0.0
 70
   128
  0
VERTEX
  5
1D07
330
1D06
100
AcDbEntity
  8
KTOK_L_4
100
AcDbVertex
100
AcDb2dVertex
 10
8392586.051338497
 20
5686734.08982393
 30
0.0
  0
VERTEX
  5
1D08
330
1D06
100
AcDbEntity
  8
KTOK_L_4
100
AcDbVertex
100
AcDb2dVertex
 10
8392586.117558995
 20
5686740.923215954
 30
0.0
  0
SEQEND
  5
1D09
330
0
100
AcDbEntity
  8
KTOK_L_4
  0
POLYLINE
  5
1D0A
330
43
100
AcDbEntity
  8
KTOK_L_4
  6
Continuous
 62
     7
370
    35
100
AcDb2dPolyline
 66
     1
 10
0.0
 20
0.0
 30
0.0
 70
   128
  0
VERTEX
  5
1D0B
330
1D0A
100
AcDbEntity
  8
KTOK_L_4
100
AcDbVertex
100
AcDb2dVertex
 10
8392586.117558995
 20
5686740.923215954
 30
0.0
  0
VERTEX
  5
1D0C
330
1D0A
100
AcDbEntity
  8
KTOK_L_4
100
AcDbVertex
100
AcDb2dVertex
 10
8392586.183779496
 20
5686747.756607977
 30
0.0
  0
SEQEND
  5
1D0D
330
0
100
AcDbEntity
  8
KTOK_L_4
  0
POLYLINE
  5
1D0E
330
43
100
AcDbEntity
  8
KTOK_L_4
  6
Continuous
 62
     7
370
    35
100
AcDb2dPolyline
 66
     1
 10
0.0
 20
0.0
 30
0.0
 70
   128
  0
VERTEX
  5
1D0F
330
1D0E
100
AcDbEntity
  8
KTOK_L_4
100
AcDbVertex
100
AcDb2dVertex
 10
8392586.183779496
 20
5686747.756607977
 30
0.0
  0
VERTEX
  5
1D10
330
1D0E
100
AcDbEntity
  8
KTOK_L_4
100
AcDbVertex
100
AcDb2dVertex
 10
8392586.249999995
 20
5686754.590000001
 30
0.0
  0
SEQEND
  5
1D11
330
0
100
AcDbEntity
  8
KTOK_L_4
  0
POLYLINE
  5
1D12
330
43
100
AcDbEntity
  8
KTOK_L_4
  6
Continuous
 62
     7
370
    35
100
AcDb2dPolyline
 66
     1
 10
0.0
 20
0.0
 30
0.0
 70
   128
  0
VERTEX
  5
1D13
330
1D12
100
AcDbEntity
  8
KTOK_L_4
100
AcDbVertex
100
AcDb2dVertex
 10
8392554.759999995
 20
5686767.639999999
 30
0.0
  0
VERTEX
  5
1D14
330
1D12
100
AcDbEntity
  8
KTOK_L_4
100
AcDbVertex
100
AcDb2dVertex
 10
8392554.686558113
 20
5686760.140359589
 30
0.0
  0
SEQEND
  5
1D15
330
0
100
AcDbEntity
  8
KTOK_L_4
  0
POLYLINE
  5
1D16
330
43
100
AcDbEntity
  8
KTOK_L_4
  6
Continuous
 62
     7
370
    35
100
AcDb2dPolyline
 66
     1
 10
0.0
 20
0.0
 30
0.0
 70
   128
  0
VERTEX
  5
1D17
330
1D16
100
AcDbEntity
  8
KTOK_L_4
100
AcDbVertex
100
AcDb2dVertex
 10
8392554.686558113
 20
5686760.140359589
 30
0.0
  0
VERTEX
  5
1D18
330
1D16
100
AcDbEntity
  8
KTOK_L_4
100
AcDbVertex
100
AcDb2dVertex
 10
8392554.611335532
 20
5686752.458879648
 30
0.0
  0
SEQEND
  5
1D19
330
0
100
AcDbEntity
  8
KTOK_L_4
  0
POLYLINE
  5
1D1A
330
43
100
AcDbEntity
  8
KTOK_L_4
  6
Continuous
 62
     7
370
    35
100
AcDb2dPolyline
 66
     1
 10
0.0
 20
0.0
 30
0.0
 70
   128
  0
VERTEX
  5
1D1B
330
1D1A
100
AcDbEntity
  8
KTOK_L_4
100
AcDbVertex
100
AcDb2dVertex
 10
8392554.611335532
 20
5686752.458879648
 30
0.0
  0
VERTEX
  5
1D1C
330
1D1A
100
AcDbEntity
  8
KTOK_L_4
100
AcDbVertex
100
AcDb2dVertex
 10
8392554.536112942
 20
5686744.777399704
 30
0.0
  0
SEQEND
  5
1D1D
330
0
100
AcDbEntity
  8
KTOK_L_4
  0
POLYLINE
  5
1D1E
330
43
100
AcDbEntity
  8
KTOK_L_4
  6
Continuous
 62
     7
370
    35
100
AcDb2dPolyline
 66
     1
 10
0.0
 20
0.0
 30
0.0
 70
   128
  0
VERTEX
  5
1D1F
330
1D1E
100
AcDbEntity
  8
KTOK_L_4
100
AcDbVertex
100
AcDb2dVertex
 10
8392554.536112942
 20
5686744.777399704
 30
0.0
  0
VERTEX
  5
1D20
330
1D1E
100
AcDbEntity
  8
KTOK_L_4
100
AcDbVertex
100
AcDb2dVertex
 10
8392554.460890353
 20
5686737.095919765
 30
0.0
  0
SEQEND
  5
1D21
330
0
100
AcDbEntity
  8
KTOK_L_4
  0
POLYLINE
  5
1D22
330
43
100
AcDbEntity
  8
KTOK_L_4
  6
Continuous
 62
     7
370
    35
100
AcDb2dPolyline
 66
     1
 10
0.0
 20
0.0
 30
0.0
 70
   128
  0
VERTEX
  5
1D23
330
1D22
100
AcDbEntity
  8
KTOK_L_4
100
AcDbVertex
100
AcDb2dVertex
 10
8392554.460890353
 20
5686737.095919765
 30
0.0
  0
VERTEX
  5
1D24
330
1D22
100
AcDbEntity
  8
KTOK_L_4
100
AcDbVertex
100
AcDb2dVertex
 10
8392554.385667764
 20
5686729.414439823
 30
0.0
  0
SEQEND
  5
1D25
330
0
100
AcDbEntity
  8
KTOK_L_4
  0
POLYLINE
  5
1D26
330
43
100
AcDbEntity
  8
KTOK_L_4
  6
Continuous
 62
     7
370
    35
100
AcDb2dPolyline
 66
     1
 10
0.0
 20
0.0
 30
0.0
 70
   128
  0
VERTEX
  5
1D27
330
1D26
100
AcDbEntity
  8
KTOK_L_4
100
AcDbVertex
100
AcDb2dVertex
 10
8392554.385667764
 20
5686729.414439823
 30
0.0
  0
VERTEX
  5
1D28
330
1D26
100
AcDbEntity
  8
KTOK_L_4
100
AcDbVertex
100
AcDb2dVertex
 10
8392554.310445179
 20
5686721.732959884
 30
0.0
  0
SEQEND
  5
1D29
330
0
100
AcDbEntity
  8
KTOK_L_4
  0
POLYLINE
  5
1D2A
330
43
100
AcDbEntity
  8
KTOK_L_4
  6
Continuous
 62
     7
370
    35
100
AcDb2dPolyline
 66
     1
 10
0.0
 20
0.0
 30
0.0
 70
   128
  0
VERTEX
  5
1D2B
330
1D2A
100
AcDbEntity
  8
KTOK_L_4
100
AcDbVertex
100
AcDb2dVertex
 10
8392554.310445179
 20
5686721.732959884
 30
0.0
  0
VERTEX
  5
1D2C
330
1D2A
100
AcDbEntity
  8
KTOK_L_4
100
AcDbVertex
100
AcDb2dVertex
 10
8392554.235222593
 20
5686714.051479943
 30
0.0
  0
SEQEND
  5
1D2D
330
0
100
AcDbEntity
  8
KTOK_L_4
  0
POLYLINE
  5
1D2E
330
43
100
AcDbEntity
  8
KTOK_L_4
  6
Continuous
 62
     7
370
    35
100
AcDb2dPolyline
 66
     1
 10
0.0
 20
0.0
 30
0.0
 70
   128
  0
VERTEX
  5
1D2F
330
1D2E
100
AcDbEntity
  8
KTOK_L_4
100
AcDbVertex
100
AcDb2dVertex
 10
8392554.235222593
 20
5686714.051479943
 30
0.0
  0
VERTEX
  5
1D30
330
1D2E
100
AcDbEntity
  8
KTOK_L_4
100
AcDbVertex
100
AcDb2dVertex
 10
8392554.160000006
 20
5686706.370000002
 30
0.0
  0
SEQEND
  5
1D31
330
0
100
AcDbEntity
  8
KTOK_L_4
  0
CIRCLE
  5
1D3A
330
43
100
AcDbEntity
  8
OSN_POZIOMA_L_1
  6
Continuous
 62
     7
370
    18
100
AcDbCircle
 10
8392553.460000943
 20
5686650.679960819
 30
0.0
 40
15.002565116622
  0
CIRCLE
  5
1D3B
330
43
100
AcDbEntity
  8
RTPW_T_0
  6
Continuous
 62
     7
370
    18
100
AcDbCircle
 10
8392592.072000001
 20
5686729.599000001
 30
0.0
 40
0.044999999925
  0
CIRCLE
  5
1D3C
330
43
100
AcDbEntity
  8
RTPW_T_0
  6
Continuous
 62
     7
370
    18
100
AcDbCircle
 10
8392591.855
 20
5686706.685
 30
0.0
 40
0.044999999925
  0
CIRCLE
  5
1D3D
330
43
100
AcDbEntity
  8
RTPW_T_0
  6
Continuous
 62
     7
370
    18
100
AcDbCircle
 10
8392594.911000001
 20
5686682.642
 30
0.0
 40
0.044999999925
  0
CIRCLE
  5
1D3E
330
43
100
AcDbEntity
  8
RTPW_T_0
  6
Continuous
 62
     7
370
    18
100
AcDbCircle
 10
8392567.640000001
 20
5686688.52
 30
0.0
 40
0.044999999925
  0
CIRCLE
  5
1D3F
330
43
100
AcDbEntity
  8
RTPW_T_0
  6
Continuous
 62
     7
370
    18
100
AcDbCircle
 10
8392605.893543509
 20
5686649.14519085
 30
0.0
 40
0.044999999925
  0
CIRCLE
  5
1D40
330
43
100
AcDbEntity
  8
RTPW_T_0
  6
Continuous
 62
     7
370
    18
100
AcDbCircle
 10
8392536.678156771
 20
5686687.395182221
 30
0.0
 40
0.044999999925
  0
CIRCLE
  5
1D41
330
43
100
AcDbEntity
  8
RTPW_T_0
  6
Continuous
 62
     7
370
    18
100
AcDbCircle
 10
8392536.11214583
 20
5686652.455133899
 30
0.0
 40
0.044999999925
  0
CIRCLE
  5
1D42
330
43
100
AcDbEntity
  8
RTPW_T_0
  6
Continuous
 62
     7
370
    18
100
AcDbCircle
 10
8392591.928968858
 20
5686632.583955481
 30
0.0
 40
0.044999999925
  0
CIRCLE
  5
1D43
330
43
100
AcDbEntity
  8
RTPW_T_0
  6
Continuous
 62
     7
370
    18
100
AcDbCircle
 10
8392584.617960737
 20
5686643.778312609
 30
0.0
 40
0.044999999925
  0
CIRCLE
  5
1D44
330
43
100
AcDbEntity
  8
RTPW_T_0
  6
Continuous
 62
     7
370
    18
100
AcDbCircle
 10
8392565.155708119
 20
5686644.625738649
 30
0.0
 40
0.044999999925
  0
CIRCLE
  5
1D45
330
43
100
AcDbEntity
  8
RTPW_T_0
  6
Continuous
 62
     7
370
    18
100
AcDbCircle
 10
8392574.859965138
 20
5686629.377523209
 30
0.0
 40
0.044999999925
  0
CIRCLE
  5
1D46
330
43
100
AcDbEntity
  8
RTPW_T_0
  6
Continuous
 62
     7
370
    18
100
AcDbCircle
 10
8392543.818631631
 20
5686624.61424131
 30
0.0
 40
0.044999999925
  0
CIRCLE
  5
1D47
330
43
100
AcDbEntity
  8
RTPW_T_0
  6
Continuous
 62
     7
370
    18
100
AcDbCircle
 10
8392554.75
 20
5686663.249999999
 30
0.0
 40
0.044999999925
  0
CIRCLE
  5
1D48
330
43
100
AcDbEntity
  8
RTPW_T_0
  6
Continuous
 62
     7
370
    18
100
AcDbCircle
 10
8392582.02
 20
5686667.469999999
 30
0.0
 40
0.044999999925
  0
CIRCLE
  5
1D49
330
43
100
AcDbEntity
  8
RTPW_T_0
  6
Continuous
 62
     7
370
    18
100
AcDbCircle
 10
8392583.48
 20
5686677.860000002
 30
0.0
 40
0.044999999925
  0
CIRCLE
  5
1D4A
330
43
100
AcDbEntity
  8
RTPW_T_0
  6
Continuous
 62
     7
370
    18
100
AcDbCircle
 10
8392568.429999997
 20
5686679.96
 30
0.0
 40
0.044999999925
  0
CIRCLE
  5
1D4B
330
43
100
AcDbEntity
  8
RTPW_T_0
  6
Continuous
 62
     7
370
    18
100
AcDbCircle
 10
8392557.339999996
 20
5686680.439999999
 30
0.0
 40
0.044999999925
  0
CIRCLE
  5
1D4C
330
43
100
AcDbEntity
  8
RTPW_T_0
  6
Continuous
 62
     7
370
    18
100
AcDbCircle
 10
8392555.24
 20
5686686.85
 30
0.0
 40
0.044999999925
  0
CIRCLE
  5
1D4D
330
43
100
AcDbEntity
  8
RTPW_T_0
  6
Continuous
 62
     7
370
    18
100
AcDbCircle
 10
8392581.259999998
 20
5686702.870000001
 30
0.0
 40
0.044999999925
  0
CIRCLE
  5
1D4E
330
43
100
AcDbEntity
  8
RTPW_T_0
  6
Continuous
 62
     7
370
    18
100
AcDbCircle
 10
8392568.800000001
 20
5686703.429999998
 30
0.0
 40
0.044999999925
  0
CIRCLE
  5
1D4F
330
43
100
AcDbEntity
  8
RTPW_T_0
  6
Continuous
 62
     7
370
    18
100
AcDbCircle
 10
8392555.719999998
 20
5686702.91
 30
0.0
 40
0.044999999925
  0
CIRCLE
  5
1D50
330
43
100
AcDbEntity
  8
RTPW_T_1
  6
Continuous
 62
     7
370
    18
100
AcDbCircle
 10
8392530.81
 20
5686650.399999998
 30
0.0
 40
0.044999999925
  0
POLYLINE
  5
1D51
330
43
100
AcDbEntity
  8
SUOG_L_0
  6
Continuous
 62
    52
370
    18
100
AcDb2dPolyline
 66
     1
 10
0.0
 20
0.0
 30
0.0
 70
   128
  0
VERTEX
  5
1D52
330
1D51
100
AcDbEntity
  8
SUOG_L_0
100
AcDbVertex
100
AcDb2dVertex
 10
8392558.759999998
 20
5686652.269999999
 30
0.0
  0
VERTEX
  5
1D53
330
1D51
100
AcDbEntity
  8
SUOG_L_0
100
AcDbVertex
100
AcDb2dVertex
 10
8392558.21
 20
5686645.379999999
 30
0.0
  0
SEQEND
  5
1D54
330
0
100
AcDbEntity
  8
SUOG_L_0
  0
POLYLINE
  5
1D55
330
43
100
AcDbEntity
  8
SUOT_L_1
  6
Continuous
 62
    30
370
    18
100
AcDb2dPolyline
 66
     1
 10
0.0
 20
0.0
 30
0.0
 70
   128
  0
VERTEX
  5
1D56
330
1D55
100
AcDbEntity
  8
SUOT_L_1
100
AcDbVertex
100
AcDb2dVertex
 10
8392527.588948148
 20
5686654.60687247
 30
0.0
  0
VERTEX
  5
1D57
330
1D55
100
AcDbEntity
  8
SUOT_L_1
100
AcDbVertex
100
AcDb2dVertex
 10
8392527.354694301
 20
5686648.70053671
 30
0.0
  0
SEQEND
  5
1D58
330
0
100
AcDbEntity
  8
SUOT_L_1
  0
POLYLINE
  5
1D59
330
43
100
AcDbEntity
  8
SUPE_L_3
  6
Continuous
 62
     1
370
    18
100
AcDb2dPolyline
 66
     1
 10
0.0
 20
0.0
 30
0.0
 70
   128
  0
VERTEX
  5
1D5A
330
1D59
100
AcDbEntity
  8
SUPE_L_3
100
AcDbVertex
100
AcDb2dVertex
 10
8392580.480000001
 20
5686655.62
 30
0.0
  0
VERTEX
  5
1D5B
330
1D59
100
AcDbEntity
  8
SUPE_L_3
100
AcDbVertex
100
AcDb2dVertex
 10
8392580.439999999
 20
5686655.63
 30
0.0
  0
SEQEND
  5
1D5C
330
0
100
AcDbEntity
  8
SUPE_L_3
  0
POLYLINE
  5
1D5D
330
43
100
AcDbEntity
  8
SUPE_L_3
  6
Continuous
 62
     1
370
    18
100
AcDb2dPolyline
 66
     1
 10
0.0
 20
0.0
 30
0.0
 70
   128
  0
VERTEX
  5
1D5E
330
1D5D
100
AcDbEntity
  8
SUPE_L_3
100
AcDbVertex
100
AcDb2dVertex
 10
8392580.439999999
 20
5686655.63
 30
0.0
  0
VERTEX
  5
1D5F
330
1D5D
100
AcDbEntity
  8
SUPE_L_3
100
AcDbVertex
100
AcDb2dVertex
 10
8392580.15
 20
5686655.6
 30
0.0
  0
SEQEND
  5
1D60
330
0
100
AcDbEntity
  8
SUPE_L_3
  0
POLYLINE
  5
1D61
330
43
100
AcDbEntity
  8
SUPE_L_3
  6
Continuous
 62
     1
370
    18
100
AcDb2dPolyline
 66
     1
 10
0.0
 20
0.0
 30
0.0
 70
   128
  0
VERTEX
  5
1D62
330
1D61
100
AcDbEntity
  8
SUPE_L_3
100
AcDbVertex
100
AcDb2dVertex
 10
8392580.15
 20
5686655.6
 30
0.0
  0
VERTEX
  5
1D63
330
1D61
100
AcDbEntity
  8
SUPE_L_3
100
AcDbVertex
100
AcDb2dVertex
 10
8392580.060000002
 20
5686654.349999998
 30
0.0
  0
SEQEND
  5
1D64
330
0
100
AcDbEntity
  8
SUPE_L_3
  0
POLYLINE
  5
1D65
330
43
100
AcDbEntity
  8
SUPE_L_3
  6
Continuous
 62
     1
370
    18
100
AcDb2dPolyline
 66
     1
 10
0.0
 20
0.0
 30
0.0
 70
   128
  0
VERTEX
  5
1D66
330
1D65
100
AcDbEntity
  8
SUPE_L_3
100
AcDbVertex
100
AcDb2dVertex
 10
8392580.060000002
 20
5686654.349999998
 30
0.0
  0
VERTEX
  5
1D67
330
1D65
100
AcDbEntity
  8
SUPE_L_3
100
AcDbVertex
100
AcDb2dVertex
 10
8392579.869999996
 20
5686653.96
 30
0.0
  0
SEQEND
  5
1D68
330
0
100
AcDbEntity
  8
SUPE_L_3
  0
POLYLINE
  5
1D69
330
43
100
AcDbEntity
  8
SUPE_L_3
  6
Continuous
 62
     1
370
    18
100
AcDb2dPolyline
 66
     1
 10
0.0
 20
0.0
 30
0.0
 70
   128
  0
VERTEX
  5
1D6A
330
1D69
100
AcDbEntity
  8
SUPE_L_3
100
AcDbVertex
100
AcDb2dVertex
 10
8392580.060000002
 20
5686654.349999998
 30
0.0
  0
VERTEX
  5
1D6B
330
1D69
100
AcDbEntity
  8
SUPE_L_3
100
AcDbVertex
100
AcDb2dVertex
 10
8392580.259999997
 20
5686653.96
 30
0.0
  0
SEQEND
  5
1D6C
330
0
100
AcDbEntity
  8
SUPE_L_3
  0
POLYLINE
  5
1D6D
330
43
100
AcDbEntity
  8
SUPE_L_3
  6
Continuous
 62
     1
370
    18
100
AcDb2dPolyline
 66
     1
 10
0.0
 20
0.0
 30
0.0
 70
   128
  0
VERTEX
  5
1D6E
330
1D6D
100
AcDbEntity
  8
SUPE_L_3
100
AcDbVertex
100
AcDb2dVertex
 10
8392580.259999997
 20
5686653.96
 30
0.0
  0
VERTEX
  5
1D6F
330
1D6D
100
AcDbEntity
  8
SUPE_L_3
100
AcDbVertex
100
AcDb2dVertex
 10
8392590.039999999
 20
5686653.72
 30
0.0
  0
SEQEND
  5
1D70
330
0
100
AcDbEntity
  8
SUPE_L_3
  0
POLYLINE
  5
1D71
330
43
100
AcDbEntity
  8
SUPE_L_3
  6
Continuous
 62
     1
370
    18
100
AcDb2dPolyline
 66
     1
 10
0.0
 20
0.0
 30
0.0
 70
   128
  0
VERTEX
  5
1D72
330
1D71
100
AcDbEntity
  8
SUPE_L_3
100
AcDbVertex
100
AcDb2dVertex
 10
8392590.039999999
 20
5686653.72
 30
0.0
  0
VERTEX
  5
1D73
330
1D71
100
AcDbEntity
  8
SUPE_L_3
100
AcDbVertex
100
AcDb2dVertex
 10
8392606.119999999
 20
5686652.759999999
 30
0.0
  0
SEQEND
  5
1D74
330
0
100
AcDbEntity
  8
SUPE_L_3
  0
POLYLINE
  5
1D75
330
43
100
AcDbEntity
  8
SUPE_L_3
  6
Continuous
 62
     1
370
    18
100
AcDb2dPolyline
 66
     1
 10
0.0
 20
0.0
 30
0.0
 70
   128
  0
VERTEX
  5
1D76
330
1D75
100
AcDbEntity
  8
SUPE_L_3
100
AcDbVertex
100
AcDb2dVertex
 10
8392606.119999999
 20
5686652.759999999
 30
0.0
  0
VERTEX
  5
1D77
330
1D75
100
AcDbEntity
  8
SUPE_L_3
100
AcDbVertex
100
AcDb2dVertex
 10
8392623.480000001
 20
5686651.860000002
 30
0.0
  0
SEQEND
  5
1D78
330
0
100
AcDbEntity
  8
SUPE_L_3
  0
POLYLINE
  5
1D79
330
43
100
AcDbEntity
  8
SUPE_L_3
  6
Continuous
 62
     1
370
    18
100
AcDb2dPolyline
 66
     1
 10
0.0
 20
0.0
 30
0.0
 70
   128
  0
VERTEX
  5
1D7A
330
1D79
100
AcDbEntity
  8
SUPE_L_3
100
AcDbVertex
100
AcDb2dVertex
 10
8392579.869999996
 20
5686653.96
 30
0.0
  0
VERTEX
  5
1D7B
330
1D79
100
AcDbEntity
  8
SUPE_L_3
100
AcDbVertex
100
AcDb2dVertex
 10
8392575.7
 20
5686654.15
 30
0.0
  0
SEQEND
  5
1D7C
330
0
100
AcDbEntity
  8
SUPE_L_3
  0
POLYLINE
  5
1D7D
330
43
100
AcDbEntity
  8
SUPE_L_3
  6
Continuous
 62
     1
370
    18
100
AcDb2dPolyline
 66
     1
 10
0.0
 20
0.0
 30
0.0
 70
   128
  0
VERTEX
  5
1D7E
330
1D7D
100
AcDbEntity
  8
SUPE_L_3
100
AcDbVertex
100
AcDb2dVertex
 10
8392575.7
 20
5686654.15
 30
0.0
  0
VERTEX
  5
1D7F
330
1D7D
100
AcDbEntity
  8
SUPE_L_3
100
AcDbVertex
100
AcDb2dVertex
 10
8392562.589999997
 20
5686654.799999998
 30
0.0
  0
SEQEND
  5
1D80
330
0
100
AcDbEntity
  8
SUPE_L_3
  0
POLYLINE
  5
1D81
330
43
100
AcDbEntity
  8
SUPE_L_3
  6
Continuous
 62
     1
370
    18
100
AcDb2dPolyline
 66
     1
 10
0.0
 20
0.0
 30
0.0
 70
   128
  0
VERTEX
  5
1D82
330
1D81
100
AcDbEntity
  8
SUPE_L_3
100
AcDbVertex
100
AcDb2dVertex
 10
8392562.589999997
 20
5686654.799999998
 30
0.0
  0
VERTEX
  5
1D83
330
1D81
100
AcDbEntity
  8
SUPE_L_3
100
AcDbVertex
100
AcDb2dVertex
 10
8392547.58
 20
5686654.950000001
 30
0.0
  0
SEQEND
  5
1D84
330
0
100
AcDbEntity
  8
SUPE_L_3
  0
POLYLINE
  5
1D85
330
43
100
AcDbEntity
  8
SUPE_L_3
  6
Continuous
 62
     1
370
    18
100
AcDb2dPolyline
 66
     1
 10
0.0
 20
0.0
 30
0.0
 70
   128
  0
VERTEX
  5
1D86
330
1D85
100
AcDbEntity
  8
SUPE_L_3
100
AcDbVertex
100
AcDb2dVertex
 10
8392547.58
 20
5686654.950000001
 30
0.0
  0
VERTEX
  5
1D87
330
1D85
100
AcDbEntity
  8
SUPE_L_3
100
AcDbVertex
100
AcDb2dVertex
 10
8392546.820000001
 20
5686654.17
 30
0.0
  0
SEQEND
  5
1D88
330
0
100
AcDbEntity
  8
SUPE_L_3
  0
POLYLINE
  5
1D89
330
43
100
AcDbEntity
  8
SUPE_L_3
  6
Continuous
 62
     1
370
    18
100
AcDb2dPolyline
 66
     1
 10
0.0
 20
0.0
 30
0.0
 70
   128
  0
VERTEX
  5
1D8A
330
1D89
100
AcDbEntity
  8
SUPE_L_3
100
AcDbVertex
100
AcDb2dVertex
 10
8392546.820000001
 20
5686654.17
 30
0.0
  0
VERTEX
  5
1D8B
330
1D89
100
AcDbEntity
  8
SUPE_L_3
100
AcDbVertex
100
AcDb2dVertex
 10
8392546.1
 20
5686654.039999999
 30
0.0
  0
SEQEND
  5
1D8C
330
0
100
AcDbEntity
  8
SUPE_L_3
  0
POLYLINE
  5
1D8D
330
43
100
AcDbEntity
  8
SUPE_L_3
  6
Continuous
 62
     1
370
    18
100
AcDb2dPolyline
 66
     1
 10
0.0
 20
0.0
 30
0.0
 70
   128
  0
VERTEX
  5
1D8E
330
1D8D
100
AcDbEntity
  8
SUPE_L_3
100
AcDbVertex
100
AcDb2dVertex
 10
8392546.1
 20
5686654.039999999
 30
0.0
  0
VERTEX
  5
1D8F
330
1D8D
100
AcDbEntity
  8
SUPE_L_3
100
AcDbVertex
100
AcDb2dVertex
 10
8392545.919999999
 20
5686654.519999998
 30
0.0
  0
SEQEND
  5
1D90
330
0
100
AcDbEntity
  8
SUPE_L_3
  0
POLYLINE
  5
1D91
330
43
100
AcDbEntity
  8
SUPE_L_3
  6
Continuous
 62
     1
370
    18
100
AcDb2dPolyline
 66
     1
 10
0.0
 20
0.0
 30
0.0
 70
   128
  0
VERTEX
  5
1D92
330
1D91
100
AcDbEntity
  8
SUPE_L_3
100
AcDbVertex
100
AcDb2dVertex
 10
8392592.410000002
 20
5686747.879999999
 30
0.0
  0
VERTEX
  5
1D93
330
1D91
100
AcDbEntity
  8
SUPE_L_3
100
AcDbVertex
100
AcDb2dVertex
 10
8392592.269999999
 20
5686730.75
 30
0.0
  0
SEQEND
  5
1D94
330
0
100
AcDbEntity
  8
SUPE_L_3
  0
POLYLINE
  5
1D95
330
43
100
AcDbEntity
  8
SUPE_L_3
  6
Continuous
 62
     1
370
    18
100
AcDb2dPolyline
 66
     1
 10
0.0
 20
0.0
 30
0.0
 70
   128
  0
VERTEX
  5
1D96
330
1D95
100
AcDbEntity
  8
SUPE_L_3
100
AcDbVertex
100
AcDb2dVertex
 10
8392592.269999999
 20
5686730.75
 30
0.0
  0
VERTEX
  5
1D97
330
1D95
100
AcDbEntity
  8
SUPE_L_3
100
AcDbVertex
100
AcDb2dVertex
 10
8392591.98
 20
5686706.71
 30
0.0
  0
SEQEND
  5
1D98
330
0
100
AcDbEntity
  8
SUPE_L_3
  0
POLYLINE
  5
1D99
330
43
100
AcDbEntity
  8
SUPE_L_3
  6
Continuous
 62
     1
370
    18
100
AcDb2dPolyline
 66
     1
 10
0.0
 20
0.0
 30
0.0
 70
   128
  0
VERTEX
  5
1D9A
330
1D99
100
AcDbEntity
  8
SUPE_L_3
100
AcDbVertex
100
AcDb2dVertex
 10
8392591.98
 20
5686706.71
 30
0.0
  0
VERTEX
  5
1D9B
330
1D99
100
AcDbEntity
  8
SUPE_L_3
100
AcDbVertex
100
AcDb2dVertex
 10
8392591.289999998
 20
5686668.660000001
 30
0.0
  0
SEQEND
  5
1D9C
330
0
100
AcDbEntity
  8
SUPE_L_3
  0
POLYLINE
  5
1D9D
330
43
100
AcDbEntity
  8
SUPE_L_3
  6
Continuous
 62
     1
370
    18
100
AcDb2dPolyline
 66
     1
 10
0.0
 20
0.0
 30
0.0
 70
   128
  0
VERTEX
  5
1D9E
330
1D9D
100
AcDbEntity
  8
SUPE_L_3
100
AcDbVertex
100
AcDb2dVertex
 10
8392591.289999998
 20
5686668.660000001
 30
0.0
  0
VERTEX
  5
1D9F
330
1D9D
100
AcDbEntity
  8
SUPE_L_3
100
AcDbVertex
100
AcDb2dVertex
 10
8392591.1
 20
5686653.660000001
 30
0.0
  0
SEQEND
  5
1DA0
330
0
100
AcDbEntity
  8
SUPE_L_3
  0
POLYLINE
  5
1DA1
330
43
100
AcDbEntity
  8
SUPE_L_3
  6
Continuous
 62
     1
370
    18
100
AcDb2dPolyline
 66
     1
 10
0.0
 20
0.0
 30
0.0
 70
   128
  0
VERTEX
  5
1DA2
330
1DA1
100
AcDbEntity
  8
SUPE_L_3
100
AcDbVertex
100
AcDb2dVertex
 10
8392591.1
 20
5686653.660000001
 30
0.0
  0
VERTEX
  5
1DA3
330
1DA1
100
AcDbEntity
  8
SUPE_L_3
100
AcDbVertex
100
AcDb2dVertex
 10
8392590.910000002
 20
5686651.47
 30
0.0
  0
SEQEND
  5
1DA4
330
0
100
AcDbEntity
  8
SUPE_L_3
  0
POLYLINE
  5
1DA5
330
43
100
AcDbEntity
  8
SUPE_L_3
  6
Continuous
 62
     1
370
    18
100
AcDb2dPolyline
 66
     1
 10
0.0
 20
0.0
 30
0.0
 70
   128
  0
VERTEX
  5
1DA6
330
1DA5
100
AcDbEntity
  8
SUPE_L_3
100
AcDbVertex
100
AcDb2dVertex
 10
8392580.243654968
 20
5686687.62961973
 30
0.0
  0
VERTEX
  5
1DA7
330
1DA5
100
AcDbEntity
  8
SUPE_L_3
100
AcDbVertex
100
AcDb2dVertex
 10
8392583.916754304
 20
5686691.022014351
 30
0.0
  0
SEQEND
  5
1DA8
330
0
100
AcDbEntity
  8
SUPE_L_3
  0
POLYLINE
  5
1DA9
330
43
100
AcDbEntity
  8
SUPE_L_3
  6
Continuous
 62
     1
370
    18
100
AcDb2dPolyline
 66
     1
 10
0.0
 20
0.0
 30
0.0
 70
   128
  0
VERTEX
  5
1DAA
330
1DA9
100
AcDbEntity
  8
SUPE_L_3
100
AcDbVertex
100
AcDb2dVertex
 10
8392582.585778022
 20
5686690.473377736
 30
0.0
  0
VERTEX
  5
1DAB
330
1DA9
100
AcDbEntity
  8
SUPE_L_3
100
AcDbVertex
100
AcDb2dVertex
 10
8392583.659637351
 20
5686690.784546726
 30
0.0
  0
SEQEND
  5
1DAC
330
0
100
AcDbEntity
  8
SUPE_L_3
  0
POLYLINE
  5
1DAD
330
43
100
AcDbEntity
  8
SUPE_L_3
  6
Continuous
 62
     1
370
    18
100
AcDb2dPolyline
 66
     1
 10
0.0
 20
0.0
 30
0.0
 70
   128
  0
VERTEX
  5
1DAE
330
1DAD
100
AcDbEntity
  8
SUPE_L_3
100
AcDbVertex
100
AcDb2dVertex
 10
8392583.264256947
 20
5686689.738757868
 30
0.0
  0
VERTEX
  5
1DAF
330
1DAD
100
AcDbEntity
  8
SUPE_L_3
100
AcDbVertex
100
AcDb2dVertex
 10
8392583.659637351
 20
5686690.784546726
 30
0.0
  0
SEQEND
  5
1DB0
330
0
100
AcDbEntity
  8
SUPE_L_3
  0
POLYLINE
  5
1DB1
330
43
100
AcDbEntity
  8
SUPE_L_3
  6
Continuous
 62
     1
370
    18
100
AcDb2dPolyline
 66
     1
 10
0.0
 20
0.0
 30
0.0
 70
   128
  0
VERTEX
  5
1DB2
330
1DB1
100
AcDbEntity
  8
SUPE_L_3
100
AcDbVertex
100
AcDb2dVertex
 10
8392607.841275863
 20
5686713.11818185
 30
0.0
  0
VERTEX
  5
1DB3
330
1DB1
100
AcDbEntity
  8
SUPE_L_3
100
AcDbVertex
100
AcDb2dVertex
 10
8392611.5143752
 20
5686716.510576468
 30
0.0
  0
SEQEND
  5
1DB4
330
0
100
AcDbEntity
  8
SUPE_L_3
  0
POLYLINE
  5
1DB5
330
43
100
AcDbEntity
  8
SUPE_L_3
  6
Continuous
 62
     1
370
    18
100
AcDb2dPolyline
 66
     1
 10
0.0
 20
0.0
 30
0.0
 70
   128
  0
VERTEX
  5
1DB6
330
1DB5
100
AcDbEntity
  8
SUPE_L_3
100
AcDbVertex
100
AcDb2dVertex
 10
8392608.098392818
 20
5686713.355649472
 30
0.0
  0
VERTEX
  5
1DB7
330
1DB5
100
AcDbEntity
  8
SUPE_L_3
100
AcDbVertex
100
AcDb2dVertex
 10
8392608.493773222
 20
5686714.401438329
 30
0.0
  0
SEQEND
  5
1DB8
330
0
100
AcDbEntity
  8
SUPE_L_3
  0
POLYLINE
  5
1DB9
330
43
100
AcDbEntity
  8
SUPE_L_3
  6
Continuous
 62
     1
370
    18
100
AcDb2dPolyline
 66
     1
 10
0.0
 20
0.0
 30
0.0
 70
   128
  0
VERTEX
  5
1DBA
330
1DB9
100
AcDbEntity
  8
SUPE_L_3
100
AcDbVertex
100
AcDb2dVertex
 10
8392608.098392818
 20
5686713.355649472
 30
0.0
  0
VERTEX
  5
1DBB
330
1DB9
100
AcDbEntity
  8
SUPE_L_3
100
AcDbVertex
100
AcDb2dVertex
 10
8392609.172252148
 20
5686713.666818462
 30
0.0
  0
SEQEND
  5
1DBC
330
0
100
AcDbEntity
  8
SUPE_L_3
  0
POLYLINE
  5
1DBD
330
43
100
AcDbEntity
  8
SUPE_L_3
  6
Continuous
 62
     1
370
    18
100
AcDb2dPolyline
 66
     1
 10
0.0
 20
0.0
 30
0.0
 70
   128
  0
VERTEX
  5
1DBE
330
1DBD
100
AcDbEntity
  8
SUPE_L_3
100
AcDbVertex
100
AcDb2dVertex
 10
8392580.297402325
 20
5686687.381361792
 30
0.0
  0
VERTEX
  5
1DBF
330
1DBD
100
AcDbEntity
  8
SUPE_L_3
100
AcDbVertex
100
AcDb2dVertex
 10
8392580.36
 20
5686687.379999999
 30
0.0
  0
SEQEND
  5
1DC0
330
0
100
AcDbEntity
  8
SUPE_L_3
  0
POLYLINE
  5
1DC1
330
43
100
AcDbEntity
  8
SUPE_L_3
  6
Continuous
 62
     1
370
    18
100
AcDb2dPolyline
 66
     1
 10
0.0
 20
0.0
 30
0.0
 70
   128
  0
VERTEX
  5
1DC2
330
1DC1
100
AcDbEntity
  8
SUPE_L_3
100
AcDbVertex
100
AcDb2dVertex
 10
8392580.36
 20
5686687.379999999
 30
0.0
  0
VERTEX
  5
1DC3
330
1DC1
100
AcDbEntity
  8
SUPE_L_3
100
AcDbVertex
100
AcDb2dVertex
 10
8392579.98
 20
5686686.299999999
 30
0.0
  0
SEQEND
  5
1DC4
330
0
100
AcDbEntity
  8
SUPE_L_3
  0
POLYLINE
  5
1DC5
330
43
100
AcDbEntity
  8
SUPE_L_3
  6
Continuous
 62
     1
370
    18
100
AcDb2dPolyline
 66
     1
 10
0.0
 20
0.0
 30
0.0
 70
   128
  0
VERTEX
  5
1DC6
330
1DC5
100
AcDbEntity
  8
SUPE_L_3
100
AcDbVertex
100
AcDb2dVertex
 10
8392579.98
 20
5686686.299999999
 30
0.0
  0
VERTEX
  5
1DC7
330
1DC5
100
AcDbEntity
  8
SUPE_L_3
100
AcDbVertex
100
AcDb2dVertex
 10
8392579.619999995
 20
5686659.82
 30
0.0
  0
SEQEND
  5
1DC8
330
0
100
AcDbEntity
  8
SUPE_L_3
  0
POLYLINE
  5
1DC9
330
43
100
AcDbEntity
  8
SUPE_L_3
  6
Continuous
 62
     1
370
    18
100
AcDb2dPolyline
 66
     1
 10
0.0
 20
0.0
 30
0.0
 70
   128
  0
VERTEX
  5
1DCA
330
1DC9
100
AcDbEntity
  8
SUPE_L_3
100
AcDbVertex
100
AcDb2dVertex
 10
8392579.619999995
 20
5686659.82
 30
0.0
  0
VERTEX
  5
1DCB
330
1DC9
100
AcDbEntity
  8
SUPE_L_3
100
AcDbVertex
100
AcDb2dVertex
 10
8392578.529999996
 20
5686658.829999999
 30
0.0
  0
SEQEND
  5
1DCC
330
0
100
AcDbEntity
  8
SUPE_L_3
  0
POLYLINE
  5
1DCD
330
43
100
AcDbEntity
  8
SUPE_L_3
  6
Continuous
 62
     1
370
    18
100
AcDb2dPolyline
 66
     1
 10
0.0
 20
0.0
 30
0.0
 70
   128
  0
VERTEX
  5
1DCE
330
1DCD
100
AcDbEntity
  8
SUPE_L_3
100
AcDbVertex
100
AcDb2dVertex
 10
8392578.529999996
 20
5686658.829999999
 30
0.0
  0
VERTEX
  5
1DCF
330
1DCD
100
AcDbEntity
  8
SUPE_L_3
100
AcDbVertex
100
AcDb2dVertex
 10
8392578.529999996
 20
5686655.749999999
 30
0.0
  0
SEQEND
  5
1DD0
330
0
100
AcDbEntity
  8
SUPE_L_3
  0
POLYLINE
  5
1DD1
330
43
100
AcDbEntity
  8
SUPE_L_3
  6
Continuous
 62
     1
370
    18
100
AcDb2dPolyline
 66
     1
 10
0.0
 20
0.0
 30
0.0
 70
   128
  0
VERTEX
  5
1DD2
330
1DD1
100
AcDbEntity
  8
SUPE_L_3
100
AcDbVertex
100
AcDb2dVertex
 10
8392578.529999996
 20
5686655.749999999
 30
0.0
  0
VERTEX
  5
1DD3
330
1DD1
100
AcDbEntity
  8
SUPE_L_3
100
AcDbVertex
100
AcDb2dVertex
 10
8392580.339999998
 20
5686655.639999998
 30
0.0
  0
SEQEND
  5
1DD4
330
0
100
AcDbEntity
  8
SUPE_L_3
  0
POLYLINE
  5
1DD5
330
43
100
AcDbEntity
  8
SUPE_L_3
  6
Continuous
 62
     1
370
    18
100
AcDb2dPolyline
 66
     1
 10
0.0
 20
0.0
 30
0.0
 70
   128
  0
VERTEX
  5
1DD6
330
1DD5
100
AcDbEntity
  8
SUPE_L_3
100
AcDbVertex
100
AcDb2dVertex
 10
8392580.339999998
 20
5686655.639999998
 30
0.0
  0
VERTEX
  5
1DD7
330
1DD5
100
AcDbEntity
  8
SUPE_L_3
100
AcDbVertex
100
AcDb2dVertex
 10
8392580.439999999
 20
5686655.63
 30
0.0
  0
SEQEND
  5
1DD8
330
0
100
AcDbEntity
  8
SUPE_L_3
  0
POLYLINE
  5
1DD9
330
43
100
AcDbEntity
  8
SUPE_L_3
  6
Continuous
 62
     1
370
    18
100
AcDb2dPolyline
 66
     1
 10
0.0
 20
0.0
 30
0.0
 70
   128
  0
VERTEX
  5
1DDA
330
1DD9
100
AcDbEntity
  8
SUPE_L_3
100
AcDbVertex
100
AcDb2dVertex
 10
8392580.439999999
 20
5686655.63
 30
0.0
  0
VERTEX
  5
1DDB
330
1DD9
100
AcDbEntity
  8
SUPE_L_3
100
AcDbVertex
100
AcDb2dVertex
 10
8392580.480000001
 20
5686655.62
 30
0.0
  0
SEQEND
  5
1DDC
330
0
100
AcDbEntity
  8
SUPE_L_3
  0
POLYLINE
  5
1DDD
330
43
100
AcDbEntity
  8
SUPE_L_3
  6
Continuous
 62
     1
370
    18
100
AcDb2dPolyline
 66
     1
 10
0.0
 20
0.0
 30
0.0
 70
   128
  0
VERTEX
  5
1DDE
330
1DDD
100
AcDbEntity
  8
SUPE_L_3
100
AcDbVertex
100
AcDb2dVertex
 10
8392546.384212526
 20
5686655.573940551
 30
0.0
  0
VERTEX
  5
1DDF
330
1DDD
100
AcDbEntity
  8
SUPE_L_3
100
AcDbVertex
100
AcDb2dVertex
 10
8392547.268463019
 20
5686650.652751561
 30
0.0
  0
SEQEND
  5
1DE0
330
0
100
AcDbEntity
  8
SUPE_L_3
  0
POLYLINE
  5
1DE1
330
43
100
AcDbEntity
  8
SUPE_L_3
  6
Continuous
 62
     1
370
    18
100
AcDb2dPolyline
 66
     1
 10
0.0
 20
0.0
 30
0.0
 70
   128
  0
VERTEX
  5
1DE2
330
1DE1
100
AcDbEntity
  8
SUPE_L_3
100
AcDbVertex
100
AcDb2dVertex
 10
8392547.521834286
 20
5686652.069897639
 30
0.0
  0
VERTEX
  5
1DE3
330
1DE1
100
AcDbEntity
  8
SUPE_L_3
100
AcDbVertex
100
AcDb2dVertex
 10
8392547.206565485
 20
5686650.997234791
 30
0.0
  0
SEQEND
  5
1DE4
330
0
100
AcDbEntity
  8
SUPE_L_3
  0
POLYLINE
  5
1DE5
330
43
100
AcDbEntity
  8
SUPE_L_3
  6
Continuous
 62
     1
370
    18
100
AcDb2dPolyline
 66
     1
 10
0.0
 20
0.0
 30
0.0
 70
   128
  0
VERTEX
  5
1DE6
330
1DE5
100
AcDbEntity
  8
SUPE_L_3
100
AcDbVertex
100
AcDb2dVertex
 10
8392546.537596487
 20
5686651.893047538
 30
0.0
  0
VERTEX
  5
1DE7
330
1DE5
100
AcDbEntity
  8
SUPE_L_3
100
AcDbVertex
100
AcDb2dVertex
 10
8392547.206565485
 20
5686650.997234791
 30
0.0
  0
SEQEND
  5
1DE8
330
0
100
AcDbEntity
  8
SUPE_L_3
  0
POLYLINE
  5
1DE9
330
43
100
AcDbEntity
  8
SUPE_L_3
  6
Continuous
 62
     1
370
    18
100
AcDb2dPolyline
 66
     1
 10
0.0
 20
0.0
 30
0.0
 70
   128
  0
VERTEX
  5
1DEA
330
1DE9
100
AcDbEntity
  8
SUPE_L_3
100
AcDbVertex
100
AcDb2dVertex
 10
8392554.244404148
 20
5686611.828996399
 30
0.0
  0
VERTEX
  5
1DEB
330
1DE9
100
AcDbEntity
  8
SUPE_L_3
100
AcDbVertex
100
AcDb2dVertex
 10
8392555.128654644
 20
5686606.907807409
 30
0.0
  0
SEQEND
  5
1DEC
330
0
100
AcDbEntity
  8
SUPE_L_3
  0
POLYLINE
  5
1DED
330
43
100
AcDbEntity
  8
SUPE_L_3
  6
Continuous
 62
     1
370
    18
100
AcDb2dPolyline
 66
     1
 10
0.0
 20
0.0
 30
0.0
 70
   128
  0
VERTEX
  5
1DEE
330
1DED
100
AcDbEntity
  8
SUPE_L_3
100
AcDbVertex
100
AcDb2dVertex
 10
8392554.306301683
 20
5686611.48451317
 30
0.0
  0
VERTEX
  5
1DEF
330
1DED
100
AcDbEntity
  8
SUPE_L_3
100
AcDbVertex
100
AcDb2dVertex
 10
8392554.97527068
 20
5686610.58870042
 30
0.0
  0
SEQEND
  5
1DF0
330
0
100
AcDbEntity
  8
SUPE_L_3
  0
POLYLINE
  5
1DF1
330
43
100
AcDbEntity
  8
SUPE_L_3
  6
Continuous
 62
     1
370
    18
100
AcDb2dPolyline
 66
     1
 10
0.0
 20
0.0
 30
0.0
 70
   128
  0
VERTEX
  5
1DF2
330
1DF1
100
AcDbEntity
  8
SUPE_L_3
100
AcDbVertex
100
AcDb2dVertex
 10
8392554.306301683
 20
5686611.48451317
 30
0.0
  0
VERTEX
  5
1DF3
330
1DF1
100
AcDbEntity
  8
SUPE_L_3
100
AcDbVertex
100
AcDb2dVertex
 10
8392553.991032883
 20
5686610.41185032
 30
0.0
  0
SEQEND
  5
1DF4
330
0
100
AcDbEntity
  8
SUPE_L_3
  0
POLYLINE
  5
1DF5
330
43
100
AcDbEntity
  8
SUPE_L_3
  6
Continuous
 62
     1
370
    18
100
AcDb2dPolyline
 66
     1
 10
0.0
 20
0.0
 30
0.0
 70
   128
  0
VERTEX
  5
1DF6
330
1DF5
100
AcDbEntity
  8
SUPE_L_3
100
AcDbVertex
100
AcDb2dVertex
 10
8392495.912117894
 20
5686657.480497229
 30
0.0
  0
VERTEX
  5
1DF7
330
1DF5
100
AcDbEntity
  8
SUPE_L_3
100
AcDbVertex
100
AcDb2dVertex
 10
8392500.90940944
 20
5686657.315945628
 30
0.0
  0
SEQEND
  5
1DF8
330
0
100
AcDbEntity
  8
SUPE_L_3
  0
POLYLINE
  5
1DF9
330
43
100
AcDbEntity
  8
SUPE_L_3
  6
Continuous
 62
     1
370
    18
100
AcDb2dPolyline
 66
     1
 10
0.0
 20
0.0
 30
0.0
 70
   128
  0
VERTEX
  5
1DFA
330
1DF9
100
AcDbEntity
  8
SUPE_L_3
100
AcDbVertex
100
AcDb2dVertex
 10
8392499.576595884
 20
5686657.860103713
 30
0.0
  0
VERTEX
  5
1DFB
330
1DF9
100
AcDbEntity
  8
SUPE_L_3
100
AcDbVertex
100
AcDb2dVertex
 10
8392500.559599033
 20
5686657.327464241
 30
0.0
  0
SEQEND
  5
1DFC
330
0
100
AcDbEntity
  8
SUPE_L_3
  0
POLYLINE
  5
1DFD
330
43
100
AcDbEntity
  8
SUPE_L_3
  6
Continuous
 62
     1
370
    18
100
AcDb2dPolyline
 66
     1
 10
0.0
 20
0.0
 30
0.0
 70
   128
  0
VERTEX
  5
1DFE
330
1DFD
100
AcDbEntity
  8
SUPE_L_3
100
AcDbVertex
100
AcDb2dVertex
 10
8392499.543685564
 20
5686656.860645408
 30
0.0
  0
VERTEX
  5
1DFF
330
1DFD
100
AcDbEntity
  8
SUPE_L_3
100
AcDbVertex
100
AcDb2dVertex
 10
8392500.559599033
 20
5686657.327464241
 30
0.0
  0
SEQEND
  5
1E00
330
0
100
AcDbEntity
  8
SUPE_L_3
  0
POLYLINE
  5
1E01
330
43
100
AcDbEntity
  8
SUPE_L_3
  6
Continuous
 62
     1
370
    18
100
AcDb2dPolyline
 66
     1
 10
0.0
 20
0.0
 30
0.0
 70
   128
  0
VERTEX
  5
1E02
330
1E01
100
AcDbEntity
  8
SUPE_L_3
100
AcDbVertex
100
AcDb2dVertex
 10
8392541.092843879
 20
5686655.992779182
 30
0.0
  0
VERTEX
  5
1E03
330
1E01
100
AcDbEntity
  8
SUPE_L_3
100
AcDbVertex
100
AcDb2dVertex
 10
8392546.090135423
 20
5686655.828227582
 30
0.0
  0
SEQEND
  5
1E04
330
0
100
AcDbEntity
  8
SUPE_L_3
  0
POLYLINE
  5
1E05
330
43
100
AcDbEntity
  8
SUPE_L_3
  6
Continuous
 62
     1
370
    18
100
AcDb2dPolyline
 66
     1
 10
0.0
 20
0.0
 30
0.0
 70
   128
  0
VERTEX
  5
1E06
330
1E05
100
AcDbEntity
  8
SUPE_L_3
100
AcDbVertex
100
AcDb2dVertex
 10
8392541.442654286
 20
5686655.98126057
 30
0.0
  0
VERTEX
  5
1E07
330
1E05
100
AcDbEntity
  8
SUPE_L_3
100
AcDbVertex
100
AcDb2dVertex
 10
8392542.458567756
 20
5686656.448079403
 30
0.0
  0
SEQEND
  5
1E08
330
0
100
AcDbEntity
  8
SUPE_L_3
  0
POLYLINE
  5
1E09
330
43
100
AcDbEntity
  8
SUPE_L_3
  6
Continuous
 62
     1
370
    18
100
AcDb2dPolyline
 66
     1
 10
0.0
 20
0.0
 30
0.0
 70
   128
  0
VERTEX
  5
1E0A
330
1E09
100
AcDbEntity
  8
SUPE_L_3
100
AcDbVertex
100
AcDb2dVertex
 10
8392541.442654286
 20
5686655.98126057
 30
0.0
  0
VERTEX
  5
1E0B
330
1E09
100
AcDbEntity
  8
SUPE_L_3
100
AcDbVertex
100
AcDb2dVertex
 10
8392542.425657437
 20
5686655.448621094
 30
0.0
  0
SEQEND
  5
1E0C
330
0
100
AcDbEntity
  8
SUPE_L_3
  0
POLYLINE
  5
1E0D
330
43
100
AcDbEntity
  8
SUPE_L_3
  6
Continuous
 62
     1
370
    18
100
AcDb2dPolyline
 66
     1
 10
0.0
 20
0.0
 30
0.0
 70
   128
  0
VERTEX
  5
1E0E
330
1E0D
100
AcDbEntity
  8
SUPE_L_3
100
AcDbVertex
100
AcDb2dVertex
 10
8392546.339999997
 20
5686655.820000002
 30
0.0
  0
VERTEX
  5
1E0F
330
1E0D
100
AcDbEntity
  8
SUPE_L_3
100
AcDbVertex
100
AcDb2dVertex
 10
8392546.130000001
 20
5686655.55
 30
0.0
  0
SEQEND
  5
1E10
330
0
100
AcDbEntity
  8
SUPE_L_3
  0
POLYLINE
  5
1E11
330
43
100
AcDbEntity
  8
SUPE_L_3
  6
Continuous
 62
     1
370
    18
100
AcDb2dPolyline
 66
     1
 10
0.0
 20
0.0
 30
0.0
 70
   128
  0
VERTEX
  5
1E12
330
1E11
100
AcDbEntity
  8
SUPE_L_3
100
AcDbVertex
100
AcDb2dVertex
 10
8392546.130000001
 20
5686655.55
 30
0.0
  0
VERTEX
  5
1E13
330
1E11
100
AcDbEntity
  8
SUPE_L_3
100
AcDbVertex
100
AcDb2dVertex
 10
8392545.919999999
 20
5686654.519999998
 30
0.0
  0
SEQEND
  5
1E14
330
0
100
AcDbEntity
  8
SUPE_L_3
  0
POLYLINE
  5
1E15
330
43
100
AcDbEntity
  8
SUPG_L_2
  6
Continuous
 62
    52
370
    18
100
AcDb2dPolyline
 66
     1
 10
0.0
 20
0.0
 30
0.0
 70
   128
  0
VERTEX
  5
1E16
330
1E15
100
AcDbEntity
  8
SUPG_L_2
100
AcDbVertex
100
AcDb2dVertex
 10
8392593.074999997
 20
5686653.920000001
 30
0.0
  0
VERTEX
  5
1E17
330
1E15
100
AcDbEntity
  8
SUPG_L_2
100
AcDbVertex
100
AcDb2dVertex
 10
8392589.390000001
 20
5686654.009999999
 30
0.0
  0
SEQEND
  5
1E18
330
0
100
AcDbEntity
  8
SUPG_L_2
  0
POLYLINE
  5
1E19
330
43
100
AcDbEntity
  8
SUPG_L_2
  6
Continuous
 62
    52
370
    18
100
AcDb2dPolyline
 66
     1
 10
0.0
 20
0.0
 30
0.0
 70
   128
  0
VERTEX
  5
1E1A
330
1E19
100
AcDbEntity
  8
SUPG_L_2
100
AcDbVertex
100
AcDb2dVertex
 10
8392589.390000001
 20
5686654.009999999
 30
0.0
  0
VERTEX
  5
1E1B
330
1E19
100
AcDbEntity
  8
SUPG_L_2
100
AcDbVertex
100
AcDb2dVertex
 10
8392583.48
 20
5686654.25
 30
0.0
  0
SEQEND
  5
1E1C
330
0
100
AcDbEntity
  8
SUPG_L_2
  0
POLYLINE
  5
1E1D
330
43
100
AcDbEntity
  8
SUPG_L_2
  6
Continuous
 62
    52
370
    18
100
AcDb2dPolyline
 66
     1
 10
0.0
 20
0.0
 30
0.0
 70
   128
  0
VERTEX
  5
1E1E
330
1E1D
100
AcDbEntity
  8
SUPG_L_2
100
AcDbVertex
100
AcDb2dVertex
 10
8392583.48
 20
5686654.25
 30
0.0
  0
VERTEX
  5
1E1F
330
1E1D
100
AcDbEntity
  8
SUPG_L_2
100
AcDbVertex
100
AcDb2dVertex
 10
8392582.210000002
 20
5686654.329999998
 30
0.0
  0
SEQEND
  5
1E20
330
0
100
AcDbEntity
  8
SUPG_L_2
  0
POLYLINE
  5
1E21
330
43
100
AcDbEntity
  8
SUPG_L_2
  6
Continuous
 62
    52
370
    18
100
AcDb2dPolyline
 66
     1
 10
0.0
 20
0.0
 30
0.0
 70
   128
  0
VERTEX
  5
1E22
330
1E21
100
AcDbEntity
  8
SUPG_L_2
100
AcDbVertex
100
AcDb2dVertex
 10
8392582.210000002
 20
5686654.329999998
 30
0.0
  0
VERTEX
  5
1E23
330
1E21
100
AcDbEntity
  8
SUPG_L_2
100
AcDbVertex
100
AcDb2dVertex
 10
8392580.17
 20
5686654.55
 30
0.0
  0
SEQEND
  5
1E24
330
0
100
AcDbEntity
  8
SUPG_L_2
  0
POLYLINE
  5
1E25
330
43
100
AcDbEntity
  8
SUPG_L_2
  6
Continuous
 62
    52
370
    18
100
AcDb2dPolyline
 66
     1
 10
0.0
 20
0.0
 30
0.0
 70
   128
  0
VERTEX
  5
1E26
330
1E25
100
AcDbEntity
  8
SUPG_L_2
100
AcDbVertex
100
AcDb2dVertex
 10
8392580.17
 20
5686654.55
 30
0.0
  0
VERTEX
  5
1E27
330
1E25
100
AcDbEntity
  8
SUPG_L_2
100
AcDbVertex
100
AcDb2dVertex
 10
8392558.730000001
 20
5686655.499999999
 30
0.0
  0
SEQEND
  5
1E28
330
0
100
AcDbEntity
  8
SUPG_L_2
  0
POLYLINE
  5
1E29
330
43
100
AcDbEntity
  8
SUPG_L_2
  6
Continuous
 62
    52
370
    18
100
AcDb2dPolyline
 66
     1
 10
0.0
 20
0.0
 30
0.0
 70
   128
  0
VERTEX
  5
1E2A
330
1E29
100
AcDbEntity
  8
SUPG_L_2
100
AcDbVertex
100
AcDb2dVertex
 10
8392558.730000001
 20
5686655.499999999
 30
0.0
  0
VERTEX
  5
1E2B
330
1E29
100
AcDbEntity
  8
SUPG_L_2
100
AcDbVertex
100
AcDb2dVertex
 10
8392558.759999998
 20
5686652.269999999
 30
0.0
  0
SEQEND
  5
1E2C
330
0
100
AcDbEntity
  8
SUPG_L_2
  0
POLYLINE
  5
1E2D
330
43
100
AcDbEntity
  8
SUPG_L_2
  6
Continuous
 62
    52
370
    18
100
AcDb2dPolyline
 66
     1
 10
0.0
 20
0.0
 30
0.0
 70
   128
  0
VERTEX
  5
1E2E
330
1E2D
100
AcDbEntity
  8
SUPG_L_2
100
AcDbVertex
100
AcDb2dVertex
 10
8392558.759999998
 20
5686652.269999999
 30
0.0
  0
VERTEX
  5
1E2F
330
1E2D
100
AcDbEntity
  8
SUPG_L_2
100
AcDbVertex
100
AcDb2dVertex
 10
8392558.21
 20
5686645.379999999
 30
0.0
  0
SEQEND
  5
1E30
330
0
100
AcDbEntity
  8
SUPG_L_2
  0
POLYLINE
  5
1E31
330
43
100
AcDbEntity
  8
SUPG_L_2
  6
Continuous
 62
    52
370
    18
100
AcDb2dPolyline
 66
     1
 10
0.0
 20
0.0
 30
0.0
 70
   128
  0
VERTEX
  5
1E32
330
1E31
100
AcDbEntity
  8
SUPG_L_2
100
AcDbVertex
100
AcDb2dVertex
 10
8392558.21
 20
5686645.379999999
 30
0.0
  0
VERTEX
  5
1E33
330
1E31
100
AcDbEntity
  8
SUPG_L_2
100
AcDbVertex
100
AcDb2dVertex
 10
8392558.03
 20
5686642.670000001
 30
0.0
  0
SEQEND
  5
1E34
330
0
100
AcDbEntity
  8
SUPG_L_2
  0
POLYLINE
  5
1E35
330
43
100
AcDbEntity
  8
SUPG_L_2
  6
Continuous
 62
    52
370
    18
100
AcDb2dPolyline
 66
     1
 10
0.0
 20
0.0
 30
0.0
 70
   128
  0
VERTEX
  5
1E36
330
1E35
100
AcDbEntity
  8
SUPG_L_2
100
AcDbVertex
100
AcDb2dVertex
 10
8392558.03
 20
5686642.670000001
 30
0.0
  0
VERTEX
  5
1E37
330
1E35
100
AcDbEntity
  8
SUPG_L_2
100
AcDbVertex
100
AcDb2dVertex
 10
8392529.789999999
 20
5686643.76
 30
0.0
  0
SEQEND
  5
1E38
330
0
100
AcDbEntity
  8
SUPG_L_2
  0
POLYLINE
  5
1E39
330
43
100
AcDbEntity
  8
SUPG_L_2
  6
Continuous
 62
    52
370
    18
100
AcDb2dPolyline
 66
     1
 10
0.0
 20
0.0
 30
0.0
 70
   128
  0
VERTEX
  5
1E3A
330
1E39
100
AcDbEntity
  8
SUPG_L_2
100
AcDbVertex
100
AcDb2dVertex
 10
8392582.210000002
 20
5686654.329999998
 30
0.0
  0
VERTEX
  5
1E3B
330
1E39
100
AcDbEntity
  8
SUPG_L_2
100
AcDbVertex
100
AcDb2dVertex
 10
8392582.189999998
 20
5686656.57
 30
0.0
  0
SEQEND
  5
1E3C
330
0
100
AcDbEntity
  8
SUPG_L_2
  0
POLYLINE
  5
1E3D
330
43
100
AcDbEntity
  8
SUPG_L_2
  6
Continuous
 62
    52
370
    18
100
AcDb2dPolyline
 66
     1
 10
0.0
 20
0.0
 30
0.0
 70
   128
  0
VERTEX
  5
1E3E
330
1E3D
100
AcDbEntity
  8
SUPG_L_2
100
AcDbVertex
100
AcDb2dVertex
 10
8392582.189999998
 20
5686656.57
 30
0.0
  0
VERTEX
  5
1E3F
330
1E3D
100
AcDbEntity
  8
SUPG_L_2
100
AcDbVertex
100
AcDb2dVertex
 10
8392580.199999999
 20
5686656.719999998
 30
0.0
  0
SEQEND
  5
1E40
330
0
100
AcDbEntity
  8
SUPG_L_2
  0
POLYLINE
  5
1E41
330
43
100
AcDbEntity
  8
SUPG_L_2
  6
Continuous
 62
    52
370
    18
100
AcDb2dPolyline
 66
     1
 10
0.0
 20
0.0
 30
0.0
 70
   128
  0
VERTEX
  5
1E42
330
1E41
100
AcDbEntity
  8
SUPG_L_2
100
AcDbVertex
100
AcDb2dVertex
 10
8392580.199999999
 20
5686656.719999998
 30
0.0
  0
VERTEX
  5
1E43
330
1E41
100
AcDbEntity
  8
SUPG_L_2
100
AcDbVertex
100
AcDb2dVertex
 10
8392580.210000001
 20
5686656.94
 30
0.0
  0
SEQEND
  5
1E44
330
0
100
AcDbEntity
  8
SUPG_L_2
  0
POLYLINE
  5
1E45
330
43
100
AcDbEntity
  8
SUPG_L_2
  6
Continuous
 62
    52
370
    18
100
AcDb2dPolyline
 66
     1
 10
0.0
 20
0.0
 30
0.0
 70
   128
  0
VERTEX
  5
1E46
330
1E45
100
AcDbEntity
  8
SUPG_L_2
100
AcDbVertex
100
AcDb2dVertex
 10
8392529.789999999
 20
5686643.76
 30
0.0
  0
VERTEX
  5
1E47
330
1E45
100
AcDbEntity
  8
SUPG_L_2
100
AcDbVertex
100
AcDb2dVertex
 10
8392529.579999999
 20
5686618.530000002
 30
0.0
  0
SEQEND
  5
1E48
330
0
100
AcDbEntity
  8
SUPG_L_2
  0
POLYLINE
  5
1E91
330
43
100
AcDbEntity
  8
SUPG_L_2
  6
Continuous
 62
    52
370
    18
100
AcDb2dPolyline
 66
     1
 10
0.0
 20
0.0
 30
0.0
 70
   128
  0
VERTEX
  5
1E92
330
1E91
100
AcDbEntity
  8
SUPG_L_2
100
AcDbVertex
100
AcDb2dVertex
 10
8392487.88
 20
5686644.95
 30
0.0
  0
VERTEX
  5
1E93
330
1E91
100
AcDbEntity
  8
SUPG_L_2
100
AcDbVertex
100
AcDb2dVertex
 10
8392507.269999999
 20
5686644.61
 30
0.0
  0
SEQEND
  5
1E94
330
0
100
AcDbEntity
  8
SUPG_L_2
  0
POLYLINE
  5
1E95
330
43
100
AcDbEntity
  8
SUPG_L_2
  6
Continuous
 62
    52
370
    18
100
AcDb2dPolyline
 66
     1
 10
0.0
 20
0.0
 30
0.0
 70
   128
  0
VERTEX
  5
1E96
330
1E95
100
AcDbEntity
  8
SUPG_L_2
100
AcDbVertex
100
AcDb2dVertex
 10
8392507.269999999
 20
5686644.61
 30
0.0
  0
VERTEX
  5
1E97
330
1E95
100
AcDbEntity
  8
SUPG_L_2
100
AcDbVertex
100
AcDb2dVertex
 10
8392525.279999997
 20
5686644.110000002
 30
0.0
  0
SEQEND
  5
1E98
330
0
100
AcDbEntity
  8
SUPG_L_2
  0
POLYLINE
  5
1E99
330
43
100
AcDbEntity
  8
SUPG_L_2
  6
Continuous
 62
    52
370
    18
100
AcDb2dPolyline
 66
     1
 10
0.0
 20
0.0
 30
0.0
 70
   128
  0
VERTEX
  5
1E9A
330
1E99
100
AcDbEntity
  8
SUPG_L_2
100
AcDbVertex
100
AcDb2dVertex
 10
8392525.279999997
 20
5686644.110000002
 30
0.0
  0
VERTEX
  5
1E9B
330
1E99
100
AcDbEntity
  8
SUPG_L_2
100
AcDbVertex
100
AcDb2dVertex
 10
8392529.789999999
 20
5686643.76
 30
0.0
  0
SEQEND
  5
1E9C
330
0
100
AcDbEntity
  8
SUPG_L_2
  0
POLYLINE
  5
1E9D
330
43
100
AcDbEntity
  8
SUPT_L_0
  6
Continuous
 62
    30
370
    18
100
AcDb2dPolyline
 66
     1
 10
0.0
 20
0.0
 30
0.0
 70
   128
  0
VERTEX
  5
1E9E
330
1E9D
100
AcDbEntity
  8
SUPT_L_0
100
AcDbVertex
100
AcDb2dVertex
 10
8392496.210649559
 20
5686661.96719486
 30
0.0
  0
VERTEX
  5
1E9F
330
1E9D
100
AcDbEntity
  8
SUPT_L_0
100
AcDbVertex
100
AcDb2dVertex
 10
8392527.847010928
 20
5686659.851635551
 30
0.0
  0
SEQEND
  5
1EA0
330
0
100
AcDbEntity
  8
SUPT_L_0
  0
POLYLINE
  5
1EA1
330
43
100
AcDbEntity
  8
SUPT_L_0
  6
Continuous
 62
    30
370
    18
100
AcDb2dPolyline
 66
     1
 10
0.0
 20
0.0
 30
0.0
 70
   128
  0
VERTEX
  5
1EA2
330
1EA1
100
AcDbEntity
  8
SUPT_L_0
100
AcDbVertex
100
AcDb2dVertex
 10
8392527.847010928
 20
5686659.851635551
 30
0.0
  0
VERTEX
  5
1EA3
330
1EA1
100
AcDbEntity
  8
SUPT_L_0
100
AcDbVertex
100
AcDb2dVertex
 10
8392545.732625789
 20
5686659.562668429
 30
0.0
  0
SEQEND
  5
1EA4
330
0
100
AcDbEntity
  8
SUPT_L_0
  0
POLYLINE
  5
1EA5
330
43
100
AcDbEntity
  8
SUPT_L_0
  6
Continuous
 62
    30
370
    18
100
AcDb2dPolyline
 66
     1
 10
0.0
 20
0.0
 30
0.0
 70
   128
  0
VERTEX
  5
1EA6
330
1EA5
100
AcDbEntity
  8
SUPT_L_0
100
AcDbVertex
100
AcDb2dVertex
 10
8392545.732625789
 20
5686659.562668429
 30
0.0
  0
VERTEX
  5
1EA7
330
1EA5
100
AcDbEntity
  8
SUPT_L_0
100
AcDbVertex
100
AcDb2dVertex
 10
8392583.006747077
 20
5686658.264500267
 30
0.0
  0
SEQEND
  5
1EA8
330
0
100
AcDbEntity
  8
SUPT_L_0
  0
POLYLINE
  5
1EA9
330
43
100
AcDbEntity
  8
SUPT_L_0
  6
Continuous
 62
    30
370
    18
100
AcDb2dPolyline
 66
     1
 10
0.0
 20
0.0
 30
0.0
 70
   128
  0
VERTEX
  5
1EAA
330
1EA9
100
AcDbEntity
  8
SUPT_L_0
100
AcDbVertex
100
AcDb2dVertex
 10
8392527.847010928
 20
5686659.851635551
 30
0.0
  0
VERTEX
  5
1EAB
330
1EA9
100
AcDbEntity
  8
SUPT_L_0
100
AcDbVertex
100
AcDb2dVertex
 10
8392527.588948148
 20
5686654.60687247
 30
0.0
  0
SEQEND
  5
1EAC
330
0
100
AcDbEntity
  8
SUPT_L_0
  0
POLYLINE
  5
1EAD
330
43
100
AcDbEntity
  8
SUPT_L_0
  6
Continuous
 62
    30
370
    18
100
AcDb2dPolyline
 66
     1
 10
0.0
 20
0.0
 30
0.0
 70
   128
  0
VERTEX
  5
1EAE
330
1EAD
100
AcDbEntity
  8
SUPT_L_0
100
AcDbVertex
100
AcDb2dVertex
 10
8392527.588948148
 20
5686654.60687247
 30
0.0
  0
VERTEX
  5
1EAF
330
1EAD
100
AcDbEntity
  8
SUPT_L_0
100
AcDbVertex
100
AcDb2dVertex
 10
8392527.354694301
 20
5686648.70053671
 30
0.0
  0
SEQEND
  5
1EB0
330
0
100
AcDbEntity
  8
SUPT_L_0
  0
POLYLINE
  5
1EB1
330
43
100
AcDbEntity
  8
SUPT_L_0
  6
Continuous
 62
    30
370
    18
100
AcDb2dPolyline
 66
     1
 10
0.0
 20
0.0
 30
0.0
 70
   128
  0
VERTEX
  5
1EB2
330
1EB1
100
AcDbEntity
  8
SUPT_L_0
100
AcDbVertex
100
AcDb2dVertex
 10
8392527.354694301
 20
5686648.70053671
 30
0.0
  0
VERTEX
  5
1EB3
330
1EB1
100
AcDbEntity
  8
SUPT_L_0
100
AcDbVertex
100
AcDb2dVertex
 10
8392526.763996288
 20
5686612.859852168
 30
0.0
  0
SEQEND
  5
1EB4
330
0
100
AcDbEntity
  8
SUPT_L_0
  0
POLYLINE
  5
1EB5
330
43
100
AcDbEntity
  8
SUPT_L_0
  6
Continuous
 62
    30
370
    18
100
AcDb2dPolyline
 66
     1
 10
0.0
 20
0.0
 30
0.0
 70
   128
  0
VERTEX
  5
1EB6
330
1EB5
100
AcDbEntity
  8
SUPT_L_0
100
AcDbVertex
100
AcDb2dVertex
 10
8392583.006747077
 20
5686658.264500267
 30
0.0
  0
VERTEX
  5
1EB7
330
1EB5
100
AcDbEntity
  8
SUPT_L_0
100
AcDbVertex
100
AcDb2dVertex
 10
8392585.380936308
 20
5686732.5110258
 30
0.0
  0
SEQEND
  5
1EB8
330
0
100
AcDbEntity
  8
SUPT_L_0
  0
POLYLINE
  5
1EB9
330
43
100
AcDbEntity
  8
SUPT_L_0
  6
Continuous
 62
    30
370
    18
100
AcDb2dPolyline
 66
     1
 10
0.0
 20
0.0
 30
0.0
 70
   128
  0
VERTEX
  5
1EBA
330
1EB9
100
AcDbEntity
  8
SUPT_L_0
100
AcDbVertex
100
AcDb2dVertex
 10
8392585.380936308
 20
5686732.5110258
 30
0.0
  0
VERTEX
  5
1EBB
330
1EB9
100
AcDbEntity
  8
SUPT_L_0
100
AcDbVertex
100
AcDb2dVertex
 10
8392585.904988811
 20
5686823.706970521
 30
0.0
  0
SEQEND
  5
1EBC
330
0
100
AcDbEntity
  8
SUPT_L_0
  0
POLYLINE
  5
1EBD
330
43
100
AcDbEntity
  8
SUPT_L_0
  6
Continuous
 62
    30
370
    18
100
AcDb2dPolyline
 66
     1
 10
0.0
 20
0.0
 30
0.0
 70
   128
  0
VERTEX
  5
1EBE
330
1EBD
100
AcDbEntity
  8
SUPT_L_0
100
AcDbVertex
100
AcDb2dVertex
 10
8392583.006747077
 20
5686658.264500267
 30
0.0
  0
VERTEX
  5
1EBF
330
1EBD
100
AcDbEntity
  8
SUPT_L_0
100
AcDbVertex
100
AcDb2dVertex
 10
8392660.330224179
 20
5686652.70538742
 30
0.0
  0
SEQEND
  5
1EC0
330
0
100
AcDbEntity
  8
SUPT_L_0
  0
POLYLINE
  5
1EC1
330
43
100
AcDbEntity
  8
SUPT_L_0
  6
Continuous
 62
    30
370
    18
100
AcDb2dPolyline
 66
     1
 10
0.0
 20
0.0
 30
0.0
 70
   128
  0
VERTEX
  5
1EC2
330
1EC1
100
AcDbEntity
  8
SUPT_L_0
100
AcDbVertex
100
AcDb2dVertex
 10
8392551.490000002
 20
5686653.71
 30
0.0
  0
VERTEX
  5
1EC3
330
1EC1
100
AcDbEntity
  8
SUPT_L_0
100
AcDbVertex
100
AcDb2dVertex
 10
8392562.339999996
 20
5686653.24
 30
0.0
  0
SEQEND
  5
1EC4
330
0
100
AcDbEntity
  8
SUPT_L_0
  0
POLYLINE
  5
1EC5
330
43
100
AcDbEntity
  8
SUPT_L_0
  6
Continuous
 62
    30
370
    18
100
AcDb2dPolyline
 66
     1
 10
0.0
 20
0.0
 30
0.0
 70
   128
  0
VERTEX
  5
1EC6
330
1EC5
100
AcDbEntity
  8
SUPT_L_0
100
AcDbVertex
100
AcDb2dVertex
 10
8392562.339999996
 20
5686653.24
 30
0.0
  0
VERTEX
  5
1EC7
330
1EC5
100
AcDbEntity
  8
SUPT_L_0
100
AcDbVertex
100
AcDb2dVertex
 10
8392573.739999999
 20
5686652.899999999
 30
0.0
  0
SEQEND
  5
1EC8
330
0
100
AcDbEntity
  8
SUPT_L_0
  0
POLYLINE
  5
1EC9
330
43
100
AcDbEntity
  8
SUPT_L_0
  6
Continuous
 62
    30
370
    18
100
AcDb2dPolyline
 66
     1
 10
0.0
 20
0.0
 30
0.0
 70
   128
  0
VERTEX
  5
1ECA
330
1EC9
100
AcDbEntity
  8
SUPT_L_0
100
AcDbVertex
100
AcDb2dVertex
 10
8392573.739999999
 20
5686652.899999999
 30
0.0
  0
VERTEX
  5
1ECB
330
1EC9
100
AcDbEntity
  8
SUPT_L_0
100
AcDbVertex
100
AcDb2dVertex
 10
8392588.579999999
 20
5686652.62
 30
0.0
  0
SEQEND
  5
1ECC
330
0
100
AcDbEntity
  8
SUPT_L_0
  0
POLYLINE
  5
1ECD
330
43
100
AcDbEntity
  8
SUPT_L_0
  6
Continuous
 62
    30
370
    18
100
AcDb2dPolyline
 66
     1
 10
0.0
 20
0.0
 30
0.0
 70
   128
  0
VERTEX
  5
1ECE
330
1ECD
100
AcDbEntity
  8
SUPT_L_0
100
AcDbVertex
100
AcDb2dVertex
 10
8392588.579999999
 20
5686652.62
 30
0.0
  0
VERTEX
  5
1ECF
330
1ECD
100
AcDbEntity
  8
SUPT_L_0
100
AcDbVertex
100
AcDb2dVertex
 10
8392591.219999999
 20
5686652.289999999
 30
0.0
  0
SEQEND
  5
1ED0
330
0
100
AcDbEntity
  8
SUPT_L_0
  0
POLYLINE
  5
1ED1
330
43
100
AcDbEntity
  8
SUPT_L_0
  6
Continuous
 62
    30
370
    18
100
AcDb2dPolyline
 66
     1
 10
0.0
 20
0.0
 30
0.0
 70
   128
  0
VERTEX
  5
1ED2
330
1ED1
100
AcDbEntity
  8
SUPT_L_0
100
AcDbVertex
100
AcDb2dVertex
 10
8392547.19
 20
5686653.88
 30
0.0
  0
VERTEX
  5
1ED3
330
1ED1
100
AcDbEntity
  8
SUPT_L_0
100
AcDbVertex
100
AcDb2dVertex
 10
8392583.189999999
 20
5686652.639999998
 30
0.0
  0
SEQEND
  5
1ED4
330
0
100
AcDbEntity
  8
SUPT_L_0
  0
POLYLINE
  5
1ED5
330
43
100
AcDbEntity
  8
SUPT_L_0
  6
Continuous
 62
    30
370
    18
100
AcDb2dPolyline
 66
     1
 10
0.0
 20
0.0
 30
0.0
 70
   128
  0
VERTEX
  5
1ED6
330
1ED5
100
AcDbEntity
  8
SUPT_L_0
100
AcDbVertex
100
AcDb2dVertex
 10
8392583.189999999
 20
5686652.639999998
 30
0.0
  0
VERTEX
  5
1ED7
330
1ED5
100
AcDbEntity
  8
SUPT_L_0
100
AcDbVertex
100
AcDb2dVertex
 10
8392584.119999995
 20
5686655.089999999
 30
0.0
  0
SEQEND
  5
1ED8
330
0
100
AcDbEntity
  8
SUPT_L_0
  0
POLYLINE
  5
1ED9
330
43
100
AcDbEntity
  8
SUPT_L_0
  6
Continuous
 62
    30
370
    18
100
AcDb2dPolyline
 66
     1
 10
0.0
 20
0.0
 30
0.0
 70
   128
  0
VERTEX
  5
1EDA
330
1ED9
100
AcDbEntity
  8
SUPT_L_0
100
AcDbVertex
100
AcDb2dVertex
 10
8392584.119999995
 20
5686655.089999999
 30
0.0
  0
VERTEX
  5
1EDB
330
1ED9
100
AcDbEntity
  8
SUPT_L_0
100
AcDbVertex
100
AcDb2dVertex
 10
8392585.369999995
 20
5686664.679999999
 30
0.0
  0
SEQEND
  5
1EDC
330
0
100
AcDbEntity
  8
SUPT_L_0
  0
POLYLINE
  5
1EDD
330
43
100
AcDbEntity
  8
SUPT_L_0
  6
Continuous
 62
    30
370
    18
100
AcDb2dPolyline
 66
     1
 10
0.0
 20
0.0
 30
0.0
 70
   128
  0
VERTEX
  5
1EDE
330
1EDD
100
AcDbEntity
  8
SUPT_L_0
100
AcDbVertex
100
AcDb2dVertex
 10
8392585.369999995
 20
5686664.679999999
 30
0.0
  0
VERTEX
  5
1EDF
330
1EDD
100
AcDbEntity
  8
SUPT_L_0
100
AcDbVertex
100
AcDb2dVertex
 10
8392585.929999997
 20
5686668.04
 30
0.0
  0
SEQEND
  5
1EE0
330
0
100
AcDbEntity
  8
SUPT_L_0
  0
POLYLINE
  5
1EE1
330
43
100
AcDbEntity
  8
SUPT_L_0
  6
Continuous
 62
    30
370
    18
100
AcDb2dPolyline
 66
     1
 10
0.0
 20
0.0
 30
0.0
 70
   128
  0
VERTEX
  5
1EE2
330
1EE1
100
AcDbEntity
  8
SUPT_L_0
100
AcDbVertex
100
AcDb2dVertex
 10
8392585.929999997
 20
5686668.04
 30
0.0
  0
VERTEX
  5
1EE3
330
1EE1
100
AcDbEntity
  8
SUPT_L_0
100
AcDbVertex
100
AcDb2dVertex
 10
8392586.420000002
 20
5686705.059999999
 30
0.0
  0
SEQEND
  5
1EE4
330
0
100
AcDbEntity
  8
SUPT_L_0
  0
POLYLINE
  5
1EE5
330
43
100
AcDbEntity
  8
SUPT_L_0
  6
Continuous
 62
    30
370
    18
100
AcDb2dPolyline
 66
     1
 10
0.0
 20
0.0
 30
0.0
 70
   128
  0
VERTEX
  5
1EE6
330
1EE5
100
AcDbEntity
  8
SUPT_L_0
100
AcDbVertex
100
AcDb2dVertex
 10
8392586.420000002
 20
5686705.059999999
 30
0.0
  0
VERTEX
  5
1EE7
330
1EE5
100
AcDbEntity
  8
SUPT_L_0
100
AcDbVertex
100
AcDb2dVertex
 10
8392586.869999995
 20
5686742.689999999
 30
0.0
  0
SEQEND
  5
1EE8
330
0
100
AcDbEntity
  8
SUPT_L_0
  0
POLYLINE
  5
1EE9
330
43
100
AcDbEntity
  8
SUPT_L_0
  6
Continuous
 62
    30
370
    18
100
AcDb2dPolyline
 66
     1
 10
0.0
 20
0.0
 30
0.0
 70
   128
  0
VERTEX
  5
1EEA
330
1EE9
100
AcDbEntity
  8
SUPT_L_0
100
AcDbVertex
100
AcDb2dVertex
 10
8392545.919999999
 20
5686654.519999998
 30
0.0
  0
VERTEX
  5
1EEB
330
1EE9
100
AcDbEntity
  8
SUPT_L_0
100
AcDbVertex
100
AcDb2dVertex
 10
8392545.929999997
 20
5686654.200000001
 30
0.0
  0
SEQEND
  5
1EEC
330
0
100
AcDbEntity
  8
SUPT_L_0
  0
POLYLINE
  5
1EED
330
43
100
AcDbEntity
  8
SUPT_L_0
  6
Continuous
 62
    30
370
    18
100
AcDb2dPolyline
 66
     1
 10
0.0
 20
0.0
 30
0.0
 70
   128
  0
VERTEX
  5
1EEE
330
1EED
100
AcDbEntity
  8
SUPT_L_0
100
AcDbVertex
100
AcDb2dVertex
 10
8392545.929999997
 20
5686654.200000001
 30
0.0
  0
VERTEX
  5
1EEF
330
1EED
100
AcDbEntity
  8
SUPT_L_0
100
AcDbVertex
100
AcDb2dVertex
 10
8392547.19
 20
5686653.88
 30
0.0
  0
SEQEND
  5
1EF0
330
0
100
AcDbEntity
  8
SUPT_L_0
  0
POLYLINE
  5
1EF1
330
43
100
AcDbEntity
  8
SUPT_L_0
  6
Continuous
 62
    30
370
    18
100
AcDb2dPolyline
 66
     1
 10
0.0
 20
0.0
 30
0.0
 70
   128
  0
VERTEX
  5
1EF2
330
1EF1
100
AcDbEntity
  8
SUPT_L_0
100
AcDbVertex
100
AcDb2dVertex
 10
8392545.919999999
 20
5686654.519999998
 30
0.0
  0
VERTEX
  5
1EF3
330
1EF1
100
AcDbEntity
  8
SUPT_L_0
100
AcDbVertex
100
AcDb2dVertex
 10
8392546.4
 20
5686655.530000002
 30
0.0
  0
SEQEND
  5
1EF4
330
0
100
AcDbEntity
  8
SUPT_L_0
  0
POLYLINE
  5
1EF5
330
43
100
AcDbEntity
  8
SUPT_L_0
  6
Continuous
 62
    30
370
    18
100
AcDb2dPolyline
 66
     1
 10
0.0
 20
0.0
 30
0.0
 70
   128
  0
VERTEX
  5
1EF6
330
1EF5
100
AcDbEntity
  8
SUPT_L_0
100
AcDbVertex
100
AcDb2dVertex
 10
8392546.4
 20
5686655.530000002
 30
0.0
  0
VERTEX
  5
1EF7
330
1EF5
100
AcDbEntity
  8
SUPT_L_0
100
AcDbVertex
100
AcDb2dVertex
 10
8392551.490000002
 20
5686653.71
 30
0.0
  0
SEQEND
  5
1EF8
330
0
100
AcDbEntity
  8
SUPT_L_0
  0
POLYLINE
  5
1EF9
330
43
100
AcDbEntity
  8
SUPW_L_0
  6
Continuous
 62
     5
370
    18
100
AcDb2dPolyline
 66
     1
 10
0.0
 20
0.0
 30
0.0
 70
   128
  0
VERTEX
  5
1EFA
330
1EF9
100
AcDbEntity
  8
SUPW_L_0
100
AcDbVertex
100
AcDb2dVertex
 10
8392562.230000001
 20
5686714.070000001
 30
0.0
  0
VERTEX
  5
1EFB
330
1EF9
100
AcDbEntity
  8
SUPW_L_0
100
AcDbVertex
100
AcDb2dVertex
 10
8392562.210000001
 20
5686707.410000001
 30
0.0
  0
SEQEND
  5
1EFC
330
0
100
AcDbEntity
  8
SUPW_L_0
  0
POLYLINE
  5
1EFD
330
43
100
AcDbEntity
  8
SUPW_L_0
  6
Continuous
 62
     5
370
    18
100
AcDb2dPolyline
 66
     1
 10
0.0
 20
0.0
 30
0.0
 70
   128
  0
VERTEX
  5
1EFE
330
1EFD
100
AcDbEntity
  8
SUPW_L_0
100
AcDbVertex
100
AcDb2dVertex
 10
8392562.210000001
 20
5686707.410000001
 30
0.0
  0
VERTEX
  5
1EFF
330
1EFD
100
AcDbEntity
  8
SUPW_L_0
100
AcDbVertex
100
AcDb2dVertex
 10
8392579.449999999
 20
5686707.300000001
 30
0.0
  0
SEQEND
  5
1F00
330
0
100
AcDbEntity
  8
SUPW_L_0
  0
POLYLINE
  5
1F01
330
43
100
AcDbEntity
  8
SUPW_L_0
  6
Continuous
 62
     5
370
    18
100
AcDb2dPolyline
 66
     1
 10
0.0
 20
0.0
 30
0.0
 70
   128
  0
VERTEX
  5
1F02
330
1F01
100
AcDbEntity
  8
SUPW_L_0
100
AcDbVertex
100
AcDb2dVertex
 10
8392579.449999999
 20
5686707.300000001
 30
0.0
  0
VERTEX
  5
1F03
330
1F01
100
AcDbEntity
  8
SUPW_L_0
100
AcDbVertex
100
AcDb2dVertex
 10
8392582.029999996
 20
5686707.219999999
 30
0.0
  0
SEQEND
  5
1F04
330
0
100
AcDbEntity
  8
SUPW_L_0
  0
POLYLINE
  5
1F05
330
43
100
AcDbEntity
  8
SUPW_L_0
  6
Continuous
 62
     5
370
    18
100
AcDb2dPolyline
 66
     1
 10
0.0
 20
0.0
 30
0.0
 70
   128
  0
VERTEX
  5
1F06
330
1F05
100
AcDbEntity
  8
SUPW_L_0
100
AcDbVertex
100
AcDb2dVertex
 10
8392582.029999996
 20
5686707.219999999
 30
0.0
  0
VERTEX
  5
1F07
330
1F05
100
AcDbEntity
  8
SUPW_L_0
100
AcDbVertex
100
AcDb2dVertex
 10
8392581.269999999
 20
5686652.22
 30
0.0
  0
SEQEND
  5
1F08
330
0
100
AcDbEntity
  8
SUPW_L_0
  0
POLYLINE
  5
1F09
330
43
100
AcDbEntity
  8
SUPW_L_0
  6
Continuous
 62
     5
370
    18
100
AcDb2dPolyline
 66
     1
 10
0.0
 20
0.0
 30
0.0
 70
   128
  0
VERTEX
  5
1F0A
330
1F09
100
AcDbEntity
  8
SUPW_L_0
100
AcDbVertex
100
AcDb2dVertex
 10
8392529.46645656
 20
5686653.741655939
 30
0.0
  0
VERTEX
  5
1F0B
330
1F09
100
AcDbEntity
  8
SUPW_L_0
100
AcDbVertex
100
AcDb2dVertex
 10
8392528.24121689
 20
5686614.7731395
 30
0.0
  0
SEQEND
  5
1F0C
330
0
100
AcDbEntity
  8
SUPW_L_0
  0
POLYLINE
  5
1F0D
330
43
100
AcDbEntity
  8
SUPW_L_0
  6
Continuous
 62
     5
370
    18
100
AcDb2dPolyline
 66
     1
 10
0.0
 20
0.0
 30
0.0
 70
   128
  0
VERTEX
  5
1F0E
330
1F0D
100
AcDbEntity
  8
SUPW_L_0
100
AcDbVertex
100
AcDb2dVertex
 10
8392528.24121689
 20
5686614.7731395
 30
0.0
  0
VERTEX
  5
1F0F
330
1F0D
100
AcDbEntity
  8
SUPW_L_0
100
AcDbVertex
100
AcDb2dVertex
 10
8392528.242886182
 20
5686485.850439829
 30
0.0
  0
SEQEND
  5
1F10
330
0
100
AcDbEntity
  8
SUPW_L_0
  0
POLYLINE
  5
1F1D
330
43
100
AcDbEntity
  8
SUPW_L_0
  6
Continuous
 62
     5
370
    18
100
AcDb2dPolyline
 66
     1
 10
0.0
 20
0.0
 30
0.0
 70
   128
  0
VERTEX
  5
1F1E
330
1F1D
100
AcDbEntity
  8
SUPW_L_0
100
AcDbVertex
100
AcDb2dVertex
 10
8392590.137426511
 20
5686797.924750861
 30
0.0
  0
VERTEX
  5
1F1F
330
1F1D
100
AcDbEntity
  8
SUPW_L_0
100
AcDbVertex
100
AcDb2dVertex
 10
8392590.62278243
 20
5686758.678203928
 30
0.0
  0
SEQEND
  5
1F20
330
0
100
AcDbEntity
  8
SUPW_L_0
  0
POLYLINE
  5
1F21
330
43
100
AcDbEntity
  8
SUPW_L_0
  6
Continuous
 62
     5
370
    18
100
AcDb2dPolyline
 66
     1
 10
0.0
 20
0.0
 30
0.0
 70
   128
  0
VERTEX
  5
1F22
330
1F21
100
AcDbEntity
  8
SUPW_L_0
100
AcDbVertex
100
AcDb2dVertex
 10
8392590.62278243
 20
5686758.678203928
 30
0.0
  0
VERTEX
  5
1F23
330
1F21
100
AcDbEntity
  8
SUPW_L_0
100
AcDbVertex
100
AcDb2dVertex
 10
8392590.324529852
 20
5686725.668635729
 30
0.0
  0
SEQEND
  5
1F24
330
0
100
AcDbEntity
  8
SUPW_L_0
  0
POLYLINE
  5
1F25
330
43
100
AcDbEntity
  8
SUPW_L_0
  6
Continuous
 62
     5
370
    18
100
AcDb2dPolyline
 66
     1
 10
0.0
 20
0.0
 30
0.0
 70
   128
  0
VERTEX
  5
1F26
330
1F25
100
AcDbEntity
  8
SUPW_L_0
100
AcDbVertex
100
AcDb2dVertex
 10
8392590.324529852
 20
5686725.668635729
 30
0.0
  0
VERTEX
  5
1F27
330
1F25
100
AcDbEntity
  8
SUPW_L_0
100
AcDbVertex
100
AcDb2dVertex
 10
8392589.96657707
 20
5686695.444080251
 30
0.0
  0
SEQEND
  5
1F28
330
0
100
AcDbEntity
  8
SUPW_L_0
  0
POLYLINE
  5
1F29
330
43
100
AcDbEntity
  8
SUPW_L_0
  6
Continuous
 62
     5
370
    18
100
AcDb2dPolyline
 66
     1
 10
0.0
 20
0.0
 30
0.0
 70
   128
  0
VERTEX
  5
1F2A
330
1F29
100
AcDbEntity
  8
SUPW_L_0
100
AcDbVertex
100
AcDb2dVertex
 10
8392589.96657707
 20
5686695.444080251
 30
0.0
  0
VERTEX
  5
1F2B
330
1F29
100
AcDbEntity
  8
SUPW_L_0
100
AcDbVertex
100
AcDb2dVertex
 10
8392590.713382126
 20
5686663.29391846
 30
0.0
  0
SEQEND
  5
1F2C
330
0
100
AcDbEntity
  8
SUPW_L_0
  0
POLYLINE
  5
1F2D
330
43
100
AcDbEntity
  8
SUPW_L_0
  6
Continuous
 62
     5
370
    18
100
AcDb2dPolyline
 66
     1
 10
0.0
 20
0.0
 30
0.0
 70
   128
  0
VERTEX
  5
1F2E
330
1F2D
100
AcDbEntity
  8
SUPW_L_0
100
AcDbVertex
100
AcDb2dVertex
 10
8392590.713382126
 20
5686663.29391846
 30
0.0
  0
VERTEX
  5
1F2F
330
1F2D
100
AcDbEntity
  8
SUPW_L_0
100
AcDbVertex
100
AcDb2dVertex
 10
8392589.706228138
 20
5686652.03311769
 30
0.0
  0
SEQEND
  5
1F30
330
0
100
AcDbEntity
  8
SUPW_L_0
  0
POLYLINE
  5
1F49
330
43
100
AcDbEntity
  8
SUPW_L_0
  6
Continuous
 62
     5
370
    18
100
AcDb2dPolyline
 66
     1
 10
0.0
 20
0.0
 30
0.0
 70
   128
  0
VERTEX
  5
1F4A
330
1F49
100
AcDbEntity
  8
SUPW_L_0
100
AcDbVertex
100
AcDb2dVertex
 10
8392711.483932943
 20
5686646.772862712
 30
0.0
  0
VERTEX
  5
1F4B
330
1F49
100
AcDbEntity
  8
SUPW_L_0
100
AcDbVertex
100
AcDb2dVertex
 10
8392682.3
 20
5686648.13
 30
0.0
  0
SEQEND
  5
1F4C
330
0
100
AcDbEntity
  8
SUPW_L_0
  0
POLYLINE
  5
1F4D
330
43
100
AcDbEntity
  8
SUPW_L_0
  6
Continuous
 62
     5
370
    18
100
AcDb2dPolyline
 66
     1
 10
0.0
 20
0.0
 30
0.0
 70
   128
  0
VERTEX
  5
1F4E
330
1F4D
100
AcDbEntity
  8
SUPW_L_0
100
AcDbVertex
100
AcDb2dVertex
 10
8392682.3
 20
5686648.13
 30
0.0
  0
VERTEX
  5
1F4F
330
1F4D
100
AcDbEntity
  8
SUPW_L_0
100
AcDbVertex
100
AcDb2dVertex
 10
8392603.626752276
 20
5686651.711231539
 30
0.0
  0
SEQEND
  5
1F50
330
0
100
AcDbEntity
  8
SUPW_L_0
  0
POLYLINE
  5
1F51
330
43
100
AcDbEntity
  8
SUPW_L_0
  6
Continuous
 62
     5
370
    18
100
AcDb2dPolyline
 66
     1
 10
0.0
 20
0.0
 30
0.0
 70
   128
  0
VERTEX
  5
1F52
330
1F51
100
AcDbEntity
  8
SUPW_L_0
100
AcDbVertex
100
AcDb2dVertex
 10
8392603.626752276
 20
5686651.711231539
 30
0.0
  0
VERTEX
  5
1F53
330
1F51
100
AcDbEntity
  8
SUPW_L_0
100
AcDbVertex
100
AcDb2dVertex
 10
8392589.706228138
 20
5686652.03311769
 30
0.0
  0
SEQEND
  5
1F54
330
0
100
AcDbEntity
  8
SUPW_L_0
  0
POLYLINE
  5
1F55
330
43
100
AcDbEntity
  8
SUPW_L_0
  6
Continuous
 62
     5
370
    18
100
AcDb2dPolyline
 66
     1
 10
0.0
 20
0.0
 30
0.0
 70
   128
  0
VERTEX
  5
1F56
330
1F55
100
AcDbEntity
  8
SUPW_L_0
100
AcDbVertex
100
AcDb2dVertex
 10
8392589.706228138
 20
5686652.03311769
 30
0.0
  0
VERTEX
  5
1F57
330
1F55
100
AcDbEntity
  8
SUPW_L_0
100
AcDbVertex
100
AcDb2dVertex
 10
8392585.025068452
 20
5686652.368921039
 30
0.0
  0
SEQEND
  5
1F58
330
0
100
AcDbEntity
  8
SUPW_L_0
  0
POLYLINE
  5
1F59
330
43
100
AcDbEntity
  8
SUPW_L_0
  6
Continuous
 62
     5
370
    18
100
AcDb2dPolyline
 66
     1
 10
0.0
 20
0.0
 30
0.0
 70
   128
  0
VERTEX
  5
1F5A
330
1F59
100
AcDbEntity
  8
SUPW_L_0
100
AcDbVertex
100
AcDb2dVertex
 10
8392585.025068452
 20
5686652.368921039
 30
0.0
  0
VERTEX
  5
1F5B
330
1F59
100
AcDbEntity
  8
SUPW_L_0
100
AcDbVertex
100
AcDb2dVertex
 10
8392581.269999999
 20
5686652.22
 30
0.0
  0
SEQEND
  5
1F5C
330
0
100
AcDbEntity
  8
SUPW_L_0
  0
POLYLINE
  5
1F5D
330
43
100
AcDbEntity
  8
SUPW_L_0
  6
Continuous
 62
     5
370
    18
100
AcDb2dPolyline
 66
     1
 10
0.0
 20
0.0
 30
0.0
 70
   128
  0
VERTEX
  5
1F5E
330
1F5D
100
AcDbEntity
  8
SUPW_L_0
100
AcDbVertex
100
AcDb2dVertex
 10
8392581.269999999
 20
5686652.22
 30
0.0
  0
VERTEX
  5
1F5F
330
1F5D
100
AcDbEntity
  8
SUPW_L_0
100
AcDbVertex
100
AcDb2dVertex
 10
8392547.73121342
 20
5686652.917156979
 30
0.0
  0
SEQEND
  5
1F60
330
0
100
AcDbEntity
  8
SUPW_L_0
  0
POLYLINE
  5
1F61
330
43
100
AcDbEntity
  8
SUPW_L_0
  6
Continuous
 62
     5
370
    18
100
AcDb2dPolyline
 66
     1
 10
0.0
 20
0.0
 30
0.0
 70
   128
  0
VERTEX
  5
1F62
330
1F61
100
AcDbEntity
  8
SUPW_L_0
100
AcDbVertex
100
AcDb2dVertex
 10
8392547.73121342
 20
5686652.917156979
 30
0.0
  0
VERTEX
  5
1F63
330
1F61
100
AcDbEntity
  8
SUPW_L_0
100
AcDbVertex
100
AcDb2dVertex
 10
8392529.46645656
 20
5686653.741655939
 30
0.0
  0
SEQEND
  5
1F64
330
0
100
AcDbEntity
  8
SUPW_L_0
  0
POLYLINE
  5
1F65
330
43
100
AcDbEntity
  8
SUPW_L_0
  6
Continuous
 62
     5
370
    18
100
AcDb2dPolyline
 66
     1
 10
0.0
 20
0.0
 30
0.0
 70
   128
  0
VERTEX
  5
1F66
330
1F65
100
AcDbEntity
  8
SUPW_L_0
100
AcDbVertex
100
AcDb2dVertex
 10
8392529.46645656
 20
5686653.741655939
 30
0.0
  0
VERTEX
  5
1F67
330
1F65
100
AcDbEntity
  8
SUPW_L_0
100
AcDbVertex
100
AcDb2dVertex
 10
8392523.914643458
 20
5686654.08196231
 30
0.0
  0
SEQEND
  5
1F68
330
0
100
AcDbEntity
  8
SUPW_L_0
  0
POLYLINE
  5
1F69
330
43
100
AcDbEntity
  8
SUPW_L_0
  6
Continuous
 62
     5
370
    18
100
AcDb2dPolyline
 66
     1
 10
0.0
 20
0.0
 30
0.0
 70
   128
  0
VERTEX
  5
1F6A
330
1F69
100
AcDbEntity
  8
SUPW_L_0
100
AcDbVertex
100
AcDb2dVertex
 10
8392523.914643458
 20
5686654.08196231
 30
0.0
  0
VERTEX
  5
1F6B
330
1F69
100
AcDbEntity
  8
SUPW_L_0
100
AcDbVertex
100
AcDb2dVertex
 10
8392487.688591948
 20
5686655.558773529
 30
0.0
  0
SEQEND
  5
1F6C
330
0
100
AcDbEntity
  8
SUPW_L_0
  0
CIRCLE
  5
1FAD
330
43
100
AcDbEntity
  8
SUSM_T_3
  6
Continuous
 62
     7
370
    18
100
AcDbCircle
 10
8392580.060000002
 20
5686687.46
 30
0.0
 40
0.25
  0
CIRCLE
  5
1FAE
330
43
100
AcDbEntity
  8
SUSM_T_3
  6
Continuous
 62
     7
370
    18
100
AcDbCircle
 10
8392546.339999997
 20
5686655.820000002
 30
0.0
 40
0.25
  0
POLYLINE
  5
1FAF
330
43
100
AcDbEntity
  8
SUTE_T_0
  6
Continuous
 62
     1
370
    18
100
AcDb2dPolyline
 66
     1
 10
0.0
 20
0.0
 30
0.0
 70
   128
  0
VERTEX
  5
1FB0
330
1FAF
100
AcDbEntity
  8
SUTE_T_0
100
AcDbVertex
100
AcDb2dVertex
 10
8392575.699999182
 20
5686654.149999494
 30
0.0
  0
VERTEX
  5
1FB1
330
1FAF
100
AcDbEntity
  8
SUTE_T_0
100
AcDbVertex
100
AcDb2dVertex
 10
8392573.513292147
 20
5686657.878581737
 30
0.0
  0
SEQEND
  5
1FB2
330
0
100
AcDbEntity
  8
SUTE_T_0
  0
POLYLINE
  5
1FB3
330
43
100
AcDbEntity
  8
SUTE_T_0
  6
Continuous
 62
     1
370
    18
100
AcDb2dPolyline
 66
     1
 10
0.0
 20
0.0
 30
0.0
 70
   128
  0
VERTEX
  5
1FB4
330
1FB3
100
AcDbEntity
  8
SUTE_T_0
100
AcDbVertex
100
AcDb2dVertex
 10
8392570.883779425
 20
5686658.010866896
 30
0.0
  0
VERTEX
  5
1FB5
330
1FB3
100
AcDbEntity
  8
SUTE_T_0
100
AcDbVertex
100
AcDb2dVertex
 10
8392573.513292147
 20
5686657.878581737
 30
0.0
  0
SEQEND
  5
1FB6
330
0
100
AcDbEntity
  8
SUTE_T_0
  0
POLYLINE
  5
1FB7
330
43
100
AcDbEntity
  8
SUTW_T_0
  6
Continuous
 62
     5
370
    18
100
AcDb2dPolyline
 66
     1
 10
0.0
 20
0.0
 30
0.0
 70
   128
  0
VERTEX
  5
1FB8
330
1FB7
100
AcDbEntity
  8
SUTW_T_0
100
AcDbVertex
100
AcDb2dVertex
 10
8392579.449999999
 20
5686707.299999977
 30
0.0
  0
VERTEX
  5
1FB9
330
1FB7
100
AcDbEntity
  8
SUTW_T_0
100
AcDbVertex
100
AcDb2dVertex
 10
8392579.396505752
 20
5686707.668655238
 30
0.0
  0
SEQEND
  5
1FBA
330
0
100
AcDbEntity
  8
SUTW_T_0
  0
POLYLINE
  5
1FBB
330
43
100
AcDbEntity
  8
SUTW_T_0
  6
Continuous
 62
     5
370
    18
100
AcDb2dPolyline
 66
     1
 10
0.0
 20
0.0
 30
0.0
 70
   128
  0
VERTEX
  5
1FBC
330
1FBB
100
AcDbEntity
  8
SUTW_T_0
100
AcDbVertex
100
AcDb2dVertex
 10
8392576.763667635
 20
5686707.668655238
 30
0.0
  0
VERTEX
  5
1FBD
330
1FBB
100
AcDbEntity
  8
SUTW_T_0
100
AcDbVertex
100
AcDb2dVertex
 10
8392579.396505752
 20
5686707.668655238
 30
0.0
  0
SEQEND
  5
1FBE
330
0
100
AcDbEntity
  8
SUTW_T_0
  0
POLYLINE
  5
1FBF
330
43
100
AcDbEntity
  8
SUTW_T_0
  6
Continuous
 62
     5
370
    18
100
AcDb2dPolyline
 66
     1
 10
0.0
 20
0.0
 30
0.0
 70
   128
  0
VERTEX
  5
1FC0
330
1FBF
100
AcDbEntity
  8
SUTW_T_0
100
AcDbVertex
100
AcDb2dVertex
 10
8392562.229999974
 20
5686714.069999972
 30
0.0
  0
VERTEX
  5
1FC1
330
1FBF
100
AcDbEntity
  8
SUTW_T_0
100
AcDbVertex
100
AcDb2dVertex
 10
8392563.124568178
 20
5686712.55723063
 30
0.0
  0
SEQEND
  5
1FC2
330
0
100
AcDbEntity
  8
SUTW_T_0
  0
POLYLINE
  5
1FC3
330
43
100
AcDbEntity
  8
SUTW_T_0
  6
Continuous
 62
     5
370
    18
100
AcDb2dPolyline
 66
     1
 10
0.0
 20
0.0
 30
0.0
 70
   128
  0
VERTEX
  5
1FC4
330
1FC3
100
AcDbEntity
  8
SUTW_T_0
100
AcDbVertex
100
AcDb2dVertex
 10
8392563.124568178
 20
5686712.55723063
 30
0.0
  0
VERTEX
  5
1FC5
330
1FC3
100
AcDbEntity
  8
SUTW_T_0
100
AcDbVertex
100
AcDb2dVertex
 10
8392565.865976935
 20
5686712.55723063
 30
0.0
  0
SEQEND
  5
1FC6
330
0
100
AcDbEntity
  8
SUTW_T_0
  0
POLYLINE
  5
1FC7
330
43
100
AcDbEntity
  8
SUTW_T_0
  6
Continuous
 62
     5
370
    18
100
AcDb2dPolyline
 66
     1
 10
0.0
 20
0.0
 30
0.0
 70
   128
  0
VERTEX
  5
1FC8
330
1FC7
100
AcDbEntity
  8
SUTW_T_0
100
AcDbVertex
100
AcDb2dVertex
 10
8392589.706228125
 20
5686652.033117581
 30
0.0
  0
VERTEX
  5
1FC9
330
1FC7
100
AcDbEntity
  8
SUTW_T_0
100
AcDbVertex
100
AcDb2dVertex
 10
8392592.655669799
 20
5686655.53078513
 30
0.0
  0
SEQEND
  5
1FCA
330
0
100
AcDbEntity
  8
SUTW_T_0
  0
POLYLINE
  5
1FCB
330
43
100
AcDbEntity
  8
SUTW_T_0
  6
Continuous
 62
     5
370
    18
100
AcDb2dPolyline
 66
     1
 10
0.0
 20
0.0
 30
0.0
 70
   128
  0
VERTEX
  5
1FCC
330
1FCB
100
AcDbEntity
  8
SUTW_T_0
100
AcDbVertex
100
AcDb2dVertex
 10
8392592.655669799
 20
5686655.53078513
 30
0.0
  0
VERTEX
  5
1FCD
330
1FCB
100
AcDbEntity
  8
SUTW_T_0
100
AcDbVertex
100
AcDb2dVertex
 10
8392595.152794607
 20
5686655.53078513
 30
0.0
  0
SEQEND
  5
1FCE
330
0
100
AcDbEntity
  8
SUTW_T_0
  0
POLYLINE
  5
1FCF
330
43
100
AcDbEntity
  8
SUUE_T_3
  6
Continuous
 62
   250
370
    18
100
AcDb2dPolyline
 66
     1
 10
0.0
 20
0.0
 30
0.0
 70
   128
  0
VERTEX
  5
1FD0
330
1FCF
100
AcDbEntity
  8
SUUE_T_3
100
AcDbVertex
100
AcDb2dVertex
 10
8392580.232816884
 20
5686656.121398552
 30
0.0
  0
VERTEX
  5
1FD1
330
1FCF
100
AcDbEntity
  8
SUUE_T_3
100
AcDbVertex
100
AcDb2dVertex
 10
8392580.227191027
 20
5686655.121414377
 30
0.0
  0
SEQEND
  5
1FD2
330
0
100
AcDbEntity
  8
SUUE_T_3
  0
POLYLINE
  5
1FD3
330
43
100
AcDbEntity
  8
SUUE_T_3
  6
Continuous
 62
   250
370
    18
100
AcDb2dPolyline
 66
     1
 10
0.0
 20
0.0
 30
0.0
 70
   128
  0
VERTEX
  5
1FD4
330
1FD3
100
AcDbEntity
  8
SUUE_T_3
100
AcDbVertex
100
AcDb2dVertex
 10
8392580.227191027
 20
5686655.121414377
 30
0.0
  0
VERTEX
  5
1FD5
330
1FD3
100
AcDbEntity
  8
SUUE_T_3
100
AcDbVertex
100
AcDb2dVertex
 10
8392580.727183114
 20
5686655.118601447
 30
0.0
  0
SEQEND
  5
1FD6
330
0
100
AcDbEntity
  8
SUUE_T_3
  0
POLYLINE
  5
1FD7
330
43
100
AcDbEntity
  8
SUUE_T_3
  6
Continuous
 62
   250
370
    18
100
AcDb2dPolyline
 66
     1
 10
0.0
 20
0.0
 30
0.0
 70
   128
  0
VERTEX
  5
1FD8
330
1FD7
100
AcDbEntity
  8
SUUE_T_3
100
AcDbVertex
100
AcDb2dVertex
 10
8392580.727183114
 20
5686655.118601447
 30
0.0
  0
VERTEX
  5
1FD9
330
1FD7
100
AcDbEntity
  8
SUUE_T_3
100
AcDbVertex
100
AcDb2dVertex
 10
8392580.732808971
 20
5686656.118585624
 30
0.0
  0
SEQEND
  5
1FDA
330
0
100
AcDbEntity
  8
SUUE_T_3
  0
POLYLINE
  5
1FDB
330
43
100
AcDbEntity
  8
SUUE_T_3
  6
Continuous
 62
   250
370
    18
100
AcDb2dPolyline
 66
     1
 10
0.0
 20
0.0
 30
0.0
 70
   128
  0
VERTEX
  5
1FDC
330
1FDB
100
AcDbEntity
  8
SUUE_T_3
100
AcDbVertex
100
AcDb2dVertex
 10
8392580.732808971
 20
5686656.118585624
 30
0.0
  0
VERTEX
  5
1FDD
330
1FDB
100
AcDbEntity
  8
SUUE_T_3
100
AcDbVertex
100
AcDb2dVertex
 10
8392580.232816884
 20
5686656.121398552
 30
0.0
  0
SEQEND
  5
1FDE
330
0
100
AcDbEntity
  8
SUUE_T_3
  0
POLYLINE
  5
1FDF
330
43
100
AcDbEntity
  8
SUUE_T_3
  6
Continuous
 62
   250
370
    18
100
AcDb2dPolyline
 66
     1
 10
0.0
 20
0.0
 30
0.0
 70
   128
  0
VERTEX
  5
1FE0
330
1FDF
100
AcDbEntity
  8
SUUE_T_3
100
AcDbVertex
100
AcDb2dVertex
 10
8392590.37869383
 20
5686651.304022117
 30
0.0
  0
VERTEX
  5
1FE1
330
1FDF
100
AcDbEntity
  8
SUUE_T_3
100
AcDbVertex
100
AcDb2dVertex
 10
8392591.377566004
 20
5686651.256541795
 30
0.0
  0
SEQEND
  5
1FE2
330
0
100
AcDbEntity
  8
SUUE_T_3
  0
POLYLINE
  5
1FE3
330
43
100
AcDbEntity
  8
SUUE_T_3
  6
Continuous
 62
   250
370
    18
100
AcDb2dPolyline
 66
     1
 10
0.0
 20
0.0
 30
0.0
 70
   128
  0
VERTEX
  5
1FE4
330
1FE3
100
AcDbEntity
  8
SUUE_T_3
100
AcDbVertex
100
AcDb2dVertex
 10
8392591.377566004
 20
5686651.256541795
 30
0.0
  0
VERTEX
  5
1FE5
330
1FE3
100
AcDbEntity
  8
SUUE_T_3
100
AcDbVertex
100
AcDb2dVertex
 10
8392591.401306169
 20
5686651.755977881
 30
0.0
  0
SEQEND
  5
1FE6
330
0
100
AcDbEntity
  8
SUUE_T_3
  0
POLYLINE
  5
1FE7
330
43
100
AcDbEntity
  8
SUUE_T_3
  6
Continuous
 62
   250
370
    18
100
AcDb2dPolyline
 66
     1
 10
0.0
 20
0.0
 30
0.0
 70
   128
  0
VERTEX
  5
1FE8
330
1FE7
100
AcDbEntity
  8
SUUE_T_3
100
AcDbVertex
100
AcDb2dVertex
 10
8392591.401306169
 20
5686651.755977881
 30
0.0
  0
VERTEX
  5
1FE9
330
1FE7
100
AcDbEntity
  8
SUUE_T_3
100
AcDbVertex
100
AcDb2dVertex
 10
8392590.402433995
 20
5686651.803458205
 30
0.0
  0
SEQEND
  5
1FEA
330
0
100
AcDbEntity
  8
SUUE_T_3
  0
POLYLINE
  5
1FEB
330
43
100
AcDbEntity
  8
SUUE_T_3
  6
Continuous
 62
   250
370
    18
100
AcDb2dPolyline
 66
     1
 10
0.0
 20
0.0
 30
0.0
 70
   128
  0
VERTEX
  5
1FEC
330
1FEB
100
AcDbEntity
  8
SUUE_T_3
100
AcDbVertex
100
AcDb2dVertex
 10
8392590.402433995
 20
5686651.803458205
 30
0.0
  0
VERTEX
  5
1FED
330
1FEB
100
AcDbEntity
  8
SUUE_T_3
100
AcDbVertex
100
AcDb2dVertex
 10
8392590.37869383
 20
5686651.304022117
 30
0.0
  0
SEQEND
  5
1FEE
330
0
100
AcDbEntity
  8
SUUE_T_3
  0
CIRCLE
  5
1FEF
330
43
100
AcDbEntity
  8
SUUE_T_9
  6
Continuous
 62
     7
370
    18
100
AcDbCircle
 10
8392575.7
 20
5686654.15
 30
0.0
 40
0.25
  0
CIRCLE
  5
1FF0
330
43
100
AcDbEntity
  8
SUUE_T_9
  6
Continuous
 62
     7
370
    18
100
AcDbCircle
 10
8392575.7
 20
5686654.15
 30
0.0
 40
0.224999999627
  0
CIRCLE
  5
1FF1
330
43
100
AcDbEntity
  8
SUUE_T_9
  6
Continuous
 62
     7
370
    18
100
AcDbCircle
 10
8392575.7
 20
5686654.15
 30
0.0
 40
0.200000000186
  0
CIRCLE
  5
1FF2
330
43
100
AcDbEntity
  8
SUUE_T_9
  6
Continuous
 62
     7
370
    18
100
AcDbCircle
 10
8392575.7
 20
5686654.15
 30
0.0
 40
0.174999999814
  0
CIRCLE
  5
1FF3
330
43
100
AcDbEntity
  8
SUUE_T_9
  6
Continuous
 62
     7
370
    18
100
AcDbCircle
 10
8392575.7
 20
5686654.15
 30
0.0
 40
0.150000000373
  0
CIRCLE
  5
1FF4
330
43
100
AcDbEntity
  8
SUUE_T_9
  6
Continuous
 62
     7
370
    18
100
AcDbCircle
 10
8392575.7
 20
5686654.15
 30
0.0
 40
0.125
  0
CIRCLE
  5
1FF5
330
43
100
AcDbEntity
  8
SUUE_T_9
  6
Continuous
 62
     7
370
    18
100
AcDbCircle
 10
8392575.7
 20
5686654.15
 30
0.0
 40
0.099999999627
  0
CIRCLE
  5
1FF6
330
43
100
AcDbEntity
  8
SUUE_T_9
  6
Continuous
 62
     7
370
    18
100
AcDbCircle
 10
8392575.7
 20
5686654.15
 30
0.0
 40
0.075000000186
  0
CIRCLE
  5
1FF7
330
43
100
AcDbEntity
  8
SUUE_T_9
  6
Continuous
 62
     7
370
    18
100
AcDbCircle
 10
8392575.7
 20
5686654.15
 30
0.0
 40
0.049999999814
  0
CIRCLE
  5
1FF8
330
43
100
AcDbEntity
  8
SUUE_T_9
  6
Continuous
 62
     7
370
    18
100
AcDbCircle
 10
8392575.7
 20
5686654.15
 30
0.0
 40
0.025000000373
  0
CIRCLE
  5
1FF9
330
43
100
AcDbEntity
  8
SUUE_T_9
  6
Continuous
 62
     7
370
    18
100
AcDbCircle
 10
8392575.7
 20
5686654.15
 30
0.0
 40
0.007149999961
  0
POLYLINE
  5
1FFA
330
43
100
AcDbEntity
  8
SUUG_T_1
  6
Continuous
 62
   250
370
    18
100
AcDb2dPolyline
 66
     1
 10
0.0
 20
0.0
 30
0.0
 70
   128
  0
VERTEX
  5
1FFB
330
1FFA
100
AcDbEntity
  8
SUUG_T_1
100
AcDbVertex
100
AcDb2dVertex
 10
8392579.963144605
 20
5686657.441559979
 30
0.0
  0
VERTEX
  5
1FFC
330
1FFA
100
AcDbEntity
  8
SUUG_T_1
100
AcDbVertex
100
AcDb2dVertex
 10
8392579.956865253
 20
5686656.441579694
 30
0.0
  0
SEQEND
  5
1FFD
330
0
100
AcDbEntity
  8
SUUG_T_1
  0
POLYLINE
  5
1FFE
330
43
100
AcDbEntity
  8
SUUG_T_1
  6
Continuous
 62
   250
370
    18
100
AcDb2dPolyline
 66
     1
 10
0.0
 20
0.0
 30
0.0
 70
   128
  0
VERTEX
  5
1FFF
330
1FFE
100
AcDbEntity
  8
SUUG_T_1
100
AcDbVertex
100
AcDb2dVertex
 10
8392579.956865253
 20
5686656.441579694
 30
0.0
  0
VERTEX
  5
2000
330
1FFE
100
AcDbEntity
  8
SUUG_T_1
100
AcDbVertex
100
AcDb2dVertex
 10
8392580.456855394
 20
5686656.43844002
 30
0.0
  0
SEQEND
  5
2001
330
0
100
AcDbEntity
  8
SUUG_T_1
  0
POLYLINE
  5
2002
330
43
100
AcDbEntity
  8
SUUG_T_1
  6
Continuous
 62
   250
370
    18
100
AcDb2dPolyline
 66
     1
 10
0.0
 20
0.0
 30
0.0
 70
   128
  0
VERTEX
  5
2003
330
2002
100
AcDbEntity
  8
SUUG_T_1
100
AcDbVertex
100
AcDb2dVertex
 10
8392580.456855394
 20
5686656.43844002
 30
0.0
  0
VERTEX
  5
2004
330
2002
100
AcDbEntity
  8
SUUG_T_1
100
AcDbVertex
100
AcDb2dVertex
 10
8392580.463134748
 20
5686657.438420304
 30
0.0
  0
SEQEND
  5
2005
330
0
100
AcDbEntity
  8
SUUG_T_1
  0
POLYLINE
  5
2006
330
43
100
AcDbEntity
  8
SUUG_T_1
  6
Continuous
 62
   250
370
    18
100
AcDb2dPolyline
 66
     1
 10
0.0
 20
0.0
 30
0.0
 70
   128
  0
VERTEX
  5
2007
330
2006
100
AcDbEntity
  8
SUUG_T_1
100
AcDbVertex
100
AcDb2dVertex
 10
8392580.463134748
 20
5686657.438420304
 30
0.0
  0
VERTEX
  5
2008
330
2006
100
AcDbEntity
  8
SUUG_T_1
100
AcDbVertex
100
AcDb2dVertex
 10
8392579.963144605
 20
5686657.441559979
 30
0.0
  0
SEQEND
  5
2009
330
0
100
AcDbEntity
  8
SUUG_T_1
  0
CIRCLE
  5
200A
330
43
100
AcDbEntity
  8
SUUW_T_3
  6
Continuous
 62
     5
370
    18
100
AcDbCircle
 10
8392562.230000001
 20
5686714.070000001
 30
0.0
 40
0.25
  0
CIRCLE
  5
200B
330
43
100
AcDbEntity
  8
SUUW_T_7
  6
Continuous
 62
     7
370
    18
100
AcDbCircle
 10
8392579.449999999
 20
5686707.300000001
 30
0.0
 40
0.200000000186
  0
CIRCLE
  5
200C
330
43
100
AcDbEntity
  8
SUUW_T_7
  6
Continuous
 62
     7
370
    18
100
AcDbCircle
 10
8392579.449999999
 20
5686707.300000001
 30
0.0
 40
0.174999999814
  0
CIRCLE
  5
200D
330
43
100
AcDbEntity
  8
SUUW_T_7
  6
Continuous
 62
     7
370
    18
100
AcDbCircle
 10
8392579.449999999
 20
5686707.300000001
 30
0.0
 40
0.150000000373
  0
CIRCLE
  5
200E
330
43
100
AcDbEntity
  8
SUUW_T_7
  6
Continuous
 62
     7
370
    18
100
AcDbCircle
 10
8392579.449999999
 20
5686707.300000001
 30
0.0
 40
0.125
  0
CIRCLE
  5
200F
330
43
100
AcDbEntity
  8
SUUW_T_7
  6
Continuous
 62
     7
370
    18
100
AcDbCircle
 10
8392579.449999999
 20
5686707.300000001
 30
0.0
 40
0.099999999627
  0
CIRCLE
  5
2010
330
43
100
AcDbEntity
  8
SUUW_T_7
  6
Continuous
 62
     7
370
    18
100
AcDbCircle
 10
8392579.449999999
 20
5686707.300000001
 30
0.0
 40
0.075000000186
  0
CIRCLE
  5
2011
330
43
100
AcDbEntity
  8
SUUW_T_7
  6
Continuous
 62
     7
370
    18
100
AcDbCircle
 10
8392579.449999999
 20
5686707.300000001
 30
0.0
 40
0.049999999814
  0
CIRCLE
  5
2012
330
43
100
AcDbEntity
  8
SUUW_T_7
  6
Continuous
 62
     7
370
    18
100
AcDbCircle
 10
8392579.449999999
 20
5686707.300000001
 30
0.0
 40
0.025000000373
  0
CIRCLE
  5
2013
330
43
100
AcDbEntity
  8
SUUW_T_7
  6
Continuous
 62
     7
370
    18
100
AcDbCircle
 10
8392579.449999999
 20
5686707.300000001
 30
0.0
 40
0.007149999961
  0
CIRCLE
  5
2014
330
43
100
AcDbEntity
  8
SUUW_T_7
  6
Continuous
 62
     7
370
    18
100
AcDbCircle
 10
8392589.706228138
 20
5686652.03311769
 30
0.0
 40
0.200000000186
  0
CIRCLE
  5
2015
330
43
100
AcDbEntity
  8
SUUW_T_7
  6
Continuous
 62
     7
370
    18
100
AcDbCircle
 10
8392589.706228138
 20
5686652.03311769
 30
0.0
 40
0.174999999814
  0
CIRCLE
  5
2016
330
43
100
AcDbEntity
  8
SUUW_T_7
  6
Continuous
 62
     7
370
    18
100
AcDbCircle
 10
8392589.706228138
 20
5686652.03311769
 30
0.0
 40
0.150000000373
  0
CIRCLE
  5
2017
330
43
100
AcDbEntity
  8
SUUW_T_7
  6
Continuous
 62
     7
370
    18
100
AcDbCircle
 10
8392589.706228138
 20
5686652.03311769
 30
0.0
 40
0.125
  0
CIRCLE
  5
2018
330
43
100
AcDbEntity
  8
SUUW_T_7
  6
Continuous
 62
     7
370
    18
100
AcDbCircle
 10
8392589.706228138
 20
5686652.03311769
 30
0.0
 40
0.099999999627
  0
CIRCLE
  5
2019
330
43
100
AcDbEntity
  8
SUUW_T_7
  6
Continuous
 62
     7
370
    18
100
AcDbCircle
 10
8392589.706228138
 20
5686652.03311769
 30
0.0
 40
0.075000000186
  0
CIRCLE
  5
201A
330
43
100
AcDbEntity
  8
SUUW_T_7
  6
Continuous
 62
     7
370
    18
100
AcDbCircle
 10
8392589.706228138
 20
5686652.03311769
 30
0.0
 40
0.049999999814
  0
CIRCLE
  5
201B
330
43
100
AcDbEntity
  8
SUUW_T_7
  6
Continuous
 62
     7
370
    18
100
AcDbCircle
 10
8392589.706228138
 20
5686652.03311769
 30
0.0
 40
0.025000000373
  0
CIRCLE
  5
201C
330
43
100
AcDbEntity
  8
SUUW_T_7
  6
Continuous
 62
     7
370
    18
100
AcDbCircle
 10
8392589.706228138
 20
5686652.03311769
 30
0.0
 40
0.007149999961
  0
CIRCLE
  5
201D
330
43
100
AcDbEntity
  8
SUUW_T_7
  6
Continuous
 62
     7
370
    18
100
AcDbCircle
 10
8392529.46645656
 20
5686653.741655939
 30
0.0
 40
0.200000000186
  0
CIRCLE
  5
201E
330
43
100
AcDbEntity
  8
SUUW_T_7
  6
Continuous
 62
     7
370
    18
100
AcDbCircle
 10
8392529.46645656
 20
5686653.741655939
 30
0.0
 40
0.174999999814
  0
CIRCLE
  5
201F
330
43
100
AcDbEntity
  8
SUUW_T_7
  6
Continuous
 62
     7
370
    18
100
AcDbCircle
 10
8392529.46645656
 20
5686653.741655939
 30
0.0
 40
0.150000000373
  0
CIRCLE
  5
2020
330
43
100
AcDbEntity
  8
SUUW_T_7
  6
Continuous
 62
     7
370
    18
100
AcDbCircle
 10
8392529.46645656
 20
5686653.741655939
 30
0.0
 40
0.125
  0
CIRCLE
  5
2021
330
43
100
AcDbEntity
  8
SUUW_T_7
  6
Continuous
 62
     7
370
    18
100
AcDbCircle
 10
8392529.46645656
 20
5686653.741655939
 30
0.0
 40
0.099999999627
  0
CIRCLE
  5
2022
330
43
100
AcDbEntity
  8
SUUW_T_7
  6
Continuous
 62
     7
370
    18
100
AcDbCircle
 10
8392529.46645656
 20
5686653.741655939
 30
0.0
 40
0.075000000186
  0
CIRCLE
  5
2023
330
43
100
AcDbEntity
  8
SUUW_T_7
  6
Continuous
 62
     7
370
    18
100
AcDbCircle
 10
8392529.46645656
 20
5686653.741655939
 30
0.0
 40
0.049999999814
  0
CIRCLE
  5
2024
330
43
100
AcDbEntity
  8
SUUW_T_7
  6
Continuous
 62
     7
370
    18
100
AcDbCircle
 10
8392529.46645656
 20
5686653.741655939
 30
0.0
 40
0.025000000373
  0
CIRCLE
  5
2025
330
43
100
AcDbEntity
  8
SUUW_T_7
  6
Continuous
 62
     7
370
    18
100
AcDbCircle
 10
8392529.46645656
 20
5686653.741655939
 30
0.0
 40
0.007149999961
  0
POLYLINE
  5
2026
330
43
100
AcDbEntity
  8
Uzytki
  6
L_0_03
 62
     3
370
    18
100
AcDb2dPolyline
 66
     1
 10
0.0
 20
0.0
 30
0.0
 70
   128
  0
VERTEX
  5
2027
330
2026
100
AcDbEntity
  8
Uzytki
100
AcDbVertex
100
AcDb2dVertex
 10
8392574.169999999
 20
5686621.280000001
 30
0.0
  0
VERTEX
  5
2028
330
2026
100
AcDbEntity
  8
Uzytki
100
AcDbVertex
100
AcDb2dVertex
 10
8392581.18
 20
5686624.199999999
 30
0.0
  0
SEQEND
  5
2029
330
0
100
AcDbEntity
  8
Uzytki
  0
POLYLINE
  5
202A
330
43
100
AcDbEntity
  8
Uzytki
  6
L_0_03
 62
     3
370
    18
100
AcDb2dPolyline
 66
     1
 10
0.0
 20
0.0
 30
0.0
 70
   128
  0
VERTEX
  5
202B
330
202A
100
AcDbEntity
  8
Uzytki
100
AcDbVertex
100
AcDb2dVertex
 10
8392581.18
 20
5686624.199999999
 30
0.0
  0
VERTEX
  5
202C
330
202A
100
AcDbEntity
  8
Uzytki
100
AcDbVertex
100
AcDb2dVertex
 10
8392585.210000001
 20
5686614.040000001
 30
0.0
  0
SEQEND
  5
202D
330
0
100
AcDbEntity
  8
Uzytki
  0
POLYLINE
  5
202E
330
43
100
AcDbEntity
  8
Uzytki
  6
L_0_03
 62
     3
370
    18
100
AcDb2dPolyline
 66
     1
 10
0.0
 20
0.0
 30
0.0
 70
   128
  0
VERTEX
  5
202F
330
202E
100
AcDbEntity
  8
Uzytki
100
AcDbVertex
100
AcDb2dVertex
 10
8392585.210000001
 20
5686614.040000001
 30
0.0
  0
VERTEX
  5
2030
330
202E
100
AcDbEntity
  8
Uzytki
100
AcDbVertex
100
AcDb2dVertex
 10
8392612.339999995
 20
5686634.29
 30
0.0
  0
SEQEND
  5
2031
330
0
100
AcDbEntity
  8
Uzytki
  0
POLYLINE
  5
2032
330
43
100
AcDbEntity
  8
Uzytki
  6
L_0_03
 62
     3
370
    18
100
AcDb2dPolyline
 66
     1
 10
0.0
 20
0.0
 30
0.0
 70
   128
  0
VERTEX
  5
2033
330
2032
100
AcDbEntity
  8
Uzytki
100
AcDbVertex
100
AcDb2dVertex
 10
8392612.339999995
 20
5686634.29
 30
0.0
  0
VERTEX
  5
2034
330
2032
100
AcDbEntity
  8
Uzytki
100
AcDbVertex
100
AcDb2dVertex
 10
8392628.890000001
 20
5686643.959999998
 30
0.0
  0
SEQEND
  5
2035
330
0
100
AcDbEntity
  8
Uzytki
  0
POLYLINE
  5
2036
330
43
100
AcDbEntity
  8
Uzytki
  6
L_0_03
 62
     3
370
    18
100
AcDb2dPolyline
 66
     1
 10
0.0
 20
0.0
 30
0.0
 70
   128
  0
VERTEX
  5
2037
330
2036
100
AcDbEntity
  8
Uzytki
100
AcDbVertex
100
AcDb2dVertex
 10
8392628.890000001
 20
5686643.959999998
 30
0.0
  0
VERTEX
  5
2038
330
2036
100
AcDbEntity
  8
Uzytki
100
AcDbVertex
100
AcDb2dVertex
 10
8392567.130000001
 20
5686646.179999999
 30
0.0
  0
SEQEND
  5
2039
330
0
100
AcDbEntity
  8
Uzytki
  0
POLYLINE
  5
203A
330
43
100
AcDbEntity
  8
Uzytki
  6
L_0_03
 62
     3
370
    18
100
AcDb2dPolyline
 66
     1
 10
0.0
 20
0.0
 30
0.0
 70
   128
  0
VERTEX
  5
203B
330
203A
100
AcDbEntity
  8
Uzytki
100
AcDbVertex
100
AcDb2dVertex
 10
8392567.130000001
 20
5686646.179999999
 30
0.0
  0
VERTEX
  5
203C
330
203A
100
AcDbEntity
  8
Uzytki
100
AcDbVertex
100
AcDb2dVertex
 10
8392553.320000002
 20
5686646.679999999
 30
0.0
  0
SEQEND
  5
203D
330
0
100
AcDbEntity
  8
Uzytki
  0
POLYLINE
  5
203E
330
43
100
AcDbEntity
  8
Uzytki
  6
L_0_03
 62
     3
370
    18
100
AcDb2dPolyline
 66
     1
 10
0.0
 20
0.0
 30
0.0
 70
   128
  0
VERTEX
  5
203F
330
203E
100
AcDbEntity
  8
Uzytki
100
AcDbVertex
100
AcDb2dVertex
 10
8392553.320000002
 20
5686646.679999999
 30
0.0
  0
VERTEX
  5
2040
330
203E
100
AcDbEntity
  8
Uzytki
100
AcDbVertex
100
AcDb2dVertex
 10
8392532.759999998
 20
5686647.89
 30
0.0
  0
SEQEND
  5
2041
330
0
100
AcDbEntity
  8
Uzytki
  0
POLYLINE
  5
2042
330
43
100
AcDbEntity
  8
Uzytki
  6
L_0_03
 62
     3
370
    18
100
AcDb2dPolyline
 66
     1
 10
0.0
 20
0.0
 30
0.0
 70
   128
  0
VERTEX
  5
2043
330
2042
100
AcDbEntity
  8
Uzytki
100
AcDbVertex
100
AcDb2dVertex
 10
8392532.759999998
 20
5686647.89
 30
0.0
  0
VERTEX
  5
2044
330
2042
100
AcDbEntity
  8
Uzytki
100
AcDbVertex
100
AcDb2dVertex
 10
8392530.259999997
 20
5686645.54
 30
0.0
  0
SEQEND
  5
2045
330
0
100
AcDbEntity
  8
Uzytki
  0
POLYLINE
  5
2046
330
43
100
AcDbEntity
  8
Uzytki
  6
L_0_03
 62
     3
370
    18
100
AcDb2dPolyline
 66
     1
 10
0.0
 20
0.0
 30
0.0
 70
   128
  0
VERTEX
  5
2047
330
2046
100
AcDbEntity
  8
Uzytki
100
AcDbVertex
100
AcDb2dVertex
 10
8392530.259999997
 20
5686645.54
 30
0.0
  0
VERTEX
  5
2048
330
2046
100
AcDbEntity
  8
Uzytki
100
AcDbVertex
100
AcDb2dVertex
 10
8392530.050000001
 20
5686553.370000001
 30
0.0
  0
SEQEND
  5
2049
330
0
100
AcDbEntity
  8
Uzytki
  0
POLYLINE
  5
205A
330
43
100
AcDbEntity
  8
Uzytki
  6
L_0_03
 62
     3
370
    18
100
AcDb2dPolyline
 66
     1
 10
0.0
 20
0.0
 30
0.0
 70
   128
  0
VERTEX
  5
205B
330
205A
100
AcDbEntity
  8
Uzytki
100
AcDbVertex
100
AcDb2dVertex
 10
8392530.330000001
 20
5686567.19
 30
0.0
  0
VERTEX
  5
205C
330
205A
100
AcDbEntity
  8
Uzytki
100
AcDbVertex
100
AcDb2dVertex
 10
8392541.969999999
 20
5686586.22
 30
0.0
  0
SEQEND
  5
205D
330
0
100
AcDbEntity
  8
Uzytki
  0
POLYLINE
  5
205E
330
43
100
AcDbEntity
  8
Uzytki
  6
L_0_03
 62
     3
370
    18
100
AcDb2dPolyline
 66
     1
 10
0.0
 20
0.0
 30
0.0
 70
   128
  0
VERTEX
  5
205F
330
205E
100
AcDbEntity
  8
Uzytki
100
AcDbVertex
100
AcDb2dVertex
 10
8392541.969999999
 20
5686586.22
 30
0.0
  0
VERTEX
  5
2060
330
205E
100
AcDbEntity
  8
Uzytki
100
AcDbVertex
100
AcDb2dVertex
 10
8392557.14
 20
5686602.21
 30
0.0
  0
SEQEND
  5
2061
330
0
100
AcDbEntity
  8
Uzytki
  0
POLYLINE
  5
2062
330
43
100
AcDbEntity
  8
Uzytki
  6
L_0_03
 62
     3
370
    18
100
AcDb2dPolyline
 66
     1
 10
0.0
 20
0.0
 30
0.0
 70
   128
  0
VERTEX
  5
2063
330
2062
100
AcDbEntity
  8
Uzytki
100
AcDbVertex
100
AcDb2dVertex
 10
8392557.14
 20
5686602.21
 30
0.0
  0
VERTEX
  5
2064
330
2062
100
AcDbEntity
  8
Uzytki
100
AcDbVertex
100
AcDb2dVertex
 10
8392576.65
 20
5686610.24
 30
0.0
  0
SEQEND
  5
2065
330
0
100
AcDbEntity
  8
Uzytki
  0
POLYLINE
  5
2066
330
43
100
AcDbEntity
  8
Uzytki
  6
L_0_03
 62
     3
370
    18
100
AcDb2dPolyline
 66
     1
 10
0.0
 20
0.0
 30
0.0
 70
   128
  0
VERTEX
  5
2067
330
2066
100
AcDbEntity
  8
Uzytki
100
AcDbVertex
100
AcDb2dVertex
 10
8392576.65
 20
5686610.24
 30
0.0
  0
VERTEX
  5
2068
330
2066
100
AcDbEntity
  8
Uzytki
100
AcDbVertex
100
AcDb2dVertex
 10
8392574.169999999
 20
5686621.280000001
 30
0.0
  0
SEQEND
  5
2069
330
0
100
AcDbEntity
  8
Uzytki
  0
POLYLINE
  5
206A
330
43
100
AcDbEntity
  8
Uzytki
  6
L_0_03
 62
     3
370
    18
100
AcDb2dPolyline
 66
     1
 10
0.0
 20
0.0
 30
0.0
 70
   128
  0
VERTEX
  5
206B
330
206A
100
AcDbEntity
  8
Uzytki
100
AcDbVertex
100
AcDb2dVertex
 10
8392629.619999995
 20
5686572.269999999
 30
0.0
  0
VERTEX
  5
206C
330
206A
100
AcDbEntity
  8
Uzytki
100
AcDbVertex
100
AcDb2dVertex
 10
8392642.63
 20
5686601.34
 30
0.0
  0
SEQEND
  5
206D
330
0
100
AcDbEntity
  8
Uzytki
  0
POLYLINE
  5
206E
330
43
100
AcDbEntity
  8
Uzytki
  6
L_0_03
 62
     3
370
    18
100
AcDb2dPolyline
 66
     1
 10
0.0
 20
0.0
 30
0.0
 70
   128
  0
VERTEX
  5
206F
330
206E
100
AcDbEntity
  8
Uzytki
100
AcDbVertex
100
AcDb2dVertex
 10
8392642.63
 20
5686601.34
 30
0.0
  0
VERTEX
  5
2070
330
206E
100
AcDbEntity
  8
Uzytki
100
AcDbVertex
100
AcDb2dVertex
 10
8392642.58
 20
5686612.149999998
 30
0.0
  0
SEQEND
  5
2071
330
0
100
AcDbEntity
  8
Uzytki
  0
POLYLINE
  5
2072
330
43
100
AcDbEntity
  8
Uzytki
  6
L_0_03
 62
     3
370
    18
100
AcDb2dPolyline
 66
     1
 10
0.0
 20
0.0
 30
0.0
 70
   128
  0
VERTEX
  5
2073
330
2072
100
AcDbEntity
  8
Uzytki
100
AcDbVertex
100
AcDb2dVertex
 10
8392642.58
 20
5686612.149999998
 30
0.0
  0
VERTEX
  5
2074
330
2072
100
AcDbEntity
  8
Uzytki
100
AcDbVertex
100
AcDb2dVertex
 10
8392636.880000001
 20
5686643.679999998
 30
0.0
  0
SEQEND
  5
2075
330
0
100
AcDbEntity
  8
Uzytki
  0
POLYLINE
  5
2076
330
43
100
AcDbEntity
  8
Uzytki
  6
L_0_03
 62
     3
370
    18
100
AcDb2dPolyline
 66
     1
 10
0.0
 20
0.0
 30
0.0
 70
   128
  0
VERTEX
  5
2077
330
2076
100
AcDbEntity
  8
Uzytki
100
AcDbVertex
100
AcDb2dVertex
 10
8392636.880000001
 20
5686643.679999998
 30
0.0
  0
VERTEX
  5
2078
330
2076
100
AcDbEntity
  8
Uzytki
100
AcDbVertex
100
AcDb2dVertex
 10
8392629.29
 20
5686643.950000001
 30
0.0
  0
SEQEND
  5
2079
330
0
100
AcDbEntity
  8
Uzytki
  0
POLYLINE
  5
207A
330
43
100
AcDbEntity
  8
Uzytki
  6
L_0_03
 62
     3
370
    18
100
AcDb2dPolyline
 66
     1
 10
0.0
 20
0.0
 30
0.0
 70
   128
  0
VERTEX
  5
207B
330
207A
100
AcDbEntity
  8
Uzytki
100
AcDbVertex
100
AcDb2dVertex
 10
8392629.29
 20
5686643.950000001
 30
0.0
  0
VERTEX
  5
207C
330
207A
100
AcDbEntity
  8
Uzytki
100
AcDbVertex
100
AcDb2dVertex
 10
8392628.890000001
 20
5686643.959999998
 30
0.0
  0
SEQEND
  5
207D
330
0
100
AcDbEntity
  8
Uzytki
  0
POLYLINE
  5
20AE
330
43
100
AcDbEntity
  8
Uzytki
  6
L_0_03
 62
     3
370
    18
100
AcDb2dPolyline
 66
     1
 10
0.0
 20
0.0
 30
0.0
 70
   128
  0
VERTEX
  5
20AF
330
20AE
100
AcDbEntity
  8
Uzytki
100
AcDbVertex
100
AcDb2dVertex
 10
8392532.759999998
 20
5686647.89
 30
0.0
  0
VERTEX
  5
20B0
330
20AE
100
AcDbEntity
  8
Uzytki
100
AcDbVertex
100
AcDb2dVertex
 10
8392525.279999997
 20
5686648.33
 30
0.0
  0
SEQEND
  5
20B1
330
0
100
AcDbEntity
  8
Uzytki
  0
POLYLINE
  5
20B2
330
43
100
AcDbEntity
  8
Uzytki
  6
L_0_03
 62
     3
370
    18
100
AcDb2dPolyline
 66
     1
 10
0.0
 20
0.0
 30
0.0
 70
   128
  0
VERTEX
  5
20B3
330
20B2
100
AcDbEntity
  8
Uzytki
100
AcDbVertex
100
AcDb2dVertex
 10
8392525.279999997
 20
5686648.33
 30
0.0
  0
VERTEX
  5
20B4
330
20B2
100
AcDbEntity
  8
Uzytki
100
AcDbVertex
100
AcDb2dVertex
 10
8392525.029999996
 20
5686545.869999999
 30
0.0
  0
SEQEND
  5
20B5
330
0
100
AcDbEntity
  8
Uzytki
  0
POLYLINE
  5
210E
330
43
100
AcDbEntity
  8
Uzytki
  6
L_0_03
 62
     3
370
    18
100
AcDb2dPolyline
 66
     1
 10
0.0
 20
0.0
 30
0.0
 70
   128
  0
VERTEX
  5
210F
330
210E
100
AcDbEntity
  8
Uzytki
100
AcDbVertex
100
AcDb2dVertex
 10
8392713.929999999
 20
5686640.7
 30
0.0
  0
VERTEX
  5
2110
330
210E
100
AcDbEntity
  8
Uzytki
100
AcDbVertex
100
AcDb2dVertex
 10
8392673.86
 20
5686642.219999998
 30
0.0
  0
SEQEND
  5
2111
330
0
100
AcDbEntity
  8
Uzytki
  0
POLYLINE
  5
2112
330
43
100
AcDbEntity
  8
Uzytki
  6
L_0_03
 62
     3
370
    18
100
AcDb2dPolyline
 66
     1
 10
0.0
 20
0.0
 30
0.0
 70
   128
  0
VERTEX
  5
2113
330
2112
100
AcDbEntity
  8
Uzytki
100
AcDbVertex
100
AcDb2dVertex
 10
8392673.86
 20
5686642.219999998
 30
0.0
  0
VERTEX
  5
2114
330
2112
100
AcDbEntity
  8
Uzytki
100
AcDbVertex
100
AcDb2dVertex
 10
8392636.880000001
 20
5686643.679999998
 30
0.0
  0
SEQEND
  5
2115
330
0
100
AcDbEntity
  8
Uzytki
  0
POLYLINE
  5
2132
330
43
100
AcDbEntity
  8
Uzytki
  6
L_0_03
 62
     3
370
    18
100
AcDb2dPolyline
 66
     1
 10
0.0
 20
0.0
 30
0.0
 70
   128
  0
VERTEX
  5
2133
330
2132
100
AcDbEntity
  8
Uzytki
100
AcDbVertex
100
AcDb2dVertex
 10
8392525.279999997
 20
5686648.33
 30
0.0
  0
VERTEX
  5
2134
330
2132
100
AcDbEntity
  8
Uzytki
100
AcDbVertex
100
AcDb2dVertex
 10
8392493.089999998
 20
5686648.869999999
 30
0.0
  0
SEQEND
  5
2135
330
0
100
AcDbEntity
  8
Uzytki
  0
POLYLINE
  5
2136
330
43
100
AcDbEntity
  8
Uzytki
  6
L_0_03
 62
     3
370
    18
100
AcDb2dPolyline
 66
     1
 10
0.0
 20
0.0
 30
0.0
 70
   128
  0
VERTEX
  5
2137
330
2136
100
AcDbEntity
  8
Uzytki
100
AcDbVertex
100
AcDb2dVertex
 10
8392493.089999998
 20
5686648.869999999
 30
0.0
  0
VERTEX
  5
2138
330
2136
100
AcDbEntity
  8
Uzytki
100
AcDbVertex
100
AcDb2dVertex
 10
8392485.369999995
 20
5686649.0
 30
0.0
  0
SEQEND
  5
2139
330
0
100
AcDbEntity
  8
Uzytki
  0
POLYLINE
  5
2152
330
43
100
AcDbEntity
  8
Uzytki
  6
L_0_03
 62
     3
370
    18
100
AcDb2dPolyline
 66
     1
 10
0.0
 20
0.0
 30
0.0
 70
   128
  0
VERTEX
  5
2153
330
2152
100
AcDbEntity
  8
Uzytki
100
AcDbVertex
100
AcDb2dVertex
 10
8392488.189999999
 20
5686607.129999998
 30
0.0
  0
VERTEX
  5
2154
330
2152
100
AcDbEntity
  8
Uzytki
100
AcDbVertex
100
AcDb2dVertex
 10
8392491.46
 20
5686586.759999999
 30
0.0
  0
SEQEND
  5
2155
330
0
100
AcDbEntity
  8
Uzytki
  0
POLYLINE
  5
2156
330
43
100
AcDbEntity
  8
Uzytki
  6
L_0_03
 62
     3
370
    18
100
AcDb2dPolyline
 66
     1
 10
0.0
 20
0.0
 30
0.0
 70
   128
  0
VERTEX
  5
2157
330
2156
100
AcDbEntity
  8
Uzytki
100
AcDbVertex
100
AcDb2dVertex
 10
8392491.46
 20
5686586.759999999
 30
0.0
  0
VERTEX
  5
2158
330
2156
100
AcDbEntity
  8
Uzytki
100
AcDbVertex
100
AcDb2dVertex
 10
8392491.390000001
 20
5686577.189999999
 30
0.0
  0
SEQEND
  5
2159
330
0
100
AcDbEntity
  8
Uzytki
  0
POLYLINE
  5
269A
330
43
100
AcDbEntity
  8
Uzytki
  6
L_0_03
 62
     3
370
    18
100
AcDb2dPolyline
 66
     1
 10
0.0
 20
0.0
 30
0.0
 70
   128
  0
VERTEX
  5
269B
330
269A
100
AcDbEntity
  8
Uzytki
100
AcDbVertex
100
AcDb2dVertex
 10
8392454.199999999
 20
5686738.0
 30
0.0
  0
VERTEX
  5
269C
330
269A
100
AcDbEntity
  8
Uzytki
100
AcDbVertex
100
AcDb2dVertex
 10
8392555.14
 20
5686826.660000001
 30
0.0
  0
SEQEND
  5
269D
330
0
100
AcDbEntity
  8
Uzytki
  0
POLYLINE
  5
26CA
330
43
100
AcDbEntity
  8
Uzytki
  6
L_0_03
 62
     3
370
    18
100
AcDb2dPolyline
 66
     1
 10
0.0
 20
0.0
 30
0.0
 70
   128
  0
VERTEX
  5
26CB
330
26CA
100
AcDbEntity
  8
Uzytki
100
AcDbVertex
100
AcDb2dVertex
 10
8392483.199999999
 20
5686654.399999999
 30
0.0
  0
VERTEX
  5
26CC
330
26CA
100
AcDbEntity
  8
Uzytki
100
AcDbVertex
100
AcDb2dVertex
 10
8392506.66
 20
5686653.26
 30
0.0
  0
SEQEND
  5
26CD
330
0
100
AcDbEntity
  8
Uzytki
  0
POLYLINE
  5
26CE
330
43
100
AcDbEntity
  8
Uzytki
  6
L_0_03
 62
     3
370
    18
100
AcDb2dPolyline
 66
     1
 10
0.0
 20
0.0
 30
0.0
 70
   128
  0
VERTEX
  5
26CF
330
26CE
100
AcDbEntity
  8
Uzytki
100
AcDbVertex
100
AcDb2dVertex
 10
8392506.66
 20
5686653.26
 30
0.0
  0
VERTEX
  5
26D0
330
26CE
100
AcDbEntity
  8
Uzytki
100
AcDbVertex
100
AcDb2dVertex
 10
8392529.779999996
 20
5686652.119999999
 30
0.0
  0
SEQEND
  5
26D1
330
0
100
AcDbEntity
  8
Uzytki
  0
POLYLINE
  5
26D2
330
43
100
AcDbEntity
  8
Uzytki
  6
L_0_03
 62
     3
370
    18
100
AcDb2dPolyline
 66
     1
 10
0.0
 20
0.0
 30
0.0
 70
   128
  0
VERTEX
  5
26D3
330
26D2
100
AcDbEntity
  8
Uzytki
100
AcDbVertex
100
AcDb2dVertex
 10
8392529.779999996
 20
5686652.119999999
 30
0.0
  0
VERTEX
  5
26D4
330
26D2
100
AcDbEntity
  8
Uzytki
100
AcDbVertex
100
AcDb2dVertex
 10
8392553.460000002
 20
5686650.679999998
 30
0.0
  0
SEQEND
  5
26D5
330
0
100
AcDbEntity
  8
Uzytki
  0
POLYLINE
  5
26D6
330
43
100
AcDbEntity
  8
Uzytki
  6
L_0_03
 62
     3
370
    18
100
AcDb2dPolyline
 66
     1
 10
0.0
 20
0.0
 30
0.0
 70
   128
  0
VERTEX
  5
26D7
330
26D6
100
AcDbEntity
  8
Uzytki
100
AcDbVertex
100
AcDb2dVertex
 10
8392553.460000002
 20
5686650.679999998
 30
0.0
  0
VERTEX
  5
26D8
330
26D6
100
AcDbEntity
  8
Uzytki
100
AcDbVertex
100
AcDb2dVertex
 10
8392580.339999998
 20
5686649.72
 30
0.0
  0
SEQEND
  5
26D9
330
0
100
AcDbEntity
  8
Uzytki
  0
POLYLINE
  5
26DA
330
43
100
AcDbEntity
  8
Uzytki
  6
L_0_03
 62
     3
370
    18
100
AcDb2dPolyline
 66
     1
 10
0.0
 20
0.0
 30
0.0
 70
   128
  0
VERTEX
  5
26DB
330
26DA
100
AcDbEntity
  8
Uzytki
100
AcDbVertex
100
AcDb2dVertex
 10
8392580.339999998
 20
5686649.72
 30
0.0
  0
VERTEX
  5
26DC
330
26DA
100
AcDbEntity
  8
Uzytki
100
AcDbVertex
100
AcDb2dVertex
 10
8392585.339999998
 20
5686649.540000001
 30
0.0
  0
SEQEND
  5
26DD
330
0
100
AcDbEntity
  8
Uzytki
  0
POLYLINE
  5
26DE
330
43
100
AcDbEntity
  8
Uzytki
  6
L_0_03
 62
     3
370
    18
100
AcDb2dPolyline
 66
     1
 10
0.0
 20
0.0
 30
0.0
 70
   128
  0
VERTEX
  5
26DF
330
26DE
100
AcDbEntity
  8
Uzytki
100
AcDbVertex
100
AcDb2dVertex
 10
8392585.339999998
 20
5686649.540000001
 30
0.0
  0
VERTEX
  5
26E0
330
26DE
100
AcDbEntity
  8
Uzytki
100
AcDbVertex
100
AcDb2dVertex
 10
8392621.740000002
 20
5686648.240000001
 30
0.0
  0
SEQEND
  5
26E1
330
0
100
AcDbEntity
  8
Uzytki
  0
POLYLINE
  5
26E2
330
43
100
AcDbEntity
  8
Uzytki
  6
L_0_03
 62
     3
370
    18
100
AcDb2dPolyline
 66
     1
 10
0.0
 20
0.0
 30
0.0
 70
   128
  0
VERTEX
  5
26E3
330
26E2
100
AcDbEntity
  8
Uzytki
100
AcDbVertex
100
AcDb2dVertex
 10
8392621.740000002
 20
5686648.240000001
 30
0.0
  0
VERTEX
  5
26E4
330
26E2
100
AcDbEntity
  8
Uzytki
100
AcDbVertex
100
AcDb2dVertex
 10
8392659.509999996
 20
5686646.860000002
 30
0.0
  0
SEQEND
  5
26E5
330
0
100
AcDbEntity
  8
Uzytki
  0
POLYLINE
  5
26E6
330
43
100
AcDbEntity
  8
Uzytki
  6
L_0_03
 62
     3
370
    18
100
AcDb2dPolyline
 66
     1
 10
0.0
 20
0.0
 30
0.0
 70
   128
  0
VERTEX
  5
26E7
330
26E6
100
AcDbEntity
  8
Uzytki
100
AcDbVertex
100
AcDb2dVertex
 10
8392659.509999996
 20
5686646.860000002
 30
0.0
  0
VERTEX
  5
26E8
330
26E6
100
AcDbEntity
  8
Uzytki
100
AcDbVertex
100
AcDb2dVertex
 10
8392689.089999997
 20
5686645.570000002
 30
0.0
  0
SEQEND
  5
26E9
330
0
100
AcDbEntity
  8
Uzytki
  0
POLYLINE
  5
26EA
330
43
100
AcDbEntity
  8
Uzytki
  6
L_0_03
 62
     3
370
    18
100
AcDb2dPolyline
 66
     1
 10
0.0
 20
0.0
 30
0.0
 70
   128
  0
VERTEX
  5
26EB
330
26EA
100
AcDbEntity
  8
Uzytki
100
AcDbVertex
100
AcDb2dVertex
 10
8392689.089999997
 20
5686645.570000002
 30
0.0
  0
VERTEX
  5
26EC
330
26EA
100
AcDbEntity
  8
Uzytki
100
AcDbVertex
100
AcDb2dVertex
 10
8392714.079999999
 20
5686644.679999999
 30
0.0
  0
SEQEND
  5
26ED
330
0
100
AcDbEntity
  8
Uzytki
  0
POLYLINE
  5
27DE
330
43
100
AcDbEntity
  8
zakres
370
    35
100
AcDb2dPolyline
 66
     1
 10
0.0
 20
0.0
 30
0.0
 70
   129
  0
VERTEX
  5
27DF
330
27DE
100
AcDbEntity
  8
zakres
100
AcDbVertex
100
AcDb2dVertex
 10
8392610.539999999
 20
5686649.42
 30
0.0
  0
VERTEX
  5
27E0
330
27DE
100
AcDbEntity
  8
zakres
100
AcDbVertex
100
AcDb2dVertex
 10
8392609.02
 20
5686640.25
 30
0.0
  0
VERTEX
  5
27E1
330
27DE
100
AcDbEntity
  8
zakres
100
AcDbVertex
100
AcDb2dVertex
 10
8392605.660000002
 20
5686633.259999999
 30
0.0
  0
VERTEX
  5
27E2
330
27DE
100
AcDbEntity
  8
zakres
100
AcDbVertex
100
AcDb2dVertex
 10
8392600.630000002
 20
5686627.349999999
 30
0.0
  0
VERTEX
  5
27E3
330
27DE
100
AcDbEntity
  8
zakres
100
AcDbVertex
100
AcDb2dVertex
 10
8392594.27
 20
5686622.919999999
 30
0.0
  0
VERTEX
  5
27E4
330
27DE
100
AcDbEntity
  8
zakres
100
AcDbVertex
100
AcDb2dVertex
 10
8392586.98
 20
5686620.259999999
 30
0.0
  0
VERTEX
  5
27E5
330
27DE
100
AcDbEntity
  8
zakres
100
AcDbVertex
100
AcDb2dVertex
 10
8392579.259999999
 20
5686619.54
 30
0.0
  0
VERTEX
  5
27E6
330
27DE
100
AcDbEntity
  8
zakres
100
AcDbVertex
100
AcDb2dVertex
 10
8392552.380000001
 20
5686620.5
 30
0.0
  0
VERTEX
  5
27E7
330
27DE
100
AcDbEntity
  8
zakres
100
AcDbVertex
100
AcDb2dVertex
 10
8392544.740000001
 20
5686621.759999999
 30
0.0
  0
VERTEX
  5
27E8
330
27DE
100
AcDbEntity
  8
zakres
100
AcDbVertex
100
AcDb2dVertex
 10
8392537.670000001
 20
5686624.940000001
 30
0.0
  0
VERTEX
  5
27E9
330
27DE
100
AcDbEntity
  8
zakres
100
AcDbVertex
100
AcDb2dVertex
 10
8392531.63
 20
5686629.809999999
 30
0.0
  0
VERTEX
  5
27EA
330
27DE
100
AcDbEntity
  8
zakres
100
AcDbVertex
100
AcDb2dVertex
 10
8392527.04
 20
5686636.059999998
 30
0.0
  0
VERTEX
  5
27EB
330
27DE
100
AcDbEntity
  8
zakres
100
AcDbVertex
100
AcDb2dVertex
 10
8392524.18
 20
5686643.269999998
 30
0.0
  0
VERTEX
  5
27EC
330
27DE
100
AcDbEntity
  8
zakres
100
AcDbVertex
100
AcDb2dVertex
 10
8392523.259999999
 20
5686650.969999999
 30
0.0
  0
VERTEX
  5
27ED
330
27DE
100
AcDbEntity
  8
zakres
100
AcDbVertex
100
AcDb2dVertex
 10
8392523.789999998
 20
5686706.480000001
 30
0.0
  0
VERTEX
  5
27EE
330
27DE
100
AcDbEntity
  8
zakres
100
AcDbVertex
100
AcDb2dVertex
 10
8392525.08
 20
5686714.91
 30
0.0
  0
VERTEX
  5
27EF
330
27DE
100
AcDbEntity
  8
zakres
100
AcDbVertex
100
AcDb2dVertex
 10
8392528.249999999
 20
5686721.980000002
 30
0.0
  0
VERTEX
  5
27F0
330
27DE
100
AcDbEntity
  8
zakres
100
AcDbVertex
100
AcDb2dVertex
 10
8392533.119999999
 20
5686728.019999999
 30
0.0
  0
VERTEX
  5
27F1
330
27DE
100
AcDbEntity
  8
zakres
100
AcDbVertex
100
AcDb2dVertex
 10
8392539.369999999
 20
5686732.609999999
 30
0.0
  0
VERTEX
  5
27F2
330
27DE
100
AcDbEntity
  8
zakres
100
AcDbVertex
100
AcDb2dVertex
 10
8392546.580000001
 20
5686735.469999998
 30
0.0
  0
VERTEX
  5
27F3
330
27DE
100
AcDbEntity
  8
zakres
100
AcDbVertex
100
AcDb2dVertex
 10
8392581.189999999
 20
5686736.13
 30
0.0
  0
VERTEX
  5
27F4
330
27DE
100
AcDbEntity
  8
zakres
100
AcDbVertex
100
AcDb2dVertex
 10
8392589.630000001
 20
5686734.84
 30
0.0
  0
VERTEX
  5
27F5
330
27DE
100
AcDbEntity
  8
zakres
100
AcDbVertex
100
AcDb2dVertex
 10
8392596.699999998
 20
5686731.670000001
 30
0.0
  0
VERTEX
  5
27F6
330
27DE
100
AcDbEntity
  8
zakres
100
AcDbVertex
100
AcDb2dVertex
 10
8392602.740000002
 20
5686726.79
 30
0.0
  0
VERTEX
  5
27F7
330
27DE
100
AcDbEntity
  8
zakres
100
AcDbVertex
100
AcDb2dVertex
 10
8392607.33
 20
5686720.539999998
 30
0.0
  0
VERTEX
  5
27F8
330
27DE
100
AcDbEntity
  8
zakres
100
AcDbVertex
100
AcDb2dVertex
 10
8392610.18
 20
5686713.329999999
 30
0.0
  0
VERTEX
  5
27F9
330
27DE
100
AcDbEntity
  8
zakres
100
AcDbVertex
100
AcDb2dVertex
 10
8392611.099999999
 20
5686705.629999998
 30
0.0
  0
SEQEND
  5
27FA
330
0
100
AcDbEntity
  8
zakres
  0
INSERT
  5
27FB
330
43
100
AcDbEntity
  8
SUTE_T_0
  6
Continuous
 62
     1
100
AcDbBlockReference
  2
SUPS01_03
 10
8392547.58
 20
5686654.950000001
 30
0.0
 41
0.5
 42
0.5
 43
0.5
  0
INSERT
  5
27FC
330
43
100
AcDbEntity
  8
SUTE_T_0
  6
Continuous
 62
     1
100
AcDbBlockReference
  2
SUPS01_03
 10
8392580.259999997
 20
5686653.96
 30
0.0
 41
0.5
 42
0.5
 43
0.5
  0
INSERT
  5
27FD
330
43
100
AcDbEntity
  8
SUTE_T_0
  6
Continuous
 62
     1
100
AcDbBlockReference
  2
SUPS01_03
 10
8392606.119999999
 20
5686652.759999999
 30
0.0
 41
0.5
 42
0.5
 43
0.5
  0
INSERT
  5
27FE
330
43
100
AcDbEntity
  8
SUTE_T_0
  6
Continuous
 62
     1
100
AcDbBlockReference
  2
SUPS01_03
 10
8392575.699999827
 20
5686654.149999981
 30
0.0
 41
0.5
 42
0.5
 43
0.5
  0
INSERT
  5
27FF
330
43
100
AcDbEntity
  8
SUTE_T_0
  6
Continuous
 62
     1
100
AcDbBlockReference
  2
SUPS01_03
 10
8392591.289999998
 20
5686668.660000001
 30
0.0
 41
0.5
 42
0.5
 43
0.5
  0
INSERT
  5
2800
330
43
100
AcDbEntity
  8
SUTE_T_0
  6
Continuous
 62
     1
100
AcDbBlockReference
  2
SUPS01_03
 10
8392591.98
 20
5686706.71
 30
0.0
 41
0.5
 42
0.5
 43
0.5
  0
INSERT
  5
2801
330
43
100
AcDbEntity
  8
SUTE_T_0
  6
Continuous
 62
     1
100
AcDbBlockReference
  2
SUPS01_03
 10
8392592.269999999
 20
5686730.75
 30
0.0
 41
0.5
 42
0.5
 43
0.5
  0
INSERT
  5
2802
330
43
100
AcDbEntity
  8
SUTE_T_0
  6
Continuous
 62
     1
100
AcDbBlockReference
  2
SUPS01_03
 10
8392579.619999995
 20
5686659.82
 30
0.0
 41
0.5
 42
0.5
 43
0.5
  0
INSERT
  5
2803
330
43
100
AcDbEntity
  8
SUTG_T_0
  6
Continuous
 62
    52
100
AcDbBlockReference
  2
SUPS01_04
 10
8392558.03
 20
5686642.670000001
 30
0.0
 41
0.5
 42
0.5
 43
0.5
  0
INSERT
  5
2804
330
43
100
AcDbEntity
  8
SUTG_T_0
  6
Continuous
 62
    52
100
AcDbBlockReference
  2
SUPS01_04
 10
8392558.730000001
 20
5686655.499999999
 30
0.0
 41
0.5
 42
0.5
 43
0.5
  0
INSERT
  5
2805
330
43
100
AcDbEntity
  8
SUTG_T_0
  6
Continuous
 62
    52
100
AcDbBlockReference
  2
SUPS01_04
 10
8392589.390000001
 20
5686654.009999999
 30
0.0
 41
0.5
 42
0.5
 43
0.5
  0
INSERT
  5
2806
330
43
100
AcDbEntity
  8
SUTG_T_0
  6
Continuous
 62
    52
100
AcDbBlockReference
  2
SUPS01_04
 10
8392529.789999999
 20
5686643.76
 30
0.0
 41
0.5
 42
0.5
 43
0.5
  0
INSERT
  5
2807
330
43
100
AcDbEntity
  8
SUTT_T_0
  6
Continuous
 62
    30
100
AcDbBlockReference
  2
SUPS01_07
 10
8392583.006747077
 20
5686658.264500267
 30
0.0
 41
0.5
 42
0.5
 43
0.5
  0
INSERT
  5
2808
330
43
100
AcDbEntity
  8
SUTW_T_0
  6
Continuous
 62
     5
100
AcDbBlockReference
  2
SUPS01_08
 10
8392579.449999999
 20
5686707.300000001
 30
0.0
 41
0.5
 42
0.5
 43
0.5
  0
INSERT
  5
2809
330
43
100
AcDbEntity
  8
SUTW_T_0
  6
Continuous
 62
     5
100
AcDbBlockReference
  2
SUPS01_08
 10
8392562.230000001
 20
5686714.070000001
 30
0.0
 41
0.5
 42
0.5
 43
0.5
  0
INSERT
  5
280A
330
43
100
AcDbEntity
  8
SUTW_T_0
  6
Continuous
 62
     5
100
AcDbBlockReference
  2
SUPS01_08
 10
8392589.706228138
 20
5686652.03311769
 30
0.0
 41
0.5
 42
0.5
 43
0.5
  0
INSERT
  5
280B
330
43
100
AcDbEntity
  8
SUTW_T_0
  6
Continuous
 62
     5
100
AcDbBlockReference
  2
SUPS01_08
 10
8392585.025068452
 20
5686652.368921039
 30
0.0
 41
0.5
 42
0.5
 43
0.5
  0
TEXT
  5
280C
330
43
100
AcDbEntity
  8
KTJZ_E_T_0
 62
     7
370
    15
100
AcDbText
 39
0.15
 10
8392589.032158198
 20
5686722.124859095
 30
0.0
 40
0.75
  1
j.zw.
 50
89.50000000000001
 41
0.6600000000000001
 11
8392588.282186755
 21
5686722.131403996
 31
0.0
100
AcDbText
 73
     3
  0
TEXT
  5
280D
330
43
100
AcDbEntity
  8
KTJZ_E_T_0
 62
     7
370
    15
100
AcDbText
 39
0.15
 10
8392551.521798694
 20
5686648.55467218
 30
0.0
 40
0.75
  1
j.tl.
 50
357.7
 41
0.6600000000000001
 11
8392551.551897536
 21
5686649.304067976
 31
0.0
100
AcDbText
 73
     3
  0
TEXT
  5
280E
330
43
100
AcDbEntity
  8
KTJZ_E_T_0
 62
     7
370
    15
100
AcDbText
 39
0.15
 10
8392602.429496285
 20
5686647.456238342
 30
0.0
 40
0.75
  1
j.tl.
 50
347.6
 41
0.6600000000000001
 11
8392602.590547779
 21
5686648.18874255
 31
0.0
100
AcDbText
 73
     3
  0
TEXT
  5
280F
330
43
100
AcDbEntity
  8
KTJZ_E_T_0
 62
     7
370
    15
100
AcDbText
 39
0.15
 10
8392587.249026648
 20
5686661.38592997
 30
0.0
 40
0.75
  1
j.tl.
 50
264.8
 41
0.6600000000000001
 11
8392587.995939948
 21
5686661.317955534
 31
0.0
100
AcDbText
 73
     3
  0
TEXT
  5
2811
330
43
100
AcDbEntity
  8
Numery_dzialek
370
    20
100
AcDbText
 39
0.2
 10
8392566.339999998
 20
5686678.009999999
 30
0.0
 40
1.0
  1
608/4
 41
0.6600000000000001
 11
8392566.339999998
 21
5686679.009999998
 31
0.0
100
AcDbText
 73
     3
  0
TEXT
  5
2812
330
43
100
AcDbEntity
  8
Numery_dzialek
370
    20
100
AcDbText
 39
0.2
 10
8392549.899999998
 20
5686632.499999999
 30
0.0
 40
1.0
  1
626/1
 41
0.6600000000000001
 11
8392549.899999998
 21
5686633.499999999
 31
0.0
100
AcDbText
 73
     3
  0
TEXT
  5
2813
330
43
100
AcDbEntity
  8
Numery_dzialek
370
    20
100
AcDbText
 39
0.2
 10
8392581.699999995
 20
5686635.399999999
 30
0.0
 40
1.0
  1
626/2
 41
0.6600000000000001
 11
8392581.699999995
 21
5686636.399999998
 31
0.0
100
AcDbText
 73
     3
  0
TEXT
  5
2815
330
43
100
AcDbEntity
  8
Numery_dzialek
370
    20
100
AcDbText
 39
0.2
 10
8392568.934921111
 20
5686728.700884954
 30
0.0
 40
1.0
  1
608/3
 41
0.6600000000000001
 11
8392568.934921111
 21
5686729.700884955
 31
0.0
100
AcDbText
 73
     3
  0
TEXT
  5
2816
330
43
100
AcDbEntity
  8
Numery_dzialek
370
    20
100
AcDbText
 39
0.2
 10
8392541.399999998
 20
5686675.799999999
 30
0.0
 40
1.0
  1
97
 41
0.6600000000000001
 11
8392541.399999998
 21
5686676.799999998
 31
0.0
100
AcDbText
 73
     3
  0
TEXT
  5
2817
330
43
100
AcDbEntity
  8
Numery_dzialek
370
    20
100
AcDbText
 39
0.2
 10
8392600.299999996
 20
5686675.299999999
 30
0.0
 40
1.0
  1
608/5
 41
0.6600000000000001
 11
8392600.299999996
 21
5686676.299999999
 31
0.0
100
AcDbText
 73
     3
  0
TEXT
  5
2818
330
43
100
AcDbEntity
  8
Numery_dzialek
370
    20
100
AcDbText
 39
0.2
 10
8392602.099999995
 20
5686710.299999998
 30
0.0
 40
1.0
  1
608/6
 41
0.6600000000000001
 11
8392602.099999995
 21
5686711.299999999
 31
0.0
100
AcDbText
 73
     3
  0
TEXT
  5
2819
330
43
100
AcDbEntity
  8
Numery_dzialek
370
    20
100
AcDbText
 39
0.2
 10
8392587.499999995
 20
5686699.899999998
 30
0.0
 40
1.0
  1
608/7
 41
0.6600000000000001
 11
8392587.499999995
 21
5686700.899999998
 31
0.0
100
AcDbText
 73
     3
  0
TEXT
  5
281B
330
43
100
AcDbEntity
  8
Numery_dzialek
370
    20
100
AcDbText
 39
0.2
 10
8392579.599999997
 20
5686647.499999999
 30
0.0
 40
1.0
  1
531
 41
0.6600000000000001
 11
8392579.599999997
 21
5686648.499999998
 31
0.0
100
AcDbText
 73
     3
  0
TEXT
  5
281F
330
43
100
AcDbEntity
  8
Numery_konturow
370
    20
100
AcDbText
 39
0.2
 10
8392566.399999997
 20
5686647.299999999
 30
0.0
 40
1.0
  1
dr
 41
0.6600000000000001
 11
8392566.399999997
 21
5686648.299999999
 31
0.0
100
AcDbText
 73
     3
  0
TEXT
  5
2820
330
43
100
AcDbEntity
  8
Numery_konturow
370
    20
100
AcDbText
 39
0.2
 10
8392563.1
 20
5686672.799999999
 30
0.0
 40
1.0
  1
RIIIa
 41
0.6600000000000001
 11
8392563.1
 21
5686673.799999998
 31
0.0
100
AcDbText
 73
     3
  0
TEXT
  5
2821
330
43
100
AcDbEntity
  8
Numery_konturow
370
    20
100
AcDbText
 39
0.2
 10
8392556.800000001
 20
5686704.399999999
 30
0.0
 40
1.0
  1
RII
 41
0.6600000000000001
 11
8392556.800000001
 21
5686705.399999998
 31
0.0
100
AcDbText
 73
     3
  0
TEXT
  5
2822
330
43
100
AcDbEntity
  8
Numery_uzytkow
370
    20
100
AcDbText
 39
0.2
 10
8392562.159999997
 20
5686634.259999999
 30
0.0
 40
1.0
  1
R
 41
0.6600000000000001
 11
8392562.159999997
 21
5686635.259999999
 31
0.0
100
AcDbText
 73
     3
  0
TEXT
  5
2823
330
43
100
AcDbEntity
  8
Numery_uzytkow
370
    18
100
AcDbText
 39
0.18
 10
8392587.999298299
 20
5686589.05683972
 30
0.0
 40
0.9
  1
N
 41
0.6600000000000001
 11
8392587.999298299
 21
5686589.95683972
 31
0.0
100
AcDbText
 73
     3
  0
TEXT
  5
2828
330
43
100
AcDbEntity
  8
OSN_POZIOMA_T_1
 62
     7
370
   200
100
AcDbText
 39
2.0
 10
8392568.750087736
 20
5686640.074021089
 30
0.0
 40
10.0
  1
1060
 41
0.6600000000000001
 11
8392568.750087736
 21
5686650.074021089
 31
0.0
100
AcDbText
 73
     3
  0
TEXT
  5
2829
330
43
100
AcDbEntity
  8
RTPW_T_0
 62
     7
370
    15
100
AcDbText
 39
0.15
 10
8392606.567823257
 20
5686649.577602139
 30
0.0
 40
0.75
  1
209.9
 41
0.6600000000000001
 11
8392606.567823257
 21
5686650.32760214
 31
0.0
100
AcDbText
 73
     3
  0
TEXT
  5
282A
330
43
100
AcDbEntity
  8
RTPW_T_0
 62
     7
370
    15
100
AcDbText
 39
0.15
 10
8392537.062186701
 20
5686687.369580221
 30
0.0
 40
0.75
  1
211.6
 41
0.6600000000000001
 11
8392537.062186701
 21
5686688.119580221
 31
0.0
100
AcDbText
 73
     3
  0
TEXT
  5
282B
330
43
100
AcDbEntity
  8
RTPW_T_0
 62
     7
370
    15
100
AcDbText
 39
0.15
 10
8392533.791009016
 20
5686652.787959828
 30
0.0
 40
0.75
  1
213.2
 41
0.6600000000000001
 11
8392533.791009016
 21
5686653.537959829
 31
0.0
100
AcDbText
 73
     3
  0
TEXT
  5
282C
330
43
100
AcDbEntity
  8
RTPW_T_0
 62
     7
370
    15
100
AcDbText
 39
0.15
 10
8392592.489012498
 20
5686632.79197169
 30
0.0
 40
0.75
  1
211.1
 41
0.6600000000000001
 11
8392592.489012498
 21
5686633.54197169
 31
0.0
100
AcDbText
 73
     3
  0
TEXT
  5
282D
330
43
100
AcDbEntity
  8
RTPW_T_0
 62
     7
370
    15
100
AcDbText
 39
0.15
 10
8392585.3540181
 20
5686642.22825027
 30
0.0
 40
0.75
  1
212.4
 41
0.6600000000000001
 11
8392585.3540181
 21
5686642.97825027
 31
0.0
100
AcDbText
 73
     3
  0
TEXT
  5
282E
330
43
100
AcDbEntity
  8
RTPW_T_0
 62
     7
370
    15
100
AcDbText
 39
0.15
 10
8392567.267872708
 20
5686642.979668821
 30
0.0
 40
0.75
  1
213.4
 41
0.6600000000000001
 11
8392567.267872708
 21
5686643.729668822
 31
0.0
100
AcDbText
 73
     3
  0
TEXT
  5
282F
330
43
100
AcDbEntity
  8
RTPW_T_0
 62
     7
370
    15
100
AcDbText
 39
0.15
 10
8392575.39760703
 20
5686629.53113518
 30
0.0
 40
0.75
  1
212.8
 41
0.6600000000000001
 11
8392575.39760703
 21
5686630.28113518
 31
0.0
100
AcDbText
 73
     3
  0
TEXT
  5
2830
330
43
100
AcDbEntity
  8
RTPW_T_0
 62
     7
370
    15
100
AcDbText
 39
0.15
 10
8392543.84423363
 20
5686625.12628121
 30
0.0
 40
0.75
  1
214.2
 41
0.6600000000000001
 11
8392543.84423363
 21
5686625.87628121
 31
0.0
100
AcDbText
 73
     3
  0
TEXT
  5
2831
330
43
100
AcDbEntity
  8
RTPW_T_0
 62
     7
370
    15
100
AcDbText
 39
0.15
 10
8392567.640000001
 20
5686687.769999999
 30
0.0
 40
0.75
  1
210.6
 41
0.6600000000000001
 11
8392567.640000001
 21
5686688.52
 31
0.0
100
AcDbText
 73
     3
  0
TEXT
  5
2832
330
43
100
AcDbEntity
  8
RTPW_T_0
 62
     7
370
    15
100
AcDbText
 39
0.15
 10
8392592.065732888
 20
5686728.883558839
 30
0.0
 40
0.75
  1
209.2
 41
0.6600000000000001
 11
8392592.065732888
 21
5686729.633558839
 31
0.0
100
AcDbText
 73
     3
  0
TEXT
  5
2833
330
43
100
AcDbEntity
  8
RTPW_T_0
 62
     7
370
    15
100
AcDbText
 39
0.15
 10
8392591.839897528
 20
5686705.648818288
 30
0.0
 40
0.75
  1
209.9
 41
0.6600000000000001
 11
8392591.839897528
 21
5686706.398818289
 31
0.0
100
AcDbText
 73
     3
  0
TEXT
  5
2834
330
43
100
AcDbEntity
  8
RTPW_T_0
 62
     7
370
    15
100
AcDbText
 39
0.15
 10
8392594.911000001
 20
5686681.892000001
 30
0.0
 40
0.75
  1
211.0
 41
0.6600000000000001
 11
8392594.911000001
 21
5686682.642
 31
0.0
100
AcDbText
 73
     3
  0
TEXT
  5
2835
330
43
100
AcDbEntity
  8
RTPW_T_0
 62
     7
370
    15
100
AcDbText
 39
0.15
 10
8392554.75
 20
5686663.250000001
 30
0.0
 40
0.75
  1
212.0
 41
0.6600000000000001
 11
8392554.75
 21
5686664.0
 31
0.0
100
AcDbText
 73
     3
  0
TEXT
  5
2836
330
43
100
AcDbEntity
  8
RTPW_T_0
 62
     7
370
    15
100
AcDbText
 39
0.15
 10
8392582.02
 20
5686667.469999998
 30
0.0
 40
0.75
  1
212.2
 41
0.6600000000000001
 11
8392582.02
 21
5686668.219999999
 31
0.0
100
AcDbText
 73
     3
  0
TEXT
  5
2837
330
43
100
AcDbEntity
  8
RTPW_T_0
 62
     7
370
    15
100
AcDbText
 39
0.15
 10
8392583.48
 20
5686677.860000002
 30
0.0
 40
0.75
  1
211.7
 41
0.6600000000000001
 11
8392583.48
 21
5686678.610000001
 31
0.0
100
AcDbText
 73
     3
  0
TEXT
  5
2838
330
43
100
AcDbEntity
  8
RTPW_T_0
 62
     7
370
    15
100
AcDbText
 39
0.15
 10
8392568.429999997
 20
5686679.96
 30
0.0
 40
0.75
  1
211.2
 41
0.6600000000000001
 11
8392568.429999997
 21
5686680.71
 31
0.0
100
AcDbText
 73
     3
  0
TEXT
  5
2839
330
43
100
AcDbEntity
  8
RTPW_T_0
 62
     7
370
    15
100
AcDbText
 39
0.15
 10
8392557.339999996
 20
5686680.440000001
 30
0.0
 40
0.75
  1
211.0
 41
0.6600000000000001
 11
8392557.339999996
 21
5686681.19
 31
0.0
100
AcDbText
 73
     3
  0
TEXT
  5
283A
330
43
100
AcDbEntity
  8
RTPW_T_0
 62
     7
370
    15
100
AcDbText
 39
0.15
 10
8392581.259999998
 20
5686702.87
 30
0.0
 40
0.75
  1
210.2
 41
0.6600000000000001
 11
8392581.259999998
 21
5686703.620000001
 31
0.0
100
AcDbText
 73
     3
  0
TEXT
  5
283B
330
43
100
AcDbEntity
  8
RTPW_T_0
 62
     7
370
    15
100
AcDbText
 39
0.15
 10
8392568.800000001
 20
5686703.429999998
 30
0.0
 40
0.75
  1
210.1
 41
0.6600000000000001
 11
8392568.800000001
 21
5686704.179999999
 31
0.0
100
AcDbText
 73
     3
  0
TEXT
  5
283C
330
43
100
AcDbEntity
  8
RTPW_T_0
 62
     7
370
    15
100
AcDbText
 39
0.15
 10
8392555.719999998
 20
5686702.91
 30
0.0
 40
0.75
  1
210.1
 41
0.6600000000000001
 11
8392555.719999998
 21
5686703.66
 31
0.0
100
AcDbText
 73
     3
  0
TEXT
  5
283D
330
43
100
AcDbEntity
  8
RTPW_T_1
 62
     7
370
    15
100
AcDbText
 39
0.15
 10
8392530.777928016
 20
5686650.026373995
 30
0.0
 40
0.75
  1
213.42
 50
355.1
 41
0.6600000000000001
 11
8392530.841990708
 21
5686650.773632968
 31
0.0
100
AcDbText
 73
     3
  0
TEXT
  5
283E
330
43
100
AcDbEntity
  8
SUPE_E_T_3
 62
     1
370
    15
100
AcDbText
 39
0.15
 10
8392555.608303704
 20
5686654.494730945
 30
0.0
 40
0.75
  1
eN
 50
359.4
 41
0.6600000000000001
 11
8392555.61615754
 21
5686655.244689822
 31
0.0
100
AcDbText
 73
     3
  0
TEXT
  5
283F
330
43
100
AcDbEntity
  8
SUPE_E_T_3
 62
     1
370
    15
100
AcDbText
 39
0.15
 10
8392580.453910079
 20
5686654.599453058
 30
0.0
 40
0.75
  1
2eN
 50
85.90000000000001
 41
0.6600000000000001
 11
8392579.705829492
 21
5686654.653076141
 31
0.0
100
AcDbText
 73
     3
  0
TEXT
  5
2840
330
43
100
AcDbEntity
  8
SUPE_E_T_3
 62
     1
370
    15
100
AcDbText
 39
0.15
 10
8392590.829450838
 20
5686661.756210344
 30
0.0
 40
0.75
  1
eN
 50
269.0
 41
0.6600000000000001
 11
8392591.57933661
 21
5686661.74312104
 31
0.0
100
AcDbText
 73
     3
  0
TEXT
  5
2841
330
43
100
AcDbEntity
  8
SUPE_E_T_3
 62
     1
370
    15
100
AcDbText
 39
0.15
 10
8392591.732419131
 20
5686717.04227613
 30
0.0
 40
0.75
  1
eN
 50
269.0
 41
0.6600000000000001
 11
8392592.482304904
 21
5686717.029186826
 31
0.0
100
AcDbText
 73
     3
  0
TEXT
  5
2842
330
43
100
AcDbEntity
  8
SUPE_E_T_3
 62
     1
370
    15
100
AcDbText
 39
0.15
 10
8392591.238842058
 20
5686686.612447348
 30
0.0
 40
0.75
  1
eN
 50
269.2
 41
0.6600000000000001
 11
8392591.98876895
 21
5686686.601975712
 31
0.0
100
AcDbText
 73
     3
  0
TEXT
  5
2843
330
43
100
AcDbEntity
  8
SUPE_E_T_3
 62
     1
370
    15
100
AcDbText
 39
0.15
 10
8392580.151889195
 20
5686671.608480168
 30
0.0
 40
0.75
  1
eN
 50
89.1
 41
0.6600000000000001
 11
8392579.401981718
 21
5686671.620260656
 31
0.0
100
AcDbText
 73
     3
  0
TEXT
  5
2844
330
43
100
AcDbEntity
  8
SUPG_E_T_2
 62
     7
370
    15
100
AcDbText
 39
0.15
 10
8392544.345701278
 20
5686642.821785198
 30
0.0
 40
0.75
  1
gs50
 50
357.8
 41
0.6600000000000001
 11
8392544.374492135
 21
5686643.571232385
 31
0.0
100
AcDbText
 73
     3
  0
TEXT
  5
2845
330
43
100
AcDbEntity
  8
SUPG_E_T_2
 62
     7
370
    15
100
AcDbText
 39
0.15
 10
8392570.497890295
 20
5686654.603200638
 30
0.0
 40
0.75
  1
gs50
 50
357.5
 41
0.6600000000000001
 11
8392570.530604833
 21
5686655.352486805
 31
0.0
100
AcDbText
 73
     3
  0
TEXT
  5
2846
330
43
100
AcDbEntity
  8
SUPG_E_T_2
 62
     7
370
    15
100
AcDbText
 39
0.15
 10
8392590.916594002
 20
5686653.597603687
 30
0.0
 40
0.75
  1
gs50
 50
358.6
 41
0.6600000000000001
 11
8392590.934918136
 21
5686654.347379804
 31
0.0
100
AcDbText
 73
     3
  0
TEXT
  5
2847
330
43
100
AcDbEntity
  8
SUPT_E_T_0
 62
    30
370
    15
100
AcDbText
 39
0.15
 10
8392561.18873898
 20
5686658.649141744
 30
0.0
 40
0.75
  1
t
 50
358.0
 41
0.6600000000000001
 11
8392561.2149136
 21
5686659.398684865
 31
0.0
100
AcDbText
 73
     3
  0
TEXT
  5
2848
330
43
100
AcDbEntity
  8
SUPT_E_T_0
 62
    30
370
    15
100
AcDbText
 39
0.15
 10
8392583.872436329
 20
5686697.069784236
 30
0.0
 40
0.75
  1
t
 50
268.2
 41
0.6600000000000001
 11
8392584.62206625
 21
5686697.046226168
 31
0.0
100
AcDbText
 73
     3
  0
TEXT
  5
2849
330
43
100
AcDbEntity
  8
SUPT_E_T_0
 62
    30
370
    15
100
AcDbText
 39
0.15
 10
8392567.417464222
 20
5686652.714195421
 30
0.0
 40
0.75
  1
4t
 50
358.1
 41
0.6600000000000001
 11
8392567.442330607
 21
5686653.463783082
 31
0.0
100
AcDbText
 73
     3
  0
TEXT
  5
284A
330
43
100
AcDbEntity
  8
SUPT_E_T_0
 62
    30
370
    15
100
AcDbText
 39
0.15
 10
8392586.443541539
 20
5686678.752935385
 30
0.0
 40
0.75
  1
t
 50
89.19999999999999
 41
0.6600000000000001
 11
8392585.693614645
 21
5686678.763407021
 31
0.0
100
AcDbText
 73
     3
  0
TEXT
  5
284B
330
43
100
AcDbEntity
  8
SUPW_E_T_0
 62
     5
370
    15
100
AcDbText
 39
0.15
 10
8392582.037396438
 20
5686680.614519538
 30
0.0
 40
0.75
  1
wo40
 50
89.19999999999999
 41
0.6600000000000001
 11
8392581.287469544
 21
5686680.624991173
 31
0.0
100
AcDbText
 73
     3
  0
TEXT
  5
284C
330
43
100
AcDbEntity
  8
SUTE_T_0
 62
     1
370
    15
100
AcDbText
 39
0.15
 10
8392547.575876792
 20
5686654.575022567
 30
0.0
 40
0.75
  1
211.7
 50
359.4
 41
0.6600000000000001
 11
8392547.583730628
 21
5686655.324981443
 31
0.0
100
AcDbText
 73
     3
  0
TEXT
  5
284D
330
43
100
AcDbEntity
  8
SUTE_T_0
 62
     1
370
    15
100
AcDbText
 39
0.15
 10
8392571.223164525
 20
5686656.992528751
 30
0.0
 40
0.75
  1
212.00
 50
357.1
 41
0.6600000000000001
 11
8392571.26110923
 21
5686657.741568269
 31
0.0
100
AcDbText
 73
     3
  0
TEXT
  5
284E
330
43
100
AcDbEntity
  8
SUTE_T_0
 62
     1
370
    15
100
AcDbText
 39
0.15
 10
8392580.250903383
 20
5686653.585110336
 30
0.0
 40
0.75
  1
211.8
 50
358.6
 41
0.6600000000000001
 11
8392580.269227515
 21
5686654.334886454
 31
0.0
100
AcDbText
 73
     3
  0
TEXT
  5
284F
330
43
100
AcDbEntity
  8
SUTE_T_0
 62
     1
370
    15
100
AcDbText
 39
0.15
 10
8392606.100177939
 20
5686652.385524147
 30
0.0
 40
0.75
  1
209.2
 50
357.0
 41
0.6600000000000001
 11
8392606.139429904
 21
5686653.134496299
 31
0.0
100
AcDbText
 73
     3
  0
TEXT
  5
2850
330
43
100
AcDbEntity
  8
SUTE_T_0
 62
     1
370
    15
100
AcDbText
 39
0.15
 10
8392590.915038223
 20
5686668.665356927
 30
0.0
 40
0.75
  1
211.0
 50
269.2
 41
0.6600000000000001
 11
8392591.664965117
 21
5686668.654885291
 31
0.0
100
AcDbText
 73
     3
  0
TEXT
  5
2851
330
43
100
AcDbEntity
  8
SUTE_T_0
 62
     1
370
    15
100
AcDbText
 39
0.15
 10
8392591.605257932
 20
5686706.723908221
 30
0.0
 40
0.75
  1
209.1
 50
267.9
 41
0.6600000000000001
 11
8392592.354754228
 21
5686706.696425439
 31
0.0
100
AcDbText
 73
     3
  0
TEXT
  5
2852
330
43
100
AcDbEntity
  8
SUTE_T_0
 62
     1
370
    15
100
AcDbText
 39
0.15
 10
8392591.895046058
 20
5686730.755877302
 30
0.0
 40
0.75
  1
208.4
 50
269.1
 41
0.6600000000000001
 11
8392592.644953532
 21
5686730.744096815
 31
0.0
100
AcDbText
 73
     3
  0
TEXT
  5
2853
330
43
100
AcDbEntity
  8
SUTE_T_0
 62
     1
370
    15
100
AcDbText
 39
0.15
 10
8392579.994961542
 20
5686659.814625996
 30
0.0
 40
0.75
  1
211.8
 50
89.19999999999999
 41
0.6600000000000001
 11
8392579.245034649
 21
5686659.825097632
 31
0.0
100
AcDbText
 73
     3
  0
TEXT
  5
2854
330
43
100
AcDbEntity
  8
SUTG_T_0
 62
    52
370
    15
100
AcDbText
 39
0.15
 10
8392558.404175565
 20
5686642.645147555
 30
0.0
 40
0.75
  1
212.20
 50
86.2
 41
0.6600000000000001
 11
8392557.655824465
 21
5686642.69485298
 31
0.0
100
AcDbText
 73
     3
  0
TEXT
  5
2855
330
43
100
AcDbEntity
  8
SUTG_T_0
 62
    52
370
    15
100
AcDbText
 39
0.15
 10
8392558.713885376
 20
5686655.125346243
 30
0.0
 40
0.75
  1
211.51
 50
357.5
 41
0.6600000000000001
 11
8392558.746599917
 21
5686655.87463241
 31
0.0
100
AcDbText
 73
     3
  0
TEXT
  5
2856
330
43
100
AcDbEntity
  8
SUTG_T_0
 62
    52
370
    15
100
AcDbText
 39
0.15
 10
8392529.41501557
 20
5686643.763423645
 30
0.0
 40
0.75
  1
212.67
 50
269.5
 41
0.6600000000000001
 11
8392530.164987011
 21
5686643.756878744
 31
0.0
100
AcDbText
 73
     3
  0
TEXT
  5
2857
330
43
100
AcDbEntity
  8
SUTG_T_0
 62
    52
370
    15
100
AcDbText
 39
0.15
 10
8392587.134509424
 20
5686653.726283934
 30
0.0
 40
0.75
  1
210.90
 50
357.7
 41
0.6600000000000001
 11
8392587.164608269
 21
5686654.475679731
 31
0.0
100
AcDbText
 73
     3
  0
TEXT
  5
2858
330
43
100
AcDbEntity
  8
SUTT_T_0
 62
    30
370
    15
100
AcDbText
 39
0.15
 10
8392581.156232463
 20
5686657.980792525
 30
0.0
 40
0.75
  1
210.4
 50
357.2
 41
0.6600000000000001
 11
8392581.192869789
 21
5686658.729897128
 31
0.0
100
AcDbText
 73
     3
  0
TEXT
  5
2859
330
43
100
AcDbEntity
  8
SUTW_T_0
 62
     5
370
    15
100
AcDbText
 39
0.15
 10
8392577.154051519
 20
5686707.91865524
 30
0.0
 40
0.75
  1
210.03
 41
0.6600000000000001
 11
8392577.154051519
 21
5686708.668655239
 31
0.0
100
AcDbText
 73
     3
  0
TEXT
  5
285A
330
43
100
AcDbEntity
  8
SUTW_T_0
 62
     5
370
    15
100
AcDbText
 39
0.15
 10
8392563.124568178
 20
5686712.807230629
 30
0.0
 40
0.75
  1
210.04
 41
0.6600000000000001
 11
8392563.124568178
 21
5686713.55723063
 31
0.0
100
AcDbText
 73
     3
  0
TEXT
  5
285B
330
43
100
AcDbEntity
  8
SUTW_T_0
 62
     5
370
    15
100
AcDbText
 39
0.15
 10
8392563.124568178
 20
5686711.55723063
 30
0.0
 40
0.75
  1
208.29
 41
0.6600000000000001
 11
8392563.124568178
 21
5686712.30723063
 31
0.0
100
AcDbText
 73
     3
  0
TEXT
  5
285C
330
43
100
AcDbEntity
  8
SUTW_T_0
 62
     5
370
    15
100
AcDbText
 39
0.15
 10
8392592.655669799
 20
5686655.780785129
 30
0.0
 40
0.75
  1
211.58
 41
0.6600000000000001
 11
8392592.655669799
 21
5686656.53078513
 31
0.0
100
AcDbText
 73
     3
  0
TEXT
  5
285D
330
43
100
AcDbEntity
  8
SUTW_T_0
 62
     5
370
    15
100
AcDbText
 39
0.15
 10
8392584.998277069
 20
5686651.994879301
 30
0.0
 40
0.75
  1
210.15
 50
355.9
 41
0.6600000000000001
 11
8392585.051900152
 21
5686652.742959887
 31
0.0
100
AcDbText
 73
     3
  0
TEXT
  5
285E
330
43
100
AcDbEntity
  8
SUUE_E_T_2
 62
     7
370
    15
100
AcDbText
 39
0.15
 10
8392592.07056787
 20
5686650.537653823
 30
0.0
 40
0.75
  1
e
 41
0.6600000000000001
 11
8392592.07056787
 21
5686651.287653823
 31
0.0
100
AcDbText
 73
     3
  0
TEXT
  5
285F
330
43
100
AcDbEntity
  8
SUUE_E_T_2
 62
     7
370
    15
100
AcDbText
 39
0.15
 10
8392580.852466851
 20
5686655.193291762
 30
0.0
 40
0.75
  1
e
 41
0.6600000000000001
 11
8392580.852466851
 21
5686655.943291761
 31
0.0
100
AcDbText
 73
     3
  0
TEXT
  5
2860
330
43
100
AcDbEntity
  8
SUUG_E_T_1
 62
     7
370
    15
100
AcDbText
 39
0.15
 10
8392579.545120236
 20
5686657.46513117
 30
0.0
 40
0.75
  1
g
 41
0.6600000000000001
 11
8392579.545120236
 21
5686658.215131171
 31
0.0
100
AcDbText
 73
     3
  0
TEXT
  5
2861
330
43
100
AcDbEntity
  8
SUUW_E_T_10
 62
     5
370
    15
100
AcDbText
 39
0.15
 10
8392562.544534282
 20
5686714.391732309
 30
0.0
 40
0.75
  1
w
 41
0.6600000000000001
 11
8392562.544534282
 21
5686715.141732309
 31
0.0
100
AcDbText
 73
     3
  0
TEXT
  5
2862
330
43
100
AcDbEntity
  8
SUUW_E_T_5
 62
     7
370
    15
100
AcDbText
 39
0.15
 10
8392579.812436579
 20
5686707.520808359
 30
0.0
 40
0.75
  1
w
 41
0.6600000000000001
 11
8392579.812436579
 21
5686708.270808359
 31
0.0
100
AcDbText
 73
     3
  0
TEXT
  5
2863
330
43
100
AcDbEntity
  8
SUUW_E_T_5
 62
     7
370
    15
100
AcDbText
 39
0.15
 10
8392590.863216474
 20
5686652.328975071
 30
0.0
 40
0.75
  1
w
 41
0.6600000000000001
 11
8392590.863216474
 21
5686653.07897507
 31
0.0
100
AcDbText
 73
     3
  0
TEXT
  5
2864
330
43
100
AcDbEntity
  8
SUUW_E_T_5
 62
     7
370
    15
100
AcDbText
 39
0.15
 10
8392530.083084979
 20
5686654.201843278
 30
0.0
 40
0.75
  1
w
 41
0.6600000000000001
 11
8392530.083084979
 21
5686654.951843278
 31
0.0
100
AcDbText
 73
     3
  0
ENDSEC
  0
SECTION
  2
OBJECTS
  0
DICTIONARY
  5
2865
330
0
100
AcDbDictionary
281
     1
  3
ACAD_COLOR
350
100001C
  3
ACAD_GROUP
350
2866
  3
ACAD_LAYOUT
350
2867
  3
ACAD_MATERIAL
350
FFFFFF
  3
ACAD_MLEADERSTYLE
350
100001F
  3
ACAD_MLINESTYLE
350
2868
  3
ACAD_PLOTSETTINGS
350
2869
  3
ACAD_PLOTSTYLENAME
350
286A
  3
ACAD_SCALELIST
350
1000021
  3
ACAD_TABLESTYLE
350
100001D
  3
ACAD_VISUALSTYLE
350
1000003
  3
ACAD_WIPEOUT_VARS
350
286B
  3
AcDbVariableDictionary
350
1000034
  0
DICTIONARY
  5
100001C
102
{ACAD_REACTORS
330
2865
102
}
330
2865
100
AcDbDictionary
281
     1
  0
DICTIONARY
  5
2866
102
{ACAD_REACTORS
330
2865
102
}
330
2865
100
AcDbDictionary
281
     1
  0
DICTIONARY
  5
2867
102
{ACAD_REACTORS
330
2865
102
}
330
2865
100
AcDbDictionary
281
     1
  3
Layout
350
46
  3
Model
350
44
  0
DICTIONARY
  5
FFFFFF
102
{ACAD_REACTORS
330
2865
102
}
330
2865
100
AcDbDictionary
281
     1
  3
ByBlock
350
1000001
  3
ByLayer
350
1000000
  3
Global
350
1000002
  0
DICTIONARY
  5
100001F
102
{ACAD_REACTORS
330
2865
102
}
330
2865
100
AcDbDictionary
281
     1
  3
Standard
350
1000020
  0
DICTIONARY
  5
2868
102
{ACAD_REACTORS
330
2865
102
}
330
2865
100
AcDbDictionary
281
     1
  3
L_0_02
350
7
  3
Standard
350
286C
  0
DICTIONARY
  5
2869
102
{ACAD_REACTORS
330
2865
102
}
330
2865
100
AcDbDictionary
281
     1
  0
ACDBDICTIONARYWDFLT
  5
286A
102
{ACAD_REACTORS
330
2865
102
}
330
2865
100
AcDbDictionary
281
     1
  3
Normal
350
E
100
AcDbDictionaryWithDefault
340
E
  0
DICTIONARY
  5
1000021
102
{ACAD_REACTORS
330
2865
102
}
330
2865
100
AcDbDictionary
281
     1
  3
A0
350
1000022
  3
A1
350
1000023
  3
A2
350
1000024
  3
A3
350
1000025
  3
A4
350
1000026
  3
A5
350
1000027
  3
A6
350
1000028
  3
A7
350
1000029
  3
A8
350
100002A
  3
A9
350
100002B
  3
B0
350
100002C
  3
B1
350
100002D
  3
B2
350
100002E
  3
B3
350
100002F
  3
B4
350
1000030
  3
B5
350
1000031
  3
B6
350
1000032
  0
DICTIONARY
  5
100001D
102
{ACAD_REACTORS
330
2865
102
}
330
2865
100
AcDbDictionary
281
     1
  3
Standard
350
100001E
  0
DICTIONARY
  5
1000003
102
{ACAD_REACTORS
330
2865
102
}
330
2865
100
AcDbDictionary
281
     1
  3
2dWireframe
350
1000008
  3
Basic
350
100000B
  3
Brighten
350
100000F
  3
ColorChange
350
1000013
  3
Conceptual
350
100000D
  3
Dim
350
100000E
  3
EdgeColorOff
350
1000016
  3
Facepattern
350
1000012
  3
Flat
350
1000004
  3
FlatWithEdges
350
1000005
  3
Gouraud
350
1000006
  3
GouraudWithEdges
350
1000007
  3
Hidden
350
100000A
  3
JitterOff
350
1000014
  3
Linepattern
350
1000011
  3
OverhangOff
350
1000015
  3
Realistic
350
100000C
  3
Shaded
350
100001B
  3
Shaded with edges
350
100001A
  3
Shades of Gray
350
1000017
  3
Sketchy
350
1000018
  3
Thicken
350
1000010
  3
Wireframe
350
1000009
  3
X-Ray
350
1000019
  0
WIPEOUTVARIABLES
  5
286B
102
{ACAD_REACTORS
330
2865
102
}
330
2865
100
AcDbWipeoutVariables
 70
     0
  0
DICTIONARY
  5
1000034
102
{ACAD_REACTORS
330
2865
102
}
330
2865
100
AcDbDictionary
281
     1
  3
CANNOSCALE
350
1000038
  3
CMLEADERSTYLE
350
1000036
  3
CTABLESTYLE
350
1000035
  3
MSLTSCALE
350
1000037
  0
LAYOUT
  5
46
330
2867
100
AcDbPlotSettings
  1

  2

  4

  6

 40
0.0
 41
0.0
 42
0.0
 43
0.0
 44
0.0
 45
0.0
 46
0.0
 47
0.0
 48
0.0
 49
0.0
140
0.0
141
0.0
142
1.0
143
1.0
 70
   688
 72
     1
 73
     0
 74
     5
  7

 75
     0
 76
     0
 77
     2
 78
   300
147
1.0
148
0.0
149
0.0
100
AcDbLayout
  1
Layout
 70
     1
 71
     1
 10
0.0
 20
0.0
 11
420.0
 21
297.0
 12
0.0
 22
0.0
 32
0.0
 14
1.000000000000000E+20
 24
1.000000000000000E+20
 34
1.000000000000000E+20
 15
-1.000000000000000E+20
 25
-1.000000000000000E+20
 35
-1.000000000000000E+20
146
0.0
 13
0.0
 23
0.0
 33
0.0
 16
1.0
 26
0.0
 36
0.0
 17
0.0
 27
1.0
 37
0.0
 76
     0
330
45
  0
LAYOUT
  5
44
330
2867
100
AcDbPlotSettings
  1

  2

  4

  6

 40
0.0
 41
0.0
 42
0.0
 43
0.0
 44
0.0
 45
0.0
 46
0.0
 47
0.0
 48
0.0
 49
0.0
140
0.0
141
0.0
142
1.0
143
1.0
 70
  1712
 72
     1
 73
     0
 74
     0
  7

 75
     0
 76
     0
 77
     2
 78
   300
147
1.0
148
0.0
149
0.0
100
AcDbLayout
  1
Model
 70
     1
 71
     0
 10
0.0
 20
0.0
 11
12.0
 21
9.0
 12
0.0
 22
0.0
 32
0.0
 14
0.0
 24
0.0
 34
0.0
 15
0.0
 25
0.0
 35
0.0
146
0.0
 13
0.0
 23
0.0
 33
0.0
 16
1.0
 26
0.0
 36
0.0
 17
0.0
 27
1.0
 37
0.0
 76
     0
330
43
331
2
  0
MATERIAL
  5
1000001
102
{ACAD_REACTORS
330
FFFFFF
102
}
330
FFFFFF
100
AcDbMaterial
  1
ByBlock
 72
     0
 73
     2
 77
     0
 78
     2
171
     0
172
     2
175
     0
176
     2
179
     0
270
     2
274
     2
 94
      127
  0
MATERIAL
  5
1000000
102
{ACAD_REACTORS
330
FFFFFF
102
}
330
FFFFFF
100
AcDbMaterial
  1
ByLayer
 72
     0
 73
     2
 77
     0
 78
     2
171
     0
172
     2
175
     0
176
     2
179
     0
270
     2
274
     2
 94
      127
  0
MATERIAL
  5
1000002
102
{ACAD_REACTORS
330
FFFFFF
102
}
330
FFFFFF
100
AcDbMaterial
  1
Global
 72
     0
 73
     2
 77
     0
 78
     2
171
     0
172
     2
175
     0
176
     2
179
     0
270
     2
274
     2
 94
      127
  0
MLEADERSTYLE
  5
1000020
102
{ACAD_REACTORS
330
100001F
102
}
330
100001F
100
AcDbMLeaderStyle
179
     2
170
     2
171
     1
172
     0
 90
        2
 40
0.0
 41
0.0
173
     1
 91
-1056964608
340
4
 92
       -2
290
     1
 42
0.4
291
     1
 43
2.0
  3
Standard
 44
0.18
300

342
3A
174
     1
178
     1
175
     1
176
     0
 93
-1056964608
 45
0.2
292
     0
297
     0
 46
5.0
 94
-1056964608
 47
1.0
 49
1.0
140
1.0
293
     1
141
0.0
294
     1
177
     0
142
1.0
295
     0
296
     0
143
0.125
271
     0
272
     9
273
     9
298
     0
  0
MLINESTYLE
  5
7
330
2868
100
AcDbMlineStyle
  2
L_0_02
 70
     0
  3

 62
   256
 51
90.0
 52
90.0
 71
     1
 49
0.0
 62
   256
  6
CONTINUOUS
  0
MLINESTYLE
  5
286C
102
{ACAD_REACTORS
330
2868
102
}
330
2868
100
AcDbMlineStyle
  2
Standard
 70
     0
  3

 62
   256
 51
90.0
 52
90.0
 71
     2
 49
0.5
 62
   256
  6
BYLAYER
 49
-0.5
 62
   256
  6
BYLAYER
  0
ACDBPLACEHOLDER
  5
E
330
286A
  0
SCALE
  5
1000022
102
{ACAD_REACTORS
330
1000021
102
}
330
1000021
100
AcDbScale
 70
     0
300
1:1
140
1.0
141
1.0
290
     1
  0
SCALE
  5
1000023
102
{ACAD_REACTORS
330
1000021
102
}
330
1000021
100
AcDbScale
 70
     0
300
1:2
140
1.0
141
2.0
290
     0
  0
SCALE
  5
1000024
102
{ACAD_REACTORS
330
1000021
102
}
330
1000021
100
AcDbScale
 70
     0
300
1:4
140
1.0
141
4.0
290
     0
  0
SCALE
  5
1000025
102
{ACAD_REACTORS
330
1000021
102
}
330
1000021
100
AcDbScale
 70
     0
300
1:5
140
1.0
141
5.0
290
     0
  0
SCALE
  5
1000026
102
{ACAD_REACTORS
330
1000021
102
}
330
1000021
100
AcDbScale
 70
     0
300
1:8
140
1.0
141
8.0
290
     0
  0
SCALE
  5
1000027
102
{ACAD_REACTORS
330
1000021
102
}
330
1000021
100
AcDbScale
 70
     0
300
1:10
140
1.0
141
10.0
290
     0
  0
SCALE
  5
1000028
102
{ACAD_REACTORS
330
1000021
102
}
330
1000021
100
AcDbScale
 70
     0
300
1:16
140
1.0
141
16.0
290
     0
  0
SCALE
  5
1000029
102
{ACAD_REACTORS
330
1000021
102
}
330
1000021
100
AcDbScale
 70
     0
300
1:20
140
1.0
141
20.0
290
     0
  0
SCALE
  5
100002A
102
{ACAD_REACTORS
330
1000021
102
}
330
1000021
100
AcDbScale
 70
     0
300
1:30
140
1.0
141
30.0
290
     0
  0
SCALE
  5
100002B
102
{ACAD_REACTORS
330
1000021
102
}
330
1000021
100
AcDbScale
 70
     0
300
1:40
140
1.0
141
40.0
290
     0
  0
SCALE
  5
100002C
102
{ACAD_REACTORS
330
1000021
102
}
330
1000021
100
AcDbScale
 70
     0
300
1:50
140
1.0
141
50.0
290
     0
  0
SCALE
  5
100002D
102
{ACAD_REACTORS
330
1000021
102
}
330
1000021
100
AcDbScale
 70
     0
300
1:100
140
1.0
141
100.0
290
     0
  0
SCALE
  5
100002E
102
{ACAD_REACTORS
330
1000021
102
}
330
1000021
100
AcDbScale
 70
     0
300
2:1
140
2.0
141
1.0
290
     0
  0
SCALE
  5
100002F
102
{ACAD_REACTORS
330
1000021
102
}
330
1000021
100
AcDbScale
 70
     0
300
4:1
140
4.0
141
1.0
290
     0
  0
SCALE
  5
1000030
102
{ACAD_REACTORS
330
1000021
102
}
330
1000021
100
AcDbScale
 70
     0
300
8:1
140
8.0
141
1.0
290
     0
  0
SCALE
  5
1000031
102
{ACAD_REACTORS
330
1000021
102
}
330
1000021
100
AcDbScale
 70
     0
300
10:1
140
10.0
141
1.0
290
     0
  0
SCALE
  5
1000032
102
{ACAD_REACTORS
330
1000021
102
}
330
1000021
100
AcDbScale
 70
     0
300
100:1
140
100.0
141
1.0
290
     0
  0
TABLESTYLE
  5
100001E
102
{ACAD_REACTORS
330
100001D
102
}
330
100001D
100
AcDbTableStyle
  3
Standard
 70
     0
 71
     0
 40
0.06
 41
0.06
280
     0
281
     0
  7
STANDARD
140
0.18
170
     2
 62
     7
 63
   257
283
     0
 90
        4
 91
        0
  1

274
    -2
284
     1
 64
     0
275
    -2
285
     1
 65
     0
276
    -2
286
     1
 66
     0
277
    -2
287
     1
 67
     0
278
    -2
288
     1
 68
     0
279
    -2
289
     1
 69
     0
  7
STANDARD
140
0.25
170
     5
 62
     7
 63
   257
283
     0
 90
        4
 91
        0
  1

274
    -2
284
     1
 64
     0
275
    -2
285
     1
 65
     0
276
    -2
286
     1
 66
     0
277
    -2
287
     1
 67
     0
278
    -2
288
     1
 68
     0
279
    -2
289
     1
 69
     0
  7
STANDARD
140
0.18
170
     5
 62
     7
 63
   257
283
     0
 90
        4
 91
        0
  1

274
    -2
284
     1
 64
     0
275
    -2
285
     1
 65
     0
276
    -2
286
     1
 66
     0
277
    -2
287
     1
 67
     0
278
    -2
288
     1
 68
     0
279
    -2
289
     1
 69
     0
  0
VISUALSTYLE
  5
1000008
102
{ACAD_REACTORS
330
1000003
102
}
330
1000003
100
AcDbVisualStyle
  2
2dWireframe
 70
     4
177
     3
291
     0
 70
    58
 90
        0
176
     1
 90
        2
176
     1
 90
        0
176
     1
 90
        0
176
     1
 40
0.6
176
     1
 40
30.0
176
     1
 62
     7
420
 16777215
176
     1
 90
        1
176
     1
 90
        4
176
     1
 62
     7
176
     1
 62
   257
176
     1
 90
        1
176
     1
 90
        1
176
     1
 40
1.0
176
     1
 90
        0
176
     1
 62
   257
176
     1
 40
1.0
176
     1
 90
        1
176
     1
 90
        6
176
     1
 90
        2
176
     1
 62
     7
176
     1
 90
        5
176
     1
 90
        0
176
     1
 90
        0
176
     1
290
     0
176
     1
 90
        1
176
     1
 40
0.0
176
     1
 90
        0
176
     1
290
     1
176
     1
290
     1
176
     1
290
     0
176
     1
290
     0
176
     1
290
     0
176
     1
290
     0
176
     1
290
     0
176
     1
290
     0
176
     1
290
     0
176
     1
 90
       50
176
     1
 40
0.0
176
     1
 40
1.0
176
     1
 90
        0
176
     1
 62
    18
420
        0
176
     1
 90
       50
176
     1
 90
        3
176
     1
 62
     5
420
      255
176
     1
290
     0
176
     1
 90
       50
176
     1
 90
       50
176
     1
 90
       50
176
     1
290
     0
176
     1
 90
       50
176
     1
 62
   256
176
     0
 40
1.0
176
     0
 90
        2
176
     1
  1
strokes_ogs.tif
176
     1
290
     0
176
     1
 40
1.0
176
     1
 40
1.0
176
     1
  0
VISUALSTYLE
  5
100000B
102
{ACAD_REACTORS
330
1000003
102
}
330
1000003
100
AcDbVisualStyle
  2
Basic
 70
     7
177
     3
291
     1
 70
    58
 90
        1
176
     1
 90
        0
176
     1
 90
        1
176
     1
 90
        0
176
     1
 40
0.6
176
     1
 40
30.0
176
     1
 62
     7
420
 16777215
176
     1
 90
        0
176
     1
 90
        4
176
     1
 62
     7
176
     1
 62
   257
176
     1
 90
        1
176
     1
 90
        1
176
     1
 40
1.0
176
     1
 90
        8
176
     1
 62
     7
176
     1
 40
1.0
176
     1
 90
        1
176
     1
 90
        6
176
     1
 90
        2
176
     1
 62
     7
176
     1
 90
        5
176
     1
 90
        0
176
     1
 90
        0
176
     1
290
     0
176
     1
 90
        1
176
     1
 40
0.0
176
     1
 90
        0
176
     1
290
     0
176
     1
290
     1
176
     1
290
     1
176
     1
290
     0
176
     1
290
     0
176
     1
290
     0
176
     1
290
     0
176
     1
290
     0
176
     1
290
     0
176
     1
 90
       50
176
     1
 40
0.0
176
     1
 40
1.0
176
     1
 90
        0
176
     1
 62
    18
420
        0
176
     1
 90
       50
176
     1
 90
        3
176
     1
 62
     5
420
      255
176
     1
290
     0
176
     1
 90
       50
176
     1
 90
       50
176
     1
 90
       50
176
     1
290
     0
176
     1
 90
       50
176
     1
 62
   256
176
     0
 40
1.0
176
     0
 90
        2
176
     1
  1
strokes_ogs.tif
176
     1
290
     0
176
     1
 40
1.0
176
     1
 40
1.0
176
     1
  0
VISUALSTYLE
  5
100000F
102
{ACAD_REACTORS
330
1000003
102
}
330
1000003
100
AcDbVisualStyle
  2
Brighten
 70
    12
177
     3
291
     1
 70
    58
 90
        2
176
     1
 90
        2
176
     1
 90
        0
176
     1
 90
        0
176
     1
 40
0.6
176
     1
 40
30.0
176
     1
 62
     7
420
 16777215
176
     1
 90
        1
176
     1
 90
        4
176
     1
 62
     7
176
     1
 62
   257
176
     1
 90
        1
176
     1
 90
        1
176
     1
 40
1.0
176
     1
 90
        8
176
     1
 62
     7
176
     1
 40
1.0
176
     1
 90
        1
176
     1
 90
        6
176
     1
 90
        2
176
     1
 62
     7
176
     1
 90
        5
176
     1
 90
        0
176
     1
 90
        0
176
     1
290
     0
176
     1
 90
        1
176
     1
 40
50.0
176
     1
 90
        0
176
     1
290
     0
176
     1
290
     1
176
     1
290
     1
176
     1
290
     0
176
     1
290
     0
176
     1
290
     0
176
     1
290
     0
176
     1
290
     0
176
     1
290
     0
176
     1
 90
       50
176
     1
 40
0.0
176
     1
 40
1.0
176
     1
 90
        0
176
     1
 62
    18
420
        0
176
     1
 90
       50
176
     1
 90
        3
176
     1
 62
     5
420
      255
176
     1
290
     0
176
     1
 90
       50
176
     1
 90
       50
176
     1
 90
       50
176
     1
290
     0
176
     1
 90
       50
176
     1
 62
   256
176
     0
 40
1.0
176
     0
 90
        2
176
     1
  1
strokes_ogs.tif
176
     1
290
     0
176
     1
 40
1.0
176
     1
 40
1.0
176
     1
  0
VISUALSTYLE
  5
1000013
102
{ACAD_REACTORS
330
1000003
102
}
330
1000003
100
AcDbVisualStyle
  2
ColorChange
 70
    16
177
     3
291
     1
 70
    58
 90
        2
176
     1
 90
        2
176
     1
 90
        3
176
     1
 90
        0
176
     1
 40
0.6
176
     1
 40
30.0
176
     1
 62
     8
420
  8421504
176
     1
 90
        1
176
     1
 90
        4
176
     1
 62
     7
176
     1
 62
   257
176
     1
 90
        1
176
     1
 90
        1
176
     1
 40
1.0
176
     1
 90
        8
176
     1
 62
     8
420
  8421504
176
     1
 40
1.0
176
     1
 90
        1
176
     1
 90
        6
176
     1
 90
        2
176
     1
 62
     7
176
     1
 90
        5
176
     1
 90
        0
176
     1
 90
        0
176
     1
290
     0
176
     1
 90
        1
176
     1
 40
0.0
176
     1
 90
        0
176
     1
290
     0
176
     1
290
     1
176
     1
290
     1
176
     1
290
     0
176
     1
290
     0
176
     1
290
     0
176
     1
290
     0
176
     1
290
     0
176
     1
290
     0
176
     1
 90
       50
176
     1
 40
0.0
176
     1
 40
1.0
176
     1
 90
        0
176
     1
 62
    18
420
        0
176
     1
 90
       50
176
     1
 90
        3
176
     1
 62
     5
420
      255
176
     1
290
     0
176
     1
 90
       50
176
     1
 90
       50
176
     1
 90
       50
176
     1
290
     0
176
     1
 90
       50
176
     1
 62
   256
176
     0
 40
1.0
176
     0
 90
        2
176
     1
  1
strokes_ogs.tif
176
     1
290
     0
176
     1
 40
1.0
176
     1
 40
1.0
176
     1
  0
VISUALSTYLE
  5
100000D
102
{ACAD_REACTORS
330
1000003
102
}
330
1000003
100
AcDbVisualStyle
  2
Conceptual
 70
     9
177
     3
291
     0
 70
    58
 90
        3
176
     1
 90
        2
176
     1
 90
        0
176
     1
 90
        0
176
     1
 40
0.6
176
     1
 40
30.0
176
     1
 62
     7
420
 16777215
176
     1
 90
        2
176
     1
 90
        2
176
     1
 62
     7
176
     1
 62
   257
176
     1
 90
        1
176
     1
 90
        1
176
     1
 40
179.0
176
     1
 90
        8
176
     1
 62
     7
176
     1
 40
1.0
176
     1
 90
        1
176
     1
 90
        6
176
     1
 90
        2
176
     1
 62
     7
176
     1
 90
        3
176
     1
 90
        0
176
     1
 90
        0
176
     1
290
     0
176
     1
 90
        1
176
     1
 40
0.0
176
     1
 90
        0
176
     1
290
     0
176
     1
290
     1
176
     1
290
     1
176
     1
290
     0
176
     1
290
     0
176
     1
290
     0
176
     1
290
     0
176
     1
290
     0
176
     1
290
     0
176
     1
 90
       50
176
     1
 40
0.0
176
     1
 40
1.0
176
     1
 90
        0
176
     1
 62
    18
420
        0
176
     1
 90
       50
176
     1
 90
        3
176
     1
 62
     5
420
      255
176
     1
290
     0
176
     1
 90
       50
176
     1
 90
       50
176
     1
 90
       50
176
     1
290
     0
176
     1
 90
       50
176
     1
 62
   256
176
     0
 40
1.0
176
     0
 90
        2
176
     1
  1
strokes_ogs.tif
176
     1
290
     0
176
     1
 40
1.0
176
     1
 40
1.0
176
     1
  0
VISUALSTYLE
  5
100000E
102
{ACAD_REACTORS
330
1000003
102
}
330
1000003
100
AcDbVisualStyle
  2
Dim
 70
    11
177
     3
291
     1
 70
    58
 90
        2
176
     1
 90
        2
176
     1
 90
        0
176
     1
 90
        0
176
     1
 40
0.6
176
     1
 40
30.0
176
     1
 62
     7
420
 16777215
176
     1
 90
        1
176
     1
 90
        4
176
     1
 62
     7
176
     1
 62
   257
176
     1
 90
        1
176
     1
 90
        1
176
     1
 40
1.0
176
     1
 90
        8
176
     1
 62
     7
176
     1
 40
1.0
176
     1
 90
        1
176
     1
 90
        6
176
     1
 90
        2
176
     1
 62
     7
176
     1
 90
        5
176
     1
 90
        0
176
     1
 90
        0
176
     1
290
     0
176
     1
 90
        1
176
     1
 40
-50.0
176
     1
 90
        0
176
     1
290
     0
176
     1
290
     1
176
     1
290
     1
176
     1
290
     0
176
     1
290
     0
176
     1
290
     0
176
     1
290
     0
176
     1
290
     0
176
     1
290
     0
176
     1
 90
       50
176
     1
 40
0.0
176
     1
 40
1.0
176
     1
 90
        0
176
     1
 62
    18
420
        0
176
     1
 90
       50
176
     1
 90
        3
176
     1
 62
     5
420
      255
176
     1
290
     0
176
     1
 90
       50
176
     1
 90
       50
176
     1
 90
       50
176
     1
290
     0
176
     1
 90
       50
176
     1
 62
   256
176
     0
 40
1.0
176
     0
 90
        2
176
     1
  1
strokes_ogs.tif
176
     1
290
     0
176
     1
 40
1.0
176
     1
 40
1.0
176
     1
  0
VISUALSTYLE
  5
1000016
102
{ACAD_REACTORS
330
1000003
102
}
330
1000003
100
AcDbVisualStyle
  2
EdgeColorOff
 70
    22
177
     3
291
     1
 70
    58
 90
        2
176
     0
 90
        2
176
     0
 90
        0
176
     0
 90
        0
176
     0
 40
0.6
176
     0
 40
30.0
176
     0
 62
     7
420
 16777215
176
     0
 90
        1
176
     0
 90
        4
176
     0
 62
     7
176
     0
 62
   257
176
     0
 90
        1
176
     0
 90
        1
176
     0
 40
1.0
176
     0
 90
        8
176
     2
 62
     7
176
     0
 40
1.0
176
     0
 90
        1
176
     0
 90
        6
176
     0
 90
        2
176
     0
 62
     7
176
     0
 90
        5
176
     0
 90
        0
176
     0
 90
        0
176
     0
290
     0
176
     0
 90
        1
176
     0
 40
0.0
176
     0
 90
        0
176
     0
290
     0
176
     0
290
     1
176
     0
290
     1
176
     0
290
     0
176
     0
290
     0
176
     0
290
     0
176
     0
290
     0
176
     0
290
     0
176
     0
290
     0
176
     0
 90
       50
176
     0
 40
0.0
176
     0
 40
1.0
176
     0
 90
        0
176
     0
 62
    18
420
        0
176
     0
 90
       50
176
     0
 90
        3
176
     0
 62
     5
420
      255
176
     0
290
     0
176
     0
 90
       50
176
     0
 90
       50
176
     0
 90
       50
176
     0
290
     0
176
     0
 90
       50
176
     0
 62
   256
176
     0
 40
1.0
176
     0
 90
        2
176
     0
  1
strokes_ogs.tif
176
     0
290
     0
176
     0
 40
1.0
176
     0
 40
1.0
176
     0
  0
VISUALSTYLE
  5
1000012
102
{ACAD_REACTORS
330
1000003
102
}
330
1000003
100
AcDbVisualStyle
  2
Facepattern
 70
    15
177
     3
291
     1
 70
    58
 90
        2
176
     1
 90
        2
176
     1
 90
        0
176
     1
 90
        0
176
     1
 40
0.6
176
     1
 40
30.0
176
     1
 62
     7
420
 16777215
176
     1
 90
        1
176
     1
 90
        4
176
     1
 62
     7
176
     1
 62
   257
176
     1
 90
        1
176
     1
 90
        1
176
     1
 40
1.0
176
     1
 90
        8
176
     1
 62
     7
176
     1
 40
1.0
176
     1
 90
        1
176
     1
 90
        6
176
     1
 90
        2
176
     1
 62
     7
176
     1
 90
        5
176
     1
 90
        0
176
     1
 90
        0
176
     1
290
     0
176
     1
 90
        1
176
     1
 40
0.0
176
     1
 90
        0
176
     1
290
     0
176
     1
290
     1
176
     1
290
     1
176
     1
290
     0
176
     1
290
     0
176
     1
290
     0
176
     1
290
     0
176
     1
290
     0
176
     1
290
     0
176
     1
 90
       50
176
     1
 40
0.0
176
     1
 40
1.0
176
     1
 90
        0
176
     1
 62
    18
420
        0
176
     1
 90
       50
176
     1
 90
        3
176
     1
 62
     5
420
      255
176
     1
290
     0
176
     1
 90
       50
176
     1
 90
       50
176
     1
 90
       50
176
     1
290
     0
176
     1
 90
       50
176
     1
 62
   256
176
     0
 40
1.0
176
     0
 90
        2
176
     1
  1
strokes_ogs.tif
176
     1
290
     0
176
     1
 40
1.0
176
     1
 40
1.0
176
     1
  0
VISUALSTYLE
  5
1000004
102
{ACAD_REACTORS
330
1000003
102
}
330
1000003
100
AcDbVisualStyle
  2
Flat
 70
     0
177
     3
291
     1
 70
    58
 90
        2
176
     1
 90
        1
176
     1
 90
        1
176
     1
 90
        2
176
     1
 40
0.6
176
     1
 40
30.0
176
     1
 62
     7
420
 16777215
176
     1
 90
        0
176
     1
 90
        0
176
     1
 62
     7
176
     1
 62
   257
176
     1
 90
        1
176
     1
 90
        1
176
     1
 40
1.0
176
     1
 90
        8
176
     1
 62
     7
176
     1
 40
1.0
176
     1
 90
        1
176
     1
 90
        6
176
     1
 90
        2
176
     1
 62
     7
176
     1
 90
        5
176
     1
 90
        0
176
     1
 90
        0
176
     1
290
     0
176
     1
 90
       13
176
     1
 40
0.0
176
     1
 90
        0
176
     1
290
     0
176
     1
290
     1
176
     1
290
     1
176
     1
290
     0
176
     1
290
     0
176
     1
290
     0
176
     1
290
     0
176
     1
290
     0
176
     1
290
     0
176
     1
 90
       50
176
     1
 40
0.0
176
     1
 40
1.0
176
     1
 90
        0
176
     1
 62
    18
420
        0
176
     1
 90
       50
176
     1
 90
        3
176
     1
 62
     5
420
      255
176
     1
290
     0
176
     1
 90
       50
176
     1
 90
       50
176
     1
 90
       50
176
     1
290
     0
176
     1
 90
       50
176
     1
 62
   256
176
     0
 40
1.0
176
     0
 90
        2
176
     1
  1
strokes_ogs.tif
176
     1
290
     0
176
     1
 40
1.0
176
     1
 40
1.0
176
     1
  0
VISUALSTYLE
  5
1000005
102
{ACAD_REACTORS
330
1000003
102
}
330
1000003
100
AcDbVisualStyle
  2
FlatWithEdges
 70
     1
177
     3
291
     1
 70
    58
 90
        2
176
     1
 90
        1
176
     1
 90
        1
176
     1
 90
        2
176
     1
 40
0.6
176
     1
 40
30.0
176
     1
 62
     7
420
 16777215
176
     1
 90
        1
176
     1
 90
        0
176
     1
 62
     7
176
     1
 62
   257
176
     1
 90
        1
176
     1
 90
        1
176
     1
 40
1.0
176
     1
 90
        0
176
     1
 62
   257
176
     1
 40
1.0
176
     1
 90
        1
176
     1
 90
        6
176
     1
 90
        2
176
     1
 62
     7
176
     1
 90
        5
176
     1
 90
        0
176
     1
 90
        0
176
     1
290
     0
176
     1
 90
       13
176
     1
 40
0.0
176
     1
 90
        0
176
     1
290
     0
176
     1
290
     1
176
     1
290
     1
176
     1
290
     0
176
     1
290
     0
176
     1
290
     0
176
     1
290
     0
176
     1
290
     0
176
     1
290
     0
176
     1
 90
       50
176
     1
 40
0.0
176
     1
 40
1.0
176
     1
 90
        0
176
     1
 62
    18
420
        0
176
     1
 90
       50
176
     1
 90
        3
176
     1
 62
     5
420
      255
176
     1
290
     0
176
     1
 90
       50
176
     1
 90
       50
176
     1
 90
       50
176
     1
290
     0
176
     1
 90
       50
176
     1
 62
   256
176
     0
 40
1.0
176
     0
 90
        2
176
     1
  1
strokes_ogs.tif
176
     1
290
     0
176
     1
 40
1.0
176
     1
 40
1.0
176
     1
  0
VISUALSTYLE
  5
1000006
102
{ACAD_REACTORS
330
1000003
102
}
330
1000003
100
AcDbVisualStyle
  2
Gouraud
 70
     2
177
     3
291
     1
 70
    58
 90
        2
176
     1
 90
        2
176
     1
 90
        1
176
     1
 90
        2
176
     1
 40
0.6
176
     1
 40
30.0
176
     1
 62
     7
420
 16777215
176
     1
 90
        0
176
     1
 90
        0
176
     1
 62
     7
176
     1
 62
   257
176
     1
 90
        1
176
     1
 90
        1
176
     1
 40
1.0
176
     1
 90
        0
176
     1
 62
     7
176
     1
 40
1.0
176
     1
 90
        1
176
     1
 90
        6
176
     1
 90
        2
176
     1
 62
     7
176
     1
 90
        5
176
     1
 90
        0
176
     1
 90
        0
176
     1
290
     0
176
     1
 90
       13
176
     1
 40
0.0
176
     1
 90
        0
176
     1
290
     0
176
     1
290
     1
176
     1
290
     1
176
     1
290
     0
176
     1
290
     0
176
     1
290
     0
176
     1
290
     0
176
     1
290
     0
176
     1
290
     0
176
     1
 90
       50
176
     1
 40
0.0
176
     1
 40
1.0
176
     1
 90
        0
176
     1
 62
    18
420
        0
176
     1
 90
       50
176
     1
 90
        3
176
     1
 62
     5
420
      255
176
     1
290
     0
176
     1
 90
       50
176
     1
 90
       50
176
     1
 90
       50
176
     1
290
     0
176
     1
 90
       50
176
     1
 62
   256
176
     0
 40
1.0
176
     0
 90
        2
176
     1
  1
strokes_ogs.tif
176
     1
290
     0
176
     1
 40
1.0
176
     1
 40
1.0
176
     1
  0
VISUALSTYLE
  5
1000007
102
{ACAD_REACTORS
330
1000003
102
}
330
1000003
100
AcDbVisualStyle
  2
GouraudWithEdges
 70
     3
177
     3
291
     1
 70
    58
 90
        2
176
     1
 90
        2
176
     1
 90
        1
176
     1
 90
        2
176
     1
 40
0.6
176
     1
 40
30.0
176
     1
 62
     7
420
 16777215
176
     1
 90
        1
176
     1
 90
        0
176
     1
 62
     7
176
     1
 62
   257
176
     1
 90
        1
176
     1
 90
        1
176
     1
 40
1.0
176
     1
 90
        0
176
     1
 62
   257
176
     1
 40
1.0
176
     1
 90
        1
176
     1
 90
        6
176
     1
 90
        2
176
     1
 62
     7
176
     1
 90
        5
176
     1
 90
        0
176
     1
 90
        0
176
     1
290
     0
176
     1
 90
       13
176
     1
 40
0.0
176
     1
 90
        0
176
     1
290
     0
176
     1
290
     1
176
     1
290
     1
176
     1
290
     0
176
     1
290
     0
176
     1
290
     0
176
     1
290
     0
176
     1
290
     0
176
     1
290
     0
176
     1
 90
       50
176
     1
 40
0.0
176
     1
 40
1.0
176
     1
 90
        0
176
     1
 62
    18
420
        0
176
     1
 90
       50
176
     1
 90
        3
176
     1
 62
     5
420
      255
176
     1
290
     0
176
     1
 90
       50
176
     1
 90
       50
176
     1
 90
       50
176
     1
290
     0
176
     1
 90
       50
176
     1
 62
   256
176
     0
 40
1.0
176
     0
 90
        2
176
     1
  1
strokes_ogs.tif
176
     1
290
     0
176
     1
 40
1.0
176
     1
 40
1.0
176
     1
  0
VISUALSTYLE
  5
100000A
102
{ACAD_REACTORS
330
1000003
102
}
330
1000003
100
AcDbVisualStyle
  2
Hidden
 70
     6
177
     3
291
     0
 70
    58
 90
        1
176
     1
 90
        2
176
     1
 90
        2
176
     1
 90
        0
176
     1
 40
0.6
176
     1
 40
30.0
176
     1
 62
     7
420
 16777215
176
     1
 90
        2
176
     1
 90
        2
176
     1
 62
     7
176
     1
 62
   257
176
     1
 90
        2
176
     1
 90
        1
176
     1
 40
40.0
176
     1
 90
        0
176
     1
 62
   257
176
     1
 40
1.0
176
     1
 90
        1
176
     1
 90
        6
176
     1
 90
        2
176
     1
 62
     7
176
     1
 90
        3
176
     1
 90
        0
176
     1
 90
        0
176
     1
290
     0
176
     1
 90
        1
176
     1
 40
0.0
176
     1
 90
        0
176
     1
290
     0
176
     1
290
     1
176
     1
290
     1
176
     1
290
     0
176
     1
290
     0
176
     1
290
     0
176
     1
290
     0
176
     1
290
     0
176
     1
290
     0
176
     1
 90
       50
176
     1
 40
0.0
176
     1
 40
1.0
176
     1
 90
        0
176
     1
 62
    18
420
        0
176
     1
 90
       50
176
     1
 90
        3
176
     1
 62
     5
420
      255
176
     1
290
     0
176
     1
 90
       50
176
     1
 90
       50
176
     1
 90
       50
176
     1
290
     0
176
     1
 90
       50
176
     1
 62
   256
176
     0
 40
1.0
176
     0
 90
        2
176
     1
  1
strokes_ogs.tif
176
     1
290
     0
176
     1
 40
1.0
176
     1
 40
1.0
176
     1
  0
VISUALSTYLE
  5
1000014
102
{ACAD_REACTORS
330
1000003
102
}
330
1000003
100
AcDbVisualStyle
  2
JitterOff
 70
    20
177
     3
291
     1
 70
    58
 90
        2
176
     0
 90
        2
176
     0
 90
        0
176
     0
 90
        0
176
     0
 40
0.6
176
     0
 40
30.0
176
     0
 62
     7
420
 16777215
176
     0
 90
        1
176
     0
 90
        4
176
     0
 62
     7
176
     0
 62
   257
176
     0
 90
        1
176
     0
 90
        1
176
     0
 40
1.0
176
     0
 90
       10
176
     2
 62
     7
176
     0
 40
1.0
176
     0
 90
        1
176
     0
 90
        6
176
     0
 90
        2
176
     0
 62
     7
176
     0
 90
        5
176
     0
 90
        0
176
     0
 90
        0
176
     0
290
     0
176
     0
 90
        1
176
     0
 40
0.0
176
     0
 90
        0
176
     0
290
     0
176
     0
290
     1
176
     0
290
     1
176
     0
290
     0
176
     0
290
     0
176
     0
290
     0
176
     0
290
     0
176
     0
290
     0
176
     0
290
     0
176
     0
 90
       50
176
     0
 40
0.0
176
     0
 40
1.0
176
     0
 90
        0
176
     0
 62
    18
420
        0
176
     0
 90
       50
176
     0
 90
        3
176
     0
 62
     5
420
      255
176
     0
290
     0
176
     0
 90
       50
176
     0
 90
       50
176
     0
 90
       50
176
     0
290
     0
176
     0
 90
       50
176
     0
 62
   256
176
     0
 40
1.0
176
     0
 90
        2
176
     0
  1
strokes_ogs.tif
176
     0
290
     0
176
     0
 40
1.0
176
     0
 40
1.0
176
     0
  0
VISUALSTYLE
  5
1000011
102
{ACAD_REACTORS
330
1000003
102
}
330
1000003
100
AcDbVisualStyle
  2
Linepattern
 70
    14
177
     3
291
     1
 70
    58
 90
        2
176
     1
 90
        2
176
     1
 90
        0
176
     1
 90
        0
176
     1
 40
0.6
176
     1
 40
30.0
176
     1
 62
     7
420
 16777215
176
     1
 90
        1
176
     1
 90
        4
176
     1
 62
     7
176
     1
 62
   257
176
     1
 90
        7
176
     1
 90
        7
176
     1
 40
1.0
176
     1
 90
        8
176
     1
 62
     7
176
     1
 40
1.0
176
     1
 90
        1
176
     1
 90
        6
176
     1
 90
        2
176
     1
 62
     7
176
     1
 90
        5
176
     1
 90
        0
176
     1
 90
        0
176
     1
290
     0
176
     1
 90
        1
176
     1
 40
0.0
176
     1
 90
        0
176
     1
290
     0
176
     1
290
     1
176
     1
290
     1
176
     1
290
     0
176
     1
290
     0
176
     1
290
     0
176
     1
290
     0
176
     1
290
     0
176
     1
290
     0
176
     1
 90
       50
176
     1
 40
0.0
176
     1
 40
1.0
176
     1
 90
        0
176
     1
 62
    18
420
        0
176
     1
 90
       50
176
     1
 90
        3
176
     1
 62
     5
420
      255
176
     1
290
     0
176
     1
 90
       50
176
     1
 90
       50
176
     1
 90
       50
176
     1
290
     0
176
     1
 90
       50
176
     1
 62
   256
176
     0
 40
1.0
176
     0
 90
        2
176
     1
  1
strokes_ogs.tif
176
     1
290
     0
176
     1
 40
1.0
176
     1
 40
1.0
176
     1
  0
VISUALSTYLE
  5
1000015
102
{ACAD_REACTORS
330
1000003
102
}
330
1000003
100
AcDbVisualStyle
  2
OverhangOff
 70
    21
177
     3
291
     1
 70
    58
 90
        2
176
     0
 90
        2
176
     0
 90
        0
176
     0
 90
        0
176
     0
 40
0.6
176
     0
 40
30.0
176
     0
 62
     7
420
 16777215
176
     0
 90
        1
176
     0
 90
        4
176
     0
 62
     7
176
     0
 62
   257
176
     0
 90
        1
176
     0
 90
        1
176
     0
 40
1.0
176
     0
 90
        9
176
     2
 62
     7
176
     0
 40
1.0
176
     0
 90
        1
176
     0
 90
        6
176
     0
 90
        2
176
     0
 62
     7
176
     0
 90
        5
176
     0
 90
        0
176
     0
 90
        0
176
     0
290
     0
176
     0
 90
        1
176
     0
 40
0.0
176
     0
 90
        0
176
     0
290
     0
176
     0
290
     1
176
     0
290
     1
176
     0
290
     0
176
     0
290
     0
176
     0
290
     0
176
     0
290
     0
176
     0
290
     0
176
     0
290
     0
176
     0
 90
       50
176
     0
 40
0.0
176
     0
 40
1.0
176
     0
 90
        0
176
     0
 62
    18
420
        0
176
     0
 90
       50
176
     0
 90
        3
176
     0
 62
     5
420
      255
176
     0
290
     0
176
     0
 90
       50
176
     0
 90
       50
176
     0
 90
       50
176
     0
290
     0
176
     0
 90
       50
176
     0
 62
   256
176
     0
 40
1.0
176
     0
 90
        2
176
     0
  1
strokes_ogs.tif
176
     0
290
     0
176
     0
 40
1.0
176
     0
 40
1.0
176
     0
  0
VISUALSTYLE
  5
100000C
102
{ACAD_REACTORS
330
1000003
102
}
330
1000003
100
AcDbVisualStyle
  2
Realistic
 70
     8
177
     3
291
     0
 70
    58
 90
        2
176
     1
 90
        3
176
     1
 90
        0
176
     1
 90
        2
176
     1
 40
0.6
176
     1
 40
30.0
176
     1
 62
     7
420
 16777215
176
     1
 90
        0
176
     1
 90
        0
176
     1
 62
     7
176
     1
 62
   257
176
     1
 90
        1
176
     1
 90
        1
176
     1
 40
1.0
176
     1
 90
        8
176
     1
 62
   257
176
     1
 40
1.0
176
     1
 90
        1
176
     1
 90
        6
176
     1
 90
        2
176
     1
 62
     7
176
     1
 90
        3
176
     1
 90
        0
176
     1
 90
        0
176
     1
290
     0
176
     1
 90
       13
176
     1
 40
0.0
176
     1
 90
        0
176
     1
290
     0
176
     1
290
     1
176
     1
290
     1
176
     1
290
     0
176
     1
290
     0
176
     1
290
     0
176
     1
290
     0
176
     1
290
     0
176
     1
290
     0
176
     1
 90
       50
176
     1
 40
0.0
176
     1
 40
1.0
176
     1
 90
        0
176
     1
 62
    18
420
        0
176
     1
 90
       50
176
     1
 90
        3
176
     1
 62
     5
420
      255
176
     1
290
     0
176
     1
 90
       50
176
     1
 90
       50
176
     1
 90
       50
176
     1
290
     0
176
     1
 90
       50
176
     1
 62
   256
176
     0
 40
1.0
176
     0
 90
        2
176
     1
  1
strokes_ogs.tif
176
     1
290
     0
176
     1
 40
1.0
176
     1
 40
1.0
176
     1
  0
VISUALSTYLE
  5
100001B
102
{ACAD_REACTORS
330
1000003
102
}
330
1000003
100
AcDbVisualStyle
  2
Shaded
 70
    27
177
     3
291
     0
 70
    58
 90
        2
176
     1
 90
        2
176
     1
 90
        1
176
     1
 90
        2
176
     1
 40
0.6
176
     1
 40
30.0
176
     1
 62
     7
420
 16777215
176
     1
 90
        0
176
     1
 90
        4
176
     1
 62
     7
176
     1
 62
   257
176
     1
 90
        1
176
     1
 90
        1
176
     1
 40
1.0
176
     1
 90
        8
176
     1
 62
   257
176
     1
 40
1.0
176
     1
 90
        1
176
     1
 90
        6
176
     1
 90
        2
176
     1
 62
     8
420
  7895160
176
     1
 90
        3
176
     1
 90
        0
176
     1
 90
        0
176
     1
290
     0
176
     1
 90
        5
176
     1
 40
0.0
176
     1
 90
        0
176
     1
290
     0
176
     1
290
     1
176
     1
290
     1
176
     1
290
     0
176
     1
290
     0
176
     1
290
     0
176
     1
290
     0
176
     1
290
     0
176
     1
290
     0
176
     1
 90
       50
176
     1
 40
0.0
176
     1
 40
1.0
176
     1
 90
        0
176
     1
 62
    18
420
        0
176
     1
 90
       50
176
     1
 90
        3
176
     1
 62
     5
420
      255
176
     1
290
     0
176
     1
 90
       50
176
     1
 90
       50
176
     1
 90
       50
176
     1
290
     0
176
     1
 90
       50
176
     1
 62
   256
176
     0
 40
1.0
176
     0
 90
        2
176
     1
  1
strokes_ogs.tif
176
     1
290
     0
176
     1
 40
1.0
176
     1
 40
1.0
176
     1
  0
VISUALSTYLE
  5
100001A
102
{ACAD_REACTORS
330
1000003
102
}
330
1000003
100
AcDbVisualStyle
  2
Shaded with edges
 70
    26
177
     3
291
     0
 70
    58
 90
        2
176
     1
 90
        2
176
     1
 90
        1
176
     1
 90
        2
176
     1
 40
0.6
176
     1
 40
30.0
176
     1
 62
     7
420
 16777215
176
     1
 90
        1
176
     1
 90
       10
176
     1
 62
     7
176
     1
 62
   257
176
     1
 90
        2
176
     1
 90
        1
176
     1
 40
1.0
176
     1
 90
        8
176
     1
 62
   257
176
     1
 40
1.0
176
     1
 90
        1
176
     1
 90
        6
176
     1
 90
        2
176
     1
 62
     7
176
     1
 90
        3
176
     1
 90
        0
176
     1
 90
        0
176
     1
290
     0
176
     1
 90
        5
176
     1
 40
0.0
176
     1
 90
        0
176
     1
290
     0
176
     1
290
     1
176
     1
290
     1
176
     1
290
     0
176
     1
290
     0
176
     1
290
     0
176
     1
290
     0
176
     1
290
     0
176
     1
290
     0
176
     1
 90
       50
176
     1
 40
0.0
176
     1
 40
1.0
176
     1
 90
        0
176
     1
 62
    18
420
        0
176
     1
 90
       50
176
     1
 90
        3
176
     1
 62
     5
420
      255
176
     1
290
     0
176
     1
 90
       50
176
     1
 90
       50
176
     1
 90
       50
176
     1
290
     0
176
     1
 90
       50
176
     1
 62
   256
176
     0
 40
1.0
176
     0
 90
        2
176
     1
  1
strokes_ogs.tif
176
     1
290
     0
176
     1
 40
1.0
176
     1
 40
1.0
176
     1
  0
VISUALSTYLE
  5
1000017
102
{ACAD_REACTORS
330
1000003
102
}
330
1000003
100
AcDbVisualStyle
  2
Shades of Gray
 70
    23
177
     3
291
     0
 70
    58
 90
        2
176
     1
 90
        2
176
     1
 90
        3
176
     1
 90
        0
176
     1
 40
0.6
176
     1
 40
30.0
176
     1
 62
     7
420
 16777215
176
     1
 90
        2
176
     1
 90
        2
176
     1
 62
     7
176
     1
 62
     7
176
     1
 90
        1
176
     1
 90
        1
176
     1
 40
40.0
176
     1
 90
        8
176
     1
 62
     7
176
     1
 40
1.0
176
     1
 90
        1
176
     1
 90
        6
176
     1
 90
        2
176
     1
 62
     7
176
     1
 90
        3
176
     1
 90
        0
176
     1
 90
        0
176
     1
290
     0
176
     1
 90
        1
176
     1
 40
0.0
176
     1
 90
        0
176
     1
290
     0
176
     1
290
     1
176
     1
290
     1
176
     1
290
     0
176
     1
290
     0
176
     1
290
     0
176
     1
290
     0
176
     1
290
     0
176
     1
290
     0
176
     1
 90
       50
176
     1
 40
0.0
176
     1
 40
1.0
176
     1
 90
        0
176
     1
 62
    18
420
        0
176
     1
 90
       50
176
     1
 90
        3
176
     1
 62
     5
420
      255
176
     1
290
     0
176
     1
 90
       50
176
     1
 90
       50
176
     1
 90
       50
176
     1
290
     0
176
     1
 90
       50
176
     1
 62
   256
176
     0
 40
1.0
176
     0
 90
        2
176
     1
  1
strokes_ogs.tif
176
     1
290
     0
176
     1
 40
1.0
176
     1
 40
1.0
176
     1
  0
VISUALSTYLE
  5
1000018
102
{ACAD_REACTORS
330
1000003
102
}
330
1000003
100
AcDbVisualStyle
  2
Sketchy
 70
    24
177
     3
291
     0
 70
    58
 90
        1
176
     1
 90
        2
176
     1
 90
        2
176
     1
 90
        0
176
     1
 40
0.6
176
     1
 40
30.0
176
     1
 62
     7
420
 16777215
176
     1
 90
        2
176
     1
 90
        2
176
     1
 62
     7
176
     1
 62
     7
176
     1
 90
        1
176
     1
 90
        1
176
     1
 40
40.0
176
     1
 90
       11
176
     1
 62
     7
176
     1
 40
1.0
176
     1
 90
        1
176
     1
 90
        6
176
     1
 90
        2
176
     1
 62
     7
176
     1
 90
        6
176
     1
 90
        0
176
     1
 90
        0
176
     1
290
     0
176
     1
 90
        1
176
     1
 40
0.0
176
     1
 90
        0
176
     1
290
     0
176
     1
290
     1
176
     1
290
     1
176
     1
290
     0
176
     1
290
     0
176
     1
290
     0
176
     1
290
     0
176
     1
290
     0
176
     1
290
     0
176
     1
 90
       50
176
     1
 40
0.0
176
     1
 40
1.0
176
     1
 90
        0
176
     1
 62
    18
420
        0
176
     1
 90
       50
176
     1
 90
        3
176
     1
 62
     5
420
      255
176
     1
290
     0
176
     1
 90
       50
176
     1
 90
       50
176
     1
 90
       50
176
     1
290
     0
176
     1
 90
       50
176
     1
 62
   256
176
     0
 40
1.0
176
     0
 90
        2
176
     1
  1
strokes_ogs.tif
176
     1
290
     0
176
     1
 40
1.0
176
     1
 40
1.0
176
     1
  0
VISUALSTYLE
  5
1000010
102
{ACAD_REACTORS
330
1000003
102
}
330
1000003
100
AcDbVisualStyle
  2
Thicken
 70
    13
177
     3
291
     1
 70
    58
 90
        2
176
     1
 90
        2
176
     1
 90
        0
176
     1
 90
        0
176
     1
 40
0.6
176
     1
 40
30.0
176
     1
 62
     7
420
 16777215
176
     1
 90
        1
176
     1
 90
        4
176
     1
 62
     7
176
     1
 62
   257
176
     1
 90
        1
176
     1
 90
        1
176
     1
 40
1.0
176
     1
 90
       12
176
     1
 62
     7
176
     1
 40
1.0
176
     1
 90
        1
176
     1
 90
        6
176
     1
 90
        2
176
     1
 62
     7
176
     1
 90
        5
176
     1
 90
        0
176
     1
 90
        0
176
     1
290
     0
176
     1
 90
        1
176
     1
 40
0.0
176
     1
 90
        0
176
     1
290
     0
176
     1
290
     1
176
     1
290
     1
176
     1
290
     0
176
     1
290
     0
176
     1
290
     0
176
     1
290
     0
176
     1
290
     0
176
     1
290
     0
176
     1
 90
       50
176
     1
 40
0.0
176
     1
 40
1.0
176
     1
 90
        0
176
     1
 62
    18
420
        0
176
     1
 90
       50
176
     1
 90
        3
176
     1
 62
     5
420
      255
176
     1
290
     0
176
     1
 90
       50
176
     1
 90
       50
176
     1
 90
       50
176
     1
290
     0
176
     1
 90
       50
176
     1
 62
   256
176
     0
 40
1.0
176
     0
 90
        2
176
     1
  1
strokes_ogs.tif
176
     1
290
     0
176
     1
 40
1.0
176
     1
 40
1.0
176
     1
  0
VISUALSTYLE
  5
1000009
102
{ACAD_REACTORS
330
1000003
102
}
330
1000003
100
AcDbVisualStyle
  2
Wireframe
 70
     5
177
     3
291
     0
 70
    58
 90
        0
176
     1
 90
        2
176
     1
 90
        0
176
     1
 90
        0
176
     1
 40
0.6
176
     1
 40
30.0
176
     1
 62
     7
420
 16777215
176
     1
 90
        1
176
     1
 90
        4
176
     1
 62
     7
176
     1
 62
   257
176
     1
 90
        1
176
     1
 90
        1
176
     1
 40
1.0
176
     1
 90
        0
176
     1
 62
   257
176
     1
 40
1.0
176
     1
 90
        1
176
     1
 90
        6
176
     1
 90
        2
176
     1
 62
     7
176
     1
 90
        3
176
     1
 90
        0
176
     1
 90
        0
176
     1
290
     0
176
     1
 90
        1
176
     1
 40
0.0
176
     1
 90
        0
176
     1
290
     0
176
     1
290
     1
176
     1
290
     1
176
     1
290
     0
176
     1
290
     0
176
     1
290
     0
176
     1
290
     0
176
     1
290
     0
176
     1
290
     0
176
     1
 90
       50
176
     1
 40
0.0
176
     1
 40
1.0
176
     1
 90
        0
176
     1
 62
    18
420
        0
176
     1
 90
       50
176
     1
 90
        3
176
     1
 62
     5
420
      255
176
     1
290
     0
176
     1
 90
       50
176
     1
 90
       50
176
     1
 90
       50
176
     1
290
     0
176
     1
 90
       50
176
     1
 62
   256
176
     0
 40
1.0
176
     0
 90
        2
176
     1
  1
strokes_ogs.tif
176
     1
290
     0
176
     1
 40
1.0
176
     1
 40
1.0
176
     1
  0
VISUALSTYLE
  5
1000019
102
{ACAD_REACTORS
330
1000003
102
}
330
1000003
100
AcDbVisualStyle
  2
X-Ray
 70
    25
177
     3
291
     0
 70
    58
 90
        2
176
     1
 90
        2
176
     1
 90
        1
176
     1
 90
        1
176
     1
 40
0.5
176
     1
 40
30.0
176
     1
 62
     7
420
 16777215
176
     1
 90
        1
176
     1
 90
        0
176
     1
 62
     7
176
     1
 62
   257
176
     1
 90
        1
176
     1
 90
        1
176
     1
 40
1.0
176
     1
 90
        8
176
     1
 62
     7
176
     1
 40
1.0
176
     1
 90
        1
176
     1
 90
        6
176
     1
 90
        2
176
     1
 62
     7
176
     1
 90
        3
176
     1
 90
        0
176
     1
 90
        0
176
     1
290
     0
176
     1
 90
       13
176
     1
 40
0.0
176
     1
 90
        0
176
     1
290
     0
176
     1
290
     1
176
     1
290
     1
176
     1
290
     0
176
     1
290
     0
176
     1
290
     0
176
     1
290
     0
176
     1
290
     0
176
     1
290
     0
176
     1
 90
       50
176
     1
 40
0.0
176
     1
 40
1.0
176
     1
 90
        0
176
     1
 62
    18
420
        0
176
     1
 90
       50
176
     1
 90
        3
176
     1
 62
     5
420
      255
176
     1
290
     0
176
     1
 90
       50
176
     1
 90
       50
176
     1
 90
       50
176
     1
290
     0
176
     1
 90
       50
176
     1
 62
   256
176
     0
 40
1.0
176
     0
 90
        2
176
     1
  1
strokes_ogs.tif
176
     1
290
     0
176
     1
 40
1.0
176
     1
 40
1.0
176
     1
  0
DICTIONARYVAR
  5
1000038
102
{ACAD_REACTORS
330
1000034
102
}
330
1000034
100
DictionaryVariables
280
     0
  1
1:1
  0
DICTIONARYVAR
  5
1000036
102
{ACAD_REACTORS
330
1000034
102
}
330
1000034
100
DictionaryVariables
280
     0
  1
Standard
  0
DICTIONARYVAR
  5
1000035
102
{ACAD_REACTORS
330
1000034
102
}
330
1000034
100
DictionaryVariables
280
     0
  1
Standard
  0
DICTIONARYVAR
  5
1000037
102
{ACAD_REACTORS
330
1000034
102
}
330
1000034
100
DictionaryVariables
280
     0
  1
0
  0
ENDSEC
  0
SECTION
  2
ACDSDATA
 70
     2
 71
     2
  0
ACDSSCHEMA
 90
        0
  1
AcDb3DSolid_ASM_Data
  2
AcDbDs::ID
280
    10
 91
        0
  2
ASM_Data
280
    15
 91
        0
101
ACDSRECORD
 95
        0
 90
        1
  2
AcDbDs::TreatedAsObjectData
280
     1
291
     1
101
ACDSRECORD
 95
        0
 90
        2
  2
AcDbDs::Legacy
280
     1
291
     1
101
ACDSRECORD
  1
AcDbDs::ID
 90
        3
  2
AcDs:Indexable
280
     1
291
     1
101
ACDSRECORD
  1
AcDbDs::ID
 90
        4
  2
AcDbDs::HandleAttribute
280
     7
282
     1
  0
ACDSSCHEMA
 90
        1
  1
AcDbDs::TreatedAsObjectDataSchema
  2
AcDbDs::TreatedAsObjectData
280
     1
 91
        0
  0
ACDSSCHEMA
 90
        2
  1
AcDbDs::LegacySchema
  2
AcDbDs::Legacy
280
     1
 91
        0
  0
ACDSSCHEMA
 90
        3
  1
AcDbDs::IndexedPropertySchema
  2
AcDs:Indexable
280
     1
 91
        0
  0
ACDSSCHEMA
 90
        4
  1
AcDbDs::HandleAttributeSchema
  2
AcDbDs::HandleAttribute
280
     7
 91
        8
  0
ENDSEC
  0
EOF
