  0
SECTION
  2
HEADER
  9
$ACADVER
  1
AC1018
  9
$HANDSEED
  5
FFFFFF
  9
$EXTMAX
 10
7571556.11000000034
 20
5715272.59999999963
 30
1000000.00
  9
$EXTMIN
 10
7571111.88999999966
 20
5714557.90000000037
 30
0.00
  9
$LIMMIN
 10
7571111.88999999966
 20
5714557.90000000037
  9
$LIMMAX
 10
7571556.11000000034
 20
5715272.59999999963
  9
$DIMASZ
 40
2.5
  9
$DIMGAP
 40
0.625
  9
$INSUNITS
 70
6
  9
$MEASUREMENT
 70
1
  9
$DIMEXO
 40
0.625
  9
$DIMTXT
 40
2.5
  9
$DIMSTYLE
  2
Standard
  9
$PLIMMIN
 10
0.0
 20
0.0
  9
$PLIMMAX
 10
210.0
 20
297.0
  9
$DIMEXE
 40
1.25
  9
$TEXTSIZE
 40
2.5
  9
$TEXTSTYLE
  7
Standard
  9
$LWDISPLAY
290
1
  9
$TDCREATE
 40
45929.410506632
  9
$TDUCREATE
 40
45929.327173299
  9
$TDUPDATE
 40
45929.410506632
  9
$TDUUPDATE
 40
45929.327173299
  9
$TDINDWG
 40
0.0
  9
$TDUSRTIMER
 40
0.0
  9
$USRTIMER
 70
1
  0
ENDSEC
  0
SECTION
  2
TABLES
  0
TABLE
  2
VPORT
  5
1
100
AcDbSymbolTable
 70
1
  0
VPORT
  5
2
100
AcDbSymbolTableRecord
100
AcDbViewportTableRecord
  2
*ACTIVE
 70
0
 10
0.0
 20
0.0
 11
1.0
 21
1.0
 12
7571334.00
 22
5714915.25
 13
0.0
 23
0.0
 14
1.0
 24
1.0
 15
0.0
 25
0.0
 16
0.0
 26
0.0
 36
1.0
 17
0.0
 27
0.0
 37
0.0
 40
714.70
 41
0.62
 42
50.0
 43
0.0
 44
0.0
 50
0.0
 51
0.0
 71
0
 72
100
 73
1
 74
1
 75
0
 76
0
 77
0
 78
0
  0
ENDTAB
  0
TABLE
  2
LTYPE
  5
3
100
AcDbSymbolTable
 70
3
  0
LTYPE
  5
4
100
AcDbSymbolTableRecord
100
AcDbLinetypeTableRecord
  2
ByBlock
 70
0
  3

 72
65
 73
0
 40
0.0
  0
LTYPE
  5
5
100
AcDbSymbolTableRecord
100
AcDbLinetypeTableRecord
  2
ByLayer
 70
0
  3

 72
65
 73
0
 40
0.0
  0
LTYPE
  5
6
100
AcDbSymbolTableRecord
100
AcDbLinetypeTableRecord
  2
CONTINUOUS
 70
0
  3
Solid line
 72
65
 73
0
 40
0.0
  0
LTYPE
  5
7
100
AcDbSymbolTableRecord
100
AcDbLinetypeTableRecord
  2
L_0_03
 70
0
  3
Uzytek_gruntowy
 72
65
 73
2
 40
1.0
 49
0.5
 74
0
 49
-0.5
 74
0
  0
ENDTAB
  0
TABLE
  2
LAYER
  5
8
100
AcDbSymbolTable
 70
2
  0
LAYER
  5
9
100
AcDbSymbolTableRecord
100
AcDbLayerTableRecord
  2
0
 70
0
420
0
  6
CONTINUOUS
370
18
390
A
  0
LAYER
  5
B
100
AcDbSymbolTableRecord
100
AcDbLayerTableRecord
  2
odnowienie_ew
 70
0
420
32768
  6
CONTINUOUS
370
18
390
A
  0
ENDTAB
  0
TABLE
  2
STYLE
  5
C
100
AcDbSymbolTable
 70
2
  0
STYLE
  5
D
100
AcDbSymbolTableRecord
100
AcDbTextStyleTableRecord
  2
STANDARD
 70
0
 40
0.0
 41
1.0
 50
0.0
 71
0
  3
simplex.shx
  4

  0
STYLE
  5
E
100
AcDbSymbolTableRecord
100
AcDbTextStyleTableRecord
  2
STANDARD_ITALIC
 70
0
 40
0.0
 41
1.0
 50
15.0
 71
0
  3
simplex.shx
  4

  0
ENDTAB
  0
TABLE
  2
VIEW
  5
F
100
AcDbSymbolTable
 70
0
  0
ENDTAB
  0
TABLE
  2
UCS
  5
10
100
AcDbSymbolTable
 70
0
  0
ENDTAB
  0
TABLE
  2
APPID
  5
11
100
AcDbSymbolTable
 70
1
  0
APPID
  5
12
100
AcDbSymbolTableRecord
100
AcDbRegAppTableRecord
  2
ACAD
 70
0
  0
ENDTAB
  0
TABLE
  2
DIMSTYLE
  5
13
100
AcDbSymbolTable
 70
1
100
AcDbDimStyleTable
  0
DIMSTYLE
105
14
100
AcDbSymbolTableRecord
100
AcDbDimStyleTableRecord
  2
Standard
 70
0
340
D
  0
ENDTAB
  0
TABLE
  2
BLOCK_RECORD
  5
15
100
AcDbSymbolTable
 70
2
  0
BLOCK_RECORD
  5
16
100
AcDbSymbolTableRecord
100
AcDbBlockTableRecord
  2
*Model_Space
340
17
  0
BLOCK_RECORD
  5
18
100
AcDbSymbolTableRecord
100
AcDbBlockTableRecord
  2
*Paper_Space
340
19
  0
ENDTAB
  0
ENDSEC
  0
SECTION
  2
BLOCKS
  0
BLOCK
  5
1A
100
AcDbEntity
  8
0
100
AcDbBlockBegin
  2
*Model_Space
 70
0
 10
0.0
 20
0.0
 30
0.0
  3
*Model_Space
  1

  0
ENDBLK
  5
1B
100
AcDbEntity
  8
0
100
AcDbBlockEnd
  0
BLOCK
  5
1C
100
AcDbEntity
 67
1
  8
0
100
AcDbBlockBegin
  2
*Paper_Space
 70
0
 10
0.0
 20
0.0
 30
0.0
  3
*Paper_Space
  1

  0
ENDBLK
  5
1D
100
AcDbEntity
 67
1
  8
0
100
AcDbBlockEnd
  0
ENDSEC
  0
SECTION
  2
ENTITIES
  0
POLYLINE
  5
1E
100
AcDbEntity
  8
odnowienie_ew
  6
CONTINUOUS
370
18
100
AcDb2dPolyline
 66
1
 70
129
  0
VERTEX
  5
1F
100
AcDbEntity
  8
odnowienie_ew
100
AcDbVertex
100
AcDb2dVertex
 10
7571326.48000000045
 20
5714557.90000000037
  0
VERTEX
  5
20
100
AcDbEntity
  8
odnowienie_ew
100
AcDbVertex
100
AcDb2dVertex
 10
7571313.79000000004
 20
5714562.04000000004
  0
VERTEX
  5
21
100
AcDbEntity
  8
odnowienie_ew
100
AcDbVertex
100
AcDb2dVertex
 10
7571303.80999999959
 20
5714565.29999999981
  0
VERTEX
  5
22
100
AcDbEntity
  8
odnowienie_ew
100
AcDbVertex
100
AcDb2dVertex
 10
7571292.40000000037
 20
5714569.03000000026
  0
VERTEX
  5
23
100
AcDbEntity
  8
odnowienie_ew
100
AcDbVertex
100
AcDb2dVertex
 10
7571195.74000000022
 20
5714600.58000000007
  0
VERTEX
  5
24
100
AcDbEntity
  8
odnowienie_ew
100
AcDbVertex
100
AcDb2dVertex
 10
7571159.41000000015
 20
5714612.45999999996
  0
VERTEX
  5
25
100
AcDbEntity
  8
odnowienie_ew
100
AcDbVertex
100
AcDb2dVertex
 10
7571117.58999999985
 20
5714626.11000000034
  0
VERTEX
  5
26
100
AcDbEntity
  8
odnowienie_ew
100
AcDbVertex
100
AcDb2dVertex
 10
7571111.88999999966
 20
5714627.96999999974
  0
VERTEX
  5
27
100
AcDbEntity
  8
odnowienie_ew
100
AcDbVertex
100
AcDb2dVertex
 10
7571113.49000000022
 20
5714633.75
  0
VERTEX
  5
28
100
AcDbEntity
  8
odnowienie_ew
100
AcDbVertex
100
AcDb2dVertex
 10
7571136.94000000041
 20
5714626.09999999963
  0
VERTEX
  5
29
100
AcDbEntity
  8
odnowienie_ew
100
AcDbVertex
100
AcDb2dVertex
 10
7571160.50999999978
 20
5714618.40000000037
  0
VERTEX
  5
2A
100
AcDbEntity
  8
odnowienie_ew
100
AcDbVertex
100
AcDb2dVertex
 10
7571183.50999999978
 20
5714610.88999999966
  0
VERTEX
  5
2B
100
AcDbEntity
  8
odnowienie_ew
100
AcDbVertex
100
AcDb2dVertex
 10
7571196.8200000003
 20
5714606.54000000004
  0
VERTEX
  5
2C
100
AcDbEntity
  8
odnowienie_ew
100
AcDbVertex
100
AcDb2dVertex
 10
7571202.33000000007
 20
5714604.74000000022
  0
VERTEX
  5
2D
100
AcDbEntity
  8
odnowienie_ew
100
AcDbVertex
100
AcDb2dVertex
 10
7571209.36000000034
 20
5714602.45000000019
  0
VERTEX
  5
2E
100
AcDbEntity
  8
odnowienie_ew
100
AcDbVertex
100
AcDb2dVertex
 10
7571214.78000000026
 20
5714600.6799999997
  0
VERTEX
  5
2F
100
AcDbEntity
  8
odnowienie_ew
100
AcDbVertex
100
AcDb2dVertex
 10
7571221.91000000015
 20
5714598.34999999963
  0
VERTEX
  5
30
100
AcDbEntity
  8
odnowienie_ew
100
AcDbVertex
100
AcDb2dVertex
 10
7571240.29999999981
 20
5714592.34999999963
  0
VERTEX
  5
31
100
AcDbEntity
  8
odnowienie_ew
100
AcDbVertex
100
AcDb2dVertex
 10
7571258.21999999974
 20
5714586.5
  0
VERTEX
  5
32
100
AcDbEntity
  8
odnowienie_ew
100
AcDbVertex
100
AcDb2dVertex
 10
7571279.12999999989
 20
5714579.66999999993
  0
VERTEX
  5
33
100
AcDbEntity
  8
odnowienie_ew
100
AcDbVertex
100
AcDb2dVertex
 10
7571305.41000000015
 20
5714571.08999999985
  0
VERTEX
  5
34
100
AcDbEntity
  8
odnowienie_ew
100
AcDbVertex
100
AcDb2dVertex
 10
7571325.5
 20
5714564.53000000026
  0
VERTEX
  5
35
100
AcDbEntity
  8
odnowienie_ew
100
AcDbVertex
100
AcDb2dVertex
 10
7571364.50999999978
 20
5714682.87999999989
  0
VERTEX
  5
36
100
AcDbEntity
  8
odnowienie_ew
100
AcDbVertex
100
AcDb2dVertex
 10
7571455.25999999978
 20
5714965.45999999996
  0
VERTEX
  5
37
100
AcDbEntity
  8
odnowienie_ew
100
AcDbVertex
100
AcDb2dVertex
 10
7571456.48000000045
 20
5714969.25999999978
  0
VERTEX
  5
38
100
AcDbEntity
  8
odnowienie_ew
100
AcDbVertex
100
AcDb2dVertex
 10
7571462.20000000019
 20
5714967.40000000037
  0
SEQEND
  5
39
100
AcDbEntity
  8
odnowienie_ew
  0
POLYLINE
  5
3A
100
AcDbEntity
  8
odnowienie_ew
  6
CONTINUOUS
370
18
100
AcDb2dPolyline
 66
1
 70
129
  0
VERTEX
  5
3B
100
AcDbEntity
  8
odnowienie_ew
100
AcDbVertex
100
AcDb2dVertex
 10
7571312.41000000015
 20
5714999.46999999974
  0
VERTEX
  5
3C
100
AcDbEntity
  8
odnowienie_ew
100
AcDbVertex
100
AcDb2dVertex
 10
7571326.51999999955
 20
5714997.84999999963
  0
VERTEX
  5
3D
100
AcDbEntity
  8
odnowienie_ew
100
AcDbVertex
100
AcDb2dVertex
 10
7571196.8200000003
 20
5714606.54000000004
  0
VERTEX
  5
3E
100
AcDbEntity
  8
odnowienie_ew
100
AcDbVertex
100
AcDb2dVertex
 10
7571183.50999999978
 20
5714610.88999999966
  0
SEQEND
  5
3F
100
AcDbEntity
  8
odnowienie_ew
  0
POLYLINE
  5
40
100
AcDbEntity
  8
odnowienie_ew
  6
CONTINUOUS
370
18
100
AcDb2dPolyline
 66
1
 70
129
  0
VERTEX
  5
41
100
AcDbEntity
  8
odnowienie_ew
100
AcDbVertex
100
AcDb2dVertex
 10
7571326.51999999955
 20
5714997.84999999963
  0
VERTEX
  5
42
100
AcDbEntity
  8
odnowienie_ew
100
AcDbVertex
100
AcDb2dVertex
 10
7571332.63999999966
 20
5714997.26999999955
  0
VERTEX
  5
43
100
AcDbEntity
  8
odnowienie_ew
100
AcDbVertex
100
AcDb2dVertex
 10
7571202.33000000007
 20
5714604.74000000022
  0
VERTEX
  5
44
100
AcDbEntity
  8
odnowienie_ew
100
AcDbVertex
100
AcDb2dVertex
 10
7571196.8200000003
 20
5714606.54000000004
  0
SEQEND
  5
45
100
AcDbEntity
  8
odnowienie_ew
  0
POLYLINE
  5
46
100
AcDbEntity
  8
odnowienie_ew
  6
CONTINUOUS
370
18
100
AcDb2dPolyline
 66
1
 70
129
  0
VERTEX
  5
47
100
AcDbEntity
  8
odnowienie_ew
100
AcDbVertex
100
AcDb2dVertex
 10
7571332.63999999966
 20
5714997.26999999955
  0
VERTEX
  5
48
100
AcDbEntity
  8
odnowienie_ew
100
AcDbVertex
100
AcDb2dVertex
 10
7571339.99000000022
 20
5714996.55999999959
  0
VERTEX
  5
49
100
AcDbEntity
  8
odnowienie_ew
100
AcDbVertex
100
AcDb2dVertex
 10
7571209.36000000034
 20
5714602.45000000019
  0
VERTEX
  5
4A
100
AcDbEntity
  8
odnowienie_ew
100
AcDbVertex
100
AcDb2dVertex
 10
7571202.33000000007
 20
5714604.74000000022
  0
SEQEND
  5
4B
100
AcDbEntity
  8
odnowienie_ew
  0
POLYLINE
  5
4C
100
AcDbEntity
  8
odnowienie_ew
  6
CONTINUOUS
370
18
100
AcDb2dPolyline
 66
1
 70
129
  0
VERTEX
  5
4D
100
AcDbEntity
  8
odnowienie_ew
100
AcDbVertex
100
AcDb2dVertex
 10
7571216.41999999992
 20
5715037.05999999959
  0
VERTEX
  5
4E
100
AcDbEntity
  8
odnowienie_ew
100
AcDbVertex
100
AcDb2dVertex
 10
7571217.49000000022
 20
5715043.00999999978
  0
VERTEX
  5
4F
100
AcDbEntity
  8
odnowienie_ew
100
AcDbVertex
100
AcDb2dVertex
 10
7571269.62999999989
 20
5715026.00999999978
  0
VERTEX
  5
50
100
AcDbEntity
  8
odnowienie_ew
100
AcDbVertex
100
AcDb2dVertex
 10
7571265.58000000007
 20
5715013.79000000004
  0
VERTEX
  5
51
100
AcDbEntity
  8
odnowienie_ew
100
AcDbVertex
100
AcDb2dVertex
 10
7571258.62999999989
 20
5715015.20000000019
  0
VERTEX
  5
52
100
AcDbEntity
  8
odnowienie_ew
100
AcDbVertex
100
AcDb2dVertex
 10
7571238.54000000004
 20
5715023.3200000003
  0
SEQEND
  5
53
100
AcDbEntity
  8
odnowienie_ew
  0
POLYLINE
  5
54
100
AcDbEntity
  8
odnowienie_ew
  6
CONTINUOUS
370
18
100
AcDb2dPolyline
 66
1
 70
129
  0
VERTEX
  5
55
100
AcDbEntity
  8
odnowienie_ew
100
AcDbVertex
100
AcDb2dVertex
 10
7571290.24000000022
 20
5715009.4299999997
  0
VERTEX
  5
56
100
AcDbEntity
  8
odnowienie_ew
100
AcDbVertex
100
AcDb2dVertex
 10
7571281.78000000026
 20
5715010.50999999978
  0
VERTEX
  5
57
100
AcDbEntity
  8
odnowienie_ew
100
AcDbVertex
100
AcDb2dVertex
 10
7571265.58000000007
 20
5715013.79000000004
  0
VERTEX
  5
58
100
AcDbEntity
  8
odnowienie_ew
100
AcDbVertex
100
AcDb2dVertex
 10
7571269.62999999989
 20
5715026.00999999978
  0
VERTEX
  5
59
100
AcDbEntity
  8
odnowienie_ew
100
AcDbVertex
100
AcDb2dVertex
 10
7571293.19000000041
 20
5715018.3200000003
  0
SEQEND
  5
5A
100
AcDbEntity
  8
odnowienie_ew
  0
POLYLINE
  5
5B
100
AcDbEntity
  8
odnowienie_ew
  6
CONTINUOUS
370
18
100
AcDb2dPolyline
 66
1
 70
129
  0
VERTEX
  5
5C
100
AcDbEntity
  8
odnowienie_ew
100
AcDbVertex
100
AcDb2dVertex
 10
7571314.70000000019
 20
5715006.36000000034
  0
VERTEX
  5
5D
100
AcDbEntity
  8
odnowienie_ew
100
AcDbVertex
100
AcDb2dVertex
 10
7571311.46999999974
 20
5715006.70999999996
  0
VERTEX
  5
5E
100
AcDbEntity
  8
odnowienie_ew
100
AcDbVertex
100
AcDb2dVertex
 10
7571290.24000000022
 20
5715009.4299999997
  0
VERTEX
  5
5F
100
AcDbEntity
  8
odnowienie_ew
100
AcDbVertex
100
AcDb2dVertex
 10
7571293.19000000041
 20
5715018.3200000003
  0
VERTEX
  5
60
100
AcDbEntity
  8
odnowienie_ew
100
AcDbVertex
100
AcDb2dVertex
 10
7571337.29000000004
 20
5715003.9299999997
  0
SEQEND
  5
61
100
AcDbEntity
  8
odnowienie_ew
  0
POLYLINE
  5
62
100
AcDbEntity
  8
odnowienie_ew
  6
CONTINUOUS
370
18
100
AcDb2dPolyline
 66
1
 70
129
  0
VERTEX
  5
63
100
AcDbEntity
  8
odnowienie_ew
100
AcDbVertex
100
AcDb2dVertex
 10
7571297.62000000011
 20
5715021.08000000007
  0
VERTEX
  5
64
100
AcDbEntity
  8
odnowienie_ew
100
AcDbVertex
100
AcDb2dVertex
 10
7571315.0700000003
 20
5715015.38999999966
  0
VERTEX
  5
65
100
AcDbEntity
  8
odnowienie_ew
100
AcDbVertex
100
AcDb2dVertex
 10
7571329.50999999978
 20
5715010.6799999997
  0
VERTEX
  5
66
100
AcDbEntity
  8
odnowienie_ew
100
AcDbVertex
100
AcDb2dVertex
 10
7571346.91999999992
 20
5715005.0
  0
VERTEX
  5
67
100
AcDbEntity
  8
odnowienie_ew
100
AcDbVertex
100
AcDb2dVertex
 10
7571356.54000000004
 20
5715001.86000000034
  0
VERTEX
  5
68
100
AcDbEntity
  8
odnowienie_ew
100
AcDbVertex
100
AcDb2dVertex
 10
7571337.29000000004
 20
5715003.9299999997
  0
VERTEX
  5
69
100
AcDbEntity
  8
odnowienie_ew
100
AcDbVertex
100
AcDb2dVertex
 10
7571293.19000000041
 20
5715018.3200000003
  0
VERTEX
  5
6A
100
AcDbEntity
  8
odnowienie_ew
100
AcDbVertex
100
AcDb2dVertex
 10
7571269.62999999989
 20
5715026.00999999978
  0
VERTEX
  5
6B
100
AcDbEntity
  8
odnowienie_ew
100
AcDbVertex
100
AcDb2dVertex
 10
7571217.49000000022
 20
5715043.00999999978
  0
VERTEX
  5
6C
100
AcDbEntity
  8
odnowienie_ew
100
AcDbVertex
100
AcDb2dVertex
 10
7571218.15000000037
 20
5715047.0
  0
VERTEX
  5
6D
100
AcDbEntity
  8
odnowienie_ew
100
AcDbVertex
100
AcDb2dVertex
 10
7571226.96999999974
 20
5715044.12000000011
  0
VERTEX
  5
6E
100
AcDbEntity
  8
odnowienie_ew
100
AcDbVertex
100
AcDb2dVertex
 10
7571238.58000000007
 20
5715040.33999999985
  0
VERTEX
  5
6F
100
AcDbEntity
  8
odnowienie_ew
100
AcDbVertex
100
AcDb2dVertex
 10
7571255.87000000011
 20
5715034.70000000019
  0
VERTEX
  5
70
100
AcDbEntity
  8
odnowienie_ew
100
AcDbVertex
100
AcDb2dVertex
 10
7571280.37999999989
 20
5715026.70000000019
  0
SEQEND
  5
71
100
AcDbEntity
  8
odnowienie_ew
  0
POLYLINE
  5
72
100
AcDbEntity
  8
odnowienie_ew
  6
CONTINUOUS
370
18
100
AcDb2dPolyline
 66
1
 70
129
  0
VERTEX
  5
73
100
AcDbEntity
  8
odnowienie_ew
100
AcDbVertex
100
AcDb2dVertex
 10
7571257.25
 20
5715096.96999999974
  0
VERTEX
  5
74
100
AcDbEntity
  8
odnowienie_ew
100
AcDbVertex
100
AcDb2dVertex
 10
7571273.90000000037
 20
5715089.84999999963
  0
VERTEX
  5
75
100
AcDbEntity
  8
odnowienie_ew
100
AcDbVertex
100
AcDb2dVertex
 10
7571255.87000000011
 20
5715034.70000000019
  0
VERTEX
  5
76
100
AcDbEntity
  8
odnowienie_ew
100
AcDbVertex
100
AcDb2dVertex
 10
7571238.58000000007
 20
5715040.33999999985
  0
SEQEND
  5
77
100
AcDbEntity
  8
odnowienie_ew
  0
POLYLINE
  5
78
100
AcDbEntity
  8
odnowienie_ew
  6
CONTINUOUS
370
18
100
AcDb2dPolyline
 66
1
 70
129
  0
VERTEX
  5
79
100
AcDbEntity
  8
odnowienie_ew
100
AcDbVertex
100
AcDb2dVertex
 10
7571273.90000000037
 20
5715089.84999999963
  0
VERTEX
  5
7A
100
AcDbEntity
  8
odnowienie_ew
100
AcDbVertex
100
AcDb2dVertex
 10
7571298.33999999985
 20
5715082.04999999981
  0
VERTEX
  5
7B
100
AcDbEntity
  8
odnowienie_ew
100
AcDbVertex
100
AcDb2dVertex
 10
7571280.37999999989
 20
5715026.70000000019
  0
VERTEX
  5
7C
100
AcDbEntity
  8
odnowienie_ew
100
AcDbVertex
100
AcDb2dVertex
 10
7571255.87000000011
 20
5715034.70000000019
  0
SEQEND
  5
7D
100
AcDbEntity
  8
odnowienie_ew
  0
POLYLINE
  5
7E
100
AcDbEntity
  8
odnowienie_ew
  6
CONTINUOUS
370
18
100
AcDb2dPolyline
 66
1
 70
129
  0
VERTEX
  5
7F
100
AcDbEntity
  8
odnowienie_ew
100
AcDbVertex
100
AcDb2dVertex
 10
7571298.33999999985
 20
5715082.04999999981
  0
VERTEX
  5
80
100
AcDbEntity
  8
odnowienie_ew
100
AcDbVertex
100
AcDb2dVertex
 10
7571315.70999999996
 20
5715077.46999999974
  0
VERTEX
  5
81
100
AcDbEntity
  8
odnowienie_ew
100
AcDbVertex
100
AcDb2dVertex
 10
7571297.62000000011
 20
5715021.08000000007
  0
VERTEX
  5
82
100
AcDbEntity
  8
odnowienie_ew
100
AcDbVertex
100
AcDb2dVertex
 10
7571280.37999999989
 20
5715026.70000000019
  0
SEQEND
  5
83
100
AcDbEntity
  8
odnowienie_ew
  0
POLYLINE
  5
84
100
AcDbEntity
  8
odnowienie_ew
  6
CONTINUOUS
370
18
100
AcDb2dPolyline
 66
1
 70
129
  0
VERTEX
  5
85
100
AcDbEntity
  8
odnowienie_ew
100
AcDbVertex
100
AcDb2dVertex
 10
7571335.12000000011
 20
5715076.12999999989
  0
VERTEX
  5
86
100
AcDbEntity
  8
odnowienie_ew
100
AcDbVertex
100
AcDb2dVertex
 10
7571350.0700000003
 20
5715075.80999999959
  0
VERTEX
  5
87
100
AcDbEntity
  8
odnowienie_ew
100
AcDbVertex
100
AcDb2dVertex
 10
7571329.50999999978
 20
5715010.6799999997
  0
VERTEX
  5
88
100
AcDbEntity
  8
odnowienie_ew
100
AcDbVertex
100
AcDb2dVertex
 10
7571315.0700000003
 20
5715015.38999999966
  0
SEQEND
  5
89
100
AcDbEntity
  8
odnowienie_ew
  0
POLYLINE
  5
8A
100
AcDbEntity
  8
odnowienie_ew
  6
CONTINUOUS
370
18
100
AcDb2dPolyline
 66
1
 70
129
  0
VERTEX
  5
8B
100
AcDbEntity
  8
odnowienie_ew
100
AcDbVertex
100
AcDb2dVertex
 10
7571350.0700000003
 20
5715075.80999999959
  0
VERTEX
  5
8C
100
AcDbEntity
  8
odnowienie_ew
100
AcDbVertex
100
AcDb2dVertex
 10
7571371.78000000026
 20
5715076.45000000019
  0
VERTEX
  5
8D
100
AcDbEntity
  8
odnowienie_ew
100
AcDbVertex
100
AcDb2dVertex
 10
7571346.91999999992
 20
5715005.0
  0
VERTEX
  5
8E
100
AcDbEntity
  8
odnowienie_ew
100
AcDbVertex
100
AcDb2dVertex
 10
7571329.50999999978
 20
5715010.6799999997
  0
SEQEND
  5
8F
100
AcDbEntity
  8
odnowienie_ew
  0
POLYLINE
  5
90
100
AcDbEntity
  8
odnowienie_ew
  6
CONTINUOUS
370
18
100
AcDb2dPolyline
 66
1
 70
129
  0
VERTEX
  5
91
100
AcDbEntity
  8
odnowienie_ew
100
AcDbVertex
100
AcDb2dVertex
 10
7571315.0700000003
 20
5715015.38999999966
  0
VERTEX
  5
92
100
AcDbEntity
  8
odnowienie_ew
100
AcDbVertex
100
AcDb2dVertex
 10
7571297.62000000011
 20
5715021.08000000007
  0
VERTEX
  5
93
100
AcDbEntity
  8
odnowienie_ew
100
AcDbVertex
100
AcDb2dVertex
 10
7571315.70999999996
 20
5715077.46999999974
  0
VERTEX
  5
94
100
AcDbEntity
  8
odnowienie_ew
100
AcDbVertex
100
AcDb2dVertex
 10
7571328.66999999993
 20
5715076.26999999955
  0
VERTEX
  5
95
100
AcDbEntity
  8
odnowienie_ew
100
AcDbVertex
100
AcDb2dVertex
 10
7571335.12000000011
 20
5715076.12999999989
  0
SEQEND
  5
96
100
AcDbEntity
  8
odnowienie_ew
  0
POLYLINE
  5
97
100
AcDbEntity
  8
odnowienie_ew
  6
CONTINUOUS
370
18
100
AcDb2dPolyline
 66
1
 70
129
  0
VERTEX
  5
98
100
AcDbEntity
  8
odnowienie_ew
100
AcDbVertex
100
AcDb2dVertex
 10
7571183.50999999978
 20
5714610.88999999966
  0
VERTEX
  5
99
100
AcDbEntity
  8
odnowienie_ew
100
AcDbVertex
100
AcDb2dVertex
 10
7571160.50999999978
 20
5714618.40000000037
  0
VERTEX
  5
9A
100
AcDbEntity
  8
odnowienie_ew
100
AcDbVertex
100
AcDb2dVertex
 10
7571248.13999999966
 20
5714882.51999999955
  0
VERTEX
  5
9B
100
AcDbEntity
  8
odnowienie_ew
100
AcDbVertex
100
AcDb2dVertex
 10
7571288.0
 20
5715002.6799999997
  0
VERTEX
  5
9C
100
AcDbEntity
  8
odnowienie_ew
100
AcDbVertex
100
AcDb2dVertex
 10
7571312.41000000015
 20
5714999.46999999974
  0
SEQEND
  5
9D
100
AcDbEntity
  8
odnowienie_ew
  0
POLYLINE
  5
9E
100
AcDbEntity
  8
odnowienie_ew
  6
CONTINUOUS
370
18
100
AcDb2dPolyline
 66
1
 70
129
  0
VERTEX
  5
9F
100
AcDbEntity
  8
odnowienie_ew
100
AcDbVertex
100
AcDb2dVertex
 10
7571136.94000000041
 20
5714626.09999999963
  0
VERTEX
  5
A0
100
AcDbEntity
  8
odnowienie_ew
100
AcDbVertex
100
AcDb2dVertex
 10
7571113.49000000022
 20
5714633.75
  0
VERTEX
  5
A1
100
AcDbEntity
  8
odnowienie_ew
100
AcDbVertex
100
AcDb2dVertex
 10
7571153.45999999996
 20
5714778.28000000026
  0
VERTEX
  5
A2
100
AcDbEntity
  8
odnowienie_ew
100
AcDbVertex
100
AcDb2dVertex
 10
7571198.16999999993
 20
5714935.16000000015
  0
VERTEX
  5
A3
100
AcDbEntity
  8
odnowienie_ew
100
AcDbVertex
100
AcDb2dVertex
 10
7571214.71999999974
 20
5715027.55999999959
  0
VERTEX
  5
A4
100
AcDbEntity
  8
odnowienie_ew
100
AcDbVertex
100
AcDb2dVertex
 10
7571227.54000000004
 20
5715020.05999999959
  0
VERTEX
  5
A5
100
AcDbEntity
  8
odnowienie_ew
100
AcDbVertex
100
AcDb2dVertex
 10
7571239.05999999959
 20
5715013.62000000011
  0
VERTEX
  5
A6
100
AcDbEntity
  8
odnowienie_ew
100
AcDbVertex
100
AcDb2dVertex
 10
7571252.65000000037
 20
5715008.6799999997
  0
VERTEX
  5
A7
100
AcDbEntity
  8
odnowienie_ew
100
AcDbVertex
100
AcDb2dVertex
 10
7571263.13999999966
 20
5715006.44000000041
  0
VERTEX
  5
A8
100
AcDbEntity
  8
odnowienie_ew
100
AcDbVertex
100
AcDb2dVertex
 10
7571224.33000000007
 20
5714889.46999999974
  0
SEQEND
  5
A9
100
AcDbEntity
  8
odnowienie_ew
  0
POLYLINE
  5
AA
100
AcDbEntity
  8
odnowienie_ew
  6
CONTINUOUS
370
18
100
AcDb2dPolyline
 66
1
 70
129
  0
VERTEX
  5
AB
100
AcDbEntity
  8
odnowienie_ew
100
AcDbVertex
100
AcDb2dVertex
 10
7571224.33000000007
 20
5714889.46999999974
  0
VERTEX
  5
AC
100
AcDbEntity
  8
odnowienie_ew
100
AcDbVertex
100
AcDb2dVertex
 10
7571248.13999999966
 20
5714882.51999999955
  0
VERTEX
  5
AD
100
AcDbEntity
  8
odnowienie_ew
100
AcDbVertex
100
AcDb2dVertex
 10
7571160.50999999978
 20
5714618.40000000037
  0
VERTEX
  5
AE
100
AcDbEntity
  8
odnowienie_ew
100
AcDbVertex
100
AcDb2dVertex
 10
7571136.94000000041
 20
5714626.09999999963
  0
SEQEND
  5
AF
100
AcDbEntity
  8
odnowienie_ew
  0
POLYLINE
  5
B0
100
AcDbEntity
  8
odnowienie_ew
  6
CONTINUOUS
370
18
100
AcDb2dPolyline
 66
1
 70
129
  0
VERTEX
  5
B1
100
AcDbEntity
  8
odnowienie_ew
100
AcDbVertex
100
AcDb2dVertex
 10
7571224.33000000007
 20
5714889.46999999974
  0
VERTEX
  5
B2
100
AcDbEntity
  8
odnowienie_ew
100
AcDbVertex
100
AcDb2dVertex
 10
7571263.13999999966
 20
5715006.44000000041
  0
VERTEX
  5
B3
100
AcDbEntity
  8
odnowienie_ew
100
AcDbVertex
100
AcDb2dVertex
 10
7571269.09999999963
 20
5715005.16000000015
  0
VERTEX
  5
B4
100
AcDbEntity
  8
odnowienie_ew
100
AcDbVertex
100
AcDb2dVertex
 10
7571288.0
 20
5715002.6799999997
  0
VERTEX
  5
B5
100
AcDbEntity
  8
odnowienie_ew
100
AcDbVertex
100
AcDb2dVertex
 10
7571248.13999999966
 20
5714882.51999999955
  0
SEQEND
  5
B6
100
AcDbEntity
  8
odnowienie_ew
  0
POLYLINE
  5
B7
100
AcDbEntity
  8
odnowienie_ew
  6
CONTINUOUS
370
18
100
AcDb2dPolyline
 66
1
 70
129
  0
VERTEX
  5
B8
100
AcDbEntity
  8
odnowienie_ew
100
AcDbVertex
100
AcDb2dVertex
 10
7571515.44000000041
 20
5715127.75999999978
  0
VERTEX
  5
B9
100
AcDbEntity
  8
odnowienie_ew
100
AcDbVertex
100
AcDb2dVertex
 10
7571487.75
 20
5715100.23000000045
  0
VERTEX
  5
BA
100
AcDbEntity
  8
odnowienie_ew
100
AcDbVertex
100
AcDb2dVertex
 10
7571467.25
 20
5715087.75
  0
VERTEX
  5
BB
100
AcDbEntity
  8
odnowienie_ew
100
AcDbVertex
100
AcDb2dVertex
 10
7571444.78000000026
 20
5715079.0
  0
VERTEX
  5
BC
100
AcDbEntity
  8
odnowienie_ew
100
AcDbVertex
100
AcDb2dVertex
 10
7571431.48000000045
 20
5715078.04999999981
  0
VERTEX
  5
BD
100
AcDbEntity
  8
odnowienie_ew
100
AcDbVertex
100
AcDb2dVertex
 10
7571413.19000000041
 20
5715075.76999999955
  0
VERTEX
  5
BE
100
AcDbEntity
  8
odnowienie_ew
100
AcDbVertex
100
AcDb2dVertex
 10
7571405.79000000004
 20
5715075.84999999963
  0
VERTEX
  5
BF
100
AcDbEntity
  8
odnowienie_ew
100
AcDbVertex
100
AcDb2dVertex
 10
7571403.03000000026
 20
5715075.87999999989
  0
VERTEX
  5
C0
100
AcDbEntity
  8
odnowienie_ew
100
AcDbVertex
100
AcDb2dVertex
 10
7571398.38999999966
 20
5715075.96999999974
  0
VERTEX
  5
C1
100
AcDbEntity
  8
odnowienie_ew
100
AcDbVertex
100
AcDb2dVertex
 10
7571392.95999999996
 20
5715076.05999999959
  0
VERTEX
  5
C2
100
AcDbEntity
  8
odnowienie_ew
100
AcDbVertex
100
AcDb2dVertex
 10
7571383.3200000003
 20
5715076.24000000022
  0
VERTEX
  5
C3
100
AcDbEntity
  8
odnowienie_ew
100
AcDbVertex
100
AcDb2dVertex
 10
7571371.78000000026
 20
5715076.45000000019
  0
VERTEX
  5
C4
100
AcDbEntity
  8
odnowienie_ew
100
AcDbVertex
100
AcDb2dVertex
 10
7571350.0700000003
 20
5715075.80999999959
  0
VERTEX
  5
C5
100
AcDbEntity
  8
odnowienie_ew
100
AcDbVertex
100
AcDb2dVertex
 10
7571335.12000000011
 20
5715076.12999999989
  0
VERTEX
  5
C6
100
AcDbEntity
  8
odnowienie_ew
100
AcDbVertex
100
AcDb2dVertex
 10
7571328.66999999993
 20
5715076.26999999955
  0
VERTEX
  5
C7
100
AcDbEntity
  8
odnowienie_ew
100
AcDbVertex
100
AcDb2dVertex
 10
7571315.70999999996
 20
5715077.46999999974
  0
VERTEX
  5
C8
100
AcDbEntity
  8
odnowienie_ew
100
AcDbVertex
100
AcDb2dVertex
 10
7571298.33999999985
 20
5715082.04999999981
  0
VERTEX
  5
C9
100
AcDbEntity
  8
odnowienie_ew
100
AcDbVertex
100
AcDb2dVertex
 10
7571273.90000000037
 20
5715089.84999999963
  0
VERTEX
  5
CA
100
AcDbEntity
  8
odnowienie_ew
100
AcDbVertex
100
AcDb2dVertex
 10
7571257.25
 20
5715096.96999999974
  0
VERTEX
  5
CB
100
AcDbEntity
  8
odnowienie_ew
100
AcDbVertex
100
AcDb2dVertex
 10
7571241.55999999959
 20
5715103.6799999997
  0
VERTEX
  5
CC
100
AcDbEntity
  8
odnowienie_ew
100
AcDbVertex
100
AcDb2dVertex
 10
7571228.51999999955
 20
5715109.62999999989
  0
VERTEX
  5
CD
100
AcDbEntity
  8
odnowienie_ew
100
AcDbVertex
100
AcDb2dVertex
 10
7571225.21999999974
 20
5715111.13999999966
  0
VERTEX
  5
CE
100
AcDbEntity
  8
odnowienie_ew
100
AcDbVertex
100
AcDb2dVertex
 10
7571228.91000000015
 20
5715130.9299999997
  0
VERTEX
  5
CF
100
AcDbEntity
  8
odnowienie_ew
100
AcDbVertex
100
AcDb2dVertex
 10
7571232.73000000045
 20
5715151.45999999996
  0
VERTEX
  5
D0
100
AcDbEntity
  8
odnowienie_ew
100
AcDbVertex
100
AcDb2dVertex
 10
7571237.24000000022
 20
5715175.62999999989
  0
VERTEX
  5
D1
100
AcDbEntity
  8
odnowienie_ew
100
AcDbVertex
100
AcDb2dVertex
 10
7571317.45000000019
 20
5715167.15000000037
  0
VERTEX
  5
D2
100
AcDbEntity
  8
odnowienie_ew
100
AcDbVertex
100
AcDb2dVertex
 10
7571372.53000000026
 20
5715161.76999999955
  0
VERTEX
  5
D3
100
AcDbEntity
  8
odnowienie_ew
100
AcDbVertex
100
AcDb2dVertex
 10
7571405.87999999989
 20
5715169.78000000026
  0
VERTEX
  5
D4
100
AcDbEntity
  8
odnowienie_ew
100
AcDbVertex
100
AcDb2dVertex
 10
7571431.69000000041
 20
5715188.11000000034
  0
VERTEX
  5
D5
100
AcDbEntity
  8
odnowienie_ew
100
AcDbVertex
100
AcDb2dVertex
 10
7571457.4299999997
 20
5715214.78000000026
  0
VERTEX
  5
D6
100
AcDbEntity
  8
odnowienie_ew
100
AcDbVertex
100
AcDb2dVertex
 10
7571474.25
 20
5715242.84999999963
  0
VERTEX
  5
D7
100
AcDbEntity
  8
odnowienie_ew
100
AcDbVertex
100
AcDb2dVertex
 10
7571480.12999999989
 20
5715272.59999999963
  0
VERTEX
  5
D8
100
AcDbEntity
  8
odnowienie_ew
100
AcDbVertex
100
AcDb2dVertex
 10
7571522.99000000022
 20
5715260.04000000004
  0
VERTEX
  5
D9
100
AcDbEntity
  8
odnowienie_ew
100
AcDbVertex
100
AcDb2dVertex
 10
7571556.11000000034
 20
5715250.54000000004
  0
SEQEND
  5
DA
100
AcDbEntity
  8
odnowienie_ew
  0
POLYLINE
  5
DB
100
AcDbEntity
  8
odnowienie_ew
  6
CONTINUOUS
370
18
100
AcDb2dPolyline
 66
1
 70
129
  0
VERTEX
  5
DC
100
AcDbEntity
  8
odnowienie_ew
100
AcDbVertex
100
AcDb2dVertex
 10
7571368.05999999959
 20
5715000.83000000007
  0
VERTEX
  5
DD
100
AcDbEntity
  8
odnowienie_ew
100
AcDbVertex
100
AcDb2dVertex
 10
7571368.05999999959
 20
5715000.83000000007
  0
VERTEX
  5
DE
100
AcDbEntity
  8
odnowienie_ew
100
AcDbVertex
100
AcDb2dVertex
 10
7571372.88999999966
 20
5715000.4299999997
  0
VERTEX
  5
DF
100
AcDbEntity
  8
odnowienie_ew
100
AcDbVertex
100
AcDb2dVertex
 10
7571380.26999999955
 20
5714999.79000000004
  0
VERTEX
  5
E0
100
AcDbEntity
  8
odnowienie_ew
100
AcDbVertex
100
AcDb2dVertex
 10
7571387.63999999966
 20
5714999.16000000015
  0
VERTEX
  5
E1
100
AcDbEntity
  8
odnowienie_ew
100
AcDbVertex
100
AcDb2dVertex
 10
7571405.51999999955
 20
5714997.62000000011
  0
VERTEX
  5
E2
100
AcDbEntity
  8
odnowienie_ew
100
AcDbVertex
100
AcDb2dVertex
 10
7571417.91999999993
 20
5714996.54999999981
  0
VERTEX
  5
E3
100
AcDbEntity
  8
odnowienie_ew
100
AcDbVertex
100
AcDb2dVertex
 10
7571436.88999999966
 20
5714994.91999999993
  0
VERTEX
  5
E4
100
AcDbEntity
  8
odnowienie_ew
100
AcDbVertex
100
AcDb2dVertex
 10
7571453.50999999978
 20
5714993.49000000022
  0
VERTEX
  5
E5
100
AcDbEntity
  8
odnowienie_ew
100
AcDbVertex
100
AcDb2dVertex
 10
7571470.46999999974
 20
5714992.00999999978
  0
VERTEX
  5
E6
100
AcDbEntity
  8
odnowienie_ew
100
AcDbVertex
100
AcDb2dVertex
 10
7571468.23000000045
 20
5714985.25
  0
VERTEX
  5
E7
100
AcDbEntity
  8
odnowienie_ew
100
AcDbVertex
100
AcDb2dVertex
 10
7571451.3200000003
 20
5714986.66000000015
  0
VERTEX
  5
E8
100
AcDbEntity
  8
odnowienie_ew
100
AcDbVertex
100
AcDb2dVertex
 10
7571434.65000000037
 20
5714988.04999999981
  0
VERTEX
  5
E9
100
AcDbEntity
  8
odnowienie_ew
100
AcDbVertex
100
AcDb2dVertex
 10
7571415.66000000015
 20
5714989.62000000011
  0
VERTEX
  5
EA
100
AcDbEntity
  8
odnowienie_ew
100
AcDbVertex
100
AcDb2dVertex
 10
7571386.33000000007
 20
5714992.15000000037
  0
VERTEX
  5
EB
100
AcDbEntity
  8
odnowienie_ew
100
AcDbVertex
100
AcDb2dVertex
 10
7571368.04999999981
 20
5714993.90000000037
  0
VERTEX
  5
EC
100
AcDbEntity
  8
odnowienie_ew
100
AcDbVertex
100
AcDb2dVertex
 10
7571353.55999999959
 20
5714995.26999999955
  0
VERTEX
  5
ED
100
AcDbEntity
  8
odnowienie_ew
100
AcDbVertex
100
AcDb2dVertex
 10
7571345.91000000015
 20
5714996.0
  0
VERTEX
  5
EE
100
AcDbEntity
  8
odnowienie_ew
100
AcDbVertex
100
AcDb2dVertex
 10
7571339.99000000022
 20
5714996.55999999959
  0
VERTEX
  5
EF
100
AcDbEntity
  8
odnowienie_ew
100
AcDbVertex
100
AcDb2dVertex
 10
7571332.63999999966
 20
5714997.26999999955
  0
VERTEX
  5
F0
100
AcDbEntity
  8
odnowienie_ew
100
AcDbVertex
100
AcDb2dVertex
 10
7571326.51999999955
 20
5714997.84999999963
  0
VERTEX
  5
F1
100
AcDbEntity
  8
odnowienie_ew
100
AcDbVertex
100
AcDb2dVertex
 10
7571312.41000000015
 20
5714999.46999999974
  0
VERTEX
  5
F2
100
AcDbEntity
  8
odnowienie_ew
100
AcDbVertex
100
AcDb2dVertex
 10
7571288.0
 20
5715002.6799999997
  0
VERTEX
  5
F3
100
AcDbEntity
  8
odnowienie_ew
100
AcDbVertex
100
AcDb2dVertex
 10
7571269.09999999963
 20
5715005.16000000015
  0
VERTEX
  5
F4
100
AcDbEntity
  8
odnowienie_ew
100
AcDbVertex
100
AcDb2dVertex
 10
7571263.13999999966
 20
5715006.44000000041
  0
VERTEX
  5
F5
100
AcDbEntity
  8
odnowienie_ew
100
AcDbVertex
100
AcDb2dVertex
 10
7571252.65000000037
 20
5715008.6799999997
  0
VERTEX
  5
F6
100
AcDbEntity
  8
odnowienie_ew
100
AcDbVertex
100
AcDb2dVertex
 10
7571239.05999999959
 20
5715013.62000000011
  0
VERTEX
  5
F7
100
AcDbEntity
  8
odnowienie_ew
100
AcDbVertex
100
AcDb2dVertex
 10
7571227.54000000004
 20
5715020.05999999959
  0
VERTEX
  5
F8
100
AcDbEntity
  8
odnowienie_ew
100
AcDbVertex
100
AcDb2dVertex
 10
7571214.71999999974
 20
5715027.55999999959
  0
VERTEX
  5
F9
100
AcDbEntity
  8
odnowienie_ew
100
AcDbVertex
100
AcDb2dVertex
 10
7571216.41999999992
 20
5715037.05999999959
  0
VERTEX
  5
FA
100
AcDbEntity
  8
odnowienie_ew
100
AcDbVertex
100
AcDb2dVertex
 10
7571238.54000000004
 20
5715023.3200000003
  0
VERTEX
  5
FB
100
AcDbEntity
  8
odnowienie_ew
100
AcDbVertex
100
AcDb2dVertex
 10
7571258.62999999989
 20
5715015.20000000019
  0
VERTEX
  5
FC
100
AcDbEntity
  8
odnowienie_ew
100
AcDbVertex
100
AcDb2dVertex
 10
7571265.58000000007
 20
5715013.79000000004
  0
VERTEX
  5
FD
100
AcDbEntity
  8
odnowienie_ew
100
AcDbVertex
100
AcDb2dVertex
 10
7571281.78000000026
 20
5715010.50999999978
  0
VERTEX
  5
FE
100
AcDbEntity
  8
odnowienie_ew
100
AcDbVertex
100
AcDb2dVertex
 10
7571290.24000000022
 20
5715009.4299999997
  0
VERTEX
  5
FF
100
AcDbEntity
  8
odnowienie_ew
100
AcDbVertex
100
AcDb2dVertex
 10
7571311.46999999974
 20
5715006.70999999996
  0
VERTEX
  5
100
100
AcDbEntity
  8
odnowienie_ew
100
AcDbVertex
100
AcDb2dVertex
 10
7571314.70000000019
 20
5715006.36000000034
  0
VERTEX
  5
101
100
AcDbEntity
  8
odnowienie_ew
100
AcDbVertex
100
AcDb2dVertex
 10
7571337.29000000004
 20
5715003.9299999997
  0
VERTEX
  5
102
100
AcDbEntity
  8
odnowienie_ew
100
AcDbVertex
100
AcDb2dVertex
 10
7571356.54000000004
 20
5715001.86000000034
  0
SEQEND
  5
103
100
AcDbEntity
  8
odnowienie_ew
  0
POLYLINE
  5
104
100
AcDbEntity
  8
odnowienie_ew
  6
CONTINUOUS
370
18
100
AcDb2dPolyline
 66
1
 70
129
  0
VERTEX
  5
105
100
AcDbEntity
  8
odnowienie_ew
100
AcDbVertex
100
AcDb2dVertex
 10
7571357.53000000026
 20
5715001.75999999978
  0
VERTEX
  5
106
100
AcDbEntity
  8
odnowienie_ew
100
AcDbVertex
100
AcDb2dVertex
 10
7571356.54000000004
 20
5715001.86000000034
  0
VERTEX
  5
107
100
AcDbEntity
  8
odnowienie_ew
100
AcDbVertex
100
AcDb2dVertex
 10
7571346.91999999992
 20
5715005.0
  0
VERTEX
  5
108
100
AcDbEntity
  8
odnowienie_ew
100
AcDbVertex
100
AcDb2dVertex
 10
7571371.78000000026
 20
5715076.45000000019
  0
VERTEX
  5
109
100
AcDbEntity
  8
odnowienie_ew
100
AcDbVertex
100
AcDb2dVertex
 10
7571383.3200000003
 20
5715076.24000000022
  0
SEQEND
  5
10A
100
AcDbEntity
  8
odnowienie_ew
  0
POINT
  5
10B
100
AcDbEntity
  8
odnowienie_ew
100
AcDbPoint
 62
256
 10
7571357.53000000026
 20
5715001.75999999978
  0
TEXT
  5
10C
100
AcDbEntity
  8
odnowienie_ew
370
25
100
AcDbText
 39
0.25
 10
7571361.72750000004
 20
5714673.3049999997
 40
1.25
  1
8-246
 50
0.00
 41
0.66
  7
STANDARD
 72
1
 11
7571363.29000000004
 21
5714673.9299999997
100
AcDbText
 73
2
  0
TEXT
  5
10D
100
AcDbEntity
  8
odnowienie_ew
370
25
100
AcDbText
 39
0.25
 10
7571253.17250000034
 20
5714802.78500000015
 40
1.25
  1
8-96/10
 50
0.00
 41
0.66
  7
STANDARD
 72
1
 11
7571255.36000000034
 21
5714803.41000000015
100
AcDbText
 73
2
  0
TEXT
  5
10E
100
AcDbEntity
  8
odnowienie_ew
370
25
100
AcDbText
 39
0.25
 10
7571262.5549999997
 20
5714800.84499999974
 40
1.25
  1
8-96/4
 50
0.00
 41
0.66
  7
STANDARD
 72
1
 11
7571264.4299999997
 21
5714801.46999999974
100
AcDbText
 73
2
  0
TEXT
  5
10F
100
AcDbEntity
  8
odnowienie_ew
370
25
100
AcDbText
 39
0.25
 10
7571268.95500000007
 20
5714799.48500000034
 40
1.25
  1
8-96/3
 50
0.00
 41
0.66
  7
STANDARD
 72
1
 11
7571270.83000000007
 21
5714800.11000000034
100
AcDbText
 73
2
  0
TEXT
  5
110
100
AcDbEntity
  8
odnowienie_ew
370
25
100
AcDbText
 39
0.25
 10
7571248.16500000004
 20
5715026.53500000015
 40
1.25
  1
8-93/1
 50
0.00
 41
0.66
  7
STANDARD
 72
1
 11
7571250.04000000004
 21
5715027.16000000015
100
AcDbText
 73
2
  0
TEXT
  5
111
100
AcDbEntity
  8
odnowienie_ew
370
25
100
AcDbText
 39
0.25
 10
7571277.16500000004
 20
5715016.75499999989
 40
1.25
  1
8-94/1
 50
0.00
 41
0.66
  7
STANDARD
 72
1
 11
7571279.04000000004
 21
5715017.37999999989
100
AcDbText
 73
2
  0
TEXT
  5
112
100
AcDbEntity
  8
odnowienie_ew
370
25
100
AcDbText
 39
0.25
 10
7571305.57500000019
 20
5715008.82500000019
 40
1.25
  1
8-95/1
 50
0.00
 41
0.66
  7
STANDARD
 72
1
 11
7571307.45000000019
 21
5715009.45000000019
100
AcDbText
 73
2
  0
TEXT
  5
113
100
AcDbEntity
  8
odnowienie_ew
370
25
100
AcDbText
 39
0.25
 10
7571284.53249999974
 20
5715022.95500000007
 40
1.25
  1
8-242/1
 50
0.00
 41
0.66
  7
STANDARD
 72
1
 11
7571286.71999999974
 21
5715023.58000000007
100
AcDbText
 73
2
  0
TEXT
  5
114
100
AcDbEntity
  8
odnowienie_ew
370
25
100
AcDbText
 39
0.25
 10
7571254.3499999987
 20
5715062.37499999907
 40
1.25
  1
8-80
 50
0.00
 41
0.66
  7
STANDARD
 72
1
 11
7571255.5999999987
 21
5715062.99999999907
100
AcDbText
 73
2
  0
TEXT
  5
115
100
AcDbEntity
  8
odnowienie_ew
370
25
100
AcDbText
 39
0.25
 10
7571277.24999999814
 20
5715055.4749999987
 40
1.25
  1
8-81
 50
0.00
 41
0.66
  7
STANDARD
 72
1
 11
7571278.49999999814
 21
5715056.0999999987
100
AcDbText
 73
2
  0
TEXT
  5
116
100
AcDbEntity
  8
odnowienie_ew
370
25
100
AcDbText
 39
0.25
 10
7571296.32499999832
 20
5715045.9749999987
 40
1.25
  1
8-82/1
 50
0.00
 41
0.66
  7
STANDARD
 72
1
 11
7571298.19999999832
 21
5715046.5999999987
100
AcDbText
 73
2
  0
TEXT
  5
117
100
AcDbEntity
  8
odnowienie_ew
370
25
100
AcDbText
 39
0.25
 10
7571330.3499999987
 20
5715040.27499999851
 40
1.25
  1
8-84
 50
0.00
 41
0.66
  7
STANDARD
 72
1
 11
7571331.5999999987
 21
5715040.89999999851
100
AcDbText
 73
2
  0
TEXT
  5
118
100
AcDbEntity
  8
odnowienie_ew
370
25
100
AcDbText
 39
0.25
 10
7571348.14999999851
 20
5715037.57499999832
 40
1.25
  1
8-85
 50
0.00
 41
0.66
  7
STANDARD
 72
1
 11
7571349.39999999851
 21
5715038.19999999832
100
AcDbText
 73
2
  0
TEXT
  5
119
100
AcDbEntity
  8
odnowienie_ew
370
25
100
AcDbText
 39
0.25
 10
7571314.74999999814
 20
5715042.4749999987
 40
1.25
  1
8-83
 50
0.00
 41
0.66
  7
STANDARD
 72
1
 11
7571315.99999999814
 21
5715043.0999999987
100
AcDbText
 73
2
  0
TEXT
  5
11A
100
AcDbEntity
  8
odnowienie_ew
370
25
100
AcDbText
 39
0.25
 10
7571250.09499999974
 20
5714852.3049999997
 40
1.25
  1
8-95/2
 50
0.00
 41
0.66
  7
STANDARD
 72
1
 11
7571251.96999999974
 21
5714852.9299999997
100
AcDbText
 73
2
  0
TEXT
  5
11B
100
AcDbEntity
  8
odnowienie_ew
370
25
100
AcDbText
 39
0.25
 10
7571200.06500000041
 20
5714881.54499999993
 40
1.25
  1
8-93/2
 50
0.00
 41
0.66
  7
STANDARD
 72
1
 11
7571201.94000000041
 21
5714882.16999999993
100
AcDbText
 73
2
  0
TEXT
  5
11C
100
AcDbEntity
  8
odnowienie_ew
370
25
100
AcDbText
 39
0.25
 10
7571190.875
 20
5714755.14499999955
 40
1.25
  1
8-94/3
 50
0.00
 41
0.66
  7
STANDARD
 72
1
 11
7571192.75
 21
5714755.76999999955
100
AcDbText
 73
2
  0
TEXT
  5
11D
100
AcDbEntity
  8
odnowienie_ew
370
25
100
AcDbText
 39
0.25
 10
7571254.20500000007
 20
5714947.15500000026
 40
1.25
  1
8-94/4
 50
0.00
 41
0.66
  7
STANDARD
 72
1
 11
7571256.08000000007
 21
5714947.78000000026
100
AcDbText
 73
2
  0
TEXT
  5
11E
100
AcDbEntity
  8
odnowienie_ew
370
25
100
AcDbText
 39
0.25
 10
7571457.96750000026
 20
5715165.75499999989
 40
1.25
  1
8-240
 50
0.00
 41
0.66
  7
STANDARD
 72
1
 11
7571459.53000000026
 21
5715166.37999999989
100
AcDbText
 73
2
  0
TEXT
  5
11F
100
AcDbEntity
  8
odnowienie_ew
370
25
100
AcDbText
 39
0.25
 10
7571321.62750000041
 20
5715001.74500000011
 40
1.25
  1
8-244
 50
0.00
 41
0.66
  7
STANDARD
 72
1
 11
7571323.19000000041
 21
5715002.37000000011
100
AcDbText
 73
2
  0
ENDSEC
  0
SECTION
  2
OBJECTS
  0
DICTIONARY
  5
120
330
0
100
AcDbDictionary
280
0
281
1
  3
ACAD_GROUP
350
121
  3
ACAD_LAYOUT
350
122
  3
ACAD_MLINESTYLE
350
123
  3
ACAD_PLOTSETTINGS
350
124
  3
ACAD_PLOTSTYLENAME
350
125
  0
DICTIONARY
  5
121
102
{ACAD_REACTORS
330
120
102
}
330
120
100
AcDbDictionary
280
0
281
1
  0
DICTIONARY
  5
122
102
{ACAD_REACTORS
330
120
102
}
330
120
100
AcDbDictionary
280
0
281
1
  3
Layout
350
19
  3
Model
350
17
  0
DICTIONARY
  5
123
102
{ACAD_REACTORS
330
120
102
}
330
120
100
AcDbDictionary
280
0
281
1
  3
Standard
350
126
  0
DICTIONARY
  5
124
102
{ACAD_REACTORS
330
120
102
}
330
120
100
AcDbDictionary
280
0
281
1
  0
ACDBDICTIONARYWDFLT
  5
125
102
{ACAD_REACTORS
330
120
102
}
330
120
100
AcDbDictionary
281
1
  3
Normal
350
A
100
AcDbDictionaryWithDefault
340
A
  0
LAYOUT
  5
19
100
AcDbPlotSettings
  1

  2

  4

  6

 40
0.0
 41
0.0
 42
0.0
 43
0.0
 44
0.0
 45
0.0
 46
0.0
 47
0.0
 48
0.0
 49
0.0
140
0.0
141
0.0
142
1.0
143
1.0
 70
688
 72
1
 73
0
 74
5
  7

 75
0
147
1.0
148
0.0
149
0.0
100
AcDbLayout
  1
Layout
 70
1
 71
1
 10
0.0
 20
0.0
 11
420.0
 21
297.0
 12
0.0
 22
0.0
 32
0.0
 14
100000000000000000000.0
 24
100000000000000000000.0
 34
100000000000000000000.0
 15
-100000000000000000000.0
 25
-100000000000000000000.0
 35
-100000000000000000000.0
146
0.0
 13
0.0
 23
0.0
 33
0.0
 16
1.0
 26
0.0
 36
0.0
 17
0.0
 27
1.0
 37
0.0
 76
0
330
18
  0
LAYOUT
  5
17
100
AcDbPlotSettings
  1

  2

  4

  6

 40
0.0
 41
0.0
 42
0.0
 43
0.0
 44
0.0
 45
0.0
 46
0.0
 47
0.0
 48
0.0
 49
0.0
140
0.0
141
0.0
142
1.0
143
1.0
 70
1712
 72
1
 73
0
 74
0
  7

 75
0
147
1.0
148
0.0
149
0.0
100
AcDbLayout
  1
Model
 70
1
 71
0
 10
0.0
 20
0.0
 11
12.0
 21
9.0
 12
0.0
 22
0.0
 32
0.0
 14
0.0
 24
0.0
 34
0.0
 15
0.0
 25
0.0
 35
0.0
146
0.0
 13
0.0
 23
0.0
 33
0.0
 16
1.0
 26
0.0
 36
0.0
 17
0.0
 27
1.0
 37
0.0
 76
0
330
16
  0
MLINESTYLE
  5
126
102
{ACAD_REACTORS
330
123
102
}
330
123
100
AcDbMlineStyle
  2
Standard
 70
0
  3

 62
256
 51
90.0
 52
90.0
  2
Standard
 71
2
 49
0.5
 62
256
  6
ByLayer
 49
-0.5
 62
256
  6
ByLayer
  0
ACDBPLACEHOLDER
  5
A
  0
ENDSEC
  0
EOF
