  0
SECTION
  2
HEADER
  9
$ACADVER
  1
AC1018
  9
$HANDSEED
  5
FFFFFF
  9
$EXTMAX
 10
8381015.75999999978
 20
5721834.01999999955
 30
1000000.00
  9
$EXTMIN
 10
8380808.62999999989
 20
5721695.28000000026
 30
0.00
  9
$LIMMIN
 10
8380808.62999999989
 20
5721695.28000000026
  9
$LIMMAX
 10
8381015.75999999978
 20
5721834.01999999955
  9
$DIMASZ
 40
2.5
  9
$DIMGAP
 40
0.625
  9
$INSUNITS
 70
6
  9
$MEASUREMENT
 70
1
  9
$DIMEXO
 40
0.625
  9
$DIMTXT
 40
2.5
  9
$DIMSTYLE
  2
Standard
  9
$PLIMMIN
 10
0.0
 20
0.0
  9
$PLIMMAX
 10
210.0
 20
297.0
  9
$DIMEXE
 40
1.25
  9
$TEXTSIZE
 40
2.5
  9
$TEXTSTYLE
  7
Standard
  9
$LWDISPLAY
290
1
  9
$TDCREATE
 40
45786.363535602
  9
$TDUCREATE
 40
45786.280202269
  9
$TDUPDATE
 40
45786.363535602
  9
$TDUUPDATE
 40
45786.280202269
  9
$TDINDWG
 40
0.0
  9
$TDUSRTIMER
 40
0.0
  9
$USRTIMER
 70
1
  0
ENDSEC
  0
SECTION
  2
TABLES
  0
TABLE
  2
VPORT
  5
1
100
AcDbSymbolTable
 70
1
  0
VPORT
  5
2
100
AcDbSymbolTableRecord
100
AcDbViewportTableRecord
  2
*ACTIVE
 70
0
 10
0.0
 20
0.0
 11
1.0
 21
1.0
 12
8380912.195
 22
5721764.650
 13
0.0
 23
0.0
 14
1.0
 24
1.0
 15
0.0
 25
0.0
 16
0.0
 26
0.0
 36
1.0
 17
0.0
 27
0.0
 37
0.0
 40
138.740
 41
1.493
 42
50.0
 43
0.0
 44
0.0
 50
0.0
 51
0.0
 71
0
 72
100
 73
1
 74
1
 75
0
 76
0
 77
0
 78
0
  0
ENDTAB
  0
TABLE
  2
LTYPE
  5
3
100
AcDbSymbolTable
 70
3
  0
LTYPE
  5
4
100
AcDbSymbolTableRecord
100
AcDbLinetypeTableRecord
  2
ByBlock
 70
0
  3

 72
65
 73
0
 40
0.0
  0
LTYPE
  5
5
100
AcDbSymbolTableRecord
100
AcDbLinetypeTableRecord
  2
ByLayer
 70
0
  3

 72
65
 73
0
 40
0.0
  0
LTYPE
  5
6
100
AcDbSymbolTableRecord
100
AcDbLinetypeTableRecord
  2
CONTINUOUS
 70
0
  3
Solid line
 72
65
 73
0
 40
0.0
  0
LTYPE
  5
7
100
AcDbSymbolTableRecord
100
AcDbLinetypeTableRecord
  2
L_0_09
 70
0
  3
Obrys_budynku_ognioodpornego_Obrys_budynku_nieognioodp___0_18__0_18__0_18__0_13_
 72
65
 73
2
 40
2.5
 49
2.0
 74
0
 49
-0.5
 74
0
  0
LTYPE
  5
8
100
AcDbSymbolTableRecord
100
AcDbLinetypeTableRecord
  2
L_0_0C
 70
0
  3
Budynek_w_ruinie_Warstwica_pomocnicza
 72
65
 73
2
 40
3.0
 49
2.0
 74
0
 49
-1.0
 74
0
  0
ENDTAB
  0
TABLE
  2
LAYER
  5
9
100
AcDbSymbolTable
 70
6
  0
LAYER
  5
A
100
AcDbSymbolTableRecord
100
AcDbLayerTableRecord
  2
0
 70
0
 62
-7
420
0
  6
CONTINUOUS
370
18
390
B
  0
LAYER
  5
C
100
AcDbSymbolTableRecord
100
AcDbLayerTableRecord
  2
A_SCIANY_KONSTRUKCYJNE
 70
0
420
0
  6
CONTINUOUS
370
35
390
B
  0
LAYER
  5
D
100
AcDbSymbolTableRecord
100
AcDbLayerTableRecord
  2
Dzialki
 70
0
420
32768
  6
CONTINUOUS
370
25
390
B
  0
LAYER
  5
E
100
AcDbSymbolTableRecord
100
AcDbLayerTableRecord
  2
Granice_ogrodzenie
 70
0
420
0
  6
CONTINUOUS
370
70
390
B
  0
LAYER
  5
F
100
AcDbSymbolTableRecord
100
AcDbLayerTableRecord
  2
robocza
 70
0
420
255
  6
CONTINUOUS
370
18
390
B
  0
LAYER
  5
10
100
AcDbSymbolTableRecord
100
AcDbLayerTableRecord
  2
__osie
 70
0
420
16711680
  6
CONTINUOUS
370
18
390
B
  0
ENDTAB
  0
TABLE
  2
STYLE
  5
11
100
AcDbSymbolTable
 70
2
  0
STYLE
  5
12
100
AcDbSymbolTableRecord
100
AcDbTextStyleTableRecord
  2
STANDARD
 70
0
 40
0.0
 41
1.0
 50
0.0
 71
0
  3
simplex.shx
  4

  0
STYLE
  5
13
100
AcDbSymbolTableRecord
100
AcDbTextStyleTableRecord
  2
STANDARD_ITALIC
 70
0
 40
0.0
 41
1.0
 50
15.0
 71
0
  3
simplex.shx
  4

  0
ENDTAB
  0
TABLE
  2
VIEW
  5
14
100
AcDbSymbolTable
 70
0
  0
ENDTAB
  0
TABLE
  2
UCS
  5
15
100
AcDbSymbolTable
 70
0
  0
ENDTAB
  0
TABLE
  2
APPID
  5
16
100
AcDbSymbolTable
 70
1
  0
APPID
  5
17
100
AcDbSymbolTableRecord
100
AcDbRegAppTableRecord
  2
ACAD
 70
0
  0
ENDTAB
  0
TABLE
  2
DIMSTYLE
  5
18
100
AcDbSymbolTable
 70
1
100
AcDbDimStyleTable
  0
DIMSTYLE
105
19
100
AcDbSymbolTableRecord
100
AcDbDimStyleTableRecord
  2
Standard
 70
0
340
12
  0
ENDTAB
  0
TABLE
  2
BLOCK_RECORD
  5
1A
100
AcDbSymbolTable
 70
4
  0
BLOCK_RECORD
  5
1B
100
AcDbSymbolTableRecord
100
AcDbBlockTableRecord
  2
*Model_Space
340
1C
  0
BLOCK_RECORD
  5
1D
100
AcDbSymbolTableRecord
100
AcDbBlockTableRecord
  2
*Paper_Space
340
1E
  0
BLOCK_RECORD
  5
1F
100
AcDbSymbolTableRecord
100
AcDbBlockTableRecord
  2
GRT
340
20
  0
BLOCK_RECORD
  5
21
100
AcDbSymbolTableRecord
100
AcDbBlockTableRecord
  2
GRO
340
22
  0
ENDTAB
  0
ENDSEC
  0
SECTION
  2
BLOCKS
  0
BLOCK
  5
23
100
AcDbEntity
  8
0
100
AcDbBlockBegin
  2
*Model_Space
 70
0
 10
0.0
 20
0.0
 30
0.0
  3
*Model_Space
  1

  0
ENDBLK
  5
24
100
AcDbEntity
  8
0
100
AcDbBlockEnd
  0
BLOCK
  5
25
100
AcDbEntity
 67
1
  8
0
100
AcDbBlockBegin
  2
*Paper_Space
 70
0
 10
0.0
 20
0.0
 30
0.0
  3
*Paper_Space
  1

  0
ENDBLK
  5
26
100
AcDbEntity
 67
1
  8
0
100
AcDbBlockEnd
  0
BLOCK
  5
20
100
AcDbEntity
  8
0
100
AcDbBlockBegin
 62
0
370
13
  2
GRT
 70
0
 10
0
 20
0
 30
0
  3
GRT
  0
CIRCLE
  5
27
100
AcDbEntity
  8
0
  6
CONTINUOUS
 62
0
370
18
100
AcDbCircle
 10
0.0
 20
-0.0
 40
0.5
  0
ENDBLK
  5
28
100
AcDbEntity
  8
0
100
AcDbBlockEnd
  0
BLOCK
  5
22
100
AcDbEntity
  8
0
100
AcDbBlockBegin
 62
0
370
13
  2
GRO
 70
0
 10
0
 20
0
 30
0
  3
GRO
  0
HATCH
  5
29
100
AcDbEntity
  8
0
  6
CONTINUOUS
 62
0
370
13
100
AcDbHatch
 10
0.0
 20
0.0
 30
0.0
210
0.0
220
0.0
230
1.0
  2
SOLID
 70
1
 71
1
 91
1
 92
3
 72
1
 73
1
 93
2
 10
0.0
 20
-0.090553851381
 42
1.0
 10
0.0
 20
0.090553851381
 42
1.0
 97
0
 75
0
 76
1
 98
0
  0
CIRCLE
  5
2A
100
AcDbEntity
  8
0
  6
CONTINUOUS
 62
0
370
13
100
AcDbCircle
 10
0.0
 20
-0.0
 40
0.090553851381
  0
ENDBLK
  5
2B
100
AcDbEntity
  8
0
100
AcDbBlockEnd
  0
ENDSEC
  0
SECTION
  2
ENTITIES
  0
POLYLINE
  5
2C
100
AcDbEntity
  8
A_SCIANY_KONSTRUKCYJNE
  6
CONTINUOUS
370
35
100
AcDb2dPolyline
 66
1
 70
128
  0
VERTEX
  5
2D
100
AcDbEntity
  8
A_SCIANY_KONSTRUKCYJNE
100
AcDbVertex
100
AcDb2dVertex
 10
8380909.55000912678
 20
5721775.05439114198
  0
VERTEX
  5
2E
100
AcDbEntity
  8
A_SCIANY_KONSTRUKCYJNE
100
AcDbVertex
100
AcDb2dVertex
 10
8380910.78172654659
 20
5721773.1775422683
  0
SEQEND
  5
2F
100
AcDbEntity
  8
A_SCIANY_KONSTRUKCYJNE
  0
POLYLINE
  5
30
100
AcDbEntity
  8
A_SCIANY_KONSTRUKCYJNE
  6
CONTINUOUS
370
35
100
AcDb2dPolyline
 66
1
 70
128
  0
VERTEX
  5
31
100
AcDbEntity
  8
A_SCIANY_KONSTRUKCYJNE
100
AcDbVertex
100
AcDb2dVertex
 10
8380898.79199035
 20
5721752.00809454638
  0
VERTEX
  5
32
100
AcDbEntity
  8
A_SCIANY_KONSTRUKCYJNE
100
AcDbVertex
100
AcDb2dVertex
 10
8380904.73623964377
 20
5721755.90912009496
  0
SEQEND
  5
33
100
AcDbEntity
  8
A_SCIANY_KONSTRUKCYJNE
  0
POLYLINE
  5
34
100
AcDbEntity
  8
A_SCIANY_KONSTRUKCYJNE
  6
CONTINUOUS
370
35
100
AcDb2dPolyline
 66
1
 70
129
  0
VERTEX
  5
35
100
AcDbEntity
  8
A_SCIANY_KONSTRUKCYJNE
100
AcDbVertex
100
AcDb2dVertex
 10
8380891.91299999971
 20
5721760.21200000029
  0
VERTEX
  5
36
100
AcDbEntity
  8
A_SCIANY_KONSTRUKCYJNE
100
AcDbVertex
100
AcDb2dVertex
 10
8380901.94199999981
 20
5721766.80200000014
  0
VERTEX
  5
37
100
AcDbEntity
  8
A_SCIANY_KONSTRUKCYJNE
100
AcDbVertex
100
AcDb2dVertex
 10
8380896.49600000028
 20
5721775.09999999963
  0
VERTEX
  5
38
100
AcDbEntity
  8
A_SCIANY_KONSTRUKCYJNE
100
AcDbVertex
100
AcDb2dVertex
 10
8380905.59999999963
 20
5721781.07400000002
  0
VERTEX
  5
39
100
AcDbEntity
  8
A_SCIANY_KONSTRUKCYJNE
100
AcDbVertex
100
AcDb2dVertex
 10
8380919.46700000018
 20
5721759.94299999997
  0
VERTEX
  5
3A
100
AcDbEntity
  8
A_SCIANY_KONSTRUKCYJNE
100
AcDbVertex
100
AcDb2dVertex
 10
8380910.3629999999
 20
5721753.96899999958
  0
VERTEX
  5
3B
100
AcDbEntity
  8
A_SCIANY_KONSTRUKCYJNE
100
AcDbVertex
100
AcDb2dVertex
 10
8380907.7790000001
 20
5721757.90600000042
  0
VERTEX
  5
3C
100
AcDbEntity
  8
A_SCIANY_KONSTRUKCYJNE
100
AcDbVertex
100
AcDb2dVertex
 10
8380897.74700000044
 20
5721751.32199999969
  0
SEQEND
  5
3D
100
AcDbEntity
  8
A_SCIANY_KONSTRUKCYJNE
  0
POLYLINE
  5
3E
100
AcDbEntity
  8
A_SCIANY_KONSTRUKCYJNE
  6
CONTINUOUS
370
35
100
AcDb2dPolyline
 66
1
 70
129
  0
VERTEX
  5
3F
100
AcDbEntity
  8
A_SCIANY_KONSTRUKCYJNE
100
AcDbVertex
100
AcDb2dVertex
 10
8380892.53570002783
 20
5721760.08337015938
  0
VERTEX
  5
40
100
AcDbEntity
  8
A_SCIANY_KONSTRUKCYJNE
100
AcDbVertex
100
AcDb2dVertex
 10
8380902.56470069196
 20
5721766.67269380391
  0
VERTEX
  5
41
100
AcDbEntity
  8
A_SCIANY_KONSTRUKCYJNE
100
AcDbVertex
100
AcDb2dVertex
 10
8380897.11927028652
 20
5721774.97025439516
  0
VERTEX
  5
42
100
AcDbEntity
  8
A_SCIANY_KONSTRUKCYJNE
100
AcDbVertex
100
AcDb2dVertex
 10
8380905.47028555069
 20
5721780.45076543745
  0
VERTEX
  5
43
100
AcDbEntity
  8
A_SCIANY_KONSTRUKCYJNE
100
AcDbVertex
100
AcDb2dVertex
 10
8380918.84389481507
 20
5721760.07251708489
  0
VERTEX
  5
44
100
AcDbEntity
  8
A_SCIANY_KONSTRUKCYJNE
100
AcDbVertex
100
AcDb2dVertex
 10
8380910.49266621843
 20
5721754.59186603688
  0
VERTEX
  5
45
100
AcDbEntity
  8
A_SCIANY_KONSTRUKCYJNE
100
AcDbVertex
100
AcDb2dVertex
 10
8380907.90863904171
 20
5721758.52931826096
  0
VERTEX
  5
46
100
AcDbEntity
  8
A_SCIANY_KONSTRUKCYJNE
100
AcDbVertex
100
AcDb2dVertex
 10
8380897.87636411469
 20
5721751.94544890244
  0
SEQEND
  5
47
100
AcDbEntity
  8
A_SCIANY_KONSTRUKCYJNE
  0
POLYLINE
  5
48
100
AcDbEntity
  8
A_SCIANY_KONSTRUKCYJNE
  6
CONTINUOUS
370
35
100
AcDb2dPolyline
 66
1
 70
129
  0
VERTEX
  5
49
100
AcDbEntity
  8
A_SCIANY_KONSTRUKCYJNE
100
AcDbVertex
100
AcDb2dVertex
 10
8380907.85533279832
 20
5721752.32281513326
  0
VERTEX
  5
4A
100
AcDbEntity
  8
A_SCIANY_KONSTRUKCYJNE
100
AcDbVertex
100
AcDb2dVertex
 10
8380907.32026682608
 20
5721751.97166786622
  0
VERTEX
  5
4B
100
AcDbEntity
  8
A_SCIANY_KONSTRUKCYJNE
100
AcDbVertex
100
AcDb2dVertex
 10
8380906.96911965869
 20
5721752.50673390832
  0
VERTEX
  5
4C
100
AcDbEntity
  8
A_SCIANY_KONSTRUKCYJNE
100
AcDbVertex
100
AcDb2dVertex
 10
8380907.50418569241
 20
5721752.85788108036
  0
SEQEND
  5
4D
100
AcDbEntity
  8
A_SCIANY_KONSTRUKCYJNE
  0
POLYLINE
  5
4E
100
AcDbEntity
  8
A_SCIANY_KONSTRUKCYJNE
  6
CONTINUOUS
370
18
100
AcDb2dPolyline
 66
1
 70
129
  0
VERTEX
  5
4F
100
AcDbEntity
  8
A_SCIANY_KONSTRUKCYJNE
100
AcDbVertex
100
AcDb2dVertex
 10
8380891.91271211766
 20
5721760.21248888504
  0
VERTEX
  5
50
100
AcDbEntity
  8
A_SCIANY_KONSTRUKCYJNE
100
AcDbVertex
100
AcDb2dVertex
 10
8380901.94171278179
 20
5721766.80181252956
  0
VERTEX
  5
51
100
AcDbEntity
  8
A_SCIANY_KONSTRUKCYJNE
100
AcDbVertex
100
AcDb2dVertex
 10
8380896.49615162611
 20
5721775.099572354
  0
VERTEX
  5
52
100
AcDbEntity
  8
A_SCIANY_KONSTRUKCYJNE
100
AcDbVertex
100
AcDb2dVertex
 10
8380905.59960350953
 20
5721781.07388409786
  0
VERTEX
  5
53
100
AcDbEntity
  8
A_SCIANY_KONSTRUKCYJNE
100
AcDbVertex
100
AcDb2dVertex
 10
8380919.46701347548
 20
5721759.94319912605
  0
VERTEX
  5
54
100
AcDbEntity
  8
A_SCIANY_KONSTRUKCYJNE
100
AcDbVertex
100
AcDb2dVertex
 10
8380910.36334825959
 20
5721753.96874737646
  0
VERTEX
  5
55
100
AcDbEntity
  8
A_SCIANY_KONSTRUKCYJNE
100
AcDbVertex
100
AcDb2dVertex
 10
8380907.77932108287
 20
5721757.90619960055
  0
VERTEX
  5
56
100
AcDbEntity
  8
A_SCIANY_KONSTRUKCYJNE
100
AcDbVertex
100
AcDb2dVertex
 10
8380897.74704615586
 20
5721751.32233024202
  0
SEQEND
  5
57
100
AcDbEntity
  8
A_SCIANY_KONSTRUKCYJNE
  0
POLYLINE
  5
58
100
AcDbEntity
  8
A_SCIANY_KONSTRUKCYJNE
  6
CONTINUOUS
370
18
100
AcDb2dPolyline
 66
1
 70
129
  0
VERTEX
  5
59
100
AcDbEntity
  8
A_SCIANY_KONSTRUKCYJNE
100
AcDbVertex
100
AcDb2dVertex
 10
8380892.53570002783
 20
5721760.08337015938
  0
VERTEX
  5
5A
100
AcDbEntity
  8
A_SCIANY_KONSTRUKCYJNE
100
AcDbVertex
100
AcDb2dVertex
 10
8380902.56470069196
 20
5721766.67269380391
  0
VERTEX
  5
5B
100
AcDbEntity
  8
A_SCIANY_KONSTRUKCYJNE
100
AcDbVertex
100
AcDb2dVertex
 10
8380897.11927028652
 20
5721774.97025439516
  0
VERTEX
  5
5C
100
AcDbEntity
  8
A_SCIANY_KONSTRUKCYJNE
100
AcDbVertex
100
AcDb2dVertex
 10
8380905.47028555069
 20
5721780.45076543745
  0
VERTEX
  5
5D
100
AcDbEntity
  8
A_SCIANY_KONSTRUKCYJNE
100
AcDbVertex
100
AcDb2dVertex
 10
8380918.84389481507
 20
5721760.07251708489
  0
VERTEX
  5
5E
100
AcDbEntity
  8
A_SCIANY_KONSTRUKCYJNE
100
AcDbVertex
100
AcDb2dVertex
 10
8380910.49266621843
 20
5721754.59186603688
  0
VERTEX
  5
5F
100
AcDbEntity
  8
A_SCIANY_KONSTRUKCYJNE
100
AcDbVertex
100
AcDb2dVertex
 10
8380907.90863904171
 20
5721758.52931826096
  0
VERTEX
  5
60
100
AcDbEntity
  8
A_SCIANY_KONSTRUKCYJNE
100
AcDbVertex
100
AcDb2dVertex
 10
8380897.87636411469
 20
5721751.94544890244
  0
SEQEND
  5
61
100
AcDbEntity
  8
A_SCIANY_KONSTRUKCYJNE
  0
POLYLINE
  5
62
100
AcDbEntity
  8
A_SCIANY_KONSTRUKCYJNE
  6
CONTINUOUS
370
18
100
AcDb2dPolyline
 66
1
 70
129
  0
VERTEX
  5
63
100
AcDbEntity
  8
A_SCIANY_KONSTRUKCYJNE
100
AcDbVertex
100
AcDb2dVertex
 10
8380907.85533279832
 20
5721752.32281513326
  0
VERTEX
  5
64
100
AcDbEntity
  8
A_SCIANY_KONSTRUKCYJNE
100
AcDbVertex
100
AcDb2dVertex
 10
8380907.32026682608
 20
5721751.97166786622
  0
VERTEX
  5
65
100
AcDbEntity
  8
A_SCIANY_KONSTRUKCYJNE
100
AcDbVertex
100
AcDb2dVertex
 10
8380906.96911965869
 20
5721752.50673390832
  0
VERTEX
  5
66
100
AcDbEntity
  8
A_SCIANY_KONSTRUKCYJNE
100
AcDbVertex
100
AcDb2dVertex
 10
8380907.50418569241
 20
5721752.85788108036
  0
SEQEND
  5
67
100
AcDbEntity
  8
A_SCIANY_KONSTRUKCYJNE
  0
POLYLINE
  5
68
100
AcDbEntity
  8
A_SCIANY_KONSTRUKCYJNE
  6
CONTINUOUS
370
18
100
AcDb2dPolyline
 66
1
 70
129
  0
VERTEX
  5
69
100
AcDbEntity
  8
A_SCIANY_KONSTRUKCYJNE
100
AcDbVertex
100
AcDb2dVertex
 10
8380891.93499971088
 20
5721760.64575947635
  0
VERTEX
  5
6A
100
AcDbEntity
  8
A_SCIANY_KONSTRUKCYJNE
100
AcDbVertex
100
AcDb2dVertex
 10
8380892.14400988258
 20
5721760.78292633779
  0
VERTEX
  5
6B
100
AcDbEntity
  8
A_SCIANY_KONSTRUKCYJNE
100
AcDbVertex
100
AcDb2dVertex
 10
8380892.28117674403
 20
5721760.57391616702
  0
VERTEX
  5
6C
100
AcDbEntity
  8
A_SCIANY_KONSTRUKCYJNE
100
AcDbVertex
100
AcDb2dVertex
 10
8380892.07216657232
 20
5721760.43674930558
  0
SEQEND
  5
6D
100
AcDbEntity
  8
A_SCIANY_KONSTRUKCYJNE
  0
POLYLINE
  5
6E
100
AcDbEntity
  8
A_SCIANY_KONSTRUKCYJNE
  6
CONTINUOUS
370
18
100
AcDb2dPolyline
 66
1
 70
129
  0
VERTEX
  5
6F
100
AcDbEntity
  8
A_SCIANY_KONSTRUKCYJNE
100
AcDbVertex
100
AcDb2dVertex
 10
8380899.18760706857
 20
5721770.18983791769
  0
VERTEX
  5
70
100
AcDbEntity
  8
A_SCIANY_KONSTRUKCYJNE
100
AcDbVertex
100
AcDb2dVertex
 10
8380899.3966172412
 20
5721770.32700477913
  0
VERTEX
  5
71
100
AcDbEntity
  8
A_SCIANY_KONSTRUKCYJNE
100
AcDbVertex
100
AcDb2dVertex
 10
8380899.53378410358
 20
5721770.1179946065
  0
VERTEX
  5
72
100
AcDbEntity
  8
A_SCIANY_KONSTRUKCYJNE
100
AcDbVertex
100
AcDb2dVertex
 10
8380899.32477393094
 20
5721769.98082774505
  0
SEQEND
  5
73
100
AcDbEntity
  8
A_SCIANY_KONSTRUKCYJNE
  0
POLYLINE
  5
74
100
AcDbEntity
  8
A_SCIANY_KONSTRUKCYJNE
  6
CONTINUOUS
370
18
100
AcDb2dPolyline
 66
1
 70
129
  0
VERTEX
  5
75
100
AcDbEntity
  8
A_SCIANY_KONSTRUKCYJNE
100
AcDbVertex
100
AcDb2dVertex
 10
8380896.55809910409
 20
5721768.46417379379
  0
VERTEX
  5
76
100
AcDbEntity
  8
A_SCIANY_KONSTRUKCYJNE
100
AcDbVertex
100
AcDb2dVertex
 10
8380896.76710927673
 20
5721768.60134065524
  0
VERTEX
  5
77
100
AcDbEntity
  8
A_SCIANY_KONSTRUKCYJNE
100
AcDbVertex
100
AcDb2dVertex
 10
8380896.9042761391
 20
5721768.3923304826
  0
VERTEX
  5
78
100
AcDbEntity
  8
A_SCIANY_KONSTRUKCYJNE
100
AcDbVertex
100
AcDb2dVertex
 10
8380896.69526596647
 20
5721768.25516362116
  0
SEQEND
  5
79
100
AcDbEntity
  8
A_SCIANY_KONSTRUKCYJNE
  0
POLYLINE
  5
7A
100
AcDbEntity
  8
A_SCIANY_KONSTRUKCYJNE
  6
CONTINUOUS
370
18
100
AcDb2dPolyline
 66
1
 70
129
  0
VERTEX
  5
7B
100
AcDbEntity
  8
A_SCIANY_KONSTRUKCYJNE
100
AcDbVertex
100
AcDb2dVertex
 10
8380893.92457093578
 20
5721766.73587133735
  0
VERTEX
  5
7C
100
AcDbEntity
  8
A_SCIANY_KONSTRUKCYJNE
100
AcDbVertex
100
AcDb2dVertex
 10
8380894.13358110748
 20
5721766.8730381988
  0
VERTEX
  5
7D
100
AcDbEntity
  8
A_SCIANY_KONSTRUKCYJNE
100
AcDbVertex
100
AcDb2dVertex
 10
8380894.27074796986
 20
5721766.66402802616
  0
VERTEX
  5
7E
100
AcDbEntity
  8
A_SCIANY_KONSTRUKCYJNE
100
AcDbVertex
100
AcDb2dVertex
 10
8380894.06173779722
 20
5721766.52686116472
  0
SEQEND
  5
7F
100
AcDbEntity
  8
A_SCIANY_KONSTRUKCYJNE
  0
POLYLINE
  5
80
100
AcDbEntity
  8
A_SCIANY_KONSTRUKCYJNE
  6
CONTINUOUS
370
18
100
AcDb2dPolyline
 66
1
 70
129
  0
VERTEX
  5
81
100
AcDbEntity
  8
A_SCIANY_KONSTRUKCYJNE
100
AcDbVertex
100
AcDb2dVertex
 10
8380889.74034728948
 20
5721763.98989576846
  0
VERTEX
  5
82
100
AcDbEntity
  8
A_SCIANY_KONSTRUKCYJNE
100
AcDbVertex
100
AcDb2dVertex
 10
8380889.94935746118
 20
5721764.12706262991
  0
VERTEX
  5
83
100
AcDbEntity
  8
A_SCIANY_KONSTRUKCYJNE
100
AcDbVertex
100
AcDb2dVertex
 10
8380890.08652432356
 20
5721763.91805245727
  0
VERTEX
  5
84
100
AcDbEntity
  8
A_SCIANY_KONSTRUKCYJNE
100
AcDbVertex
100
AcDb2dVertex
 10
8380889.87751415092
 20
5721763.78088559583
  0
SEQEND
  5
85
100
AcDbEntity
  8
A_SCIANY_KONSTRUKCYJNE
  0
POLYLINE
  5
86
100
AcDbEntity
  8
A_SCIANY_KONSTRUKCYJNE
  6
CONTINUOUS
370
18
100
AcDb2dPolyline
 66
1
 70
129
  0
VERTEX
  5
87
100
AcDbEntity
  8
A_SCIANY_KONSTRUKCYJNE
100
AcDbVertex
100
AcDb2dVertex
 10
8380896.11922335718
 20
5721763.39173504524
  0
VERTEX
  5
88
100
AcDbEntity
  8
A_SCIANY_KONSTRUKCYJNE
100
AcDbVertex
100
AcDb2dVertex
 10
8380896.32823352888
 20
5721763.52890190668
  0
VERTEX
  5
89
100
AcDbEntity
  8
A_SCIANY_KONSTRUKCYJNE
100
AcDbVertex
100
AcDb2dVertex
 10
8380896.46540039033
 20
5721763.31989173591
  0
VERTEX
  5
8A
100
AcDbEntity
  8
A_SCIANY_KONSTRUKCYJNE
100
AcDbVertex
100
AcDb2dVertex
 10
8380896.25639021862
 20
5721763.18272487447
  0
SEQEND
  5
8B
100
AcDbEntity
  8
A_SCIANY_KONSTRUKCYJNE
  0
POLYLINE
  5
8C
100
AcDbEntity
  8
A_SCIANY_KONSTRUKCYJNE
  6
CONTINUOUS
370
18
100
AcDb2dPolyline
 66
1
 70
129
  0
VERTEX
  5
8D
100
AcDbEntity
  8
A_SCIANY_KONSTRUKCYJNE
100
AcDbVertex
100
AcDb2dVertex
 10
8380898.75275152549
 20
5721765.12003750354
  0
VERTEX
  5
8E
100
AcDbEntity
  8
A_SCIANY_KONSTRUKCYJNE
100
AcDbVertex
100
AcDb2dVertex
 10
8380898.96176169813
 20
5721765.25720436499
  0
VERTEX
  5
8F
100
AcDbEntity
  8
A_SCIANY_KONSTRUKCYJNE
100
AcDbVertex
100
AcDb2dVertex
 10
8380899.09892855957
 20
5721765.04819419235
  0
VERTEX
  5
90
100
AcDbEntity
  8
A_SCIANY_KONSTRUKCYJNE
100
AcDbVertex
100
AcDb2dVertex
 10
8380898.88991838694
 20
5721764.91102733091
  0
SEQEND
  5
91
100
AcDbEntity
  8
A_SCIANY_KONSTRUKCYJNE
  0
POLYLINE
  5
92
100
AcDbEntity
  8
A_SCIANY_KONSTRUKCYJNE
  6
CONTINUOUS
370
18
100
AcDb2dPolyline
 66
1
 70
129
  0
VERTEX
  5
93
100
AcDbEntity
  8
A_SCIANY_KONSTRUKCYJNE
100
AcDbVertex
100
AcDb2dVertex
 10
8380901.38225948997
 20
5721766.84570162557
  0
VERTEX
  5
94
100
AcDbEntity
  8
A_SCIANY_KONSTRUKCYJNE
100
AcDbVertex
100
AcDb2dVertex
 10
8380901.5912696626
 20
5721766.98286848702
  0
VERTEX
  5
95
100
AcDbEntity
  8
A_SCIANY_KONSTRUKCYJNE
100
AcDbVertex
100
AcDb2dVertex
 10
8380901.72843652405
 20
5721766.77385831624
  0
VERTEX
  5
96
100
AcDbEntity
  8
A_SCIANY_KONSTRUKCYJNE
100
AcDbVertex
100
AcDb2dVertex
 10
8380901.51942635141
 20
5721766.6366914548
  0
SEQEND
  5
97
100
AcDbEntity
  8
A_SCIANY_KONSTRUKCYJNE
  0
POLYLINE
  5
98
100
AcDbEntity
  8
A_SCIANY_KONSTRUKCYJNE
  6
CONTINUOUS
370
35
100
AcDb2dPolyline
 66
1
 70
129
  0
VERTEX
  5
99
100
AcDbEntity
  8
A_SCIANY_KONSTRUKCYJNE
100
AcDbVertex
100
AcDb2dVertex
 10
8380941.68143279292
 20
5721717.98028659541
  0
VERTEX
  5
9A
100
AcDbEntity
  8
A_SCIANY_KONSTRUKCYJNE
100
AcDbVertex
100
AcDb2dVertex
 10
8380947.09709315188
 20
5721721.53852136433
  0
VERTEX
  5
9B
100
AcDbEntity
  8
A_SCIANY_KONSTRUKCYJNE
100
AcDbVertex
100
AcDb2dVertex
 10
8380944.15649012756
 20
5721726.01931166928
  0
VERTEX
  5
9C
100
AcDbEntity
  8
A_SCIANY_KONSTRUKCYJNE
100
AcDbVertex
100
AcDb2dVertex
 10
8380949.07235414442
 20
5721729.24544000998
  0
VERTEX
  5
9D
100
AcDbEntity
  8
A_SCIANY_KONSTRUKCYJNE
100
AcDbVertex
100
AcDb2dVertex
 10
8380956.56075552665
 20
5721717.8348701261
  0
VERTEX
  5
9E
100
AcDbEntity
  8
A_SCIANY_KONSTRUKCYJNE
100
AcDbVertex
100
AcDb2dVertex
 10
8380951.64477630891
 20
5721714.60866618156
  0
VERTEX
  5
9F
100
AcDbEntity
  8
A_SCIANY_KONSTRUKCYJNE
100
AcDbVertex
100
AcDb2dVertex
 10
8380950.24940163456
 20
5721716.73489038181
  0
VERTEX
  5
A0
100
AcDbEntity
  8
A_SCIANY_KONSTRUKCYJNE
100
AcDbVertex
100
AcDb2dVertex
 10
8380944.83197317272
 20
5721713.17960092891
  0
SEQEND
  5
A1
100
AcDbEntity
  8
A_SCIANY_KONSTRUKCYJNE
  0
POLYLINE
  5
A2
100
AcDbEntity
  8
A_SCIANY_KONSTRUKCYJNE
  6
CONTINUOUS
370
35
100
AcDb2dPolyline
 66
1
 70
129
  0
VERTEX
  5
A3
100
AcDbEntity
  8
A_SCIANY_KONSTRUKCYJNE
100
AcDbVertex
100
AcDb2dVertex
 10
8380942.01784626394
 20
5721717.91056248453
  0
VERTEX
  5
A4
100
AcDbEntity
  8
A_SCIANY_KONSTRUKCYJNE
100
AcDbVertex
100
AcDb2dVertex
 10
8380947.43350662291
 20
5721721.46879725158
  0
VERTEX
  5
A5
100
AcDbEntity
  8
A_SCIANY_KONSTRUKCYJNE
100
AcDbVertex
100
AcDb2dVertex
 10
8380944.49297420401
 20
5721725.94947997108
  0
VERTEX
  5
A6
100
AcDbEntity
  8
A_SCIANY_KONSTRUKCYJNE
100
AcDbVertex
100
AcDb2dVertex
 10
8380949.00252244622
 20
5721728.90895593353
  0
VERTEX
  5
A7
100
AcDbEntity
  8
A_SCIANY_KONSTRUKCYJNE
100
AcDbVertex
100
AcDb2dVertex
 10
8380956.22427144926
 20
5721717.9047018243
  0
VERTEX
  5
A8
100
AcDbEntity
  8
A_SCIANY_KONSTRUKCYJNE
100
AcDbVertex
100
AcDb2dVertex
 10
8380951.71460800711
 20
5721714.94515025802
  0
VERTEX
  5
A9
100
AcDbEntity
  8
A_SCIANY_KONSTRUKCYJNE
100
AcDbVertex
100
AcDb2dVertex
 10
8380950.31923333183
 20
5721717.07137445919
  0
VERTEX
  5
AA
100
AcDbEntity
  8
A_SCIANY_KONSTRUKCYJNE
100
AcDbVertex
100
AcDb2dVertex
 10
8380944.90180487093
 20
5721713.51608500537
  0
SEQEND
  5
AB
100
AcDbEntity
  8
A_SCIANY_KONSTRUKCYJNE
  0
POLYLINE
  5
AC
100
AcDbEntity
  8
A_SCIANY_KONSTRUKCYJNE
  6
CONTINUOUS
370
35
100
AcDb2dPolyline
 66
1
 70
129
  0
VERTEX
  5
AD
100
AcDbEntity
  8
A_SCIANY_KONSTRUKCYJNE
100
AcDbVertex
100
AcDb2dVertex
 10
8380950.29044796061
 20
5721713.71986277029
  0
VERTEX
  5
AE
100
AcDbEntity
  8
A_SCIANY_KONSTRUKCYJNE
100
AcDbVertex
100
AcDb2dVertex
 10
8380950.00151233189
 20
5721713.53024324868
  0
VERTEX
  5
AF
100
AcDbEntity
  8
A_SCIANY_KONSTRUKCYJNE
100
AcDbVertex
100
AcDb2dVertex
 10
8380949.8118928615
 20
5721713.81917891186
  0
VERTEX
  5
B0
100
AcDbEntity
  8
A_SCIANY_KONSTRUKCYJNE
100
AcDbVertex
100
AcDb2dVertex
 10
8380950.10082852282
 20
5721714.00879838131
  0
SEQEND
  5
B1
100
AcDbEntity
  8
A_SCIANY_KONSTRUKCYJNE
  0
POLYLINE
  5
B2
100
AcDbEntity
  8
A_SCIANY_KONSTRUKCYJNE
  6
CONTINUOUS
370
18
100
AcDb2dPolyline
 66
1
 70
129
  0
VERTEX
  5
B3
100
AcDbEntity
  8
A_SCIANY_KONSTRUKCYJNE
100
AcDbVertex
100
AcDb2dVertex
 10
8380941.68143279292
 20
5721717.98028659541
  0
VERTEX
  5
B4
100
AcDbEntity
  8
A_SCIANY_KONSTRUKCYJNE
100
AcDbVertex
100
AcDb2dVertex
 10
8380947.09709315188
 20
5721721.53852136433
  0
VERTEX
  5
B5
100
AcDbEntity
  8
A_SCIANY_KONSTRUKCYJNE
100
AcDbVertex
100
AcDb2dVertex
 10
8380944.15649012756
 20
5721726.01931166928
  0
VERTEX
  5
B6
100
AcDbEntity
  8
A_SCIANY_KONSTRUKCYJNE
100
AcDbVertex
100
AcDb2dVertex
 10
8380949.07235414442
 20
5721729.24544000998
  0
VERTEX
  5
B7
100
AcDbEntity
  8
A_SCIANY_KONSTRUKCYJNE
100
AcDbVertex
100
AcDb2dVertex
 10
8380956.56075552665
 20
5721717.8348701261
  0
VERTEX
  5
B8
100
AcDbEntity
  8
A_SCIANY_KONSTRUKCYJNE
100
AcDbVertex
100
AcDb2dVertex
 10
8380951.64477630891
 20
5721714.60866618156
  0
VERTEX
  5
B9
100
AcDbEntity
  8
A_SCIANY_KONSTRUKCYJNE
100
AcDbVertex
100
AcDb2dVertex
 10
8380950.24940163456
 20
5721716.73489038181
  0
VERTEX
  5
BA
100
AcDbEntity
  8
A_SCIANY_KONSTRUKCYJNE
100
AcDbVertex
100
AcDb2dVertex
 10
8380944.83197317272
 20
5721713.17960092891
  0
SEQEND
  5
BB
100
AcDbEntity
  8
A_SCIANY_KONSTRUKCYJNE
  0
POLYLINE
  5
BC
100
AcDbEntity
  8
A_SCIANY_KONSTRUKCYJNE
  6
CONTINUOUS
370
18
100
AcDb2dPolyline
 66
1
 70
129
  0
VERTEX
  5
BD
100
AcDbEntity
  8
A_SCIANY_KONSTRUKCYJNE
100
AcDbVertex
100
AcDb2dVertex
 10
8380942.01784626394
 20
5721717.91056248453
  0
VERTEX
  5
BE
100
AcDbEntity
  8
A_SCIANY_KONSTRUKCYJNE
100
AcDbVertex
100
AcDb2dVertex
 10
8380947.43350662291
 20
5721721.46879725158
  0
VERTEX
  5
BF
100
AcDbEntity
  8
A_SCIANY_KONSTRUKCYJNE
100
AcDbVertex
100
AcDb2dVertex
 10
8380944.49297420401
 20
5721725.94947997108
  0
VERTEX
  5
C0
100
AcDbEntity
  8
A_SCIANY_KONSTRUKCYJNE
100
AcDbVertex
100
AcDb2dVertex
 10
8380949.00252244622
 20
5721728.90895593353
  0
VERTEX
  5
C1
100
AcDbEntity
  8
A_SCIANY_KONSTRUKCYJNE
100
AcDbVertex
100
AcDb2dVertex
 10
8380956.22427144926
 20
5721717.9047018243
  0
VERTEX
  5
C2
100
AcDbEntity
  8
A_SCIANY_KONSTRUKCYJNE
100
AcDbVertex
100
AcDb2dVertex
 10
8380951.71460800711
 20
5721714.94515025802
  0
VERTEX
  5
C3
100
AcDbEntity
  8
A_SCIANY_KONSTRUKCYJNE
100
AcDbVertex
100
AcDb2dVertex
 10
8380950.31923333183
 20
5721717.07137445919
  0
VERTEX
  5
C4
100
AcDbEntity
  8
A_SCIANY_KONSTRUKCYJNE
100
AcDbVertex
100
AcDb2dVertex
 10
8380944.90180487093
 20
5721713.51608500537
  0
SEQEND
  5
C5
100
AcDbEntity
  8
A_SCIANY_KONSTRUKCYJNE
  0
POLYLINE
  5
C6
100
AcDbEntity
  8
A_SCIANY_KONSTRUKCYJNE
  6
CONTINUOUS
370
18
100
AcDb2dPolyline
 66
1
 70
129
  0
VERTEX
  5
C7
100
AcDbEntity
  8
A_SCIANY_KONSTRUKCYJNE
100
AcDbVertex
100
AcDb2dVertex
 10
8380950.29044796061
 20
5721713.71986277029
  0
VERTEX
  5
C8
100
AcDbEntity
  8
A_SCIANY_KONSTRUKCYJNE
100
AcDbVertex
100
AcDb2dVertex
 10
8380950.00151233189
 20
5721713.53024324868
  0
VERTEX
  5
C9
100
AcDbEntity
  8
A_SCIANY_KONSTRUKCYJNE
100
AcDbVertex
100
AcDb2dVertex
 10
8380949.8118928615
 20
5721713.81917891186
  0
VERTEX
  5
CA
100
AcDbEntity
  8
A_SCIANY_KONSTRUKCYJNE
100
AcDbVertex
100
AcDb2dVertex
 10
8380950.10082852282
 20
5721714.00879838131
  0
SEQEND
  5
CB
100
AcDbEntity
  8
A_SCIANY_KONSTRUKCYJNE
  0
POLYLINE
  5
CC
100
AcDbEntity
  8
A_SCIANY_KONSTRUKCYJNE
  6
CONTINUOUS
370
18
100
AcDb2dPolyline
 66
1
 70
129
  0
VERTEX
  5
CD
100
AcDbEntity
  8
A_SCIANY_KONSTRUKCYJNE
100
AcDbVertex
100
AcDb2dVertex
 10
8380941.69346809294
 20
5721718.214252715
  0
VERTEX
  5
CE
100
AcDbEntity
  8
A_SCIANY_KONSTRUKCYJNE
100
AcDbVertex
100
AcDb2dVertex
 10
8380941.80633358564
 20
5721718.28832282033
  0
VERTEX
  5
CF
100
AcDbEntity
  8
A_SCIANY_KONSTRUKCYJNE
100
AcDbVertex
100
AcDb2dVertex
 10
8380941.88040369097
 20
5721718.17545732763
  0
VERTEX
  5
D0
100
AcDbEntity
  8
A_SCIANY_KONSTRUKCYJNE
100
AcDbVertex
100
AcDb2dVertex
 10
8380941.76753819827
 20
5721718.10138722323
  0
SEQEND
  5
D1
100
AcDbEntity
  8
A_SCIANY_KONSTRUKCYJNE
  0
POLYLINE
  5
D2
100
AcDbEntity
  8
A_SCIANY_KONSTRUKCYJNE
  6
CONTINUOUS
370
18
100
AcDb2dPolyline
 66
1
 70
129
  0
VERTEX
  5
D3
100
AcDbEntity
  8
A_SCIANY_KONSTRUKCYJNE
100
AcDbVertex
100
AcDb2dVertex
 10
8380945.60987606645
 20
5721723.36805507354
  0
VERTEX
  5
D4
100
AcDbEntity
  8
A_SCIANY_KONSTRUKCYJNE
100
AcDbVertex
100
AcDb2dVertex
 10
8380945.72274155915
 20
5721723.44212517887
  0
VERTEX
  5
D5
100
AcDbEntity
  8
A_SCIANY_KONSTRUKCYJNE
100
AcDbVertex
100
AcDb2dVertex
 10
8380945.79681166541
 20
5721723.32925968524
  0
VERTEX
  5
D6
100
AcDbEntity
  8
A_SCIANY_KONSTRUKCYJNE
100
AcDbVertex
100
AcDb2dVertex
 10
8380945.68394617178
 20
5721723.25518957991
  0
SEQEND
  5
D7
100
AcDbEntity
  8
A_SCIANY_KONSTRUKCYJNE
  0
POLYLINE
  5
D8
100
AcDbEntity
  8
A_SCIANY_KONSTRUKCYJNE
  6
CONTINUOUS
370
18
100
AcDb2dPolyline
 66
1
 70
129
  0
VERTEX
  5
D9
100
AcDbEntity
  8
A_SCIANY_KONSTRUKCYJNE
100
AcDbVertex
100
AcDb2dVertex
 10
8380944.18994176574
 20
5721722.43619644642
  0
VERTEX
  5
DA
100
AcDbEntity
  8
A_SCIANY_KONSTRUKCYJNE
100
AcDbVertex
100
AcDb2dVertex
 10
8380944.30280725844
 20
5721722.51026655175
  0
VERTEX
  5
DB
100
AcDbEntity
  8
A_SCIANY_KONSTRUKCYJNE
100
AcDbVertex
100
AcDb2dVertex
 10
8380944.3768773647
 20
5721722.39740105812
  0
VERTEX
  5
DC
100
AcDbEntity
  8
A_SCIANY_KONSTRUKCYJNE
100
AcDbVertex
100
AcDb2dVertex
 10
8380944.26401187107
 20
5721722.32333095372
  0
SEQEND
  5
DD
100
AcDbEntity
  8
A_SCIANY_KONSTRUKCYJNE
  0
POLYLINE
  5
DE
100
AcDbEntity
  8
A_SCIANY_KONSTRUKCYJNE
  6
CONTINUOUS
370
18
100
AcDb2dPolyline
 66
1
 70
129
  0
VERTEX
  5
DF
100
AcDbEntity
  8
A_SCIANY_KONSTRUKCYJNE
100
AcDbVertex
100
AcDb2dVertex
 10
8380942.76783655491
 20
5721721.5029131202
  0
VERTEX
  5
E0
100
AcDbEntity
  8
A_SCIANY_KONSTRUKCYJNE
100
AcDbVertex
100
AcDb2dVertex
 10
8380942.88070204761
 20
5721721.57698322553
  0
VERTEX
  5
E1
100
AcDbEntity
  8
A_SCIANY_KONSTRUKCYJNE
100
AcDbVertex
100
AcDb2dVertex
 10
8380942.95477215294
 20
5721721.4641177319
  0
VERTEX
  5
E2
100
AcDbEntity
  8
A_SCIANY_KONSTRUKCYJNE
100
AcDbVertex
100
AcDb2dVertex
 10
8380942.84190666024
 20
5721721.39004762657
  0
SEQEND
  5
E3
100
AcDbEntity
  8
A_SCIANY_KONSTRUKCYJNE
  0
POLYLINE
  5
E4
100
AcDbEntity
  8
A_SCIANY_KONSTRUKCYJNE
  6
CONTINUOUS
370
18
100
AcDb2dPolyline
 66
1
 70
129
  0
VERTEX
  5
E5
100
AcDbEntity
  8
A_SCIANY_KONSTRUKCYJNE
100
AcDbVertex
100
AcDb2dVertex
 10
8380940.50835578516
 20
5721720.02008631267
  0
VERTEX
  5
E6
100
AcDbEntity
  8
A_SCIANY_KONSTRUKCYJNE
100
AcDbVertex
100
AcDb2dVertex
 10
8380940.62122127786
 20
5721720.094156418
  0
VERTEX
  5
E7
100
AcDbEntity
  8
A_SCIANY_KONSTRUKCYJNE
100
AcDbVertex
100
AcDb2dVertex
 10
8380940.69529138412
 20
5721719.98129092436
  0
VERTEX
  5
E8
100
AcDbEntity
  8
A_SCIANY_KONSTRUKCYJNE
100
AcDbVertex
100
AcDb2dVertex
 10
8380940.58242589049
 20
5721719.90722081996
  0
SEQEND
  5
E9
100
AcDbEntity
  8
A_SCIANY_KONSTRUKCYJNE
  0
POLYLINE
  5
EA
100
AcDbEntity
  8
A_SCIANY_KONSTRUKCYJNE
  6
CONTINUOUS
370
18
100
AcDb2dPolyline
 66
1
 70
129
  0
VERTEX
  5
EB
100
AcDbEntity
  8
A_SCIANY_KONSTRUKCYJNE
100
AcDbVertex
100
AcDb2dVertex
 10
8380943.95294886176
 20
5721719.69707952254
  0
VERTEX
  5
EC
100
AcDbEntity
  8
A_SCIANY_KONSTRUKCYJNE
100
AcDbVertex
100
AcDb2dVertex
 10
8380944.06581435446
 20
5721719.77114962786
  0
VERTEX
  5
ED
100
AcDbEntity
  8
A_SCIANY_KONSTRUKCYJNE
100
AcDbVertex
100
AcDb2dVertex
 10
8380944.13988445979
 20
5721719.65828413516
  0
VERTEX
  5
EE
100
AcDbEntity
  8
A_SCIANY_KONSTRUKCYJNE
100
AcDbVertex
100
AcDb2dVertex
 10
8380944.02701896708
 20
5721719.58421402983
  0
SEQEND
  5
EF
100
AcDbEntity
  8
A_SCIANY_KONSTRUKCYJNE
  0
POLYLINE
  5
F0
100
AcDbEntity
  8
A_SCIANY_KONSTRUKCYJNE
  6
CONTINUOUS
370
18
100
AcDb2dPolyline
 66
1
 70
129
  0
VERTEX
  5
F1
100
AcDbEntity
  8
A_SCIANY_KONSTRUKCYJNE
100
AcDbVertex
100
AcDb2dVertex
 10
8380945.37505407259
 20
5721720.63036284968
  0
VERTEX
  5
F2
100
AcDbEntity
  8
A_SCIANY_KONSTRUKCYJNE
100
AcDbVertex
100
AcDb2dVertex
 10
8380945.48791956622
 20
5721720.70443295501
  0
VERTEX
  5
F3
100
AcDbEntity
  8
A_SCIANY_KONSTRUKCYJNE
100
AcDbVertex
100
AcDb2dVertex
 10
8380945.56198967155
 20
5721720.59156746138
  0
VERTEX
  5
F4
100
AcDbEntity
  8
A_SCIANY_KONSTRUKCYJNE
100
AcDbVertex
100
AcDb2dVertex
 10
8380945.44912417792
 20
5721720.51749735698
  0
SEQEND
  5
F5
100
AcDbEntity
  8
A_SCIANY_KONSTRUKCYJNE
  0
POLYLINE
  5
F6
100
AcDbEntity
  8
A_SCIANY_KONSTRUKCYJNE
  6
CONTINUOUS
370
18
100
AcDb2dPolyline
 66
1
 70
129
  0
VERTEX
  5
F7
100
AcDbEntity
  8
A_SCIANY_KONSTRUKCYJNE
100
AcDbVertex
100
AcDb2dVertex
 10
8380946.79498837423
 20
5721721.56222147588
  0
VERTEX
  5
F8
100
AcDbEntity
  8
A_SCIANY_KONSTRUKCYJNE
100
AcDbVertex
100
AcDb2dVertex
 10
8380946.90785386693
 20
5721721.63629158121
  0
VERTEX
  5
F9
100
AcDbEntity
  8
A_SCIANY_KONSTRUKCYJNE
100
AcDbVertex
100
AcDb2dVertex
 10
8380946.98192397226
 20
5721721.5234260885
  0
VERTEX
  5
FA
100
AcDbEntity
  8
A_SCIANY_KONSTRUKCYJNE
100
AcDbVertex
100
AcDb2dVertex
 10
8380946.86905847862
 20
5721721.44935598318
  0
SEQEND
  5
FB
100
AcDbEntity
  8
A_SCIANY_KONSTRUKCYJNE
  0
POLYLINE
  5
FC
100
AcDbEntity
  8
Dzialki
  6
CONTINUOUS
370
25
100
AcDb2dPolyline
 66
1
 70
128
  0
VERTEX
  5
FD
100
AcDbEntity
  8
Dzialki
100
AcDbVertex
100
AcDb2dVertex
 10
8380951.5
 20
5721772.29000000004
  0
VERTEX
  5
FE
100
AcDbEntity
  8
Dzialki
100
AcDbVertex
100
AcDb2dVertex
 10
8380984.99000000022
 20
5721793.53000000026
  0
SEQEND
  5
FF
100
AcDbEntity
  8
Dzialki
  0
POLYLINE
  5
100
100
AcDbEntity
  8
Dzialki
  6
CONTINUOUS
370
25
100
AcDb2dPolyline
 66
1
 70
128
  0
VERTEX
  5
101
100
AcDbEntity
  8
Dzialki
100
AcDbVertex
100
AcDb2dVertex
 10
8380984.99000000022
 20
5721793.53000000026
  0
VERTEX
  5
102
100
AcDbEntity
  8
Dzialki
100
AcDbVertex
100
AcDb2dVertex
 10
8380906.42999999877
 20
5721801.41999999993
  0
SEQEND
  5
103
100
AcDbEntity
  8
Dzialki
  0
POLYLINE
  5
104
100
AcDbEntity
  8
Dzialki
  6
CONTINUOUS
370
25
100
AcDb2dPolyline
 66
1
 70
128
  0
VERTEX
  5
105
100
AcDbEntity
  8
Dzialki
100
AcDbVertex
100
AcDb2dVertex
 10
8380906.42999999877
 20
5721801.41999999993
  0
VERTEX
  5
106
100
AcDbEntity
  8
Dzialki
100
AcDbVertex
100
AcDb2dVertex
 10
8380951.5
 20
5721772.29000000004
  0
SEQEND
  5
107
100
AcDbEntity
  8
Dzialki
  0
POLYLINE
  5
108
100
AcDbEntity
  8
Dzialki
  6
CONTINUOUS
370
25
100
AcDb2dPolyline
 66
1
 70
128
  0
VERTEX
  5
109
100
AcDbEntity
  8
Dzialki
100
AcDbVertex
100
AcDb2dVertex
 10
8380924.70999999996
 20
5721777.24000000022
  0
VERTEX
  5
10A
100
AcDbEntity
  8
Dzialki
100
AcDbVertex
100
AcDb2dVertex
 10
8380939.83999999985
 20
5721767.25999999978
  0
SEQEND
  5
10B
100
AcDbEntity
  8
Dzialki
  0
POLYLINE
  5
10C
100
AcDbEntity
  8
Dzialki
  6
CONTINUOUS
370
25
100
AcDb2dPolyline
 66
1
 70
128
  0
VERTEX
  5
10D
100
AcDbEntity
  8
Dzialki
100
AcDbVertex
100
AcDb2dVertex
 10
8380939.83999999985
 20
5721767.25999999978
  0
VERTEX
  5
10E
100
AcDbEntity
  8
Dzialki
100
AcDbVertex
100
AcDb2dVertex
 10
8380938.40000000037
 20
5721762.29999999981
  0
SEQEND
  5
10F
100
AcDbEntity
  8
Dzialki
  0
POLYLINE
  5
110
100
AcDbEntity
  8
Dzialki
  6
CONTINUOUS
370
25
100
AcDb2dPolyline
 66
1
 70
128
  0
VERTEX
  5
111
100
AcDbEntity
  8
Dzialki
100
AcDbVertex
100
AcDb2dVertex
 10
8380938.40000000037
 20
5721762.29999999981
  0
VERTEX
  5
112
100
AcDbEntity
  8
Dzialki
100
AcDbVertex
100
AcDb2dVertex
 10
8380951.5
 20
5721772.29000000004
  0
SEQEND
  5
113
100
AcDbEntity
  8
Dzialki
  0
POLYLINE
  5
114
100
AcDbEntity
  8
Dzialki
  6
CONTINUOUS
370
25
100
AcDb2dPolyline
 66
1
 70
128
  0
VERTEX
  5
115
100
AcDbEntity
  8
Dzialki
100
AcDbVertex
100
AcDb2dVertex
 10
8380853.55999999866
 20
5721730.59999999963
  0
VERTEX
  5
116
100
AcDbEntity
  8
Dzialki
100
AcDbVertex
100
AcDb2dVertex
 10
8380808.62999999989
 20
5721800.58000000007
  0
SEQEND
  5
117
100
AcDbEntity
  8
Dzialki
  0
POLYLINE
  5
118
100
AcDbEntity
  8
Dzialki
  6
CONTINUOUS
370
25
100
AcDb2dPolyline
 66
1
 70
128
  0
VERTEX
  5
119
100
AcDbEntity
  8
Dzialki
100
AcDbVertex
100
AcDb2dVertex
 10
8380858.40000000037
 20
5721709.70999999996
  0
VERTEX
  5
11A
100
AcDbEntity
  8
Dzialki
100
AcDbVertex
100
AcDb2dVertex
 10
8380864.36000000034
 20
5721713.75999999978
  0
SEQEND
  5
11B
100
AcDbEntity
  8
Dzialki
  0
POLYLINE
  5
11C
100
AcDbEntity
  8
Dzialki
  6
CONTINUOUS
370
25
100
AcDb2dPolyline
 66
1
 70
128
  0
VERTEX
  5
11D
100
AcDbEntity
  8
Dzialki
100
AcDbVertex
100
AcDb2dVertex
 10
8380864.36000000034
 20
5721713.75999999978
  0
VERTEX
  5
11E
100
AcDbEntity
  8
Dzialki
100
AcDbVertex
100
AcDb2dVertex
 10
8380853.55999999866
 20
5721730.59999999963
  0
SEQEND
  5
11F
100
AcDbEntity
  8
Dzialki
  0
POLYLINE
  5
120
100
AcDbEntity
  8
Dzialki
  6
CONTINUOUS
370
25
100
AcDb2dPolyline
 66
1
 70
128
  0
VERTEX
  5
121
100
AcDbEntity
  8
Dzialki
100
AcDbVertex
100
AcDb2dVertex
 10
8380894.46999999881
 20
5721733.50999999978
  0
VERTEX
  5
122
100
AcDbEntity
  8
Dzialki
100
AcDbVertex
100
AcDb2dVertex
 10
8380883.65000000037
 20
5721750.33000000007
  0
SEQEND
  5
123
100
AcDbEntity
  8
Dzialki
  0
POLYLINE
  5
124
100
AcDbEntity
  8
Dzialki
  6
CONTINUOUS
370
25
100
AcDb2dPolyline
 66
1
 70
128
  0
VERTEX
  5
125
100
AcDbEntity
  8
Dzialki
100
AcDbVertex
100
AcDb2dVertex
 10
8380883.65000000037
 20
5721750.33000000007
  0
VERTEX
  5
126
100
AcDbEntity
  8
Dzialki
100
AcDbVertex
100
AcDb2dVertex
 10
8380870.28000000026
 20
5721741.5700000003
  0
SEQEND
  5
127
100
AcDbEntity
  8
Dzialki
  0
POLYLINE
  5
128
100
AcDbEntity
  8
Dzialki
  6
CONTINUOUS
370
25
100
AcDb2dPolyline
 66
1
 70
128
  0
VERTEX
  5
129
100
AcDbEntity
  8
Dzialki
100
AcDbVertex
100
AcDb2dVertex
 10
8380870.28000000026
 20
5721741.5700000003
  0
VERTEX
  5
12A
100
AcDbEntity
  8
Dzialki
100
AcDbVertex
100
AcDb2dVertex
 10
8380881.08999999985
 20
5721724.73000000045
  0
SEQEND
  5
12B
100
AcDbEntity
  8
Dzialki
  0
POLYLINE
  5
12C
100
AcDbEntity
  8
Dzialki
  6
CONTINUOUS
370
25
100
AcDb2dPolyline
 66
1
 70
128
  0
VERTEX
  5
12D
100
AcDbEntity
  8
Dzialki
100
AcDbVertex
100
AcDb2dVertex
 10
8380881.08999999985
 20
5721724.73000000045
  0
VERTEX
  5
12E
100
AcDbEntity
  8
Dzialki
100
AcDbVertex
100
AcDb2dVertex
 10
8380894.46999999881
 20
5721733.50999999978
  0
SEQEND
  5
12F
100
AcDbEntity
  8
Dzialki
  0
POLYLINE
  5
130
100
AcDbEntity
  8
Dzialki
  6
CONTINUOUS
370
25
100
AcDb2dPolyline
 66
1
 70
128
  0
VERTEX
  5
131
100
AcDbEntity
  8
Dzialki
100
AcDbVertex
100
AcDb2dVertex
 10
8380889.46999999881
 20
5721719.51999999955
  0
VERTEX
  5
132
100
AcDbEntity
  8
Dzialki
100
AcDbVertex
100
AcDb2dVertex
 10
8380925.48000000045
 20
5721743.1799999997
  0
SEQEND
  5
133
100
AcDbEntity
  8
Dzialki
  0
POLYLINE
  5
134
100
AcDbEntity
  8
Dzialki
  6
CONTINUOUS
370
25
100
AcDb2dPolyline
 66
1
 70
128
  0
VERTEX
  5
135
100
AcDbEntity
  8
Dzialki
100
AcDbVertex
100
AcDb2dVertex
 10
8380925.48000000045
 20
5721743.1799999997
  0
VERTEX
  5
136
100
AcDbEntity
  8
Dzialki
100
AcDbVertex
100
AcDb2dVertex
 10
8380956.40000000037
 20
5721763.5
  0
SEQEND
  5
137
100
AcDbEntity
  8
Dzialki
  0
POLYLINE
  5
138
100
AcDbEntity
  8
Dzialki
  6
CONTINUOUS
370
25
100
AcDb2dPolyline
 66
1
 70
128
  0
VERTEX
  5
139
100
AcDbEntity
  8
Dzialki
100
AcDbVertex
100
AcDb2dVertex
 10
8380956.40000000037
 20
5721763.5
  0
VERTEX
  5
13A
100
AcDbEntity
  8
Dzialki
100
AcDbVertex
100
AcDb2dVertex
 10
8380963.33999999985
 20
5721768.00999999978
  0
SEQEND
  5
13B
100
AcDbEntity
  8
Dzialki
  0
POLYLINE
  5
13C
100
AcDbEntity
  8
Dzialki
  6
CONTINUOUS
370
25
100
AcDb2dPolyline
 66
1
 70
128
  0
VERTEX
  5
13D
100
AcDbEntity
  8
Dzialki
100
AcDbVertex
100
AcDb2dVertex
 10
8380938.40000000037
 20
5721762.29999999981
  0
VERTEX
  5
13E
100
AcDbEntity
  8
Dzialki
100
AcDbVertex
100
AcDb2dVertex
 10
8380894.46999999881
 20
5721733.50999999978
  0
SEQEND
  5
13F
100
AcDbEntity
  8
Dzialki
  0
POLYLINE
  5
140
100
AcDbEntity
  8
Dzialki
  6
CONTINUOUS
370
25
100
AcDb2dPolyline
 66
1
 70
128
  0
VERTEX
  5
141
100
AcDbEntity
  8
Dzialki
100
AcDbVertex
100
AcDb2dVertex
 10
8380881.08999999985
 20
5721724.73000000045
  0
VERTEX
  5
142
100
AcDbEntity
  8
Dzialki
100
AcDbVertex
100
AcDb2dVertex
 10
8380864.36000000034
 20
5721713.75999999978
  0
SEQEND
  5
143
100
AcDbEntity
  8
Dzialki
  0
POLYLINE
  5
144
100
AcDbEntity
  8
Dzialki
  6
CONTINUOUS
370
25
100
AcDb2dPolyline
 66
1
 70
128
  0
VERTEX
  5
145
100
AcDbEntity
  8
Dzialki
100
AcDbVertex
100
AcDb2dVertex
 10
8380852.55999999866
 20
5721695.28000000026
  0
VERTEX
  5
146
100
AcDbEntity
  8
Dzialki
100
AcDbVertex
100
AcDb2dVertex
 10
8380889.46999999881
 20
5721719.51999999955
  0
SEQEND
  5
147
100
AcDbEntity
  8
Dzialki
  0
POLYLINE
  5
148
100
AcDbEntity
  8
Dzialki
  6
CONTINUOUS
370
25
100
AcDb2dPolyline
 66
1
 70
128
  0
VERTEX
  5
149
100
AcDbEntity
  8
Dzialki
100
AcDbVertex
100
AcDb2dVertex
 10
8380971.20999999996
 20
5721743.00999999978
  0
VERTEX
  5
14A
100
AcDbEntity
  8
Dzialki
100
AcDbVertex
100
AcDb2dVertex
 10
8380956.40000000037
 20
5721763.5
  0
SEQEND
  5
14B
100
AcDbEntity
  8
Dzialki
  0
POLYLINE
  5
14C
100
AcDbEntity
  8
Dzialki
  6
CONTINUOUS
370
25
100
AcDb2dPolyline
 66
1
 70
128
  0
VERTEX
  5
14D
100
AcDbEntity
  8
Dzialki
100
AcDbVertex
100
AcDb2dVertex
 10
8380925.48000000045
 20
5721743.1799999997
  0
VERTEX
  5
14E
100
AcDbEntity
  8
Dzialki
100
AcDbVertex
100
AcDb2dVertex
 10
8380939.99000000022
 20
5721721.61000000034
  0
SEQEND
  5
14F
100
AcDbEntity
  8
Dzialki
  0
POLYLINE
  5
150
100
AcDbEntity
  8
Dzialki
  6
CONTINUOUS
370
25
100
AcDb2dPolyline
 66
1
 70
128
  0
VERTEX
  5
151
100
AcDbEntity
  8
Dzialki
100
AcDbVertex
100
AcDb2dVertex
 10
8380903.63999999873
 20
5721696.70999999996
  0
VERTEX
  5
152
100
AcDbEntity
  8
Dzialki
100
AcDbVertex
100
AcDb2dVertex
 10
8380889.46999999881
 20
5721719.51999999955
  0
SEQEND
  5
153
100
AcDbEntity
  8
Dzialki
  0
POLYLINE
  5
154
100
AcDbEntity
  8
Dzialki
  6
CONTINUOUS
370
25
100
AcDb2dPolyline
 66
1
 70
128
  0
VERTEX
  5
155
100
AcDbEntity
  8
Dzialki
100
AcDbVertex
100
AcDb2dVertex
 10
8380837.55999999866
 20
5721821.88999999966
  0
VERTEX
  5
156
100
AcDbEntity
  8
Dzialki
100
AcDbVertex
100
AcDb2dVertex
 10
8380883.65000000037
 20
5721750.33000000007
  0
SEQEND
  5
157
100
AcDbEntity
  8
Dzialki
  0
POLYLINE
  5
158
100
AcDbEntity
  8
Dzialki
  6
CONTINUOUS
370
25
100
AcDb2dPolyline
 66
1
 70
128
  0
VERTEX
  5
159
100
AcDbEntity
  8
Dzialki
100
AcDbVertex
100
AcDb2dVertex
 10
8380963.33999999985
 20
5721768.00999999978
  0
VERTEX
  5
15A
100
AcDbEntity
  8
Dzialki
100
AcDbVertex
100
AcDb2dVertex
 10
8380964.87999999989
 20
5721762.80999999959
  0
SEQEND
  5
15B
100
AcDbEntity
  8
Dzialki
  0
POLYLINE
  5
15C
100
AcDbEntity
  8
Dzialki
  6
CONTINUOUS
370
25
100
AcDb2dPolyline
 66
1
 70
128
  0
VERTEX
  5
15D
100
AcDbEntity
  8
Dzialki
100
AcDbVertex
100
AcDb2dVertex
 10
8380941.5236735614
 20
5721739.97312691528
  0
VERTEX
  5
15E
100
AcDbEntity
  8
Dzialki
100
AcDbVertex
100
AcDb2dVertex
 10
8380955.4381652521
 20
5721739.97312691528
  0
SEQEND
  5
15F
100
AcDbEntity
  8
Dzialki
  0
POLYLINE
  5
160
100
AcDbEntity
  8
Granice_ogrodzenie
  6
CONTINUOUS
370
70
100
AcDb2dPolyline
 66
1
 70
128
  0
VERTEX
  5
161
100
AcDbEntity
  8
Granice_ogrodzenie
100
AcDbVertex
100
AcDb2dVertex
 10
8380955.17589733098
 20
5721742.44518704433
  0
VERTEX
  5
162
100
AcDbEntity
  8
Granice_ogrodzenie
100
AcDbVertex
100
AcDb2dVertex
 10
8380941.48241536319
 20
5721742.44518704433
  0
SEQEND
  5
163
100
AcDbEntity
  8
Granice_ogrodzenie
  0
POLYLINE
  5
164
100
AcDbEntity
  8
robocza
  6
CONTINUOUS
370
18
100
AcDb2dPolyline
 66
1
 70
129
  0
VERTEX
  5
165
100
AcDbEntity
  8
robocza
100
AcDbVertex
100
AcDb2dVertex
 10
8380919.46700000018
 20
5721759.94299999997
  0
VERTEX
  5
166
100
AcDbEntity
  8
robocza
100
AcDbVertex
100
AcDb2dVertex
 10
8380900.33025828376
 20
5721747.38556425553
  0
VERTEX
  5
167
100
AcDbEntity
  8
robocza
100
AcDbVertex
100
AcDb2dVertex
 10
8380886.46320922021
 20
5721768.51653205976
  0
VERTEX
  5
168
100
AcDbEntity
  8
robocza
100
AcDbVertex
100
AcDb2dVertex
 10
8380905.59999999963
 20
5721781.07400000002
  0
SEQEND
  5
169
100
AcDbEntity
  8
robocza
  0
POLYLINE
  5
16A
100
AcDbEntity
  8
__osie
  6
CONTINUOUS
370
18
100
AcDb2dPolyline
 66
1
 70
128
  0
VERTEX
  5
16B
100
AcDbEntity
  8
__osie
100
AcDbVertex
100
AcDb2dVertex
 10
8380886.90611407906
 20
5721768.42501727398
  0
VERTEX
  5
16C
100
AcDbEntity
  8
__osie
100
AcDbVertex
100
AcDb2dVertex
 10
8380900.42197782733
 20
5721747.8290904779
  0
SEQEND
  5
16D
100
AcDbEntity
  8
__osie
  0
POLYLINE
  5
16E
100
AcDbEntity
  8
__osie
  6
CONTINUOUS
370
18
100
AcDb2dPolyline
 66
1
 70
128
  0
VERTEX
  5
16F
100
AcDbEntity
  8
__osie
100
AcDbVertex
100
AcDb2dVertex
 10
8380900.42197782733
 20
5721747.8290904779
  0
VERTEX
  5
170
100
AcDbEntity
  8
__osie
100
AcDbVertex
100
AcDb2dVertex
 10
8380919.02388592158
 20
5721760.03498272598
  0
SEQEND
  5
171
100
AcDbEntity
  8
__osie
  0
POLYLINE
  5
172
100
AcDbEntity
  8
__osie
  6
CONTINUOUS
370
18
100
AcDb2dPolyline
 66
1
 70
128
  0
VERTEX
  5
173
100
AcDbEntity
  8
__osie
100
AcDbVertex
100
AcDb2dVertex
 10
8380897.83805936761
 20
5721751.76693737973
  0
VERTEX
  5
174
100
AcDbEntity
  8
__osie
100
AcDbVertex
100
AcDb2dVertex
 10
8380916.44005936757
 20
5721763.97293737996
  0
SEQEND
  5
175
100
AcDbEntity
  8
__osie
  0
POLYLINE
  5
176
100
AcDbEntity
  8
__osie
  6
CONTINUOUS
370
18
100
AcDb2dPolyline
 66
1
 70
128
  0
VERTEX
  5
177
100
AcDbEntity
  8
__osie
100
AcDbVertex
100
AcDb2dVertex
 10
8380892.35192646924
 20
5721760.12780123018
  0
VERTEX
  5
178
100
AcDbEntity
  8
__osie
100
AcDbVertex
100
AcDb2dVertex
 10
8380910.9539264692
 20
5721772.33380123042
  0
SEQEND
  5
179
100
AcDbEntity
  8
__osie
  0
POLYLINE
  5
17A
100
AcDbEntity
  8
__osie
  6
CONTINUOUS
370
18
100
AcDb2dPolyline
 66
1
 70
128
  0
VERTEX
  5
17B
100
AcDbEntity
  8
__osie
100
AcDbVertex
100
AcDb2dVertex
 10
8380891.54006111715
 20
5721761.36539858207
  0
VERTEX
  5
17C
100
AcDbEntity
  8
__osie
100
AcDbVertex
100
AcDb2dVertex
 10
8380910.14206111711
 20
5721773.57139858231
  0
SEQEND
  5
17D
100
AcDbEntity
  8
__osie
  0
POLYLINE
  5
17E
100
AcDbEntity
  8
__osie
  6
CONTINUOUS
370
18
100
AcDb2dPolyline
 66
1
 70
128
  0
VERTEX
  5
17F
100
AcDbEntity
  8
__osie
100
AcDbVertex
100
AcDb2dVertex
 10
8380889.78719950654
 20
5721764.0362759931
  0
VERTEX
  5
180
100
AcDbEntity
  8
__osie
100
AcDbVertex
100
AcDb2dVertex
 10
8380908.38919950649
 20
5721776.24227599334
  0
SEQEND
  5
181
100
AcDbEntity
  8
__osie
  0
POLYLINE
  5
182
100
AcDbEntity
  8
__osie
  6
CONTINUOUS
370
18
100
AcDb2dPolyline
 66
1
 70
128
  0
VERTEX
  5
183
100
AcDbEntity
  8
__osie
100
AcDbVertex
100
AcDb2dVertex
 10
8380886.90681139566
 20
5721768.42542064656
  0
VERTEX
  5
184
100
AcDbEntity
  8
__osie
100
AcDbVertex
100
AcDb2dVertex
 10
8380905.50881139655
 20
5721780.63142064586
  0
SEQEND
  5
185
100
AcDbEntity
  8
__osie
  0
POLYLINE
  5
186
100
AcDbEntity
  8
__osie
  6
CONTINUOUS
370
18
100
AcDb2dPolyline
 66
1
 70
128
  0
VERTEX
  5
187
100
AcDbEntity
  8
__osie
100
AcDbVertex
100
AcDb2dVertex
 10
8380893.89956024382
 20
5721773.0144814644
  0
VERTEX
  5
188
100
AcDbEntity
  8
__osie
100
AcDbVertex
100
AcDb2dVertex
 10
8380907.41556024365
 20
5721752.4184814645
  0
SEQEND
  5
189
100
AcDbEntity
  8
__osie
  0
POLYLINE
  5
18A
100
AcDbEntity
  8
__osie
  6
CONTINUOUS
370
18
100
AcDb2dPolyline
 66
1
 70
128
  0
VERTEX
  5
18B
100
AcDbEntity
  8
__osie
100
AcDbVertex
100
AcDb2dVertex
 10
8380896.93904261664
 20
5721775.00835327338
  0
VERTEX
  5
18C
100
AcDbEntity
  8
__osie
100
AcDbVertex
100
AcDb2dVertex
 10
8380910.45504261646
 20
5721754.41235327255
  0
SEQEND
  5
18D
100
AcDbEntity
  8
__osie
  0
POLYLINE
  5
18E
100
AcDbEntity
  8
__osie
  6
CONTINUOUS
370
18
100
AcDb2dPolyline
 66
1
 70
128
  0
VERTEX
  5
18F
100
AcDbEntity
  8
__osie
100
AcDbVertex
100
AcDb2dVertex
 10
8380900.46295175515
 20
5721777.32057195157
  0
VERTEX
  5
190
100
AcDbEntity
  8
__osie
100
AcDbVertex
100
AcDb2dVertex
 10
8380913.97895175498
 20
5721756.72457195073
  0
SEQEND
  5
191
100
AcDbEntity
  8
__osie
  0
POLYLINE
  5
192
100
AcDbEntity
  8
__osie
  6
CONTINUOUS
370
18
100
AcDb2dPolyline
 66
1
 70
128
  0
VERTEX
  5
193
100
AcDbEntity
  8
__osie
100
AcDbVertex
100
AcDb2dVertex
 10
8380901.38265526295
 20
5721777.92451818474
  0
VERTEX
  5
194
100
AcDbEntity
  8
__osie
100
AcDbVertex
100
AcDb2dVertex
 10
8380914.89865526278
 20
5721757.3285181839
  0
SEQEND
  5
195
100
AcDbEntity
  8
__osie
  0
POLYLINE
  5
196
100
AcDbEntity
  8
__osie
  6
CONTINUOUS
370
18
100
AcDb2dPolyline
 66
1
 70
128
  0
VERTEX
  5
197
100
AcDbEntity
  8
__osie
100
AcDbVertex
100
AcDb2dVertex
 10
8380904.09598302376
 20
5721779.70537864324
  0
VERTEX
  5
198
100
AcDbEntity
  8
__osie
100
AcDbVertex
100
AcDb2dVertex
 10
8380917.61198302358
 20
5721759.10937864333
  0
SEQEND
  5
199
100
AcDbEntity
  8
__osie
  0
POLYLINE
  5
19A
100
AcDbEntity
  8
__osie
  6
CONTINUOUS
370
18
100
AcDb2dPolyline
 66
1
 70
128
  0
VERTEX
  5
19B
100
AcDbEntity
  8
__osie
100
AcDbVertex
100
AcDb2dVertex
 10
8380905.50892490242
 20
5721780.63222339191
  0
VERTEX
  5
19C
100
AcDbEntity
  8
__osie
100
AcDbVertex
100
AcDb2dVertex
 10
8380919.02492490224
 20
5721760.036223392
  0
SEQEND
  5
19D
100
AcDbEntity
  8
__osie
  0
POINT
  5
19E
100
AcDbEntity
  8
A_SCIANY_KONSTRUKCYJNE
100
AcDbPoint
 62
256
 10
8380891.91299999971
 20
5721760.21200000029
  0
POINT
  5
19F
100
AcDbEntity
  8
A_SCIANY_KONSTRUKCYJNE
100
AcDbPoint
 62
256
 10
8380901.94199999981
 20
5721766.80200000014
  0
POINT
  5
1A0
100
AcDbEntity
  8
A_SCIANY_KONSTRUKCYJNE
100
AcDbPoint
 62
256
 10
8380896.49600000028
 20
5721775.09999999963
  0
POINT
  5
1A1
100
AcDbEntity
  8
A_SCIANY_KONSTRUKCYJNE
100
AcDbPoint
 62
256
 10
8380905.59999999963
 20
5721781.07400000002
  0
POINT
  5
1A2
100
AcDbEntity
  8
A_SCIANY_KONSTRUKCYJNE
100
AcDbPoint
 62
256
 10
8380919.46700000018
 20
5721759.94299999997
  0
POINT
  5
1A3
100
AcDbEntity
  8
A_SCIANY_KONSTRUKCYJNE
100
AcDbPoint
 62
256
 10
8380910.3629999999
 20
5721753.96899999958
  0
POINT
  5
1A4
100
AcDbEntity
  8
A_SCIANY_KONSTRUKCYJNE
100
AcDbPoint
 62
256
 10
8380907.7790000001
 20
5721757.90600000042
  0
POINT
  5
1A5
100
AcDbEntity
  8
A_SCIANY_KONSTRUKCYJNE
100
AcDbPoint
 62
256
 10
8380897.74700000044
 20
5721751.32199999969
  0
POINT
  5
1A6
100
AcDbEntity
  8
A_SCIANY_KONSTRUKCYJNE
100
AcDbPoint
 62
256
 10
8380900.33025828376
 20
5721747.38556425553
  0
POINT
  5
1A7
100
AcDbEntity
  8
A_SCIANY_KONSTRUKCYJNE
100
AcDbPoint
 62
256
 10
8380886.46320922021
 20
5721768.51653205976
  0
TEXT
  5
1A8
100
AcDbEntity
  8
A_SCIANY_KONSTRUKCYJNE
370
18
100
AcDbText
 10
8380895.31957040075
 20
5721762.6777611468
 40
0.90
  1
-12.000-
 50
-327.00
 41
0.66
  7
STANDARD
 72
1
 11
8380896.99256913364
 21
5721763.40651023947
100
AcDbText
 73
1
  0
TEXT
  5
1A9
100
AcDbEntity
  8
A_SCIANY_KONSTRUKCYJNE
370
18
100
AcDbText
 10
8380898.51208642591
 20
5721772.36963361222
 40
0.90
  1
-9.926-
 50
-57.00
 41
0.66
  7
STANDARD
 72
1
 11
8380899.11829173565
 21
5721770.8853357574
100
AcDbText
 73
1
  0
TEXT
  5
1AA
100
AcDbEntity
  8
A_SCIANY_KONSTRUKCYJNE
370
18
100
AcDbText
 10
8380898.85639297962
 20
5721777.414649738
 40
0.90
  1
-10.889-
 50
-327.00
 41
0.66
  7
STANDARD
 72
1
 11
8380900.52939171251
 21
5721778.14339883067
100
AcDbText
 73
1
  0
TEXT
  5
1AB
100
AcDbEntity
  8
A_SCIANY_KONSTRUKCYJNE
370
18
100
AcDbText
 10
8380911.70391893201
 20
5721772.11618366092
 40
0.90
  1
-25.275-
 50
-57.00
 41
0.66
  7
STANDARD
 72
1
 11
8380912.43266802467
 21
5721770.44318492804
100
AcDbText
 73
1
  0
TEXT
  5
1AC
100
AcDbEntity
  8
A_SCIANY_KONSTRUKCYJNE
370
18
100
AcDbText
 10
8380913.30753881857
 20
5721756.12658368982
 40
0.90
  1
-10.889-
 50
-327.00
 41
0.66
  7
STANDARD
 72
1
 11
8380914.98053755146
 21
5721756.85533278249
100
AcDbText
 73
1
  0
TEXT
  5
1AD
100
AcDbEntity
  8
A_SCIANY_KONSTRUKCYJNE
370
18
100
AcDbText
 10
8380908.36448889319
 20
5721757.35641465988
 40
0.90
  1
-4.709-
 50
-57.00
 41
0.66
  7
STANDARD
 72
1
 11
8380908.97069420293
 21
5721755.87211680505
100
AcDbText
 73
1
  0
TEXT
  5
1AE
100
AcDbEntity
  8
A_SCIANY_KONSTRUKCYJNE
370
18
100
AcDbText
 10
8380901.15554157086
 20
5721753.78487536032
 40
0.90
  1
-12.000-
 50
-327.00
 41
0.66
  7
STANDARD
 72
1
 11
8380902.82854030374
 21
5721754.51362445299
100
AcDbText
 73
1
  0
TEXT
  5
1AF
100
AcDbEntity
  8
A_SCIANY_KONSTRUKCYJNE
370
18
100
AcDbText
 10
8380892.99964973237
 20
5721756.73960701935
 40
0.90
  1
-10.633-
 50
-57.00
 41
0.66
  7
STANDARD
 72
1
 11
8380893.72839882504
 21
5721755.06660828646
100
AcDbText
 73
1
  0
TEXT
  5
1B0
100
AcDbEntity
  8
Dzialki
370
18
100
AcDbText
 10
8380910.01623846684
 20
5721786.94730032142
 40
0.90
  1
36.186
 50
-303.40
 41
0.66
  7
STANDARD
 72
0
 11
8380909.6405569287
 21
5721787.19501665421
100
AcDbText
 73
2
  0
TEXT
  5
1B1
100
AcDbEntity
  8
Dzialki
370
18
100
AcDbText
 10
8380906.85071501695
 20
5721783.29439101368
 40
0.90
  1
7.334
 50
-303.40
 41
0.66
  7
STANDARD
 72
1
 11
8380907.72046020813
 21
5721784.06845063809
100
AcDbText
 73
1
  0
TEXT
  5
1B2
100
AcDbEntity
  8
Dzialki
370
18
100
AcDbText
 10
8380929.38999294955
 20
5721774.15845128987
 40
0.90
  1
12.972
 50
-303.40
 41
0.66
  7
STANDARD
 72
0
 11
8380929.01431141142
 21
5721774.40616762266
100
AcDbText
 73
2
  0
TEXT
  5
1B3
100
AcDbEntity
  8
Dzialki
370
18
100
AcDbText
 10
8380923.34723409079
 20
5721766.14662572928
 40
0.90
  1
17.330
 50
-303.40
 41
0.66
  7
STANDARD
 72
1
 11
8380924.34083744884
 21
5721767.10852612276
100
AcDbText
 73
1
  0
TEXT
  5
1B4
100
AcDbEntity
  8
Dzialki
370
18
100
AcDbText
 10
8380925.92987390514
 20
5721750.8990368573
 40
0.90
  1
17.127
 50
-236.80
 41
0.66
  7
STANDARD
 72
2
 11
8380924.0749092605
 21
5721752.91189705394
100
AcDbText
 73
2
  0
TEXT
  5
1B5
100
AcDbEntity
  8
Dzialki
370
18
100
AcDbText
 10
8380922.23634568043
 20
5721755.38752729446
 40
0.90
  1
8.406
 50
-236.80
 41
0.66
  7
STANDARD
 72
1
 11
8380921.87136634812
 21
5721756.49315611366
100
AcDbText
 73
1
  0
TEXT
  5
1B6
100
AcDbEntity
  8
Dzialki
370
18
100
AcDbText
 10
8380906.78338354081
 20
5721738.3511775909
 40
0.90
  1
40.019
 50
-236.80
 41
0.66
  7
STANDARD
 72
2
 11
8380904.92841889616
 21
5721740.36403778754
100
AcDbText
 73
2
  0
TEXT
  5
1B7
100
AcDbEntity
  8
Dzialki
370
18
100
AcDbText
 10
8380901.92630222347
 20
5721744.61482569016
 40
0.90
  1
13.102
 50
-236.80
 41
0.66
  7
STANDARD
 72
1
 11
8380901.43812116608
 21
5721745.90872647986
100
AcDbText
 73
1
  0
TEXT
  5
1B8
100
AcDbEntity
  8
Dzialki
370
18
100
AcDbText
 10
8380885.29896140937
 20
5721742.77667138167
 40
0.90
  1
13.207
 50
-327.20
 41
0.66
  7
STANDARD
 72
2
 11
8380887.32472254429
 21
5721744.61753852107
100
AcDbText
 73
2
  0
TEXT
  5
1B9
100
AcDbEntity
  8
Dzialki
370
18
100
AcDbText
 10
8380891.30358888023
 20
5721747.38976516481
 40
0.90
  1
12.392
 50
-327.20
 41
0.66
  7
STANDARD
 72
1
 11
8380892.60086625814
 21
5721747.86890126765
100
AcDbText
 73
1
  0
TEXT
  5
1BA
100
AcDbEntity
  8
Dzialki
370
18
100
AcDbText
 10
8380879.92663860507
 20
5721751.95590438414
 40
0.90
  1
3.834
 50
-327.20
 41
0.66
  7
STANDARD
 72
2
 11
8380881.57414476853
 21
5721753.55300282873
100
AcDbText
 73
2
  0
TEXT
  5
1BB
100
AcDbEntity
  8
Dzialki
370
18
100
AcDbText
 10
8380885.51129999198
 20
5721756.30249731895
 40
0.90
  1
12.298
 50
-327.20
 41
0.66
  7
STANDARD
 72
1
 11
8380886.8085773699
 21
5721756.78163342178
100
AcDbText
 73
1
  0
TEXT
  5
1BC
100
AcDbEntity
  8
Dzialki
370
18
100
AcDbText
 10
8380874.11465914734
 20
5721760.14861484431
 40
0.90
  1
13.869
 50
-327.20
 41
0.66
  7
STANDARD
 72
2
 11
8380876.14042028226
 21
5721761.98948198371
100
AcDbText
 73
2
  0
TEXT
  5
1BD
100
AcDbEntity
  8
Dzialki
370
18
100
AcDbText
 10
8380885.08593774959
 20
5721767.96473689657
 40
0.90
  1
24.212
 50
-327.20
 41
0.66
  7
STANDARD
 72
1
 11
8380886.38321512751
 21
5721768.4438729994
100
AcDbText
 73
1
  0
TEXT
  5
1BE
100
AcDbEntity
  8
Granice_ogrodzenie
370
80
100
AcDbText
 10
8380939.275693601
 20
5721741.63857548032
 40
2.26
  1
A
 50
0.00
 41
0.66
  7
STANDARD
 72
0
 11
8380939.275693601
 21
5721743.89649548009
100
AcDbText
 73
3
  0
TEXT
  5
1BF
100
AcDbEntity
  8
Granice_ogrodzenie
370
80
100
AcDbText
 10
8380955.76393329538
 20
5721741.63722278457
 40
2.26
  1
G
 50
0.00
 41
0.66
  7
STANDARD
 72
0
 11
8380955.76393329538
 21
5721743.89514278434
100
AcDbText
 73
3
  0
TEXT
  5
1C0
100
AcDbEntity
  8
Granice_ogrodzenie
370
80
100
AcDbText
 10
8380863.30015551578
 20
5721768.84796556085
 40
2.26
  1
A
 50
0.00
 41
0.66
  7
STANDARD
 72
0
 11
8380863.30015551578
 21
5721771.10588556062
100
AcDbText
 73
3
  0
TEXT
  5
1C1
100
AcDbEntity
  8
Granice_ogrodzenie
370
80
100
AcDbText
 10
8380898.76939697843
 20
5721791.50203345809
 40
2.26
  1
B
 50
0.00
 41
0.66
  7
STANDARD
 72
0
 11
8380898.76939697843
 21
5721793.75995345786
100
AcDbText
 73
3
  0
TEXT
  5
1C2
100
AcDbEntity
  8
Granice_ogrodzenie
370
80
100
AcDbText
 10
8380940.78080743272
 20
5721766.39579436649
 40
2.26
  1
C
 50
0.00
 41
0.66
  7
STANDARD
 72
0
 11
8380940.78080743272
 21
5721768.65371436626
100
AcDbText
 73
3
  0
TEXT
  5
1C3
100
AcDbEntity
  8
Granice_ogrodzenie
370
80
100
AcDbText
 10
8380939.12871312443
 20
5721760.21470732149
 40
2.26
  1
D
 50
0.00
 41
0.66
  7
STANDARD
 72
0
 11
8380939.12871312443
 21
5721762.47262732126
100
AcDbText
 73
3
  0
TEXT
  5
1C4
100
AcDbEntity
  8
Granice_ogrodzenie
370
80
100
AcDbText
 10
8380896.18270005193
 20
5721732.31376902387
 40
2.26
  1
E
 50
0.00
 41
0.66
  7
STANDARD
 72
0
 11
8380896.18270005193
 21
5721734.57168902364
100
AcDbText
 73
3
  0
TEXT
  5
1C5
100
AcDbEntity
  8
Granice_ogrodzenie
370
80
100
AcDbText
 10
8380882.3432119498
 20
5721751.22860299051
 40
2.26
  1
F
 50
0.00
 41
0.66
  7
STANDARD
 72
0
 11
8380882.3432119498
 21
5721753.48652299028
100
AcDbText
 73
3
  0
TEXT
  5
1C6
100
AcDbEntity
  8
Granice_ogrodzenie
370
80
100
AcDbText
 10
8380875.87609587889
 20
5721747.60399895813
 40
2.26
  1
G
 50
0.00
 41
0.66
  7
STANDARD
 72
0
 11
8380875.87609587889
 21
5721749.8619189579
100
AcDbText
 73
3
  0
TEXT
  5
1C7
100
AcDbEntity
  8
Granice_ogrodzenie
370
80
100
AcDbText
 10
8380851.24937453121
 20
5721788.41347924247
 40
2.26
  1
ISTNIEJ¥CY 
 50
0.00
 41
0.66
  7
STANDARD
 72
0
 11
8380851.24937453121
 21
5721790.67139924224
100
AcDbText
 73
3
  0
TEXT
  5
1C8
100
AcDbEntity
  8
Granice_ogrodzenie
370
80
100
AcDbText
 10
8380851.24937453121
 20
5721785.02659924235
 40
2.26
  1
PARK 
 50
0.00
 41
0.66
  7
STANDARD
 72
0
 11
8380851.24937453121
 21
5721787.28451924212
100
AcDbText
 73
3
  0
TEXT
  5
1C9
100
AcDbEntity
  8
Granice_ogrodzenie
370
80
100
AcDbText
 10
8380851.24937453121
 20
5721781.63971924223
 40
2.26
  1
REKREACJI
 50
0.00
 41
0.66
  7
STANDARD
 72
0
 11
8380851.24937453121
 21
5721783.897639242
100
AcDbText
 73
3
  0
TEXT
  5
1CA
100
AcDbEntity
  8
robocza
370
18
100
AcDbText
 10
8380901.27302555088
 20
5721764.8695069598
 40
0.90
  1
-34.100-
 50
-15.00
 41
0.66
  7
STANDARD
 72
1
 11
8380902.93404632434
 21
5721764.11385493074
100
AcDbText
 73
1
  0
TEXT
  5
1CB
100
AcDbEntity
  8
robocza
370
18
100
AcDbText
 10
8380902.21841795929
 20
5721760.29216098413
 40
0.90
  1
-34.098-
 50
-279.00
 41
0.66
  7
STANDARD
 72
1
 11
8380902.79630649835
 21
5721762.02306965832
100
AcDbText
 73
1
  0
TEXT
  5
1CC
100
AcDbEntity
  8
__osie
370
25
100
AcDbText
 10
8380900.8160507651
 20
5721746.30805053655
 40
1.25
  1
A
 50
-56.70
 41
0.66
  7
STANDARD
 72
1
 11
8380901.50999999605
 21
5721746.38999999687
100
AcDbText
 73
2
  0
TEXT
  5
1CD
100
AcDbEntity
  8
__osie
370
25
100
AcDbText
 10
8380885.47605076525
 20
5721769.6480505364
 40
1.25
  1
A
 50
-56.70
 41
0.66
  7
STANDARD
 72
1
 11
8380886.1699999962
 21
5721769.72999999672
100
AcDbText
 73
2
  0
TEXT
  5
1CE
100
AcDbEntity
  8
__osie
370
25
100
AcDbText
 10
8380907.60605076514
 20
5721751.16805053689
 40
1.25
  1
B
 50
-56.70
 41
0.66
  7
STANDARD
 72
1
 11
8380908.29999999609
 21
5721751.24999999721
100
AcDbText
 73
2
  0
TEXT
  5
1CF
100
AcDbEntity
  8
__osie
370
25
100
AcDbText
 10
8380892.59605076443
 20
5721773.91805053689
 40
1.25
  1
B
 50
-56.70
 41
0.66
  7
STANDARD
 72
1
 11
8380893.28999999538
 21
5721773.99999999721
100
AcDbText
 73
2
  0
TEXT
  5
1D0
100
AcDbEntity
  8
__osie
370
25
100
AcDbText
 10
8380910.74605076481
 20
5721752.65805053711
 40
1.25
  1
C
 50
-56.70
 41
0.66
  7
STANDARD
 72
1
 11
8380911.43999999575
 21
5721752.73999999743
100
AcDbText
 73
2
  0
TEXT
  5
1D1
100
AcDbEntity
  8
__osie
370
25
100
AcDbText
 10
8380895.30605076533
 20
5721775.72805053648
 40
1.25
  1
C
 50
-56.70
 41
0.66
  7
STANDARD
 72
1
 11
8380895.99999999628
 21
5721775.8099999968
100
AcDbText
 73
2
  0
TEXT
  5
1D2
100
AcDbEntity
  8
__osie
370
25
100
AcDbText
 10
8380898.33305077068
 20
5721779.01105054095
 40
1.25
  1
D
 50
-56.70
 41
0.66
  7
STANDARD
 72
1
 11
8380899.02700000163
 21
5721779.09300000127
100
AcDbText
 73
2
  0
TEXT
  5
1D3
100
AcDbEntity
  8
__osie
370
25
100
AcDbText
 10
8380914.16605076473
 20
5721755.34805053659
 40
1.25
  1
D
 50
-56.70
 41
0.66
  7
STANDARD
 72
1
 11
8380914.85999999568
 21
5721755.42999999691
100
AcDbText
 73
2
  0
TEXT
  5
1D4
100
AcDbEntity
  8
__osie
370
25
100
AcDbText
 10
8380915.52605076507
 20
5721756.25805053674
 40
1.25
  1
E
 50
-56.70
 41
0.66
  7
STANDARD
 72
1
 11
8380916.21999999601
 21
5721756.33999999706
100
AcDbText
 73
2
  0
TEXT
  5
1D5
100
AcDbEntity
  8
__osie
370
25
100
AcDbText
 10
8380899.83705077134
 20
5721780.01105054095
 40
1.25
  1
E
 50
-56.70
 41
0.66
  7
STANDARD
 72
1
 11
8380900.53100000229
 21
5721780.09300000127
100
AcDbText
 73
2
  0
TEXT
  5
1D6
100
AcDbEntity
  8
__osie
370
25
100
AcDbText
 10
8380917.86605076492
 20
5721758.02805053722
 40
1.25
  1
F
 50
-56.70
 41
0.66
  7
STANDARD
 72
1
 11
8380918.55999999586
 21
5721758.10999999754
100
AcDbText
 73
2
  0
TEXT
  5
1D7
100
AcDbEntity
  8
__osie
370
25
100
AcDbText
 10
8380902.49605076481
 20
5721780.9680505367
 40
1.25
  1
F
 50
-56.70
 41
0.66
  7
STANDARD
 72
1
 11
8380903.18999999575
 21
5721781.04999999702
100
AcDbText
 73
2
  0
TEXT
  5
1D8
100
AcDbEntity
  8
__osie
370
25
100
AcDbText
 10
8380904.17605076451
 20
5721781.99805053696
 40
1.25
  1
G
 50
-56.70
 41
0.66
  7
STANDARD
 72
1
 11
8380904.86999999546
 21
5721782.07999999728
100
AcDbText
 73
2
  0
TEXT
  5
1D9
100
AcDbEntity
  8
__osie
370
25
100
AcDbText
 10
8380919.45605076477
 20
5721759.19805053715
 40
1.25
  1
G
 50
-56.70
 41
0.66
  7
STANDARD
 72
1
 11
8380920.14999999572
 21
5721759.27999999747
100
AcDbText
 73
2
  0
TEXT
  5
1DA
100
AcDbEntity
  8
__osie
370
25
100
AcDbText
 10
8380899.00194945652
 20
5721746.20605076663
 40
1.25
  1
1
 50
-326.70
 41
0.66
  7
STANDARD
 72
1
 11
8380898.9199999962
 21
5721746.89999999758
100
AcDbText
 73
2
  0
TEXT
  5
1DB
100
AcDbEntity
  8
__osie
370
25
100
AcDbText
 10
8380919.84194945637
 20
5721760.31605076604
 40
1.25
  1
1
 50
-326.70
 41
0.66
  7
STANDARD
 72
1
 11
8380919.75999999605
 21
5721761.00999999698
100
AcDbText
 73
2
  0
TEXT
  5
1DC
100
AcDbEntity
  8
__osie
370
25
100
AcDbText
 10
8380896.64194945618
 20
5721750.0960507663
 40
1.25
  1
2
 50
-326.70
 41
0.66
  7
STANDARD
 72
1
 11
8380896.55999999586
 21
5721750.78999999724
100
AcDbText
 73
2
  0
TEXT
  5
1DD
100
AcDbEntity
  8
__osie
370
25
100
AcDbText
 10
8380917.90194945596
 20
5721764.26605076622
 40
1.25
  1
2
 50
-326.70
 41
0.66
  7
STANDARD
 72
1
 11
8380917.81999999564
 21
5721764.95999999717
100
AcDbText
 73
2
  0
TEXT
  5
1DE
100
AcDbEntity
  8
__osie
370
25
100
AcDbText
 10
8380890.52194945607
 20
5721758.40605076589
 40
1.25
  1
3
 50
-326.70
 41
0.66
  7
STANDARD
 72
1
 11
8380890.43999999575
 21
5721759.09999999683
100
AcDbText
 73
2
  0
TEXT
  5
1DF
100
AcDbEntity
  8
__osie
370
25
100
AcDbText
 10
8380912.68194945622
 20
5721772.67605076637
 40
1.25
  1
3
 50
-326.70
 41
0.66
  7
STANDARD
 72
1
 11
8380912.5999999959
 21
5721773.36999999732
100
AcDbText
 73
2
  0
TEXT
  5
1E0
100
AcDbEntity
  8
__osie
370
25
100
AcDbText
 10
8380911.7107596565
 20
5721774.09448113572
 40
1.25
  1
3'
 50
-326.70
 41
0.66
  7
STANDARD
 72
1
 11
8380911.88999999594
 21
5721774.95999999717
100
AcDbText
 73
2
  0
TEXT
  5
1E1
100
AcDbEntity
  8
__osie
370
25
100
AcDbText
 10
8380889.58075965662
 20
5721759.59448113572
 40
1.25
  1
3'
 50
-326.70
 41
0.66
  7
STANDARD
 72
1
 11
8380889.75999999605
 21
5721760.45999999717
100
AcDbText
 73
2
  0
TEXT
  5
1E2
100
AcDbEntity
  8
__osie
370
25
100
AcDbText
 10
8380888.45194945578
 20
5721762.25605076645
 40
1.25
  1
4
 50
-326.70
 41
0.66
  7
STANDARD
 72
1
 11
8380888.36999999546
 21
5721762.94999999739
100
AcDbText
 73
2
  0
TEXT
  5
1E3
100
AcDbEntity
  8
__osie
370
25
100
AcDbText
 10
8380910.16194945574
 20
5721776.33605076652
 40
1.25
  1
4
 50
-326.70
 41
0.66
  7
STANDARD
 72
1
 11
8380910.07999999542
 21
5721777.02999999747
100
AcDbText
 73
2
  0
TEXT
  5
1E4
100
AcDbEntity
  8
__osie
370
25
100
AcDbText
 10
8380885.50194945652
 20
5721766.69605076592
 40
1.25
  1
5
 50
-326.70
 41
0.66
  7
STANDARD
 72
1
 11
8380885.4199999962
 21
5721767.38999999687
100
AcDbText
 73
2
  0
TEXT
  5
1E5
100
AcDbEntity
  8
__osie
370
25
100
AcDbText
 10
8380907.54194945656
 20
5721780.96605076641
 40
1.25
  1
5
 50
-326.70
 41
0.66
  7
STANDARD
 72
1
 11
8380907.45999999624
 21
5721781.65999999736
100
AcDbText
 73
2
  0
TEXT
  5
1E6
100
AcDbEntity
  8
__osie
370
15
100
AcDbText
 10
8380887.75077865645
 20
5721767.40985058341
 40
0.75
  1
-5.250-
 50
-56.70
 41
0.66
  7
STANDARD
 72
1
 11
8380888.26241926476
 21
5721766.17559771705
100
AcDbText
 73
1
  0
TEXT
  5
1E7
100
AcDbEntity
  8
__osie
370
15
100
AcDbText
 10
8380890.06727865525
 20
5721763.87985058408
 40
0.75
  1
-3.195-
 50
-56.70
 41
0.66
  7
STANDARD
 72
1
 11
8380890.57891926356
 21
5721762.64559771772
100
AcDbText
 73
1
  0
TEXT
  5
1E8
100
AcDbEntity
  8
__osie
370
15
100
AcDbText
 10
8380894.38249784429
 20
5721757.2681205729
 40
0.75
  1
-10.000-
 50
-56.70
 41
0.66
  7
STANDARD
 72
1
 11
8380894.99708023109
 21
5721755.87715382595
100
AcDbText
 73
1
  0
TEXT
  5
1E9
100
AcDbEntity
  8
__osie
370
15
100
AcDbText
 10
8380898.53477865644
 20
5721750.97735058423
 40
0.75
  1
-4.710-
 50
-56.70
 41
0.66
  7
STANDARD
 72
1
 11
8380899.04641926475
 21
5721749.74309771787
100
AcDbText
 73
1
  0
TEXT
  5
1EA
100
AcDbEntity
  8
__osie
370
15
100
AcDbText
 10
8380889.22364941705
 20
5721770.12427865528
 40
0.75
  1
-8.365-
 50
-326.70
 41
0.66
  7
STANDARD
 72
1
 11
8380890.45790228341
 21
5721770.63591926359
100
AcDbText
 73
1
  0
TEXT
  5
1EB
100
AcDbEntity
  8
__osie
370
15
100
AcDbText
 10
8380894.24014941696
 20
5721773.41577865556
 40
0.75
  1
-3.635-
 50
-326.70
 41
0.66
  7
STANDARD
 72
1
 11
8380895.47440228332
 21
5721773.92741926387
100
AcDbText
 73
1
  0
TEXT
  5
1EC
100
AcDbEntity
  8
__osie
370
15
100
AcDbText
 10
8380897.52164941654
 20
5721775.56927865557
 40
0.75
  1
-4.215-
 50
-326.70
 41
0.66
  7
STANDARD
 72
1
 11
8380898.75590228289
 21
5721776.08091926388
100
AcDbText
 73
1
  0
TEXT
  5
1ED
100
AcDbEntity
  8
__osie
370
15
100
AcDbText
 10
8380899.74261235539
 20
5721777.02933791652
 40
0.75
  1
-1.100-
 50
-326.80
 41
0.66
  7
STANDARD
 72
1
 11
8380900.97775632329
 21
5721777.53882356919
100
AcDbText
 73
1
  0
TEXT
  5
1EE
100
AcDbEntity
  8
__osie
370
15
100
AcDbText
 10
8380901.56014941633
 20
5721778.2197786551
 40
0.75
  1
-3.245-
 50
-326.70
 41
0.66
  7
STANDARD
 72
1
 11
8380902.79440228268
 21
5721778.73141926341
100
AcDbText
 73
1
  0
TEXT
  5
1EF
100
AcDbEntity
  8
__osie
370
15
100
AcDbText
 10
8380903.62314941641
 20
5721779.57327865623
 40
0.75
  1
-1.690-
 50
-326.70
 41
0.66
  7
STANDARD
 72
1
 11
8380904.85740228277
 21
5721780.08491926454
100
AcDbText
 73
1
  0
ENDSEC
  0
SECTION
  2
OBJECTS
  0
DICTIONARY
  5
1F0
330
0
100
AcDbDictionary
280
0
281
1
  3
ACAD_GROUP
350
1F1
  3
ACAD_LAYOUT
350
1F2
  3
ACAD_MLINESTYLE
350
1F3
  3
ACAD_PLOTSETTINGS
350
1F4
  3
ACAD_PLOTSTYLENAME
350
1F5
  0
DICTIONARY
  5
1F1
102
{ACAD_REACTORS
330
1F0
102
}
330
1F0
100
AcDbDictionary
280
0
281
1
  0
DICTIONARY
  5
1F2
102
{ACAD_REACTORS
330
1F0
102
}
330
1F0
100
AcDbDictionary
280
0
281
1
  3
Layout
350
1E
  3
Model
350
1C
  0
DICTIONARY
  5
1F3
102
{ACAD_REACTORS
330
1F0
102
}
330
1F0
100
AcDbDictionary
280
0
281
1
  3
Standard
350
1F6
  0
DICTIONARY
  5
1F4
102
{ACAD_REACTORS
330
1F0
102
}
330
1F0
100
AcDbDictionary
280
0
281
1
  0
ACDBDICTIONARYWDFLT
  5
1F5
102
{ACAD_REACTORS
330
1F0
102
}
330
1F0
100
AcDbDictionary
281
1
  3
Normal
350
B
100
AcDbDictionaryWithDefault
340
B
  0
LAYOUT
  5
1E
100
AcDbPlotSettings
  1

  2

  4

  6

 40
0.0
 41
0.0
 42
0.0
 43
0.0
 44
0.0
 45
0.0
 46
0.0
 47
0.0
 48
0.0
 49
0.0
140
0.0
141
0.0
142
1.0
143
1.0
 70
688
 72
1
 73
0
 74
5
  7

 75
0
147
1.0
148
0.0
149
0.0
100
AcDbLayout
  1
Layout
 70
1
 71
1
 10
0.0
 20
0.0
 11
420.0
 21
297.0
 12
0.0
 22
0.0
 32
0.0
 14
100000000000000000000.0
 24
100000000000000000000.0
 34
100000000000000000000.0
 15
-100000000000000000000.0
 25
-100000000000000000000.0
 35
-100000000000000000000.0
146
0.0
 13
0.0
 23
0.0
 33
0.0
 16
1.0
 26
0.0
 36
0.0
 17
0.0
 27
1.0
 37
0.0
 76
0
330
1D
  0
LAYOUT
  5
1C
100
AcDbPlotSettings
  1

  2

  4

  6

 40
0.0
 41
0.0
 42
0.0
 43
0.0
 44
0.0
 45
0.0
 46
0.0
 47
0.0
 48
0.0
 49
0.0
140
0.0
141
0.0
142
1.0
143
1.0
 70
1712
 72
1
 73
0
 74
0
  7

 75
0
147
1.0
148
0.0
149
0.0
100
AcDbLayout
  1
Model
 70
1
 71
0
 10
0.0
 20
0.0
 11
12.0
 21
9.0
 12
0.0
 22
0.0
 32
0.0
 14
0.0
 24
0.0
 34
0.0
 15
0.0
 25
0.0
 35
0.0
146
0.0
 13
0.0
 23
0.0
 33
0.0
 16
1.0
 26
0.0
 36
0.0
 17
0.0
 27
1.0
 37
0.0
 76
0
330
1B
  0
MLINESTYLE
  5
1F6
102
{ACAD_REACTORS
330
1F3
102
}
330
1F3
100
AcDbMlineStyle
  2
Standard
 70
0
  3

 62
256
 51
90.0
 52
90.0
  2
Standard
 71
2
 49
0.5
 62
256
  6
ByLayer
 49
-0.5
 62
256
  6
ByLayer
  0
ACDBPLACEHOLDER
  5
B
  0
ENDSEC
  0
EOF
