  0
SECTION
  2
HEADER
  9
$ACADVER
  1
AC1018
  9
$HANDSEED
  5
FFFFFF
  9
$EXTMAX
 10
7566005.18
 20
5722915.25
 30
1000000.00
  9
$EXTMIN
 10
7565830.91
 20
5722651.4
 30
0.00
  9
$LIMMIN
 10
7565830.91
 20
5722651.4
  9
$LIMMAX
 10
7566005.18
 20
5722915.25
  9
$DIMASZ
 40
2.5
  9
$DIMGAP
 40
0.625
  9
$INSUNITS
 70
6
  9
$DIMEXO
 40
0.625
  9
$DIMTXT
 40
2.5
  9
$DIMSTYLE
  2
Standard
  9
$PLIMMIN
 10
0.0
 20
0.0
  9
$PLIMMAX
 10
210.0
 20
297.0
  9
$DIMEXE
 40
1.25
  9
$TEXTSIZE
 40
2.5
  9
$TEXTSTYLE
  7
Standard
  9
$LWDISPLAY
290
1
  9
$TDCREATE
 40
45209.602428218
  9
$TDUCREATE
 40
45209.519094884
  9
$TDUPDATE
 40
45209.602428218
  9
$TDUUPDATE
 40
45209.519094884
  9
$TDINDWG
 40
0.0
  9
$TDUSRTIMER
 40
0.0
  9
$USRTIMER
 70
1
  0
ENDSEC
  0
SECTION
  2
CLASSES
  0
CLASS
  1
WIPEOUT
  2
AcDbWipeout
  3
WipeOut
 90
127
 91
1
280
0
281
1
  0
CLASS
  1
WIPEOUTVARIABLES
  2
AcDbWipeoutVariables
  3
WipeOut
 90
0
 91
1
280
0
281
0
  0
ENDSEC
  0
SECTION
  2
TABLES
  0
TABLE
  2
VPORT
  5
1
100
AcDbSymbolTable
 70
1
  0
VPORT
  5
2
100
AcDbSymbolTableRecord
100
AcDbViewportTableRecord
  2
*ACTIVE
 70
0
 10
0.0
 20
0.0
 11
1.0
 21
1.0
 12
7565918.05
 22
5722783.33
 13
0.0
 23
0.0
 14
1.0
 24
1.0
 15
0.0
 25
0.0
 16
0.0
 26
0.0
 36
1.0
 17
0.0
 27
0.0
 37
0.0
 40
263.85
 41
0.66
 42
50.0
 43
0.0
 44
0.0
 50
0.0
 51
0.0
 71
0
 72
100
 73
1
 74
1
 75
0
 76
0
 77
0
 78
0
  0
ENDTAB
  0
TABLE
  2
LTYPE
  5
3
100
AcDbSymbolTable
 70
3
  0
LTYPE
  5
4
100
AcDbSymbolTableRecord
100
AcDbLinetypeTableRecord
  2
ByBlock
 70
0
  3

 72
65
 73
0
 40
0.0
  0
LTYPE
  5
5
100
AcDbSymbolTableRecord
100
AcDbLinetypeTableRecord
  2
ByLayer
 70
0
  3

 72
65
 73
0
 40
0.0
  0
LTYPE
  5
6
100
AcDbSymbolTableRecord
100
AcDbLinetypeTableRecord
  2
CONTINUOUS
 70
0
  3
Solid line
 72
65
 73
0
 40
0.0
  0
LTYPE
  5
8
100
AcDbSymbolTableRecord
100
AcDbLinetypeTableRecord
  2
L_0_02
 70
0
  3
Dzialka_ewidencyjna (MLineStyle)
 72
65
 73
0
 40
0.0
  0
LTYPE
  5
9
100
AcDbSymbolTableRecord
100
AcDbLinetypeTableRecord
  2
L_0_03
 70
0
  3
Uzytek_gruntowy
 72
65
 73
2
 40
1.0
 49
0.5
 74
0
 49
-0.5
 74
0
  0
LTYPE
  5
A
100
AcDbSymbolTableRecord
100
AcDbLinetypeTableRecord
  2
L_0_04
 70
0
  3
Budynek_projektowany
 72
65
 73
2
 40
1.5
 49
1.0
 74
0
 49
-0.5
 74
0
  0
LTYPE
  5
B
100
AcDbSymbolTableRecord
100
AcDbLinetypeTableRecord
  2
L_0_06
 70
0
  3
Granica_konturu_klasyfikacyjnego_Krawedz_chodnika
 72
65
 73
2
 40
2.0
 49
1.5
 74
0
 49
-0.5
 74
0
  0
LTYPE
  5
C
100
AcDbSymbolTableRecord
100
AcDbLinetypeTableRecord
  2
L_0_15_SHX
 70
0
  3
Ogrodzenie_trwale
 72
65
 73
12
 40
7.5
 49
0.0
 74
0
 49
-0.375
 74
0
 49
-0.75
 74
0
 49
-0.75
 74
0
 49
-0.75
 74
0
 49
-0.75
 74
0
 49
-0.75
 74
4
 75
1
340
D
 46
0.05
 50
0.0
 44
0.0
 45
0.0
 49
-0.75
 74
0
 49
-0.75
 74
0
 49
-0.75
 74
0
 49
-0.75
 74
0
 49
-0.375
 74
0
  0
LTYPE
  5
F
100
AcDbSymbolTableRecord
100
AcDbLinetypeTableRecord
  2
L_0_15
 70
0
  3
Ogrodzenie_trwale (MLineStyle)
 72
65
 73
0
 40
0.0
  0
ENDTAB
  0
TABLE
  2
LAYER
  5
10
100
AcDbSymbolTable
 70
14
  0
LAYER
  5
11
100
AcDbSymbolTableRecord
100
AcDbLayerTableRecord
  2
0
 70
0
 62
7
  6
CONTINUOUS
370
18
390
12
  0
LAYER
  5
13
100
AcDbSymbolTableRecord
100
AcDbLayerTableRecord
  2
ARKUSZ_A3
 70
0
 62
13
  6
CONTINUOUS
290
0
370
18
390
12
  0
LAYER
  5
14
100
AcDbSymbolTableRecord
100
AcDbLayerTableRecord
  2
Dzialki
 70
0
 62
96
  6
CONTINUOUS
370
18
390
12
  0
LAYER
  5
15
100
AcDbSymbolTableRecord
100
AcDbLayerTableRecord
  2
EGBB_L_3
 70
0
 62
7
  6
CONTINUOUS
370
50
390
12
  0
LAYER
  5
16
100
AcDbSymbolTableRecord
100
AcDbLayerTableRecord
  2
Kontury
 70
0
 62
96
  6
L_0_06
370
18
390
12
  0
LAYER
  5
17
100
AcDbSymbolTableRecord
100
AcDbLayerTableRecord
  2
Numery_dzialek
 70
0
 62
96
  6
CONTINUOUS
370
18
390
12
  0
LAYER
  5
18
100
AcDbSymbolTableRecord
100
AcDbLayerTableRecord
  2
Numery_konturow
 70
0
 62
96
  6
CONTINUOUS
370
18
390
12
  0
LAYER
  5
19
100
AcDbSymbolTableRecord
100
AcDbLayerTableRecord
  2
Numery_uzytkow
 70
0
 62
96
  6
CONTINUOUS
370
13
390
12
  0
LAYER
  5
1A
100
AcDbSymbolTableRecord
100
AcDbLayerTableRecord
  2
SZOPO_L_0
 70
0
 62
7
  6
L_0_15
370
35
390
12
  0
LAYER
  5
1B
100
AcDbSymbolTableRecord
100
AcDbLayerTableRecord
  2
Uzytki
 70
0
 62
96
  6
L_0_03
370
18
390
12
  0
LAYER
  5
1C
100
AcDbSymbolTableRecord
100
AcDbLayerTableRecord
  2
WUKOS_T_4
 70
0
 62
7
  6
CONTINUOUS
370
18
390
12
  0
LAYER
  5
1D
100
AcDbSymbolTableRecord
100
AcDbLayerTableRecord
  2
WWRPH_L_0
 70
0
 62
23
  6
CONTINUOUS
370
13
390
12
  0
LAYER
  5
1E
100
AcDbSymbolTableRecord
100
AcDbLayerTableRecord
  2
zakres
 70
0
 62
150
  6
L_0_04
370
35
390
12
  0
LAYER
  5
1F
100
AcDbSymbolTableRecord
100
AcDbLayerTableRecord
  2
siatka
 70
0
 62
7
  6
CONTINUOUS
370
35
390
12
  0
ENDTAB
  0
TABLE
  2
STYLE
  5
20
100
AcDbSymbolTable
 70
3
  0
STYLE
  5
21
100
AcDbSymbolTableRecord
100
AcDbTextStyleTableRecord
  2
STANDARD
 70
0
 40
0.0
 41
1.0
 50
0.0
 71
0
  3
simplex.shx
  4

  0
STYLE
  5
22
100
AcDbSymbolTableRecord
100
AcDbTextStyleTableRecord
  2
STANDARD_ITALIC
 70
0
 40
0.0
 41
1.0
 50
15.0
 71
0
  3
simplex.shx
  4

  0
STYLE
  5
D
100
AcDbSymbolTableRecord
100
AcDbTextStyleTableRecord
  2

 70
1
 40
0.0
 41
0.050
 50
0.0
 71
0
  3
RYKI-698-10-podgik.shx
  4

  0
ENDTAB
  0
TABLE
  2
VIEW
  5
23
100
AcDbSymbolTable
 70
0
  0
ENDTAB
  0
TABLE
  2
UCS
  5
24
100
AcDbSymbolTable
 70
0
  0
ENDTAB
  0
TABLE
  2
APPID
  5
25
100
AcDbSymbolTable
 70
1
  0
APPID
  5
26
100
AcDbSymbolTableRecord
100
AcDbRegAppTableRecord
  2
ACAD
 70
0
  0
ENDTAB
  0
TABLE
  2
DIMSTYLE
  5
27
100
AcDbSymbolTable
 70
1
100
AcDbDimStyleTable
  0
DIMSTYLE
105
28
100
AcDbSymbolTableRecord
100
AcDbDimStyleTableRecord
  2
Standard
 70
0
340
21
  0
ENDTAB
  0
TABLE
  2
BLOCK_RECORD
  5
29
100
AcDbSymbolTable
 70
6
  0
BLOCK_RECORD
  5
2A
100
AcDbSymbolTableRecord
100
AcDbBlockTableRecord
  2
*Model_Space
340
2B
  0
BLOCK_RECORD
  5
2C
100
AcDbSymbolTableRecord
100
AcDbBlockTableRecord
  2
*Paper_Space
340
2D
  0
BLOCK_RECORD
  5
2E
100
AcDbSymbolTableRecord
100
AcDbBlockTableRecord
  2
OSPB
340
2F
  0
BLOCK_RECORD
  5
30
100
AcDbSymbolTableRecord
100
AcDbBlockTableRecord
  2
OSHF
340
31
  0
BLOCK_RECORD
  5
32
100
AcDbSymbolTableRecord
100
AcDbBlockTableRecord
  2
L_0_02_1
340
33
  0
BLOCK_RECORD
  5
34
100
AcDbSymbolTableRecord
100
AcDbBlockTableRecord
  2
L_0_02_2
340
35
  0
ENDTAB
  0
ENDSEC
  0
SECTION
  2
BLOCKS
  0
BLOCK
  5
36
100
AcDbEntity
  8
0
100
AcDbBlockBegin
  2
*Model_Space
 70
0
 10
0.0
 20
0.0
 30
0.0
  3
*Model_Space
  1

  0
ENDBLK
  5
37
100
AcDbEntity
  8
0
100
AcDbBlockEnd
  0
BLOCK
  5
38
100
AcDbEntity
 67
1
  8
0
100
AcDbBlockBegin
  2
*Paper_Space
 70
0
 10
0.0
 20
0.0
 30
0.0
  3
*Paper_Space
  1

  0
ENDBLK
  5
39
100
AcDbEntity
 67
1
  8
0
100
AcDbBlockEnd
  0
BLOCK
  5
2F
100
AcDbEntity
  8
0
100
AcDbBlockBegin
 62
0
370
13
  2
OSPB
 70
0
 10
0
 20
0
 30
0
  3
OSPB
  0
WIPEOUT
  5
3A
100
AcDbEntity
  8
0
  6
CONTINUOUS
 62
0
370
18
100
AcDbWipeout
 90
0
 10
-2.0
 20
-1.1
 30
0.0
 11
4.0
 21
0.0
 31
0.0
 12
0.0
 22
3.2
 32
0.0
 13
1.0
 23
1.0
 70
7
280
1
281
100
282
100
283
0
 71
2
 91
5
 14
-0.5
 24
0.5
 14
0.5
 24
0.5
 14
0.025
 24
-0.5
 14
-0.5
 24
0.5
 14
-0.5
 24
0.5
  0
POLYLINE
  5
3B
100
AcDbEntity
  8
0
  6
CONTINUOUS
 62
0
370
18
100
AcDb2dPolyline
 66
1
 70
129
  0
VERTEX
  5
3C
100
AcDbEntity
  8
0
100
AcDbVertex
100
AcDb2dVertex
 10
-2.0
 20
-1.1
  0
VERTEX
  5
3D
100
AcDbEntity
  8
0
100
AcDbVertex
100
AcDb2dVertex
 10
2.0
 20
-1.1
  0
VERTEX
  5
3E
100
AcDbEntity
  8
0
100
AcDbVertex
100
AcDb2dVertex
 10
0.1
 20
2.1
  0
VERTEX
  5
3F
100
AcDbEntity
  8
0
100
AcDbVertex
100
AcDb2dVertex
 10
-2.0
 20
-1.1
  0
SEQEND
  5
40
100
AcDbEntity
  8
0
  0
HATCH
  5
41
100
AcDbEntity
  8
0
  6
CONTINUOUS
 62
0
370
25
100
AcDbHatch
 10
0.0
 20
0.0
 30
0.0
210
0.0
220
0.0
230
1.0
  2
SOLID
 70
1
 71
1
 91
1
 92
3
 72
1
 73
1
 93
2
 10
0.0
 20
-0.22360679775
 42
1.0
 10
0.0
 20
0.22360679775
 42
1.0
 97
0
 75
0
 76
1
 98
0
  0
CIRCLE
  5
42
100
AcDbEntity
  8
0
  6
CONTINUOUS
 62
0
370
25
100
AcDbCircle
 10
0.0
 20
-0.0
 40
0.22360679775
  0
ENDBLK
  5
43
100
AcDbEntity
  8
0
100
AcDbBlockEnd
  0
BLOCK
  5
31
100
AcDbEntity
  8
0
100
AcDbBlockBegin
 62
0
370
13
  2
OSHF
 70
0
 10
0
 20
0
 30
0
  3
OSHF
  0
WIPEOUT
  5
44
100
AcDbEntity
  8
0
  6
CONTINUOUS
 62
0
370
18
100
AcDbWipeout
 90
0
 10
-2.0
 20
-2.0
 30
0.0
 11
4.0
 21
0.0
 31
0.0
 12
0.0
 22
4.0
 32
0.0
 13
1.0
 23
1.0
 70
7
280
1
281
100
282
100
283
0
 71
2
 91
13
 14
0.0
 24
0.5
 14
0.25
 24
0.433012701892
 14
0.433012701892
 24
0.25
 14
0.5
 24
0.0
 14
0.433012701892
 24
-0.25
 14
0.25
 24
-0.433012701892
 14
0.0
 24
-0.5
 14
-0.25
 24
-0.433012701892
 14
-0.433012701892
 24
-0.25
 14
-0.5
 24
0.0
 14
-0.433012701892
 24
0.25
 14
-0.25
 24
0.433012701892
 14
0.0
 24
0.5
  0
CIRCLE
  5
45
100
AcDbEntity
  8
0
  6
CONTINUOUS
 62
0
370
18
100
AcDbCircle
 10
0.0
 20
-0.0
 40
2.0
  0
HATCH
  5
46
100
AcDbEntity
  8
0
  6
CONTINUOUS
 62
0
370
18
100
AcDbHatch
 10
0.0
 20
0.0
 30
0.0
210
0.0
220
0.0
230
1.0
  2
SOLID
 70
1
 71
1
 91
1
 92
3
 72
0
 73
1
 93
4
 10
-1.7
 20
1.0
 10
1.7
 20
1.0
 10
0.0
 20
-2.0
 10
-1.7
 20
0.9
 97
0
 75
0
 76
1
 98
0
  0
POLYLINE
  5
47
100
AcDbEntity
  8
0
  6
CONTINUOUS
 62
0
370
18
100
AcDb2dPolyline
 66
1
 70
129
  0
VERTEX
  5
48
100
AcDbEntity
  8
0
100
AcDbVertex
100
AcDb2dVertex
 10
-1.7
 20
1.0
  0
VERTEX
  5
49
100
AcDbEntity
  8
0
100
AcDbVertex
100
AcDb2dVertex
 10
1.7
 20
1.0
  0
VERTEX
  5
4A
100
AcDbEntity
  8
0
100
AcDbVertex
100
AcDb2dVertex
 10
0.0
 20
-2.0
  0
VERTEX
  5
4B
100
AcDbEntity
  8
0
100
AcDbVertex
100
AcDb2dVertex
 10
-1.7
 20
0.9
  0
SEQEND
  5
4C
100
AcDbEntity
  8
0
  0
WIPEOUT
  5
4D
100
AcDbEntity
  8
0
  6
CONTINUOUS
 62
0
370
18
100
AcDbWipeout
 90
0
 10
-0.22360679775
 20
-0.22360679775
 30
0.0
 11
0.4472135955
 21
0.0
 31
0.0
 12
0.0
 22
0.4472135955
 32
0.0
 13
1.0
 23
1.0
 70
7
280
1
281
100
282
100
283
0
 71
2
 91
13
 14
0.0
 24
0.5
 14
0.25
 24
0.433012701892
 14
0.433012701892
 24
0.25
 14
0.5
 24
0.0
 14
0.433012701892
 24
-0.25
 14
0.25
 24
-0.433012701892
 14
0.0
 24
-0.5
 14
-0.25
 24
-0.433012701892
 14
-0.433012701892
 24
-0.25
 14
-0.5
 24
0.0
 14
-0.433012701892
 24
0.25
 14
-0.25
 24
0.433012701892
 14
0.0
 24
0.5
  0
ENDBLK
  5
4E
100
AcDbEntity
  8
0
100
AcDbBlockEnd
  0
BLOCK
  5
33
100
AcDbEntity
  8
0
100
AcDbBlockBegin
 62
0
370
13
  2
L_0_02_1
 70
0
 10
0
 20
0
 30
0
  3
L_0_02_1
  0
POINT
  5
4F
100
AcDbEntity
  8
0
100
AcDbPoint
 62
0
 10
0.0
 20
0.0
 30
0.00
  0
ENDBLK
  5
50
100
AcDbEntity
  8
0
100
AcDbBlockEnd
  0
BLOCK
  5
35
100
AcDbEntity
  8
0
100
AcDbBlockBegin
 62
0
370
13
  2
L_0_02_2
 70
0
 10
0
 20
0
 30
0
  3
L_0_02_2
  0
POINT
  5
51
100
AcDbEntity
  8
0
100
AcDbPoint
 62
0
 10
-0.0
 20
-0.0
 30
0.00
  0
ENDBLK
  5
52
100
AcDbEntity
  8
0
100
AcDbBlockEnd
  0
ENDSEC
  0
SECTION
  2
ENTITIES
  0
POLYLINE
  5
53
100
AcDbEntity
  8
siatka
  6
CONTINUOUS
 62
7
370
13
100
AcDb2dPolyline
 66
1
 70
128
  0
VERTEX
  5
54
100
AcDbEntity
  8
siatka
100
AcDbVertex
100
AcDb2dVertex
 10
7565847.5
 20
5722650.0
  0
VERTEX
  5
55
100
AcDbEntity
  8
siatka
100
AcDbVertex
100
AcDb2dVertex
 10
7565852.5
 20
5722650.0
  0
SEQEND
  5
56
100
AcDbEntity
  8
siatka
  0
POLYLINE
  5
57
100
AcDbEntity
  8
siatka
  6
CONTINUOUS
 62
7
370
13
100
AcDb2dPolyline
 66
1
 70
128
  0
VERTEX
  5
58
100
AcDbEntity
  8
siatka
100
AcDbVertex
100
AcDb2dVertex
 10
7565850.0
 20
5722647.5
  0
VERTEX
  5
59
100
AcDbEntity
  8
siatka
100
AcDbVertex
100
AcDb2dVertex
 10
7565850.0
 20
5722652.5
  0
SEQEND
  5
5A
100
AcDbEntity
  8
siatka
  0
POLYLINE
  5
5B
100
AcDbEntity
  8
siatka
  6
CONTINUOUS
 62
7
370
13
100
AcDb2dPolyline
 66
1
 70
128
  0
VERTEX
  5
5C
100
AcDbEntity
  8
siatka
100
AcDbVertex
100
AcDb2dVertex
 10
7565897.5
 20
5722650.0
  0
VERTEX
  5
5D
100
AcDbEntity
  8
siatka
100
AcDbVertex
100
AcDb2dVertex
 10
7565902.5
 20
5722650.0
  0
SEQEND
  5
5E
100
AcDbEntity
  8
siatka
  0
POLYLINE
  5
5F
100
AcDbEntity
  8
siatka
  6
CONTINUOUS
 62
7
370
13
100
AcDb2dPolyline
 66
1
 70
128
  0
VERTEX
  5
60
100
AcDbEntity
  8
siatka
100
AcDbVertex
100
AcDb2dVertex
 10
7565900.0
 20
5722647.5
  0
VERTEX
  5
61
100
AcDbEntity
  8
siatka
100
AcDbVertex
100
AcDb2dVertex
 10
7565900.0
 20
5722652.5
  0
SEQEND
  5
62
100
AcDbEntity
  8
siatka
  0
POLYLINE
  5
63
100
AcDbEntity
  8
siatka
  6
CONTINUOUS
 62
7
370
13
100
AcDb2dPolyline
 66
1
 70
128
  0
VERTEX
  5
64
100
AcDbEntity
  8
siatka
100
AcDbVertex
100
AcDb2dVertex
 10
7565947.5
 20
5722650.0
  0
VERTEX
  5
65
100
AcDbEntity
  8
siatka
100
AcDbVertex
100
AcDb2dVertex
 10
7565952.5
 20
5722650.0
  0
SEQEND
  5
66
100
AcDbEntity
  8
siatka
  0
POLYLINE
  5
67
100
AcDbEntity
  8
siatka
  6
CONTINUOUS
 62
7
370
13
100
AcDb2dPolyline
 66
1
 70
128
  0
VERTEX
  5
68
100
AcDbEntity
  8
siatka
100
AcDbVertex
100
AcDb2dVertex
 10
7565950.0
 20
5722647.5
  0
VERTEX
  5
69
100
AcDbEntity
  8
siatka
100
AcDbVertex
100
AcDb2dVertex
 10
7565950.0
 20
5722652.5
  0
SEQEND
  5
6A
100
AcDbEntity
  8
siatka
  0
POLYLINE
  5
6B
100
AcDbEntity
  8
siatka
  6
CONTINUOUS
 62
7
370
13
100
AcDb2dPolyline
 66
1
 70
128
  0
VERTEX
  5
6C
100
AcDbEntity
  8
siatka
100
AcDbVertex
100
AcDb2dVertex
 10
7565997.5
 20
5722650.0
  0
VERTEX
  5
6D
100
AcDbEntity
  8
siatka
100
AcDbVertex
100
AcDb2dVertex
 10
7566002.5
 20
5722650.0
  0
SEQEND
  5
6E
100
AcDbEntity
  8
siatka
  0
POLYLINE
  5
6F
100
AcDbEntity
  8
siatka
  6
CONTINUOUS
 62
7
370
13
100
AcDb2dPolyline
 66
1
 70
128
  0
VERTEX
  5
70
100
AcDbEntity
  8
siatka
100
AcDbVertex
100
AcDb2dVertex
 10
7566000.0
 20
5722647.5
  0
VERTEX
  5
71
100
AcDbEntity
  8
siatka
100
AcDbVertex
100
AcDb2dVertex
 10
7566000.0
 20
5722652.5
  0
SEQEND
  5
72
100
AcDbEntity
  8
siatka
  0
POLYLINE
  5
73
100
AcDbEntity
  8
siatka
  6
CONTINUOUS
 62
7
370
13
100
AcDb2dPolyline
 66
1
 70
128
  0
VERTEX
  5
74
100
AcDbEntity
  8
siatka
100
AcDbVertex
100
AcDb2dVertex
 10
7565847.5
 20
5722699.99999999936
  0
VERTEX
  5
75
100
AcDbEntity
  8
siatka
100
AcDbVertex
100
AcDb2dVertex
 10
7565852.5
 20
5722699.99999999936
  0
SEQEND
  5
76
100
AcDbEntity
  8
siatka
  0
POLYLINE
  5
77
100
AcDbEntity
  8
siatka
  6
CONTINUOUS
 62
7
370
13
100
AcDb2dPolyline
 66
1
 70
128
  0
VERTEX
  5
78
100
AcDbEntity
  8
siatka
100
AcDbVertex
100
AcDb2dVertex
 10
7565850.0
 20
5722697.5
  0
VERTEX
  5
79
100
AcDbEntity
  8
siatka
100
AcDbVertex
100
AcDb2dVertex
 10
7565850.0
 20
5722702.49999999936
  0
SEQEND
  5
7A
100
AcDbEntity
  8
siatka
  0
POLYLINE
  5
7B
100
AcDbEntity
  8
siatka
  6
CONTINUOUS
 62
7
370
13
100
AcDb2dPolyline
 66
1
 70
128
  0
VERTEX
  5
7C
100
AcDbEntity
  8
siatka
100
AcDbVertex
100
AcDb2dVertex
 10
7565897.5
 20
5722699.99999999936
  0
VERTEX
  5
7D
100
AcDbEntity
  8
siatka
100
AcDbVertex
100
AcDb2dVertex
 10
7565902.5
 20
5722699.99999999936
  0
SEQEND
  5
7E
100
AcDbEntity
  8
siatka
  0
POLYLINE
  5
7F
100
AcDbEntity
  8
siatka
  6
CONTINUOUS
 62
7
370
13
100
AcDb2dPolyline
 66
1
 70
128
  0
VERTEX
  5
80
100
AcDbEntity
  8
siatka
100
AcDbVertex
100
AcDb2dVertex
 10
7565900.0
 20
5722697.5
  0
VERTEX
  5
81
100
AcDbEntity
  8
siatka
100
AcDbVertex
100
AcDb2dVertex
 10
7565900.0
 20
5722702.49999999936
  0
SEQEND
  5
82
100
AcDbEntity
  8
siatka
  0
POLYLINE
  5
83
100
AcDbEntity
  8
siatka
  6
CONTINUOUS
 62
7
370
13
100
AcDb2dPolyline
 66
1
 70
128
  0
VERTEX
  5
84
100
AcDbEntity
  8
siatka
100
AcDbVertex
100
AcDb2dVertex
 10
7565947.5
 20
5722699.99999999936
  0
VERTEX
  5
85
100
AcDbEntity
  8
siatka
100
AcDbVertex
100
AcDb2dVertex
 10
7565952.5
 20
5722699.99999999936
  0
SEQEND
  5
86
100
AcDbEntity
  8
siatka
  0
POLYLINE
  5
87
100
AcDbEntity
  8
siatka
  6
CONTINUOUS
 62
7
370
13
100
AcDb2dPolyline
 66
1
 70
128
  0
VERTEX
  5
88
100
AcDbEntity
  8
siatka
100
AcDbVertex
100
AcDb2dVertex
 10
7565950.0
 20
5722697.5
  0
VERTEX
  5
89
100
AcDbEntity
  8
siatka
100
AcDbVertex
100
AcDb2dVertex
 10
7565950.0
 20
5722702.49999999936
  0
SEQEND
  5
8A
100
AcDbEntity
  8
siatka
  0
POLYLINE
  5
8B
100
AcDbEntity
  8
siatka
  6
CONTINUOUS
 62
7
370
13
100
AcDb2dPolyline
 66
1
 70
128
  0
VERTEX
  5
8C
100
AcDbEntity
  8
siatka
100
AcDbVertex
100
AcDb2dVertex
 10
7565997.5
 20
5722699.99999999936
  0
VERTEX
  5
8D
100
AcDbEntity
  8
siatka
100
AcDbVertex
100
AcDb2dVertex
 10
7566002.5
 20
5722699.99999999936
  0
SEQEND
  5
8E
100
AcDbEntity
  8
siatka
  0
POLYLINE
  5
8F
100
AcDbEntity
  8
siatka
  6
CONTINUOUS
 62
7
370
13
100
AcDb2dPolyline
 66
1
 70
128
  0
VERTEX
  5
90
100
AcDbEntity
  8
siatka
100
AcDbVertex
100
AcDb2dVertex
 10
7566000.0
 20
5722697.5
  0
VERTEX
  5
91
100
AcDbEntity
  8
siatka
100
AcDbVertex
100
AcDb2dVertex
 10
7566000.0
 20
5722702.49999999936
  0
SEQEND
  5
92
100
AcDbEntity
  8
siatka
  0
POLYLINE
  5
93
100
AcDbEntity
  8
siatka
  6
CONTINUOUS
 62
7
370
13
100
AcDb2dPolyline
 66
1
 70
128
  0
VERTEX
  5
94
100
AcDbEntity
  8
siatka
100
AcDbVertex
100
AcDb2dVertex
 10
7565847.5
 20
5722749.99999999936
  0
VERTEX
  5
95
100
AcDbEntity
  8
siatka
100
AcDbVertex
100
AcDb2dVertex
 10
7565852.5
 20
5722749.99999999936
  0
SEQEND
  5
96
100
AcDbEntity
  8
siatka
  0
POLYLINE
  5
97
100
AcDbEntity
  8
siatka
  6
CONTINUOUS
 62
7
370
13
100
AcDb2dPolyline
 66
1
 70
128
  0
VERTEX
  5
98
100
AcDbEntity
  8
siatka
100
AcDbVertex
100
AcDb2dVertex
 10
7565850.0
 20
5722747.49999999936
  0
VERTEX
  5
99
100
AcDbEntity
  8
siatka
100
AcDbVertex
100
AcDb2dVertex
 10
7565850.0
 20
5722752.50000000064
  0
SEQEND
  5
9A
100
AcDbEntity
  8
siatka
  0
POLYLINE
  5
9B
100
AcDbEntity
  8
siatka
  6
CONTINUOUS
 62
7
370
13
100
AcDb2dPolyline
 66
1
 70
128
  0
VERTEX
  5
9C
100
AcDbEntity
  8
siatka
100
AcDbVertex
100
AcDb2dVertex
 10
7565897.5
 20
5722749.99999999936
  0
VERTEX
  5
9D
100
AcDbEntity
  8
siatka
100
AcDbVertex
100
AcDb2dVertex
 10
7565902.5
 20
5722749.99999999936
  0
SEQEND
  5
9E
100
AcDbEntity
  8
siatka
  0
POLYLINE
  5
9F
100
AcDbEntity
  8
siatka
  6
CONTINUOUS
 62
7
370
13
100
AcDb2dPolyline
 66
1
 70
128
  0
VERTEX
  5
A0
100
AcDbEntity
  8
siatka
100
AcDbVertex
100
AcDb2dVertex
 10
7565900.0
 20
5722747.49999999936
  0
VERTEX
  5
A1
100
AcDbEntity
  8
siatka
100
AcDbVertex
100
AcDb2dVertex
 10
7565900.0
 20
5722752.50000000064
  0
SEQEND
  5
A2
100
AcDbEntity
  8
siatka
  0
POLYLINE
  5
A3
100
AcDbEntity
  8
siatka
  6
CONTINUOUS
 62
7
370
13
100
AcDb2dPolyline
 66
1
 70
128
  0
VERTEX
  5
A4
100
AcDbEntity
  8
siatka
100
AcDbVertex
100
AcDb2dVertex
 10
7565947.5
 20
5722749.99999999936
  0
VERTEX
  5
A5
100
AcDbEntity
  8
siatka
100
AcDbVertex
100
AcDb2dVertex
 10
7565952.5
 20
5722749.99999999936
  0
SEQEND
  5
A6
100
AcDbEntity
  8
siatka
  0
POLYLINE
  5
A7
100
AcDbEntity
  8
siatka
  6
CONTINUOUS
 62
7
370
13
100
AcDb2dPolyline
 66
1
 70
128
  0
VERTEX
  5
A8
100
AcDbEntity
  8
siatka
100
AcDbVertex
100
AcDb2dVertex
 10
7565950.0
 20
5722747.49999999936
  0
VERTEX
  5
A9
100
AcDbEntity
  8
siatka
100
AcDbVertex
100
AcDb2dVertex
 10
7565950.0
 20
5722752.50000000064
  0
SEQEND
  5
AA
100
AcDbEntity
  8
siatka
  0
POLYLINE
  5
AB
100
AcDbEntity
  8
siatka
  6
CONTINUOUS
 62
7
370
13
100
AcDb2dPolyline
 66
1
 70
128
  0
VERTEX
  5
AC
100
AcDbEntity
  8
siatka
100
AcDbVertex
100
AcDb2dVertex
 10
7565997.5
 20
5722749.99999999936
  0
VERTEX
  5
AD
100
AcDbEntity
  8
siatka
100
AcDbVertex
100
AcDb2dVertex
 10
7566002.5
 20
5722749.99999999936
  0
SEQEND
  5
AE
100
AcDbEntity
  8
siatka
  0
POLYLINE
  5
AF
100
AcDbEntity
  8
siatka
  6
CONTINUOUS
 62
7
370
13
100
AcDb2dPolyline
 66
1
 70
128
  0
VERTEX
  5
B0
100
AcDbEntity
  8
siatka
100
AcDbVertex
100
AcDb2dVertex
 10
7566000.0
 20
5722747.49999999936
  0
VERTEX
  5
B1
100
AcDbEntity
  8
siatka
100
AcDbVertex
100
AcDb2dVertex
 10
7566000.0
 20
5722752.50000000064
  0
SEQEND
  5
B2
100
AcDbEntity
  8
siatka
  0
POLYLINE
  5
B3
100
AcDbEntity
  8
siatka
  6
CONTINUOUS
 62
7
370
13
100
AcDb2dPolyline
 66
1
 70
128
  0
VERTEX
  5
B4
100
AcDbEntity
  8
siatka
100
AcDbVertex
100
AcDb2dVertex
 10
7565847.5
 20
5722800.00000000064
  0
VERTEX
  5
B5
100
AcDbEntity
  8
siatka
100
AcDbVertex
100
AcDb2dVertex
 10
7565852.5
 20
5722800.00000000064
  0
SEQEND
  5
B6
100
AcDbEntity
  8
siatka
  0
POLYLINE
  5
B7
100
AcDbEntity
  8
siatka
  6
CONTINUOUS
 62
7
370
13
100
AcDb2dPolyline
 66
1
 70
128
  0
VERTEX
  5
B8
100
AcDbEntity
  8
siatka
100
AcDbVertex
100
AcDb2dVertex
 10
7565850.0
 20
5722797.50000000064
  0
VERTEX
  5
B9
100
AcDbEntity
  8
siatka
100
AcDbVertex
100
AcDb2dVertex
 10
7565850.0
 20
5722802.5
  0
SEQEND
  5
BA
100
AcDbEntity
  8
siatka
  0
POLYLINE
  5
BB
100
AcDbEntity
  8
siatka
  6
CONTINUOUS
 62
7
370
13
100
AcDb2dPolyline
 66
1
 70
128
  0
VERTEX
  5
BC
100
AcDbEntity
  8
siatka
100
AcDbVertex
100
AcDb2dVertex
 10
7565897.5
 20
5722800.00000000064
  0
VERTEX
  5
BD
100
AcDbEntity
  8
siatka
100
AcDbVertex
100
AcDb2dVertex
 10
7565902.5
 20
5722800.00000000064
  0
SEQEND
  5
BE
100
AcDbEntity
  8
siatka
  0
POLYLINE
  5
BF
100
AcDbEntity
  8
siatka
  6
CONTINUOUS
 62
7
370
13
100
AcDb2dPolyline
 66
1
 70
128
  0
VERTEX
  5
C0
100
AcDbEntity
  8
siatka
100
AcDbVertex
100
AcDb2dVertex
 10
7565900.0
 20
5722797.50000000064
  0
VERTEX
  5
C1
100
AcDbEntity
  8
siatka
100
AcDbVertex
100
AcDb2dVertex
 10
7565900.0
 20
5722802.5
  0
SEQEND
  5
C2
100
AcDbEntity
  8
siatka
  0
POLYLINE
  5
C3
100
AcDbEntity
  8
siatka
  6
CONTINUOUS
 62
7
370
13
100
AcDb2dPolyline
 66
1
 70
128
  0
VERTEX
  5
C4
100
AcDbEntity
  8
siatka
100
AcDbVertex
100
AcDb2dVertex
 10
7565947.5
 20
5722800.00000000064
  0
VERTEX
  5
C5
100
AcDbEntity
  8
siatka
100
AcDbVertex
100
AcDb2dVertex
 10
7565952.5
 20
5722800.00000000064
  0
SEQEND
  5
C6
100
AcDbEntity
  8
siatka
  0
POLYLINE
  5
C7
100
AcDbEntity
  8
siatka
  6
CONTINUOUS
 62
7
370
13
100
AcDb2dPolyline
 66
1
 70
128
  0
VERTEX
  5
C8
100
AcDbEntity
  8
siatka
100
AcDbVertex
100
AcDb2dVertex
 10
7565950.0
 20
5722797.50000000064
  0
VERTEX
  5
C9
100
AcDbEntity
  8
siatka
100
AcDbVertex
100
AcDb2dVertex
 10
7565950.0
 20
5722802.5
  0
SEQEND
  5
CA
100
AcDbEntity
  8
siatka
  0
POLYLINE
  5
CB
100
AcDbEntity
  8
siatka
  6
CONTINUOUS
 62
7
370
13
100
AcDb2dPolyline
 66
1
 70
128
  0
VERTEX
  5
CC
100
AcDbEntity
  8
siatka
100
AcDbVertex
100
AcDb2dVertex
 10
7565997.5
 20
5722800.00000000064
  0
VERTEX
  5
CD
100
AcDbEntity
  8
siatka
100
AcDbVertex
100
AcDb2dVertex
 10
7566002.5
 20
5722800.00000000064
  0
SEQEND
  5
CE
100
AcDbEntity
  8
siatka
  0
POLYLINE
  5
CF
100
AcDbEntity
  8
siatka
  6
CONTINUOUS
 62
7
370
13
100
AcDb2dPolyline
 66
1
 70
128
  0
VERTEX
  5
D0
100
AcDbEntity
  8
siatka
100
AcDbVertex
100
AcDb2dVertex
 10
7566000.0
 20
5722797.50000000064
  0
VERTEX
  5
D1
100
AcDbEntity
  8
siatka
100
AcDbVertex
100
AcDb2dVertex
 10
7566000.0
 20
5722802.5
  0
SEQEND
  5
D2
100
AcDbEntity
  8
siatka
  0
POLYLINE
  5
D3
100
AcDbEntity
  8
siatka
  6
CONTINUOUS
 62
7
370
13
100
AcDb2dPolyline
 66
1
 70
128
  0
VERTEX
  5
D4
100
AcDbEntity
  8
siatka
100
AcDbVertex
100
AcDb2dVertex
 10
7565847.5
 20
5722850.0
  0
VERTEX
  5
D5
100
AcDbEntity
  8
siatka
100
AcDbVertex
100
AcDb2dVertex
 10
7565852.5
 20
5722850.0
  0
SEQEND
  5
D6
100
AcDbEntity
  8
siatka
  0
POLYLINE
  5
D7
100
AcDbEntity
  8
siatka
  6
CONTINUOUS
 62
7
370
13
100
AcDb2dPolyline
 66
1
 70
128
  0
VERTEX
  5
D8
100
AcDbEntity
  8
siatka
100
AcDbVertex
100
AcDb2dVertex
 10
7565850.0
 20
5722847.5
  0
VERTEX
  5
D9
100
AcDbEntity
  8
siatka
100
AcDbVertex
100
AcDb2dVertex
 10
7565850.0
 20
5722852.5
  0
SEQEND
  5
DA
100
AcDbEntity
  8
siatka
  0
POLYLINE
  5
DB
100
AcDbEntity
  8
siatka
  6
CONTINUOUS
 62
7
370
13
100
AcDb2dPolyline
 66
1
 70
128
  0
VERTEX
  5
DC
100
AcDbEntity
  8
siatka
100
AcDbVertex
100
AcDb2dVertex
 10
7565897.5
 20
5722850.0
  0
VERTEX
  5
DD
100
AcDbEntity
  8
siatka
100
AcDbVertex
100
AcDb2dVertex
 10
7565902.5
 20
5722850.0
  0
SEQEND
  5
DE
100
AcDbEntity
  8
siatka
  0
POLYLINE
  5
DF
100
AcDbEntity
  8
siatka
  6
CONTINUOUS
 62
7
370
13
100
AcDb2dPolyline
 66
1
 70
128
  0
VERTEX
  5
E0
100
AcDbEntity
  8
siatka
100
AcDbVertex
100
AcDb2dVertex
 10
7565900.0
 20
5722847.5
  0
VERTEX
  5
E1
100
AcDbEntity
  8
siatka
100
AcDbVertex
100
AcDb2dVertex
 10
7565900.0
 20
5722852.5
  0
SEQEND
  5
E2
100
AcDbEntity
  8
siatka
  0
POLYLINE
  5
E3
100
AcDbEntity
  8
siatka
  6
CONTINUOUS
 62
7
370
13
100
AcDb2dPolyline
 66
1
 70
128
  0
VERTEX
  5
E4
100
AcDbEntity
  8
siatka
100
AcDbVertex
100
AcDb2dVertex
 10
7565947.5
 20
5722850.0
  0
VERTEX
  5
E5
100
AcDbEntity
  8
siatka
100
AcDbVertex
100
AcDb2dVertex
 10
7565952.5
 20
5722850.0
  0
SEQEND
  5
E6
100
AcDbEntity
  8
siatka
  0
POLYLINE
  5
E7
100
AcDbEntity
  8
siatka
  6
CONTINUOUS
 62
7
370
13
100
AcDb2dPolyline
 66
1
 70
128
  0
VERTEX
  5
E8
100
AcDbEntity
  8
siatka
100
AcDbVertex
100
AcDb2dVertex
 10
7565950.0
 20
5722847.5
  0
VERTEX
  5
E9
100
AcDbEntity
  8
siatka
100
AcDbVertex
100
AcDb2dVertex
 10
7565950.0
 20
5722852.5
  0
SEQEND
  5
EA
100
AcDbEntity
  8
siatka
  0
POLYLINE
  5
EB
100
AcDbEntity
  8
siatka
  6
CONTINUOUS
 62
7
370
13
100
AcDb2dPolyline
 66
1
 70
128
  0
VERTEX
  5
EC
100
AcDbEntity
  8
siatka
100
AcDbVertex
100
AcDb2dVertex
 10
7565997.5
 20
5722850.0
  0
VERTEX
  5
ED
100
AcDbEntity
  8
siatka
100
AcDbVertex
100
AcDb2dVertex
 10
7566002.5
 20
5722850.0
  0
SEQEND
  5
EE
100
AcDbEntity
  8
siatka
  0
POLYLINE
  5
EF
100
AcDbEntity
  8
siatka
  6
CONTINUOUS
 62
7
370
13
100
AcDb2dPolyline
 66
1
 70
128
  0
VERTEX
  5
F0
100
AcDbEntity
  8
siatka
100
AcDbVertex
100
AcDb2dVertex
 10
7566000.0
 20
5722847.5
  0
VERTEX
  5
F1
100
AcDbEntity
  8
siatka
100
AcDbVertex
100
AcDb2dVertex
 10
7566000.0
 20
5722852.5
  0
SEQEND
  5
F2
100
AcDbEntity
  8
siatka
  0
POLYLINE
  5
F3
100
AcDbEntity
  8
siatka
  6
CONTINUOUS
 62
7
370
13
100
AcDb2dPolyline
 66
1
 70
128
  0
VERTEX
  5
F4
100
AcDbEntity
  8
siatka
100
AcDbVertex
100
AcDb2dVertex
 10
7565847.5
 20
5722900.0
  0
VERTEX
  5
F5
100
AcDbEntity
  8
siatka
100
AcDbVertex
100
AcDb2dVertex
 10
7565852.5
 20
5722900.0
  0
SEQEND
  5
F6
100
AcDbEntity
  8
siatka
  0
POLYLINE
  5
F7
100
AcDbEntity
  8
siatka
  6
CONTINUOUS
 62
7
370
13
100
AcDb2dPolyline
 66
1
 70
128
  0
VERTEX
  5
F8
100
AcDbEntity
  8
siatka
100
AcDbVertex
100
AcDb2dVertex
 10
7565850.0
 20
5722897.5
  0
VERTEX
  5
F9
100
AcDbEntity
  8
siatka
100
AcDbVertex
100
AcDb2dVertex
 10
7565850.0
 20
5722902.5
  0
SEQEND
  5
FA
100
AcDbEntity
  8
siatka
  0
POLYLINE
  5
FB
100
AcDbEntity
  8
siatka
  6
CONTINUOUS
 62
7
370
13
100
AcDb2dPolyline
 66
1
 70
128
  0
VERTEX
  5
FC
100
AcDbEntity
  8
siatka
100
AcDbVertex
100
AcDb2dVertex
 10
7565897.5
 20
5722900.0
  0
VERTEX
  5
FD
100
AcDbEntity
  8
siatka
100
AcDbVertex
100
AcDb2dVertex
 10
7565902.5
 20
5722900.0
  0
SEQEND
  5
FE
100
AcDbEntity
  8
siatka
  0
POLYLINE
  5
FF
100
AcDbEntity
  8
siatka
  6
CONTINUOUS
 62
7
370
13
100
AcDb2dPolyline
 66
1
 70
128
  0
VERTEX
  5
100
100
AcDbEntity
  8
siatka
100
AcDbVertex
100
AcDb2dVertex
 10
7565900.0
 20
5722897.5
  0
VERTEX
  5
101
100
AcDbEntity
  8
siatka
100
AcDbVertex
100
AcDb2dVertex
 10
7565900.0
 20
5722902.5
  0
SEQEND
  5
102
100
AcDbEntity
  8
siatka
  0
POLYLINE
  5
103
100
AcDbEntity
  8
siatka
  6
CONTINUOUS
 62
7
370
13
100
AcDb2dPolyline
 66
1
 70
128
  0
VERTEX
  5
104
100
AcDbEntity
  8
siatka
100
AcDbVertex
100
AcDb2dVertex
 10
7565947.5
 20
5722900.0
  0
VERTEX
  5
105
100
AcDbEntity
  8
siatka
100
AcDbVertex
100
AcDb2dVertex
 10
7565952.5
 20
5722900.0
  0
SEQEND
  5
106
100
AcDbEntity
  8
siatka
  0
POLYLINE
  5
107
100
AcDbEntity
  8
siatka
  6
CONTINUOUS
 62
7
370
13
100
AcDb2dPolyline
 66
1
 70
128
  0
VERTEX
  5
108
100
AcDbEntity
  8
siatka
100
AcDbVertex
100
AcDb2dVertex
 10
7565950.0
 20
5722897.5
  0
VERTEX
  5
109
100
AcDbEntity
  8
siatka
100
AcDbVertex
100
AcDb2dVertex
 10
7565950.0
 20
5722902.5
  0
SEQEND
  5
10A
100
AcDbEntity
  8
siatka
  0
POLYLINE
  5
10B
100
AcDbEntity
  8
siatka
  6
CONTINUOUS
 62
7
370
13
100
AcDb2dPolyline
 66
1
 70
128
  0
VERTEX
  5
10C
100
AcDbEntity
  8
siatka
100
AcDbVertex
100
AcDb2dVertex
 10
7565997.5
 20
5722900.0
  0
VERTEX
  5
10D
100
AcDbEntity
  8
siatka
100
AcDbVertex
100
AcDb2dVertex
 10
7566002.5
 20
5722900.0
  0
SEQEND
  5
10E
100
AcDbEntity
  8
siatka
  0
POLYLINE
  5
10F
100
AcDbEntity
  8
siatka
  6
CONTINUOUS
 62
7
370
13
100
AcDb2dPolyline
 66
1
 70
128
  0
VERTEX
  5
110
100
AcDbEntity
  8
siatka
100
AcDbVertex
100
AcDb2dVertex
 10
7566000.0
 20
5722897.5
  0
VERTEX
  5
111
100
AcDbEntity
  8
siatka
100
AcDbVertex
100
AcDb2dVertex
 10
7566000.0
 20
5722902.5
  0
SEQEND
  5
112
100
AcDbEntity
  8
siatka
  0
POLYLINE
  5
113
100
AcDbEntity
  8
ARKUSZ_A3
  6
CONTINUOUS
370
13
100
AcDb2dPolyline
 66
1
 70
129
  0
VERTEX
  5
114
100
AcDbEntity
  8
ARKUSZ_A3
100
AcDbVertex
100
AcDb2dVertex
 10
7565830.90631579008
 20
5722915.24743232896
  0
VERTEX
  5
115
100
AcDbEntity
  8
ARKUSZ_A3
100
AcDbVertex
100
AcDb2dVertex
 10
7565979.39048245632
 20
5722915.24743232896
  0
VERTEX
  5
116
100
AcDbEntity
  8
ARKUSZ_A3
100
AcDbVertex
100
AcDb2dVertex
 10
7565979.39048245632
 20
5722705.2529323296
  0
VERTEX
  5
117
100
AcDbEntity
  8
ARKUSZ_A3
100
AcDbVertex
100
AcDb2dVertex
 10
7565830.90631579008
 20
5722705.2529323296
  0
SEQEND
  5
118
100
AcDbEntity
  8
ARKUSZ_A3
  0
POLYLINE
  5
119
100
AcDbEntity
  8
Dzialki
  6
CONTINUOUS
370
18
100
AcDb2dPolyline
 66
1
 70
128
  0
VERTEX
  5
11A
100
AcDbEntity
  8
Dzialki
100
AcDbVertex
100
AcDb2dVertex
 10
7565910.25
 20
5722846.43
  0
VERTEX
  5
11B
100
AcDbEntity
  8
Dzialki
100
AcDbVertex
100
AcDb2dVertex
 10
7565889.7
 20
5722891.24
  0
SEQEND
  5
11C
100
AcDbEntity
  8
Dzialki
  0
POLYLINE
  5
11D
100
AcDbEntity
  8
Dzialki
  6
CONTINUOUS
370
18
100
AcDb2dPolyline
 66
1
 70
128
  0
VERTEX
  5
11E
100
AcDbEntity
  8
Dzialki
100
AcDbVertex
100
AcDb2dVertex
 10
7565871.2
 20
5722882.88999999936
  0
VERTEX
  5
11F
100
AcDbEntity
  8
Dzialki
100
AcDbVertex
100
AcDb2dVertex
 10
7565891.79
 20
5722838.08
  0
SEQEND
  5
120
100
AcDbEntity
  8
Dzialki
  0
POLYLINE
  5
121
100
AcDbEntity
  8
Dzialki
  6
CONTINUOUS
370
18
100
AcDb2dPolyline
 66
1
 70
128
  0
VERTEX
  5
122
100
AcDbEntity
  8
Dzialki
100
AcDbVertex
100
AcDb2dVertex
 10
7565891.79
 20
5722838.08
  0
VERTEX
  5
123
100
AcDbEntity
  8
Dzialki
100
AcDbVertex
100
AcDb2dVertex
 10
7565910.25
 20
5722846.43
  0
SEQEND
  5
124
100
AcDbEntity
  8
Dzialki
  0
POLYLINE
  5
125
100
AcDbEntity
  8
Dzialki
  6
CONTINUOUS
370
18
100
AcDb2dPolyline
 66
1
 70
128
  0
VERTEX
  5
126
100
AcDbEntity
  8
Dzialki
100
AcDbVertex
100
AcDb2dVertex
 10
7565935.93999999872
 20
5722802.39999999936
  0
VERTEX
  5
127
100
AcDbEntity
  8
Dzialki
100
AcDbVertex
100
AcDb2dVertex
 10
7565894.25999999872
 20
5722893.3
  0
SEQEND
  5
128
100
AcDbEntity
  8
Dzialki
  0
POLYLINE
  5
129
100
AcDbEntity
  8
Dzialki
  6
CONTINUOUS
370
18
100
AcDb2dPolyline
 66
1
 70
128
  0
VERTEX
  5
12A
100
AcDbEntity
  8
Dzialki
100
AcDbVertex
100
AcDb2dVertex
 10
7565910.25
 20
5722846.43
  0
VERTEX
  5
12B
100
AcDbEntity
  8
Dzialki
100
AcDbVertex
100
AcDb2dVertex
 10
7565920.82
 20
5722823.38999999936
  0
SEQEND
  5
12C
100
AcDbEntity
  8
Dzialki
  0
POLYLINE
  5
12D
100
AcDbEntity
  8
Dzialki
  6
CONTINUOUS
370
18
100
AcDb2dPolyline
 66
1
 70
128
  0
VERTEX
  5
12E
100
AcDbEntity
  8
Dzialki
100
AcDbVertex
100
AcDb2dVertex
 10
7565920.82
 20
5722823.38999999936
  0
VERTEX
  5
12F
100
AcDbEntity
  8
Dzialki
100
AcDbVertex
100
AcDb2dVertex
 10
7565931.38999999872
 20
5722800.34
  0
SEQEND
  5
130
100
AcDbEntity
  8
Dzialki
  0
POLYLINE
  5
131
100
AcDbEntity
  8
Dzialki
  6
CONTINUOUS
370
18
100
AcDb2dPolyline
 66
1
 70
128
  0
VERTEX
  5
132
100
AcDbEntity
  8
Dzialki
100
AcDbVertex
100
AcDb2dVertex
 10
7565931.38999999872
 20
5722800.34
  0
VERTEX
  5
133
100
AcDbEntity
  8
Dzialki
100
AcDbVertex
100
AcDb2dVertex
 10
7565935.93999999872
 20
5722802.39999999936
  0
SEQEND
  5
134
100
AcDbEntity
  8
Dzialki
  0
POLYLINE
  5
135
100
AcDbEntity
  8
Dzialki
  6
CONTINUOUS
370
18
100
AcDb2dPolyline
 66
1
 70
128
  0
VERTEX
  5
136
100
AcDbEntity
  8
Dzialki
100
AcDbVertex
100
AcDb2dVertex
 10
7565920.82
 20
5722823.38999999936
  0
VERTEX
  5
137
100
AcDbEntity
  8
Dzialki
100
AcDbVertex
100
AcDb2dVertex
 10
7565882.33
 20
5722805.99000000064
  0
SEQEND
  5
138
100
AcDbEntity
  8
Dzialki
  0
POLYLINE
  5
139
100
AcDbEntity
  8
Dzialki
  6
CONTINUOUS
370
18
100
AcDb2dPolyline
 66
1
 70
128
  0
VERTEX
  5
13A
100
AcDbEntity
  8
Dzialki
100
AcDbVertex
100
AcDb2dVertex
 10
7565882.33
 20
5722805.99000000064
  0
VERTEX
  5
13B
100
AcDbEntity
  8
Dzialki
100
AcDbVertex
100
AcDb2dVertex
 10
7565892.92
 20
5722782.96
  0
SEQEND
  5
13C
100
AcDbEntity
  8
Dzialki
  0
POLYLINE
  5
13D
100
AcDbEntity
  8
Dzialki
  6
CONTINUOUS
370
18
100
AcDb2dPolyline
 66
1
 70
128
  0
VERTEX
  5
13E
100
AcDbEntity
  8
Dzialki
100
AcDbVertex
100
AcDb2dVertex
 10
7565892.92
 20
5722782.96
  0
VERTEX
  5
13F
100
AcDbEntity
  8
Dzialki
100
AcDbVertex
100
AcDb2dVertex
 10
7565931.38999999872
 20
5722800.34
  0
SEQEND
  5
140
100
AcDbEntity
  8
Dzialki
  0
POLYLINE
  5
141
100
AcDbEntity
  8
Dzialki
  6
CONTINUOUS
370
18
100
AcDb2dPolyline
 66
1
 70
128
  0
VERTEX
  5
142
100
AcDbEntity
  8
Dzialki
100
AcDbVertex
100
AcDb2dVertex
 10
7566005.17999999872
 20
5722651.39999999936
  0
VERTEX
  5
143
100
AcDbEntity
  8
Dzialki
100
AcDbVertex
100
AcDb2dVertex
 10
7565935.93999999872
 20
5722802.39999999936
  0
SEQEND
  5
144
100
AcDbEntity
  8
Dzialki
  0
POLYLINE
  5
145
100
AcDbEntity
  8
Dzialki
  6
CONTINUOUS
370
18
100
AcDb2dPolyline
 66
1
 70
128
  0
VERTEX
  5
146
100
AcDbEntity
  8
Dzialki
100
AcDbVertex
100
AcDb2dVertex
 10
7565892.92
 20
5722782.96
  0
VERTEX
  5
147
100
AcDbEntity
  8
Dzialki
100
AcDbVertex
100
AcDb2dVertex
 10
7565934.75999999872
 20
5722691.89999999936
  0
SEQEND
  5
148
100
AcDbEntity
  8
Dzialki
  0
POLYLINE
  5
149
100
AcDbEntity
  8
Dzialki
  6
CONTINUOUS
370
18
100
AcDb2dPolyline
 66
1
 70
128
  0
VERTEX
  5
14A
100
AcDbEntity
  8
Dzialki
100
AcDbVertex
100
AcDb2dVertex
 10
7565878.71999999872
 20
5722813.84999999936
  0
VERTEX
  5
14B
100
AcDbEntity
  8
Dzialki
100
AcDbVertex
100
AcDb2dVertex
 10
7565871.75
 20
5722829.02
  0
SEQEND
  5
14C
100
AcDbEntity
  8
Dzialki
  0
POLYLINE
  5
14D
100
AcDbEntity
  8
Dzialki
  6
CONTINUOUS
370
18
100
AcDb2dPolyline
 66
1
 70
128
  0
VERTEX
  5
14E
100
AcDbEntity
  8
Dzialki
100
AcDbVertex
100
AcDb2dVertex
 10
7565871.75
 20
5722829.02
  0
VERTEX
  5
14F
100
AcDbEntity
  8
Dzialki
100
AcDbVertex
100
AcDb2dVertex
 10
7565864.51999999872
 20
5722844.75
  0
SEQEND
  5
150
100
AcDbEntity
  8
Dzialki
  0
POLYLINE
  5
151
100
AcDbEntity
  8
Dzialki
  6
CONTINUOUS
370
18
100
AcDb2dPolyline
 66
1
 70
128
  0
VERTEX
  5
152
100
AcDbEntity
  8
Dzialki
100
AcDbVertex
100
AcDb2dVertex
 10
7565840.49
 20
5722796.58
  0
VERTEX
  5
153
100
AcDbEntity
  8
Dzialki
100
AcDbVertex
100
AcDb2dVertex
 10
7565878.71999999872
 20
5722813.84999999936
  0
SEQEND
  5
154
100
AcDbEntity
  8
Dzialki
  0
POLYLINE
  5
155
100
AcDbEntity
  8
Dzialki
  6
CONTINUOUS
370
18
100
AcDb2dPolyline
 66
1
 70
128
  0
VERTEX
  5
156
100
AcDbEntity
  8
Dzialki
100
AcDbVertex
100
AcDb2dVertex
 10
7565882.33
 20
5722805.99000000064
  0
VERTEX
  5
157
100
AcDbEntity
  8
Dzialki
100
AcDbVertex
100
AcDb2dVertex
 10
7565878.71999999872
 20
5722813.84999999936
  0
SEQEND
  5
158
100
AcDbEntity
  8
Dzialki
  0
POLYLINE
  5
159
100
AcDbEntity
  8
Dzialki
  6
CONTINUOUS
370
18
100
AcDb2dPolyline
 66
1
 70
128
  0
VERTEX
  5
15A
100
AcDbEntity
  8
Dzialki
100
AcDbVertex
100
AcDb2dVertex
 10
7565854.71
 20
5722765.7
  0
VERTEX
  5
15B
100
AcDbEntity
  8
Dzialki
100
AcDbVertex
100
AcDb2dVertex
 10
7565892.92
 20
5722782.96
  0
SEQEND
  5
15C
100
AcDbEntity
  8
Dzialki
  0
POLYLINE
  5
15D
100
AcDbEntity
  8
Dzialki
  6
CONTINUOUS
370
18
100
AcDb2dPolyline
 66
1
 70
128
  0
VERTEX
  5
15E
100
AcDbEntity
  8
Dzialki
100
AcDbVertex
100
AcDb2dVertex
 10
7565871.75
 20
5722829.02
  0
VERTEX
  5
15F
100
AcDbEntity
  8
Dzialki
100
AcDbVertex
100
AcDb2dVertex
 10
7565891.79
 20
5722838.08
  0
SEQEND
  5
160
100
AcDbEntity
  8
Dzialki
  0
POLYLINE
  5
161
100
AcDbEntity
  8
EGBB_L_3
  6
CONTINUOUS
 62
7
370
18
100
AcDb2dPolyline
 66
1
 70
128
  0
VERTEX
  5
162
100
AcDbEntity
  8
EGBB_L_3
100
AcDbVertex
100
AcDb2dVertex
 10
7565899.42809999872
 20
5722846.759
  0
VERTEX
  5
163
100
AcDbEntity
  8
EGBB_L_3
100
AcDbVertex
100
AcDb2dVertex
 10
7565895.82359999872
 20
5722854.63149999872
  0
SEQEND
  5
164
100
AcDbEntity
  8
EGBB_L_3
  0
POLYLINE
  5
165
100
AcDbEntity
  8
EGBB_L_3
  6
CONTINUOUS
 62
7
370
18
100
AcDb2dPolyline
 66
1
 70
128
  0
VERTEX
  5
166
100
AcDbEntity
  8
EGBB_L_3
100
AcDbVertex
100
AcDb2dVertex
 10
7565895.82359999872
 20
5722854.63149999872
  0
VERTEX
  5
167
100
AcDbEntity
  8
EGBB_L_3
100
AcDbVertex
100
AcDb2dVertex
 10
7565901.23309999872
 20
5722857.0795
  0
SEQEND
  5
168
100
AcDbEntity
  8
EGBB_L_3
  0
POLYLINE
  5
169
100
AcDbEntity
  8
EGBB_L_3
  6
CONTINUOUS
 62
7
370
18
100
AcDb2dPolyline
 66
1
 70
128
  0
VERTEX
  5
16A
100
AcDbEntity
  8
EGBB_L_3
100
AcDbVertex
100
AcDb2dVertex
 10
7565901.23309999872
 20
5722857.0795
  0
VERTEX
  5
16B
100
AcDbEntity
  8
EGBB_L_3
100
AcDbVertex
100
AcDb2dVertex
 10
7565904.85509999872
 20
5722849.19
  0
SEQEND
  5
16C
100
AcDbEntity
  8
EGBB_L_3
  0
POLYLINE
  5
16D
100
AcDbEntity
  8
EGBB_L_3
  6
CONTINUOUS
 62
7
370
18
100
AcDb2dPolyline
 66
1
 70
128
  0
VERTEX
  5
16E
100
AcDbEntity
  8
EGBB_L_3
100
AcDbVertex
100
AcDb2dVertex
 10
7565904.85509999872
 20
5722849.19
  0
VERTEX
  5
16F
100
AcDbEntity
  8
EGBB_L_3
100
AcDbVertex
100
AcDb2dVertex
 10
7565899.42809999872
 20
5722846.759
  0
SEQEND
  5
170
100
AcDbEntity
  8
EGBB_L_3
  0
POLYLINE
  5
171
100
AcDbEntity
  8
EGBB_L_3
  6
CONTINUOUS
 62
7
370
18
100
AcDb2dPolyline
 66
1
 70
128
  0
VERTEX
  5
172
100
AcDbEntity
  8
EGBB_L_3
100
AcDbVertex
100
AcDb2dVertex
 10
7565899.17999999872
 20
5722846.1
  0
VERTEX
  5
173
100
AcDbEntity
  8
EGBB_L_3
100
AcDbVertex
100
AcDb2dVertex
 10
7565905.51999999872
 20
5722848.93999999936
  0
SEQEND
  5
174
100
AcDbEntity
  8
EGBB_L_3
  0
POLYLINE
  5
175
100
AcDbEntity
  8
EGBB_L_3
  6
CONTINUOUS
 62
7
370
18
100
AcDb2dPolyline
 66
1
 70
128
  0
VERTEX
  5
176
100
AcDbEntity
  8
EGBB_L_3
100
AcDbVertex
100
AcDb2dVertex
 10
7565905.51999999872
 20
5722848.93999999936
  0
VERTEX
  5
177
100
AcDbEntity
  8
EGBB_L_3
100
AcDbVertex
100
AcDb2dVertex
 10
7565901.48
 20
5722857.74
  0
SEQEND
  5
178
100
AcDbEntity
  8
EGBB_L_3
  0
POLYLINE
  5
179
100
AcDbEntity
  8
EGBB_L_3
  6
CONTINUOUS
 62
7
370
18
100
AcDb2dPolyline
 66
1
 70
128
  0
VERTEX
  5
17A
100
AcDbEntity
  8
EGBB_L_3
100
AcDbVertex
100
AcDb2dVertex
 10
7565895.16
 20
5722854.88
  0
VERTEX
  5
17B
100
AcDbEntity
  8
EGBB_L_3
100
AcDbVertex
100
AcDb2dVertex
 10
7565899.17999999872
 20
5722846.1
  0
SEQEND
  5
17C
100
AcDbEntity
  8
EGBB_L_3
  0
POLYLINE
  5
17D
100
AcDbEntity
  8
Kontury
  6
L_0_06
370
18
100
AcDb2dPolyline
 66
1
 70
128
  0
VERTEX
  5
17E
100
AcDbEntity
  8
Kontury
100
AcDbVertex
100
AcDb2dVertex
 10
7565898.58999999872
 20
5722865.85
  0
VERTEX
  5
17F
100
AcDbEntity
  8
Kontury
100
AcDbVertex
100
AcDb2dVertex
 10
7565906.50999999872
 20
5722848.58
  0
SEQEND
  5
180
100
AcDbEntity
  8
Kontury
  0
POLYLINE
  5
181
100
AcDbEntity
  8
Kontury
  6
L_0_06
370
18
100
AcDb2dPolyline
 66
1
 70
128
  0
VERTEX
  5
182
100
AcDbEntity
  8
Kontury
100
AcDbVertex
100
AcDb2dVertex
 10
7565906.50999999872
 20
5722848.58
  0
VERTEX
  5
183
100
AcDbEntity
  8
Kontury
100
AcDbVertex
100
AcDb2dVertex
 10
7565898.80999999872
 20
5722845.1
  0
SEQEND
  5
184
100
AcDbEntity
  8
Kontury
  0
POLYLINE
  5
185
100
AcDbEntity
  8
Kontury
  6
L_0_06
370
18
100
AcDb2dPolyline
 66
1
 70
128
  0
VERTEX
  5
186
100
AcDbEntity
  8
Kontury
100
AcDbVertex
100
AcDb2dVertex
 10
7565898.80999999872
 20
5722845.1
  0
VERTEX
  5
187
100
AcDbEntity
  8
Kontury
100
AcDbVertex
100
AcDb2dVertex
 10
7565890.26999999872
 20
5722863.74
  0
SEQEND
  5
188
100
AcDbEntity
  8
Kontury
  0
POLYLINE
  5
189
100
AcDbEntity
  8
Kontury
  6
L_0_06
370
18
100
AcDb2dPolyline
 66
1
 70
128
  0
VERTEX
  5
18A
100
AcDbEntity
  8
Kontury
100
AcDbVertex
100
AcDb2dVertex
 10
7565893.14999999872
 20
5722851.29000000064
  0
VERTEX
  5
18B
100
AcDbEntity
  8
Kontury
100
AcDbVertex
100
AcDb2dVertex
 10
7565844.94
 20
5722774.97
  0
SEQEND
  5
18C
100
AcDbEntity
  8
Kontury
  0
POLYLINE
  5
18D
100
AcDbEntity
  8
Kontury
  6
L_0_06
370
18
100
AcDb2dPolyline
 66
1
 70
128
  0
VERTEX
  5
18E
100
AcDbEntity
  8
Kontury
100
AcDbVertex
100
AcDb2dVertex
 10
7565877.57
 20
5722842.7
  0
VERTEX
  5
18F
100
AcDbEntity
  8
Kontury
100
AcDbVertex
100
AcDb2dVertex
 10
7565880.49
 20
5722836.34
  0
SEQEND
  5
190
100
AcDbEntity
  8
Kontury
  0
POLYLINE
  5
191
100
AcDbEntity
  8
Kontury
  6
L_0_06
370
18
100
AcDb2dPolyline
 66
1
 70
128
  0
VERTEX
  5
192
100
AcDbEntity
  8
Kontury
100
AcDbVertex
100
AcDb2dVertex
 10
7565880.49
 20
5722836.34
  0
VERTEX
  5
193
100
AcDbEntity
  8
Kontury
100
AcDbVertex
100
AcDb2dVertex
 10
7565870.5
 20
5722831.75
  0
SEQEND
  5
194
100
AcDbEntity
  8
Kontury
  0
POLYLINE
  5
195
100
AcDbEntity
  8
Kontury
  6
L_0_06
370
18
100
AcDb2dPolyline
 66
1
 70
128
  0
VERTEX
  5
196
100
AcDbEntity
  8
Kontury
100
AcDbVertex
100
AcDb2dVertex
 10
7565870.5
 20
5722831.75
  0
VERTEX
  5
197
100
AcDbEntity
  8
Kontury
100
AcDbVertex
100
AcDb2dVertex
 10
7565851.15
 20
5722873.85
  0
SEQEND
  5
198
100
AcDbEntity
  8
Kontury
  0
MLINE
  5
199
100
AcDbEntity
  8
SZOPO_L_0
  6
L_0_15
370
35
100
AcDbMline
  2
L_0_15
340
E
 40
1.0
 70
1
 71
1
 72
2
 73
2
 10
7565871.25999999872
 20
5722882.83999999936
210
0.0
220
0.0
230
1.0
 11
7565871.25999999872
 21
5722882.83999999936
 12
0.415764569683
 22
-0.909472276981
 13
0.909472276981
 23
0.415764569683
 74
2
 41
0.0
 41
0.0
 75
0
 74
2
 41
0.0
 41
0.0
 75
0
 11
7565891.68999999872
 21
5722838.14999999936
 12
0.415764569683
 22
-0.909472276981
 13
0.909472276981
 23
0.415764569683
 74
2
 41
0.0
 41
0.0
 75
0
 74
2
 41
0.0
 41
0.0
 75
0
  0
MLINE
  5
19A
100
AcDbEntity
  8
SZOPO_L_0
  6
L_0_15
370
35
100
AcDbMline
  2
L_0_15
340
E
 40
1.0
 70
1
 71
1
 72
2
 73
2
 10
7565891.68999999872
 20
5722838.14999999936
210
0.0
220
0.0
230
1.0
 11
7565891.68999999872
 21
5722838.14999999936
 12
-0.910335220872
 22
-0.413871701907
 13
0.413871701907
 23
-0.910335220872
 74
2
 41
0.0
 41
0.0
 75
0
 74
2
 41
0.0
 41
0.0
 75
0
 11
7565871.74
 21
5722829.08000000064
 12
-0.910335220872
 22
-0.413871701907
 13
0.413871701907
 23
-0.910335220872
 74
2
 41
0.0
 41
0.0
 75
0
 74
2
 41
0.0
 41
0.0
 75
0
  0
MLINE
  5
19B
100
AcDbEntity
  8
SZOPO_L_0
  6
L_0_15
370
35
100
AcDbMline
  2
L_0_15
340
E
 40
1.0
 70
1
 71
1
 72
2
 73
2
 10
7565871.74
 20
5722829.08000000064
210
0.0
220
0.0
230
1.0
 11
7565871.74
 21
5722829.08000000064
 12
-0.42379940814
 22
0.905756071832
 13
-0.905756071832
 23
-0.42379940814
 74
2
 41
0.0
 41
0.0
 75
0
 74
2
 41
0.0
 41
0.0
 75
0
 11
7565864.37999999872
 21
5722844.81
 12
-0.42379940814
 22
0.905756071832
 13
-0.905756071832
 23
-0.42379940814
 74
2
 41
0.0
 41
0.0
 75
0
 74
2
 41
0.0
 41
0.0
 75
0
  0
MLINE
  5
19C
100
AcDbEntity
  8
SZOPO_L_0
  6
L_0_15
370
35
100
AcDbMline
  2
L_0_15
340
E
 40
1.0
 70
1
 71
1
 72
2
 73
2
 10
7565891.68999999872
 20
5722838.14999999936
210
0.0
220
0.0
230
1.0
 11
7565891.68999999872
 21
5722838.14999999936
 12
0.911893879025
 22
0.410426063252
 13
-0.410426063252
 23
0.911893879025
 74
2
 41
0.0
 41
0.0
 75
0
 74
2
 41
0.0
 41
0.0
 75
0
 11
7565910.21999999872
 21
5722846.49
 12
0.911893879025
 22
0.410426063252
 13
-0.410426063252
 23
0.911893879025
 74
2
 41
0.0
 41
0.0
 75
0
 74
2
 41
0.0
 41
0.0
 75
0
  0
MLINE
  5
19D
100
AcDbEntity
  8
SZOPO_L_0
  6
L_0_15
370
35
100
AcDbMline
  2
L_0_15
340
E
 40
1.0
 70
1
 71
1
 72
2
 73
2
 10
7565910.21999999872
 20
5722846.49
210
0.0
220
0.0
230
1.0
 11
7565910.21999999872
 21
5722846.49
 12
-0.417228169935
 22
0.908801768381
 13
-0.908801768381
 23
-0.417228169935
 74
2
 41
0.0
 41
0.0
 75
0
 74
2
 41
0.0
 41
0.0
 75
0
 11
7565889.67999999872
 21
5722891.22999999936
 12
-0.417228169935
 22
0.908801768381
 13
-0.908801768381
 23
-0.417228169935
 74
2
 41
0.0
 41
0.0
 75
0
 74
2
 41
0.0
 41
0.0
 75
0
  0
MLINE
  5
19E
100
AcDbEntity
  8
SZOPO_L_0
  6
L_0_15
370
35
100
AcDbMline
  2
L_0_15
340
E
 40
1.0
 70
1
 71
1
 72
2
 73
2
 10
7565854.71999999872
 20
5722765.80999999936
210
0.0
220
0.0
230
1.0
 11
7565854.71999999872
 21
5722765.80999999936
 12
0.911495199424
 22
0.41131071154
 13
-0.41131071154
 23
0.911495199424
 74
2
 41
0.0
 41
0.0
 75
0
 74
2
 41
0.0
 41
0.0
 75
0
 11
7565892.76999999872
 21
5722782.98
 12
0.911495199424
 22
0.41131071154
 13
-0.41131071154
 23
0.911495199424
 74
2
 41
0.0
 41
0.0
 75
0
 74
2
 41
0.0
 41
0.0
 75
0
  0
MLINE
  5
19F
100
AcDbEntity
  8
SZOPO_L_0
  6
L_0_15
370
35
100
AcDbMline
  2
L_0_15
340
E
 40
1.0
 70
1
 71
1
 72
2
 73
2
 10
7565892.76999999872
 20
5722782.98
210
0.0
220
0.0
230
1.0
 11
7565892.76999999872
 21
5722782.98
 12
-0.415361486945
 22
0.909656437983
 13
-0.909656437983
 23
-0.415361486945
 74
2
 41
0.0
 41
0.0
 75
0
 74
2
 41
0.0
 41
0.0
 75
0
 11
7565878.71999999872
 21
5722813.75
 12
-0.415361486945
 22
0.909656437983
 13
-0.909656437983
 23
-0.415361486945
 74
2
 41
0.0
 41
0.0
 75
0
 74
2
 41
0.0
 41
0.0
 75
0
  0
MLINE
  5
1A0
100
AcDbEntity
  8
SZOPO_L_0
  6
L_0_15
370
35
100
AcDbMline
  2
L_0_15
340
E
 40
1.0
 70
1
 71
1
 72
2
 73
2
 10
7565878.71999999872
 20
5722813.75
210
0.0
220
0.0
230
1.0
 11
7565878.71999999872
 21
5722813.75
 12
-0.911541101497
 22
-0.41120897398
 13
0.41120897398
 23
-0.911541101497
 74
2
 41
0.0
 41
0.0
 75
0
 74
2
 41
0.0
 41
0.0
 75
0
 11
7565840.57000000128
 21
5722796.54
 12
-0.911541101497
 22
-0.41120897398
 13
0.41120897398
 23
-0.911541101497
 74
2
 41
0.0
 41
0.0
 75
0
 74
2
 41
0.0
 41
0.0
 75
0
  0
POLYLINE
  5
1A1
100
AcDbEntity
  8
Uzytki
  6
L_0_03
370
18
100
AcDb2dPolyline
 66
1
 70
128
  0
VERTEX
  5
1A2
100
AcDbEntity
  8
Uzytki
100
AcDbVertex
100
AcDb2dVertex
 10
7565877.57
 20
5722842.7
  0
VERTEX
  5
1A3
100
AcDbEntity
  8
Uzytki
100
AcDbVertex
100
AcDb2dVertex
 10
7565880.49
 20
5722836.34
  0
SEQEND
  5
1A4
100
AcDbEntity
  8
Uzytki
  0
POLYLINE
  5
1A5
100
AcDbEntity
  8
Uzytki
  6
L_0_03
370
18
100
AcDb2dPolyline
 66
1
 70
128
  0
VERTEX
  5
1A6
100
AcDbEntity
  8
Uzytki
100
AcDbVertex
100
AcDb2dVertex
 10
7565880.49
 20
5722836.34
  0
VERTEX
  5
1A7
100
AcDbEntity
  8
Uzytki
100
AcDbVertex
100
AcDb2dVertex
 10
7565870.5
 20
5722831.75
  0
SEQEND
  5
1A8
100
AcDbEntity
  8
Uzytki
  0
POLYLINE
  5
1A9
100
AcDbEntity
  8
Uzytki
  6
L_0_03
370
18
100
AcDb2dPolyline
 66
1
 70
128
  0
VERTEX
  5
1AA
100
AcDbEntity
  8
Uzytki
100
AcDbVertex
100
AcDb2dVertex
 10
7565870.5
 20
5722831.75
  0
VERTEX
  5
1AB
100
AcDbEntity
  8
Uzytki
100
AcDbVertex
100
AcDb2dVertex
 10
7565851.15
 20
5722873.85
  0
SEQEND
  5
1AC
100
AcDbEntity
  8
Uzytki
  0
POLYLINE
  5
1AD
100
AcDbEntity
  8
Uzytki
  6
L_0_03
370
18
100
AcDb2dPolyline
 66
1
 70
128
  0
VERTEX
  5
1AE
100
AcDbEntity
  8
Uzytki
100
AcDbVertex
100
AcDb2dVertex
 10
7565890.26999999872
 20
5722863.74
  0
VERTEX
  5
1AF
100
AcDbEntity
  8
Uzytki
100
AcDbVertex
100
AcDb2dVertex
 10
7565898.80999999872
 20
5722845.1
  0
SEQEND
  5
1B0
100
AcDbEntity
  8
Uzytki
  0
POLYLINE
  5
1B1
100
AcDbEntity
  8
Uzytki
  6
L_0_03
370
18
100
AcDb2dPolyline
 66
1
 70
128
  0
VERTEX
  5
1B2
100
AcDbEntity
  8
Uzytki
100
AcDbVertex
100
AcDb2dVertex
 10
7565898.80999999872
 20
5722845.1
  0
VERTEX
  5
1B3
100
AcDbEntity
  8
Uzytki
100
AcDbVertex
100
AcDb2dVertex
 10
7565906.50999999872
 20
5722848.58
  0
SEQEND
  5
1B4
100
AcDbEntity
  8
Uzytki
  0
POLYLINE
  5
1B5
100
AcDbEntity
  8
Uzytki
  6
L_0_03
370
18
100
AcDb2dPolyline
 66
1
 70
128
  0
VERTEX
  5
1B6
100
AcDbEntity
  8
Uzytki
100
AcDbVertex
100
AcDb2dVertex
 10
7565906.50999999872
 20
5722848.58
  0
VERTEX
  5
1B7
100
AcDbEntity
  8
Uzytki
100
AcDbVertex
100
AcDb2dVertex
 10
7565898.58999999872
 20
5722865.85
  0
SEQEND
  5
1B8
100
AcDbEntity
  8
Uzytki
  0
POLYLINE
  5
1B9
100
AcDbEntity
  8
Uzytki
  6
L_0_03
370
18
100
AcDb2dPolyline
 66
1
 70
128
  0
VERTEX
  5
1BA
100
AcDbEntity
  8
Uzytki
100
AcDbVertex
100
AcDb2dVertex
 10
7565904.50999999872
 20
5722708.78000000064
  0
VERTEX
  5
1BB
100
AcDbEntity
  8
Uzytki
100
AcDbVertex
100
AcDb2dVertex
 10
7565870.74
 20
5722784.67
  0
SEQEND
  5
1BC
100
AcDbEntity
  8
Uzytki
  0
POLYLINE
  5
1BD
100
AcDbEntity
  8
Uzytki
  6
L_0_03
370
18
100
AcDb2dPolyline
 66
1
 70
128
  0
VERTEX
  5
1BE
100
AcDbEntity
  8
Uzytki
100
AcDbVertex
100
AcDb2dVertex
 10
7565870.74
 20
5722784.67
  0
VERTEX
  5
1BF
100
AcDbEntity
  8
Uzytki
100
AcDbVertex
100
AcDb2dVertex
 10
7565888.76999999872
 20
5722791.99
  0
SEQEND
  5
1C0
100
AcDbEntity
  8
Uzytki
  0
POLYLINE
  5
1C1
100
AcDbEntity
  8
Uzytki
  6
L_0_03
370
18
100
AcDb2dPolyline
 66
1
 70
128
  0
VERTEX
  5
1C2
100
AcDbEntity
  8
Uzytki
100
AcDbVertex
100
AcDb2dVertex
 10
7565888.76999999872
 20
5722791.99
  0
VERTEX
  5
1C3
100
AcDbEntity
  8
Uzytki
100
AcDbVertex
100
AcDb2dVertex
 10
7565933.58
 20
5722694.45999999936
  0
SEQEND
  5
1C4
100
AcDbEntity
  8
Uzytki
  0
CIRCLE
  5
1C5
100
AcDbEntity
  8
WUKOS_T_4
  6
CONTINUOUS
370
18
100
AcDbCircle
 10
7565891.8014
 20
5722838.0589
 40
0.044999999925
  0
CIRCLE
  5
1C6
100
AcDbEntity
  8
WUKOS_T_4
  6
CONTINUOUS
370
18
100
AcDbCircle
 10
7565871.7745
 20
5722828.9815
 40
0.044999999925
  0
CIRCLE
  5
1C7
100
AcDbEntity
  8
WUKOS_T_4
  6
CONTINUOUS
370
18
100
AcDbCircle
 10
7565923.7127
 20
5722828.0768
 40
0.044999999925
  0
CIRCLE
  5
1C8
100
AcDbEntity
  8
WUKOS_T_4
  6
CONTINUOUS
370
18
100
AcDbCircle
 10
7565881.89169999872
 20
5722807.33590000064
 40
0.044999999925
  0
CIRCLE
  5
1C9
100
AcDbEntity
  8
WUKOS_T_4
  6
CONTINUOUS
370
18
100
AcDbCircle
 10
7565860.98149999744
 20
5722798.55679999936
 40
0.044999999925
  0
CIRCLE
  5
1CA
100
AcDbEntity
  8
WUKOS_T_4
  6
CONTINUOUS
370
18
100
AcDbCircle
 10
7565897.46
 20
5722842.67000000064
 40
0.044999999925
  0
CIRCLE
  5
1CB
100
AcDbEntity
  8
WUKOS_T_4
  6
CONTINUOUS
370
18
100
AcDbCircle
 10
7565910.17999999872
 20
5722849.12
 40
0.044999999925
  0
CIRCLE
  5
1CC
100
AcDbEntity
  8
WUKOS_T_4
  6
CONTINUOUS
370
18
100
AcDbCircle
 10
7565911.01999999872
 20
5722791.49999999936
 40
0.044999999925
  0
CIRCLE
  5
1CD
100
AcDbEntity
  8
WUKOS_T_4
  6
CONTINUOUS
370
18
100
AcDbCircle
 10
7565931.63999999872
 20
5722799.71999999936
 40
0.044999999925
  0
CIRCLE
  5
1CE
100
AcDbEntity
  8
WUKOS_T_4
  6
CONTINUOUS
370
18
100
AcDbCircle
 10
7565941.92999999872
 20
5722805.07000000064
 40
0.044999999925
  0
CIRCLE
  5
1CF
100
AcDbEntity
  8
WUKOS_T_4
  6
CONTINUOUS
370
18
100
AcDbCircle
 10
7565936.16
 20
5722821.68999999936
 40
0.044999999925
  0
CIRCLE
  5
1D0
100
AcDbEntity
  8
WUKOS_T_4
  6
CONTINUOUS
370
18
100
AcDbCircle
 10
7565908.38999999872
 20
5722810.61000000064
 40
0.044999999925
  0
CIRCLE
  5
1D1
100
AcDbEntity
  8
WUKOS_T_4
  6
CONTINUOUS
370
18
100
AcDbCircle
 10
7565903.04
 20
5722834.13
 40
0.044999999925
  0
CIRCLE
  5
1D2
100
AcDbEntity
  8
WUKOS_T_4
  6
CONTINUOUS
370
18
100
AcDbCircle
 10
7565910.49
 20
5722844.46
 40
0.044999999925
  0
ARC
  5
1D3
100
AcDbEntity
  8
WWRPH_L_0
  6
CONTINUOUS
 62
23
370
13
100
AcDbCircle
 10
7565872.9881952307
 20
5723104.0704521766
 30
0
 40
292.7451261910
100
AcDbArc
 50
262.8893897838
 51
273.2675296918
  0
ARC
  5
1D4
100
AcDbEntity
  8
WWRPH_L_0
  6
CONTINUOUS
 62
23
370
13
100
AcDbCircle
 10
7566417.7661135949
 20
5718357.7607315686
 30
0
 40
4485.2377908572
100
AcDbArc
 50
96.2984650305
 51
96.7616902449
  0
ARC
  5
1D5
100
AcDbEntity
  8
WWRPH_L_0
  6
CONTINUOUS
 62
23
370
13
100
AcDbCircle
 10
7565926.9120977421
 20
5722767.8212569389
 30
0
 40
48.1191403832
100
AcDbArc
 50
63.5002533122
 51
91.4421312675
  0
ARC
  5
1D6
100
AcDbEntity
  8
WWRPH_L_0
  6
CONTINUOUS
 62
23
370
13
100
AcDbCircle
 10
7565999.0869273715
 20
5722931.6668984166
 30
0
 40
130.9932902886
100
AcDbArc
 50
247.2273156709
 51
270.8955098663
  0
ARC
  5
1D7
100
AcDbEntity
  8
WWRPH_L_0
  6
CONTINUOUS
 62
23
370
13
100
AcDbCircle
 10
7565921.3610801869
 20
5722750.5983944666
 30
0
 40
97.6563406559
100
AcDbArc
 50
75.8594236327
 51
95.4341353855
  0
ARC
  5
1D8
100
AcDbEntity
  8
WWRPH_L_0
  6
CONTINUOUS
 62
23
370
13
100
AcDbCircle
 10
7566178.7103162381
 20
5721201.7406380243
 30
0
 40
1667.5244410534
100
AcDbArc
 50
99.1997091053
 51
100.1595042833
  0
POLYLINE
  5
1D9
100
AcDbEntity
  8
zakres
  6
ByLayer
370
35
100
AcDb2dPolyline
 66
1
 70
129
  0
VERTEX
  5
1DA
100
AcDbEntity
  8
zakres
100
AcDbVertex
100
AcDb2dVertex
 10
7565958.84
 20
5722812.93
  0
VERTEX
  5
1DB
100
AcDbEntity
  8
zakres
100
AcDbVertex
100
AcDb2dVertex
 10
7565961.29
 20
5722804.59
  0
VERTEX
  5
1DC
100
AcDbEntity
  8
zakres
100
AcDbVertex
100
AcDb2dVertex
 10
7565961.39
 20
5722796.83
  0
VERTEX
  5
1DD
100
AcDbEntity
  8
zakres
100
AcDbVertex
100
AcDb2dVertex
 10
7565959.5
 20
5722789.30999999936
  0
VERTEX
  5
1DE
100
AcDbEntity
  8
zakres
100
AcDbVertex
100
AcDb2dVertex
 10
7565955.77
 20
5722782.51
  0
VERTEX
  5
1DF
100
AcDbEntity
  8
zakres
100
AcDbVertex
100
AcDb2dVertex
 10
7565950.42
 20
5722776.88999999936
  0
VERTEX
  5
1E0
100
AcDbEntity
  8
zakres
100
AcDbVertex
100
AcDb2dVertex
 10
7565943.82
 20
5722772.82
  0
VERTEX
  5
1E1
100
AcDbEntity
  8
zakres
100
AcDbVertex
100
AcDb2dVertex
 10
7565905.35
 20
5722755.44
  0
VERTEX
  5
1E2
100
AcDbEntity
  8
zakres
100
AcDbVertex
100
AcDb2dVertex
 10
7565897.37
 20
5722753.08999999936
  0
VERTEX
  5
1E3
100
AcDbEntity
  8
zakres
100
AcDbVertex
100
AcDb2dVertex
 10
7565889.61
 20
5722752.94000000064
  0
VERTEX
  5
1E4
100
AcDbEntity
  8
zakres
100
AcDbVertex
100
AcDb2dVertex
 10
7565882.08
 20
5722754.77
  0
VERTEX
  5
1E5
100
AcDbEntity
  8
zakres
100
AcDbVertex
100
AcDb2dVertex
 10
7565875.26
 20
5722758.45999999936
  0
VERTEX
  5
1E6
100
AcDbEntity
  8
zakres
100
AcDbVertex
100
AcDb2dVertex
 10
7565869.59999999872
 20
5722763.76999999936
  0
VERTEX
  5
1E7
100
AcDbEntity
  8
zakres
100
AcDbVertex
100
AcDb2dVertex
 10
7565865.48
 20
5722770.34
  0
VERTEX
  5
1E8
100
AcDbEntity
  8
zakres
100
AcDbVertex
100
AcDb2dVertex
 10
7565854.89
 20
5722793.37
  0
VERTEX
  5
1E9
100
AcDbEntity
  8
zakres
100
AcDbVertex
100
AcDb2dVertex
 10
7565852.43
 20
5722801.73000000064
  0
VERTEX
  5
1EA
100
AcDbEntity
  8
zakres
100
AcDbVertex
100
AcDb2dVertex
 10
7565852.33
 20
5722809.49000000064
  0
VERTEX
  5
1EB
100
AcDbEntity
  8
zakres
100
AcDbVertex
100
AcDb2dVertex
 10
7565854.21
 20
5722817.01
  0
VERTEX
  5
1EC
100
AcDbEntity
  8
zakres
100
AcDbVertex
100
AcDb2dVertex
 10
7565857.95
 20
5722823.80999999936
  0
VERTEX
  5
1ED
100
AcDbEntity
  8
zakres
100
AcDbVertex
100
AcDb2dVertex
 10
7565863.29
 20
5722829.43
  0
VERTEX
  5
1EE
100
AcDbEntity
  8
zakres
100
AcDbVertex
100
AcDb2dVertex
 10
7565869.89
 20
5722833.51
  0
VERTEX
  5
1EF
100
AcDbEntity
  8
zakres
100
AcDbVertex
100
AcDb2dVertex
 10
7565908.38
 20
5722850.91
  0
VERTEX
  5
1F0
100
AcDbEntity
  8
zakres
100
AcDbVertex
100
AcDb2dVertex
 10
7565916.40000000128
 20
5722853.27
  0
VERTEX
  5
1F1
100
AcDbEntity
  8
zakres
100
AcDbVertex
100
AcDb2dVertex
 10
7565924.16
 20
5722853.4
  0
VERTEX
  5
1F2
100
AcDbEntity
  8
zakres
100
AcDbVertex
100
AcDb2dVertex
 10
7565931.69
 20
5722851.57000000064
  0
VERTEX
  5
1F3
100
AcDbEntity
  8
zakres
100
AcDbVertex
100
AcDb2dVertex
 10
7565938.51
 20
5722847.87
  0
VERTEX
  5
1F4
100
AcDbEntity
  8
zakres
100
AcDbVertex
100
AcDb2dVertex
 10
7565944.16
 20
5722842.55
  0
VERTEX
  5
1F5
100
AcDbEntity
  8
zakres
100
AcDbVertex
100
AcDb2dVertex
 10
7565948.27
 20
5722835.98
  0
SEQEND
  5
1F6
100
AcDbEntity
  8
zakres
  0
TEXT
  5
1F7
100
AcDbEntity
  8
Numery_dzialek
370
20
100
AcDbText
 39
0.20
 10
7565913.70999999744
 20
5722839.41999999808
 40
1.00
  1
1-698/8
 50
0.00
 41
0.66
  7
STANDARD
 72
0
 11
7565913.70999999744
 21
5722840.41999999808
100
AcDbText
 73
3
  0
TEXT
  5
1F8
100
AcDbEntity
  8
Numery_dzialek
370
20
100
AcDbText
 39
0.20
 10
7565909.83999999872
 20
5722803.03999999936
 40
1.00
  1
1-698/10
 50
0.00
 41
0.66
  7
STANDARD
 72
0
 11
7565909.83999999872
 21
5722804.04
100
AcDbText
 73
3
  0
TEXT
  5
1F9
100
AcDbEntity
  8
Numery_dzialek
370
20
100
AcDbText
 39
0.20
 10
7565867.89999999744
 20
5722790.12999999808
 40
1.00
  1
1-698/16
 50
0.00
 41
0.66
  7
STANDARD
 72
0
 11
7565867.89999999744
 21
5722791.12999999808
100
AcDbText
 73
3
  0
TEXT
  5
1FA
100
AcDbEntity
  8
Numery_dzialek
370
20
100
AcDbText
 39
0.20
 10
7565896.83999999744
 20
5722825.85999999872
 40
1.00
  1
1-698/9
 50
0.00
 41
0.66
  7
STANDARD
 72
0
 11
7565896.83999999744
 21
5722826.85999999872
100
AcDbText
 73
3
  0
TEXT
  5
1FB
100
AcDbEntity
  8
Numery_dzialek
370
20
100
AcDbText
 39
0.20
 10
7565898.03999999744
 20
5722843.84999999744
 40
1.00
  1
1-698/7
 50
0.00
 41
0.66
  7
STANDARD
 72
0
 11
7565898.03999999744
 21
5722844.84999999808
100
AcDbText
 73
3
  0
TEXT
  5
1FC
100
AcDbEntity
  8
Numery_dzialek
370
20
100
AcDbText
 39
0.20
 10
7565921.27804273792
 20
5722776.33699839424
 40
1.00
  1
1-698/11
 50
0.00
 41
0.66
  7
STANDARD
 72
0
 11
7565921.27804273792
 21
5722777.3369983936
100
AcDbText
 73
3
  0
TEXT
  5
1FD
100
AcDbEntity
  8
Numery_dzialek
370
20
100
AcDbText
 39
0.20
 10
7565938.79999999744
 20
5722817.79999999872
 40
1.00
  1
1-697/3
 50
0.00
 41
0.66
  7
STANDARD
 72
0
 11
7565938.79999999744
 21
5722818.79999999872
100
AcDbText
 73
3
  0
TEXT
  5
1FE
100
AcDbEntity
  8
Numery_dzialek
370
20
100
AcDbText
 39
0.20
 10
7565864.95011769472
 20
5722815.89114275904
 40
1.00
  1
1-698/15
 50
0.00
 41
0.66
  7
STANDARD
 72
0
 11
7565864.95011769472
 21
5722816.89114275968
100
AcDbText
 73
3
  0
TEXT
  5
1FF
100
AcDbEntity
  8
Numery_dzialek
370
20
100
AcDbText
 39
0.20
 10
7565884.85922338688
 20
5722766.23984554816
 40
1.00
  1
1-698/17
 50
0.00
 41
0.66
  7
STANDARD
 72
0
 11
7565884.85922338688
 21
5722767.23984554816
100
AcDbText
 73
3
  0
TEXT
  5
200
100
AcDbEntity
  8
Numery_dzialek
370
20
100
AcDbText
 39
0.20
 10
7565881.10999999744
 20
5722835.83999999808
 40
1.00
  1
1-698/6
 50
0.00
 41
0.66
  7
STANDARD
 72
0
 11
7565881.10999999744
 21
5722836.83999999744
100
AcDbText
 73
3
  0
TEXT
  5
201
100
AcDbEntity
  8
Numery_konturow
370
20
100
AcDbText
 39
0.20
 10
7565902.61999999744
 20
5722805.76999999808
 40
1.00
  1
RIVa
 50
0.00
 41
0.66
  7
STANDARD
 72
0
 11
7565902.61999999744
 21
5722806.76999999744
100
AcDbText
 73
3
  0
TEXT
  5
202
100
AcDbEntity
  8
Numery_konturow
370
20
100
AcDbText
 39
0.20
 10
7565865.39999999744
 20
5722820.79999999936
 40
1.00
  1
RIIIb
 50
0.00
 41
0.66
  7
STANDARD
 72
0
 11
7565865.39999999744
 21
5722821.79999999936
100
AcDbText
 73
3
  0
TEXT
  5
203
100
AcDbEntity
  8
Numery_uzytkow
370
20
100
AcDbText
 39
0.20
 10
7565877.79999999872
 20
5722835.86999999808
 40
1.00
  1
Bp
 50
0.00
 41
0.66
  7
STANDARD
 72
0
 11
7565877.79999999872
 21
5722836.86999999808
100
AcDbText
 73
3
  0
TEXT
  5
204
100
AcDbEntity
  8
Numery_uzytkow
370
20
100
AcDbText
 39
0.20
 10
7565902.75999999744
 20
5722848.10999999808
 40
1.00
  1
Bp
 50
0.00
 41
0.66
  7
STANDARD
 72
0
 11
7565902.75999999744
 21
5722849.10999999872
100
AcDbText
 73
3
  0
TEXT
  5
205
100
AcDbEntity
  8
Numery_uzytkow
370
20
100
AcDbText
 39
0.20
 10
7565912.39848147072
 20
5722811.86977569856
 40
1.00
  1
R
 50
0.00
 41
0.66
  7
STANDARD
 72
0
 11
7565912.39848147072
 21
5722812.86977569856
100
AcDbText
 73
3
  0
TEXT
  5
206
100
AcDbEntity
  8
Numery_uzytkow
370
20
100
AcDbText
 39
0.20
 10
7565888.501844832
 20
5722771.58344972416
 40
1.00
  1
S
 50
0.00
 41
0.66
  7
STANDARD
 72
0
 11
7565888.501844832
 21
5722772.58344972416
100
AcDbText
 73
3
  0
TEXT
  5
207
100
AcDbEntity
  8
WUKOS_T_4
370
15
100
AcDbText
 39
0.15
 10
7565860.98149999744
 20
5722798.55679999936
 40
0.75
  1
167.2
 50
0.00
 41
0.66
  7
STANDARD
 72
0
 11
7565860.98149999744
 21
5722799.3068
100
AcDbText
 73
3
  0
TEXT
  5
208
100
AcDbEntity
  8
WUKOS_T_4
370
15
100
AcDbText
 39
0.15
 10
7565881.89169999872
 20
5722807.33590000064
 40
0.75
  1
166.9
 50
0.00
 41
0.66
  7
STANDARD
 72
0
 11
7565881.89169999872
 21
5722808.08590000064
100
AcDbText
 73
3
  0
TEXT
  5
209
100
AcDbEntity
  8
WUKOS_T_4
370
15
100
AcDbText
 39
0.15
 10
7565923.7127
 20
5722828.0768
 40
0.75
  1
166.2
 50
0.00
 41
0.66
  7
STANDARD
 72
0
 11
7565923.7127
 21
5722828.8268
100
AcDbText
 73
3
  0
TEXT
  5
20A
100
AcDbEntity
  8
WUKOS_T_4
370
15
100
AcDbText
 39
0.15
 10
7565871.7745
 20
5722828.9815
 40
0.75
  1
166.2
 50
0.00
 41
0.66
  7
STANDARD
 72
0
 11
7565871.7745
 21
5722829.7315
100
AcDbText
 73
3
  0
TEXT
  5
20B
100
AcDbEntity
  8
WUKOS_T_4
370
15
100
AcDbText
 39
0.15
 10
7565891.8014
 20
5722838.0589
 40
0.75
  1
166.0
 50
0.00
 41
0.66
  7
STANDARD
 72
0
 11
7565891.8014
 21
5722838.8089
100
AcDbText
 73
3
  0
TEXT
  5
20C
100
AcDbEntity
  8
WUKOS_T_4
370
15
100
AcDbText
 39
0.15
 10
7565910.17999999872
 20
5722849.12
 40
0.75
  1
165.5
 50
0.00
 41
0.66
  7
STANDARD
 72
0
 11
7565910.17999999872
 21
5722849.87
100
AcDbText
 73
3
  0
TEXT
  5
20D
100
AcDbEntity
  8
WUKOS_T_4
370
15
100
AcDbText
 39
0.15
 10
7565897.46
 20
5722842.67000000064
 40
0.75
  1
165.8
 50
0.00
 41
0.66
  7
STANDARD
 72
0
 11
7565897.46
 21
5722843.42
100
AcDbText
 73
3
  0
TEXT
  5
20E
100
AcDbEntity
  8
WUKOS_T_4
370
15
100
AcDbText
 39
0.15
 10
7565911.01999999872
 20
5722791.49999999936
 40
0.75
  1
167.1
 50
0.00
 41
0.66
  7
STANDARD
 72
0
 11
7565911.01999999872
 21
5722792.25000000064
100
AcDbText
 73
3
  0
TEXT
  5
20F
100
AcDbEntity
  8
WUKOS_T_4
370
15
100
AcDbText
 39
0.15
 10
7565931.63999999872
 20
5722799.71999999936
 40
0.75
  1
167.0
 50
0.00
 41
0.66
  7
STANDARD
 72
0
 11
7565931.63999999872
 21
5722800.47
100
AcDbText
 73
3
  0
TEXT
  5
210
100
AcDbEntity
  8
WUKOS_T_4
370
15
100
AcDbText
 39
0.15
 10
7565941.92999999872
 20
5722805.07000000064
 40
0.75
  1
166.9
 50
0.00
 41
0.66
  7
STANDARD
 72
0
 11
7565941.92999999872
 21
5722805.82000000064
100
AcDbText
 73
3
  0
TEXT
  5
211
100
AcDbEntity
  8
WUKOS_T_4
370
15
100
AcDbText
 39
0.15
 10
7565936.16
 20
5722821.68999999936
 40
0.75
  1
166.5
 50
0.00
 41
0.66
  7
STANDARD
 72
0
 11
7565936.16
 21
5722822.44
100
AcDbText
 73
3
  0
TEXT
  5
212
100
AcDbEntity
  8
WUKOS_T_4
370
15
100
AcDbText
 39
0.15
 10
7565908.38999999872
 20
5722810.61000000064
 40
0.75
  1
166.8
 50
0.00
 41
0.66
  7
STANDARD
 72
0
 11
7565908.38999999872
 21
5722811.36000000064
100
AcDbText
 73
3
  0
TEXT
  5
213
100
AcDbEntity
  8
WUKOS_T_4
370
15
100
AcDbText
 39
0.15
 10
7565903.04
 20
5722834.13
 40
0.75
  1
166.1
 50
0.00
 41
0.66
  7
STANDARD
 72
0
 11
7565903.04
 21
5722834.88
100
AcDbText
 73
3
  0
TEXT
  5
214
100
AcDbEntity
  8
WUKOS_T_4
370
15
100
AcDbText
 39
0.15
 10
7565910.49
 20
5722844.46
 40
0.75
  1
165.7
 50
0.00
 41
0.66
  7
STANDARD
 72
0
 11
7565910.49
 21
5722845.21
100
AcDbText
 73
3
  0
ENDSEC
  0
SECTION
  2
OBJECTS
  0
DICTIONARY
  5
215
330
0
100
AcDbDictionary
280
0
281
1
  3
ACAD_GROUP
350
216
  3
ACAD_LAYOUT
350
217
  3
ACAD_MLINESTYLE
350
218
  3
ACAD_PLOTSETTINGS
350
219
  3
ACAD_PLOTSTYLENAME
350
21A
  3
ACAD_WIPEOUT_VARS
350
21B
  0
DICTIONARY
  5
216
102
{ACAD_REACTORS
330
215
102
}
330
215
100
AcDbDictionary
280
0
281
1
  0
DICTIONARY
  5
217
102
{ACAD_REACTORS
330
215
102
}
330
215
100
AcDbDictionary
280
0
281
1
  3
Layout
350
2D
  3
Model
350
2B
  0
DICTIONARY
  5
218
102
{ACAD_REACTORS
330
215
102
}
330
215
100
AcDbDictionary
280
0
281
1
  3
Standard
350
21C
  3
L_0_02
350
7
  3
L_0_15
350
E
  0
DICTIONARY
  5
219
102
{ACAD_REACTORS
330
215
102
}
330
215
100
AcDbDictionary
280
0
281
1
  0
ACDBDICTIONARYWDFLT
  5
21A
102
{ACAD_REACTORS
330
215
102
}
330
215
100
AcDbDictionary
281
1
  3
Normal
350
12
100
AcDbDictionaryWithDefault
340
12
  0
WIPEOUTVARIABLES
  5
21B
102
{ACAD_REACTORS
330
215
102
}
330
215
100
AcDbWipeoutVariables
 70
0
  0
LAYOUT
  5
2D
100
AcDbPlotSettings
  1

  2

  4

  6

 40
0.0
 41
0.0
 42
0.0
 43
0.0
 44
0.0
 45
0.0
 46
0.0
 47
0.0
 48
0.0
 49
0.0
140
0.0
141
0.0
142
1.0
143
1.0
 70
688
 72
1
 73
0
 74
5
  7

 75
0
147
1.0
148
0.0
149
0.0
100
AcDbLayout
  1
Layout
 70
1
 71
1
 10
0.0
 20
0.0
 11
420.0
 21
297.0
 12
0.0
 22
0.0
 32
0.0
 14
100000000000000000000.0
 24
100000000000000000000.0
 34
100000000000000000000.0
 15
-100000000000000000000.0
 25
-100000000000000000000.0
 35
-100000000000000000000.0
146
0.0
 13
0.0
 23
0.0
 33
0.0
 16
1.0
 26
0.0
 36
0.0
 17
0.0
 27
1.0
 37
0.0
 76
0
330
2C
  0
LAYOUT
  5
2B
100
AcDbPlotSettings
  1

  2

  4

  6

 40
0.0
 41
0.0
 42
0.0
 43
0.0
 44
0.0
 45
0.0
 46
0.0
 47
0.0
 48
0.0
 49
0.0
140
0.0
141
0.0
142
1.0
143
1.0
 70
1712
 72
1
 73
0
 74
0
  7

 75
0
147
1.0
148
0.0
149
0.0
100
AcDbLayout
  1
Model
 70
1
 71
0
 10
0.0
 20
0.0
 11
12.0
 21
9.0
 12
0.0
 22
0.0
 32
0.0
 14
0.0
 24
0.0
 34
0.0
 15
0.0
 25
0.0
 35
0.0
146
0.0
 13
0.0
 23
0.0
 33
0.0
 16
1.0
 26
0.0
 36
0.0
 17
0.0
 27
1.0
 37
0.0
 76
0
330
2A
  0
MLINESTYLE
  5
21C
102
{ACAD_REACTORS
330
218
102
}
330
218
100
AcDbMlineStyle
  2
Standard
 70
0
  3

 62
256
 51
90.0
 52
90.0
  2
Standard
 71
2
 49
0.5
 62
256
  6
ByLayer
 49
-0.5
 62
256
  6
ByLayer
  0
MLINESTYLE
  5
7
100
AcDbMlineStyle
  2
L_0_02
 70
0
  3

 51
90.0
 52
90.0
 71
1
 49
0.0
 62
256
  6
CONTINUOUS
  0
MLINESTYLE
  5
E
100
AcDbMlineStyle
  2
L_0_15
 70
0
  3

 51
90.0
 52
90.0
 71
2
 49
0.0
 62
256
  6
CONTINUOUS
 49
0.0
 62
256
  6
L_0_15_SHX
  0
ACDBPLACEHOLDER
  5
12
  0
ENDSEC
  0
EOF
