  0
SECTION
  2
HEADER
  9
$ACADVER
  1
AC1018
  9
$HANDSEED
  5
FFFFFF
  9
$EXTMAX
 10
7565742.11000000034
 20
5722805.15000000037
 30
1000000.00
  9
$EXTMIN
 10
7565545.28000000026
 20
5722430.19000000041
 30
0.00
  9
$LIMMIN
 10
7565545.28000000026
 20
5722430.19000000041
  9
$LIMMAX
 10
7565742.11000000034
 20
5722805.15000000037
  9
$DIMASZ
 40
2.5
  9
$DIMGAP
 40
0.625
  9
$INSUNITS
 70
6
  9
$MEASUREMENT
 70
1
  9
$DIMEXO
 40
0.625
  9
$DIMTXT
 40
2.5
  9
$DIMSTYLE
  2
Standard
  9
$PLIMMIN
 10
0.0
 20
0.0
  9
$PLIMMAX
 10
210.0
 20
297.0
  9
$DIMEXE
 40
1.25
  9
$TEXTSIZE
 40
2.5
  9
$TEXTSTYLE
  7
Standard
  9
$LWDISPLAY
290
1
  9
$TDCREATE
 40
45551.631605961
  9
$TDUCREATE
 40
45551.548272627
  9
$TDUPDATE
 40
45551.631605961
  9
$TDUUPDATE
 40
45551.548272627
  9
$TDINDWG
 40
0.0
  9
$TDUSRTIMER
 40
0.0
  9
$USRTIMER
 70
1
  0
ENDSEC
  0
SECTION
  2
TABLES
  0
TABLE
  2
VPORT
  5
1
100
AcDbSymbolTable
 70
1
  0
VPORT
  5
2
100
AcDbSymbolTableRecord
100
AcDbViewportTableRecord
  2
*ACTIVE
 70
0
 10
0.0
 20
0.0
 11
1.0
 21
1.0
 12
7565643.695
 22
5722617.670
 13
0.0
 23
0.0
 14
1.0
 24
1.0
 15
0.0
 25
0.0
 16
0.0
 26
0.0
 36
1.0
 17
0.0
 27
0.0
 37
0.0
 40
374.960
 41
0.525
 42
50.0
 43
0.0
 44
0.0
 50
0.0
 51
0.0
 71
0
 72
100
 73
1
 74
1
 75
0
 76
0
 77
0
 78
0
  0
ENDTAB
  0
TABLE
  2
LTYPE
  5
3
100
AcDbSymbolTable
 70
3
  0
LTYPE
  5
4
100
AcDbSymbolTableRecord
100
AcDbLinetypeTableRecord
  2
ByBlock
 70
0
  3

 72
65
 73
0
 40
0.0
  0
LTYPE
  5
5
100
AcDbSymbolTableRecord
100
AcDbLinetypeTableRecord
  2
ByLayer
 70
0
  3

 72
65
 73
0
 40
0.0
  0
LTYPE
  5
6
100
AcDbSymbolTableRecord
100
AcDbLinetypeTableRecord
  2
CONTINUOUS
 70
0
  3
Solid line
 72
65
 73
0
 40
0.0
  0
LTYPE
  5
8
100
AcDbSymbolTableRecord
100
AcDbLinetypeTableRecord
  2
L_0_02
 70
0
  3
Dzialka_ewidencyjna (MLineStyle)
 72
65
 73
0
 40
0.0
  0
LTYPE
  5
9
100
AcDbSymbolTableRecord
100
AcDbLinetypeTableRecord
  2
L_0_03
 70
0
  3
Uzytek_gruntowy
 72
65
 73
2
 40
0.5
 49
0.25
 74
0
 49
-0.25
 74
0
  0
LTYPE
  5
A
100
AcDbSymbolTableRecord
100
AcDbLinetypeTableRecord
  2
L_0_04
 70
0
  3
Budynek_projektowany
 72
65
 73
2
 40
0.75
 49
0.5
 74
0
 49
-0.25
 74
0
  0
LTYPE
  5
B
100
AcDbSymbolTableRecord
100
AcDbLinetypeTableRecord
  2
L_0_06
 70
0
  3
Granica_konturu_klasyfikacyjnego_Krawedz_chodnika
 72
65
 73
2
 40
1.0
 49
0.75
 74
0
 49
-0.25
 74
0
  0
LTYPE
  5
C
100
AcDbSymbolTableRecord
100
AcDbLinetypeTableRecord
  2
L_0_15_SHX
 70
0
  3
Ogrodzenie_trwale
 72
65
 73
12
 40
3.75
 49
0.0
 74
0
 49
-0.1875
 74
0
 49
-0.375
 74
0
 49
-0.375
 74
0
 49
-0.375
 74
0
 49
-0.375
 74
0
 49
-0.375
 74
4
 75
1
340
D
 46
0.025
 50
0.0
 44
0.0
 45
0.0
 49
-0.375
 74
0
 49
-0.375
 74
0
 49
-0.375
 74
0
 49
-0.375
 74
0
 49
-0.1875
 74
0
  0
LTYPE
  5
F
100
AcDbSymbolTableRecord
100
AcDbLinetypeTableRecord
  2
L_0_15
 70
0
  3
Ogrodzenie_trwale (MLineStyle)
 72
65
 73
0
 40
0.0
  0
LTYPE
  5
11
100
AcDbSymbolTableRecord
100
AcDbLinetypeTableRecord
  2
L_0_C5
 70
0
  3
Brama__1_500 (MLineStyle)
 72
65
 73
0
 40
0.0
  0
LTYPE
  5
13
100
AcDbSymbolTableRecord
100
AcDbLinetypeTableRecord
  2
L_0_E3_00
 70
0
  3
Budynek_w_budowie_dla_MZ2015_1_500___1_1000
 72
65
 73
3
 40
0.75
 49
0.0
 74
0
 49
0.5
 74
0
 49
-0.25
 74
0
  0
LTYPE
  5
14
100
AcDbSymbolTableRecord
100
AcDbLinetypeTableRecord
  2
L_0_E3
 70
0
  3
Budynek_w_budowie_dla_MZ2015_1_500___1_1000 (MLineStyle)
 72
65
 73
0
 40
0.0
  0
LTYPE
  5
15
100
AcDbSymbolTableRecord
100
AcDbLinetypeTableRecord
  2
L_2_16_SHX
 70
0
  3
Linia_zabudowy_obowiazujaca
 72
65
 73
11
 40
2.25
 49
0.0
 74
0
 49
-0.125
 74
4
 75
2
340
D
 46
0.025
 50
0.0
 44
0.0
 45
0.0
 49
-0.25
 74
4
 75
3
340
D
 46
0.025
 50
0.0
 44
0.0
 45
0.0
 49
-0.25
 74
4
 75
4
340
D
 46
0.025
 50
0.0
 44
0.0
 45
0.0
 49
-0.25
 74
4
 75
5
340
D
 46
0.025
 50
0.0
 44
0.0
 45
0.0
 49
-0.25
 74
0
 49
-0.25
 74
0
 49
-0.25
 74
0
 49
-0.25
 74
0
 49
-0.25
 74
0
 49
-0.125
 74
0
  0
LTYPE
  5
17
100
AcDbSymbolTableRecord
100
AcDbLinetypeTableRecord
  2
L_2_16
 70
0
  3
Linia_zabudowy_obowiazujaca (MLineStyle)
 72
65
 73
0
 40
0.0
  0
LTYPE
  5
19
100
AcDbSymbolTableRecord
100
AcDbLinetypeTableRecord
  2
L_2_20
 70
0
  3
Brama___w_prawo__1_500 (MLineStyle)
 72
65
 73
0
 40
0.0
  0
ENDTAB
  0
TABLE
  2
LAYER
  5
1A
100
AcDbSymbolTable
 70
4
  0
LAYER
  5
1B
100
AcDbSymbolTableRecord
100
AcDbLayerTableRecord
  2
0
 70
0
 62
-7
420
0
  6
CONTINUOUS
370
18
390
1C
  0
LAYER
  5
1D
100
AcDbSymbolTableRecord
100
AcDbLayerTableRecord
  2
Bud_obrys
 70
0
420
255
  6
CONTINUOUS
370
35
390
1C
  0
LAYER
  5
1E
100
AcDbSymbolTableRecord
100
AcDbLayerTableRecord
  2
Dzialki
 70
0
420
32768
  6
L_0_02
370
18
390
1C
  0
LAYER
  5
1F
100
AcDbSymbolTableRecord
100
AcDbLayerTableRecord
  2
osie_bud
 70
0
420
16711680
  6
CONTINUOUS
370
18
390
1C
  0
ENDTAB
  0
TABLE
  2
STYLE
  5
20
100
AcDbSymbolTable
 70
3
  0
STYLE
  5
21
100
AcDbSymbolTableRecord
100
AcDbTextStyleTableRecord
  2
STANDARD
 70
0
 40
0.0
 41
1.0
 50
0.0
 71
0
  3
simplex.shx
  4

  0
STYLE
  5
22
100
AcDbSymbolTableRecord
100
AcDbTextStyleTableRecord
  2
STANDARD_ITALIC
 70
0
 40
0.0
 41
1.0
 50
15.0
 71
0
  3
simplex.shx
  4

  0
STYLE
  5
D
100
AcDbSymbolTableRecord
100
AcDbTextStyleTableRecord
  2

 70
1
 40
0.0
 41
0.025
 50
0.0
 71
0
  3
RYKI_dz705_1_osie.shx
  4

  0
ENDTAB
  0
TABLE
  2
VIEW
  5
23
100
AcDbSymbolTable
 70
0
  0
ENDTAB
  0
TABLE
  2
UCS
  5
24
100
AcDbSymbolTable
 70
0
  0
ENDTAB
  0
TABLE
  2
APPID
  5
25
100
AcDbSymbolTable
 70
1
  0
APPID
  5
26
100
AcDbSymbolTableRecord
100
AcDbRegAppTableRecord
  2
ACAD
 70
0
  0
ENDTAB
  0
TABLE
  2
DIMSTYLE
  5
27
100
AcDbSymbolTable
 70
1
100
AcDbDimStyleTable
  0
DIMSTYLE
105
28
100
AcDbSymbolTableRecord
100
AcDbDimStyleTableRecord
  2
Standard
 70
0
340
21
  0
ENDTAB
  0
TABLE
  2
BLOCK_RECORD
  5
29
100
AcDbSymbolTable
 70
12
  0
BLOCK_RECORD
  5
2A
100
AcDbSymbolTableRecord
100
AcDbBlockTableRecord
  2
*Model_Space
340
2B
  0
BLOCK_RECORD
  5
2C
100
AcDbSymbolTableRecord
100
AcDbBlockTableRecord
  2
*Paper_Space
340
2D
  0
BLOCK_RECORD
  5
2E
100
AcDbSymbolTableRecord
100
AcDbBlockTableRecord
  2
OSPB
340
2F
  0
BLOCK_RECORD
  5
30
100
AcDbSymbolTableRecord
100
AcDbBlockTableRecord
  2
OSHF
340
31
  0
BLOCK_RECORD
  5
32
100
AcDbSymbolTableRecord
100
AcDbBlockTableRecord
  2
SUPW_O
340
33
  0
BLOCK_RECORD
  5
34
100
AcDbSymbolTableRecord
100
AcDbBlockTableRecord
  2
OTRN
340
35
  0
BLOCK_RECORD
  5
36
100
AcDbSymbolTableRecord
100
AcDbBlockTableRecord
  2
SUPW_K
340
37
  0
BLOCK_RECORD
  5
38
100
AcDbSymbolTableRecord
100
AcDbBlockTableRecord
  2
L_0_02_1
340
39
  0
BLOCK_RECORD
  5
3A
100
AcDbSymbolTableRecord
100
AcDbBlockTableRecord
  2
L_0_02_2
340
3B
  0
BLOCK_RECORD
  5
3C
100
AcDbSymbolTableRecord
100
AcDbBlockTableRecord
  2
KTOK02_500
340
3D
  0
BLOCK_RECORD
  5
3E
100
AcDbSymbolTableRecord
100
AcDbBlockTableRecord
  2
L_2_20_3
340
3F
  0
BLOCK_RECORD
  5
40
100
AcDbSymbolTableRecord
100
AcDbBlockTableRecord
  2
L_2_56_1
340
41
  0
ENDTAB
  0
ENDSEC
  0
SECTION
  2
BLOCKS
  0
BLOCK
  5
42
100
AcDbEntity
  8
0
100
AcDbBlockBegin
  2
*Model_Space
 70
0
 10
0.0
 20
0.0
 30
0.0
  3
*Model_Space
  1

  0
ENDBLK
  5
43
100
AcDbEntity
  8
0
100
AcDbBlockEnd
  0
BLOCK
  5
44
100
AcDbEntity
 67
1
  8
0
100
AcDbBlockBegin
  2
*Paper_Space
 70
0
 10
0.0
 20
0.0
 30
0.0
  3
*Paper_Space
  1

  0
ENDBLK
  5
45
100
AcDbEntity
 67
1
  8
0
100
AcDbBlockEnd
  0
BLOCK
  5
2F
100
AcDbEntity
  8
0
100
AcDbBlockBegin
 62
0
370
13
  2
OSPB
 70
0
 10
0
 20
0
 30
0
  3
OSPB
  0
HATCH
  5
46
100
AcDbEntity
  8
0
  6
CONTINUOUS
420
16777215
370
18
100
AcDbHatch
 10
0.0
 20
0.0
 30
0.0
210
0.0
220
0.0
230
1.0
  2
SOLID
 70
1
 71
1
 91
1
 92
3
 72
0
 73
1
 93
4
 10
-2.0
 20
-1.1
 10
2.0
 20
-1.1
 10
0.1
 20
2.1
 10
-2.0
 20
-1.1
 97
0
 75
0
 76
1
 98
0
  0
POLYLINE
  5
47
100
AcDbEntity
  8
0
  6
CONTINUOUS
 62
0
370
18
100
AcDb2dPolyline
 66
1
 70
129
  0
VERTEX
  5
48
100
AcDbEntity
  8
0
100
AcDbVertex
100
AcDb2dVertex
 10
-2.0
 20
-1.1
  0
VERTEX
  5
49
100
AcDbEntity
  8
0
100
AcDbVertex
100
AcDb2dVertex
 10
2.0
 20
-1.1
  0
VERTEX
  5
4A
100
AcDbEntity
  8
0
100
AcDbVertex
100
AcDb2dVertex
 10
0.1
 20
2.1
  0
VERTEX
  5
4B
100
AcDbEntity
  8
0
100
AcDbVertex
100
AcDb2dVertex
 10
-2.0
 20
-1.1
  0
SEQEND
  5
4C
100
AcDbEntity
  8
0
  0
HATCH
  5
4D
100
AcDbEntity
  8
0
  6
CONTINUOUS
 62
0
370
25
100
AcDbHatch
 10
0.0
 20
0.0
 30
0.0
210
0.0
220
0.0
230
1.0
  2
SOLID
 70
1
 71
1
 91
1
 92
3
 72
1
 73
1
 93
2
 10
0.0
 20
-0.22360679775
 42
1.0
 10
0.0
 20
0.22360679775
 42
1.0
 97
0
 75
0
 76
1
 98
0
  0
CIRCLE
  5
4E
100
AcDbEntity
  8
0
  6
CONTINUOUS
 62
0
370
25
100
AcDbCircle
 10
0.0
 20
-0.0
 40
0.22360679775
  0
ENDBLK
  5
4F
100
AcDbEntity
  8
0
100
AcDbBlockEnd
  0
BLOCK
  5
31
100
AcDbEntity
  8
0
100
AcDbBlockBegin
 62
0
370
13
  2
OSHF
 70
0
 10
0
 20
0
 30
0
  3
OSHF
  0
HATCH
  5
50
100
AcDbEntity
  8
0
  6
CONTINUOUS
420
16777215
370
18
100
AcDbHatch
 10
0.0
 20
0.0
 30
0.0
210
0.0
220
0.0
230
1.0
  2
SOLID
 70
1
 71
1
 91
1
 92
3
 72
1
 73
1
 93
2
 10
0.0
 20
-2.0
 42
1.0
 10
0.0
 20
2.0
 42
1.0
 97
0
 75
0
 76
1
 98
0
  0
CIRCLE
  5
51
100
AcDbEntity
  8
0
  6
CONTINUOUS
 62
0
370
18
100
AcDbCircle
 10
0.0
 20
-0.0
 40
2.0
  0
HATCH
  5
52
100
AcDbEntity
  8
0
  6
CONTINUOUS
 62
0
370
18
100
AcDbHatch
 10
0.0
 20
0.0
 30
0.0
210
0.0
220
0.0
230
1.0
  2
SOLID
 70
1
 71
1
 91
1
 92
3
 72
0
 73
1
 93
4
 10
-1.7
 20
1.0
 10
1.7
 20
1.0
 10
0.0
 20
-2.0
 10
-1.7
 20
0.9
 97
0
 75
0
 76
1
 98
0
  0
POLYLINE
  5
53
100
AcDbEntity
  8
0
  6
CONTINUOUS
 62
0
370
18
100
AcDb2dPolyline
 66
1
 70
129
  0
VERTEX
  5
54
100
AcDbEntity
  8
0
100
AcDbVertex
100
AcDb2dVertex
 10
-1.7
 20
1.0
  0
VERTEX
  5
55
100
AcDbEntity
  8
0
100
AcDbVertex
100
AcDb2dVertex
 10
1.7
 20
1.0
  0
VERTEX
  5
56
100
AcDbEntity
  8
0
100
AcDbVertex
100
AcDb2dVertex
 10
0.0
 20
-2.0
  0
VERTEX
  5
57
100
AcDbEntity
  8
0
100
AcDbVertex
100
AcDb2dVertex
 10
-1.7
 20
0.9
  0
SEQEND
  5
58
100
AcDbEntity
  8
0
  0
HATCH
  5
59
100
AcDbEntity
  8
0
  6
CONTINUOUS
420
16777215
370
18
100
AcDbHatch
 10
0.0
 20
0.0
 30
0.0
210
0.0
220
0.0
230
1.0
  2
SOLID
 70
1
 71
1
 91
1
 92
3
 72
1
 73
1
 93
2
 10
0.0
 20
-0.22360679775
 42
1.0
 10
0.0
 20
0.22360679775
 42
1.0
 97
0
 75
0
 76
1
 98
0
  0
ENDBLK
  5
5A
100
AcDbEntity
  8
0
100
AcDbBlockEnd
  0
BLOCK
  5
33
100
AcDbEntity
  8
0
100
AcDbBlockBegin
 62
0
370
13
  2
SUPW_O
 70
0
 10
0
 20
0
 30
0
  3
SUPW.O
  0
HATCH
  5
5B
100
AcDbEntity
  8
0
  6
CONTINUOUS
420
16777215
370
18
100
AcDbHatch
 10
0.0
 20
0.0
 30
0.0
210
0.0
220
0.0
230
1.0
  2
SOLID
 70
1
 71
1
 91
1
 92
3
 72
1
 73
1
 93
2
 10
0.0
 20
-0.5
 42
1.0
 10
0.0
 20
0.5
 42
1.0
 97
0
 75
0
 76
1
 98
0
  0
CIRCLE
  5
5C
100
AcDbEntity
  8
0
  6
CONTINUOUS
 62
0
370
18
100
AcDbCircle
 10
0.0
 20
-0.0
 40
0.5
  0
ENDBLK
  5
5D
100
AcDbEntity
  8
0
100
AcDbBlockEnd
  0
BLOCK
  5
35
100
AcDbEntity
  8
0
100
AcDbBlockBegin
 62
0
370
13
  2
OTRN
 70
0
 10
0
 20
0
 30
0
  3
OTRN
  0
HATCH
  5
5E
100
AcDbEntity
  8
0
  6
CONTINUOUS
 62
0
370
13
100
AcDbHatch
 10
0.0
 20
0.0
 30
0.0
210
0.0
220
0.0
230
1.0
  2
SOLID
 70
1
 71
1
 91
1
 92
3
 72
1
 73
1
 93
2
 10
0.0
 20
-0.090553851381
 42
1.0
 10
0.0
 20
0.090553851381
 42
1.0
 97
0
 75
0
 76
1
 98
0
  0
CIRCLE
  5
5F
100
AcDbEntity
  8
0
  6
CONTINUOUS
 62
0
370
13
100
AcDbCircle
 10
0.0
 20
-0.0
 40
0.090553851381
  0
ENDBLK
  5
60
100
AcDbEntity
  8
0
100
AcDbBlockEnd
  0
BLOCK
  5
37
100
AcDbEntity
  8
0
100
AcDbBlockBegin
 62
0
370
13
  2
SUPW_K
 70
0
 10
0
 20
0
 30
0
  3
SUPW.K
  0
HATCH
  5
61
100
AcDbEntity
  8
0
  6
CONTINUOUS
420
16777215
370
18
100
AcDbHatch
 10
0.0
 20
0.0
 30
0.0
210
0.0
220
0.0
230
1.0
  2
SOLID
 70
1
 71
1
 91
1
 92
3
 72
0
 73
1
 93
4
 10
0.5
 20
0.5
 10
0.5
 20
-0.5
 10
-0.5
 20
-0.5
 10
-0.5
 20
0.5
 97
0
 75
0
 76
1
 98
0
  0
POLYLINE
  5
62
100
AcDbEntity
  8
0
  6
CONTINUOUS
 62
0
370
18
100
AcDb2dPolyline
 66
1
 70
129
  0
VERTEX
  5
63
100
AcDbEntity
  8
0
100
AcDbVertex
100
AcDb2dVertex
 10
0.5
 20
0.5
  0
VERTEX
  5
64
100
AcDbEntity
  8
0
100
AcDbVertex
100
AcDb2dVertex
 10
0.5
 20
-0.5
  0
VERTEX
  5
65
100
AcDbEntity
  8
0
100
AcDbVertex
100
AcDb2dVertex
 10
-0.5
 20
-0.5
  0
VERTEX
  5
66
100
AcDbEntity
  8
0
100
AcDbVertex
100
AcDb2dVertex
 10
-0.5
 20
0.5
  0
SEQEND
  5
67
100
AcDbEntity
  8
0
  0
ENDBLK
  5
68
100
AcDbEntity
  8
0
100
AcDbBlockEnd
  0
BLOCK
  5
39
100
AcDbEntity
  8
0
100
AcDbBlockBegin
 62
0
370
13
  2
L_0_02_1
 70
0
 10
0
 20
0
 30
0
  3
L_0_02_1
  0
POINT
  5
69
100
AcDbEntity
  8
0
100
AcDbPoint
 62
0
 10
0.0
 20
0.0
 30
0.000
  0
ENDBLK
  5
6A
100
AcDbEntity
  8
0
100
AcDbBlockEnd
  0
BLOCK
  5
3B
100
AcDbEntity
  8
0
100
AcDbBlockBegin
 62
0
370
13
  2
L_0_02_2
 70
0
 10
0
 20
0
 30
0
  3
L_0_02_2
  0
POINT
  5
6B
100
AcDbEntity
  8
0
100
AcDbPoint
 62
0
 10
-0.0
 20
-0.0
 30
0.000
  0
ENDBLK
  5
6C
100
AcDbEntity
  8
0
100
AcDbBlockEnd
  0
BLOCK
  5
3D
100
AcDbEntity
  8
0
100
AcDbBlockBegin
 62
0
370
13
  2
KTOK02_500
 70
0
 10
0
 20
0
 30
0
  3
KTOK02_500
  0
ARC
  5
6D
100
AcDbEntity
  8
0
  6
CONTINUOUS
 62
0
370
13
100
AcDbCircle
 10
-3.0000000000
 20
0.0000000000
 30
0
 40
3.0000000000
100
AcDbArc
 50
0.0000000000
 51
60.0183606312
  0
ARC
  5
6E
100
AcDbEntity
  8
0
  6
CONTINUOUS
 62
0
370
13
100
AcDbCircle
 10
3.0000000000
 20
0.0000000000
 30
0
 40
3.0000000000
100
AcDbArc
 50
119.9816393688
 51
180.0000000000
  0
ENDBLK
  5
6F
100
AcDbEntity
  8
0
100
AcDbBlockEnd
  0
BLOCK
  5
3F
100
AcDbEntity
  8
0
100
AcDbBlockBegin
 62
0
370
13
  2
L_2_20_3
 70
0
 10
0
 20
0
 30
0
  3
L_2_20_3
  0
ARC
  5
70
100
AcDbEntity
  8
0
  6
CONTINUOUS
 62
0
370
13
100
AcDbCircle
 10
-3.0000000000
 20
0.0000000000
 30
0
 40
3.0000000000
100
AcDbArc
 50
299.9816393688
 51
0.0000000000
  0
ARC
  5
71
100
AcDbEntity
  8
0
  6
CONTINUOUS
 62
0
370
13
100
AcDbCircle
 10
3.0000000000
 20
0.0000000000
 30
0
 40
3.0000000000
100
AcDbArc
 50
180.0000000000
 51
240.0183606312
  0
ENDBLK
  5
72
100
AcDbEntity
  8
0
100
AcDbBlockEnd
  0
BLOCK
  5
41
100
AcDbEntity
  8
0
100
AcDbBlockBegin
 62
0
370
13
  2
L_2_56_1
 70
0
 10
0
 20
0
 30
0
  3
L_2_56_1
  0
ARC
  5
73
100
AcDbEntity
  8
0
  6
CONTINUOUS
 62
0
370
13
100
AcDbCircle
 10
3.0000000000
 20
0.0000000000
 30
0
 40
3.0000000000
100
AcDbArc
 50
180.0000000000
 51
240.0183606312
  0
ENDBLK
  5
74
100
AcDbEntity
  8
0
100
AcDbBlockEnd
  0
ENDSEC
  0
SECTION
  2
ENTITIES
  0
POLYLINE
  5
75
100
AcDbEntity
  8
Bud_obrys
  6
CONTINUOUS
370
35
100
AcDb2dPolyline
 66
1
 70
128
  0
VERTEX
  5
76
100
AcDbEntity
  8
Bud_obrys
100
AcDbVertex
100
AcDb2dVertex
 10
7565612.12562793866
 20
5722750.88847482204
  0
VERTEX
  5
77
100
AcDbEntity
  8
Bud_obrys
100
AcDbVertex
100
AcDb2dVertex
 10
7565613.48674638197
 20
5722751.5188373588
  0
SEQEND
  5
78
100
AcDbEntity
  8
Bud_obrys
  0
POLYLINE
  5
79
100
AcDbEntity
  8
Bud_obrys
  6
CONTINUOUS
370
35
100
AcDb2dPolyline
 66
1
 70
128
  0
VERTEX
  5
7A
100
AcDbEntity
  8
Bud_obrys
100
AcDbVertex
100
AcDb2dVertex
 10
7565616.7858414799
 20
5722740.83617111761
  0
VERTEX
  5
7B
100
AcDbEntity
  8
Bud_obrys
100
AcDbVertex
100
AcDb2dVertex
 10
7565618.14680625871
 20
5722741.46686511673
  0
SEQEND
  5
7C
100
AcDbEntity
  8
Bud_obrys
  0
POLYLINE
  5
7D
100
AcDbEntity
  8
Bud_obrys
  6
CONTINUOUS
370
35
100
AcDb2dPolyline
 66
1
 70
128
  0
VERTEX
  5
7E
100
AcDbEntity
  8
Bud_obrys
100
AcDbVertex
100
AcDb2dVertex
 10
7565626.66986839473
 20
5722719.51585189067
  0
VERTEX
  5
7F
100
AcDbEntity
  8
Bud_obrys
100
AcDbVertex
100
AcDb2dVertex
 10
7565628.03070660029
 20
5722720.14681891538
  0
SEQEND
  5
80
100
AcDbEntity
  8
Bud_obrys
  0
POLYLINE
  5
81
100
AcDbEntity
  8
Bud_obrys
  6
CONTINUOUS
370
35
100
AcDb2dPolyline
 66
1
 70
128
  0
VERTEX
  5
82
100
AcDbEntity
  8
Bud_obrys
100
AcDbVertex
100
AcDb2dVertex
 10
7565632.08715633862
 20
5722707.83050245885
  0
VERTEX
  5
83
100
AcDbEntity
  8
Bud_obrys
100
AcDbVertex
100
AcDb2dVertex
 10
7565633.4478102671
 20
5722708.46186697576
  0
SEQEND
  5
84
100
AcDbEntity
  8
Bud_obrys
  0
POLYLINE
  5
85
100
AcDbEntity
  8
Bud_obrys
  6
CONTINUOUS
370
35
100
AcDb2dPolyline
 66
1
 70
129
  0
VERTEX
  5
86
100
AcDbEntity
  8
Bud_obrys
100
AcDbVertex
100
AcDb2dVertex
 10
7565606.24666331802
 20
5722748.16300697438
  0
VERTEX
  5
87
100
AcDbEntity
  8
Bud_obrys
100
AcDbVertex
100
AcDb2dVertex
 10
7565612.12562793866
 20
5722750.88847482204
  0
VERTEX
  5
88
100
AcDbEntity
  8
Bud_obrys
100
AcDbVertex
100
AcDb2dVertex
 10
7565616.7858414799
 20
5722740.83617111761
  0
VERTEX
  5
89
100
AcDbEntity
  8
Bud_obrys
100
AcDbVertex
100
AcDb2dVertex
 10
7565610.90687685926
 20
5722738.11070327088
  0
SEQEND
  5
8A
100
AcDbEntity
  8
Bud_obrys
  0
POLYLINE
  5
8B
100
AcDbEntity
  8
Bud_obrys
  6
CONTINUOUS
370
35
100
AcDb2dPolyline
 66
1
 70
129
  0
VERTEX
  5
8C
100
AcDbEntity
  8
Bud_obrys
100
AcDbVertex
100
AcDb2dVertex
 10
7565622.96829807852
 20
5722717.79981657956
  0
VERTEX
  5
8D
100
AcDbEntity
  8
Bud_obrys
100
AcDbVertex
100
AcDb2dVertex
 10
7565626.66986839473
 20
5722719.51585189067
  0
VERTEX
  5
8E
100
AcDbEntity
  8
Bud_obrys
100
AcDbVertex
100
AcDb2dVertex
 10
7565632.08715633862
 20
5722707.83050245885
  0
VERTEX
  5
8F
100
AcDbEntity
  8
Bud_obrys
100
AcDbVertex
100
AcDb2dVertex
 10
7565622.86952045094
 20
5722703.55723805726
  0
VERTEX
  5
90
100
AcDbEntity
  8
Bud_obrys
100
AcDbVertex
100
AcDb2dVertex
 10
7565618.28501434997
 20
5722713.44623718783
  0
VERTEX
  5
91
100
AcDbEntity
  8
Bud_obrys
100
AcDbVertex
100
AcDb2dVertex
 10
7565623.80107992049
 20
5722716.00346627925
  0
SEQEND
  5
92
100
AcDbEntity
  8
Bud_obrys
  0
INSERT
  5
93
100
AcDbEntity
  8
Dzialki
  6
CONTINUOUS
100
AcDbBlockReference
 66
0
  2
L_0_02_1
 10
7565571.46999999974
 20
5722754.08999999985
 41
0.25
 42
0.25
 43
0.25
 50
114.66
  0
INSERT
  5
94
100
AcDbEntity
  8
Dzialki
  6
CONTINUOUS
100
AcDbBlockReference
 66
0
  2
L_0_02_2
 10
7565552.86000000034
 20
5722794.62999999989
 41
0.25
 42
0.25
 43
0.25
 50
294.66
  0
MLINE
  5
95
100
AcDbEntity
  8
Dzialki
  6
L_0_02
370
18
100
AcDbMline
  2
L_0_02
340
7
 40
1.0
 70
1
 71
1
 72
2
 73
1
 10
7565571.46999999974
 20
5722754.08999999985
210
0.0
220
0.0
230
1.0
 11
7565571.46999999974
 21
5722754.08999999985
 12
-0.417194979474
 22
0.908817005289
 13
-0.908817005289
 23
-0.417194979474
 74
3
 41
0.0
 41
0.125
 41
44.482439962195
 75
0
 11
7565552.86000000034
 21
5722794.62999999989
 12
-0.417194979474
 22
0.908817005289
 13
-0.908817005289
 23
-0.417194979474
 74
0
 75
0
  0
INSERT
  5
96
100
AcDbEntity
  8
Dzialki
  6
CONTINUOUS
100
AcDbBlockReference
 66
0
  2
L_0_02_1
 10
7565545.28000000026
 20
5722741.99000000022
 41
0.25
 42
0.25
 43
0.25
 50
24.80
  0
INSERT
  5
97
100
AcDbEntity
  8
Dzialki
  6
CONTINUOUS
100
AcDbBlockReference
 66
0
  2
L_0_02_2
 10
7565571.46999999974
 20
5722754.08999999985
 41
0.25
 42
0.25
 43
0.25
 50
204.80
  0
MLINE
  5
98
100
AcDbEntity
  8
Dzialki
  6
L_0_02
370
18
100
AcDbMline
  2
L_0_02
340
7
 40
1.0
 70
1
 71
1
 72
2
 73
1
 10
7565545.28000000026
 20
5722741.99000000022
210
0.0
220
0.0
230
1.0
 11
7565545.28000000026
 21
5722741.99000000022
 12
0.90779699692
 22
0.419409838206
 13
-0.419409838206
 23
0.90779699692
 74
3
 41
0.0
 41
0.125
 41
28.725062390984
 75
0
 11
7565571.46999999974
 21
5722754.08999999985
 12
0.90779699692
 22
0.419409838206
 13
-0.419409838206
 23
0.90779699692
 74
0
 75
0
  0
INSERT
  5
99
100
AcDbEntity
  8
Dzialki
  6
CONTINUOUS
100
AcDbBlockReference
 66
0
  2
L_0_02_1
 10
7565594.16999999993
 20
5722764.58000000007
 41
0.25
 42
0.25
 43
0.25
 50
114.52
  0
INSERT
  5
9A
100
AcDbEntity
  8
Dzialki
  6
CONTINUOUS
100
AcDbBlockReference
 66
0
  2
L_0_02_2
 10
7565575.66000000015
 20
5722805.15000000037
 41
0.25
 42
0.25
 43
0.25
 50
294.52
  0
MLINE
  5
9B
100
AcDbEntity
  8
Dzialki
  6
L_0_02
370
18
100
AcDbMline
  2
L_0_02
340
7
 40
1.0
 70
1
 71
1
 72
2
 73
1
 10
7565594.16999999993
 20
5722764.58000000007
210
0.0
220
0.0
230
1.0
 11
7565594.16999999993
 21
5722764.58000000007
 12
-0.415086593829
 22
0.909781907725
 13
-0.909781907725
 23
-0.415086593829
 74
3
 41
0.0
 41
0.125
 41
44.46810484835
 75
0
 11
7565575.66000000015
 21
5722805.15000000037
 12
-0.415086593829
 22
0.909781907725
 13
-0.909781907725
 23
-0.415086593829
 74
0
 75
0
  0
INSERT
  5
9C
100
AcDbEntity
  8
Dzialki
  6
CONTINUOUS
100
AcDbBlockReference
 66
0
  2
L_0_02_1
 10
7565571.46999999974
 20
5722754.08999999985
 41
0.25
 42
0.25
 43
0.25
 50
24.80
  0
INSERT
  5
9D
100
AcDbEntity
  8
Dzialki
  6
CONTINUOUS
100
AcDbBlockReference
 66
0
  2
L_0_02_2
 10
7565594.16999999993
 20
5722764.58000000007
 41
0.25
 42
0.25
 43
0.25
 50
204.80
  0
MLINE
  5
9E
100
AcDbEntity
  8
Dzialki
  6
L_0_02
370
18
100
AcDbMline
  2
L_0_02
340
7
 40
1.0
 70
1
 71
1
 72
2
 73
1
 10
7565571.46999999974
 20
5722754.08999999985
210
0.0
220
0.0
230
1.0
 11
7565571.46999999974
 21
5722754.08999999985
 12
0.9077603103
 22
0.41948923591
 13
-0.41948923591
 23
0.9077603103
 74
3
 41
0.0
 41
0.125
 41
24.881601128765
 75
0
 11
7565594.16999999993
 21
5722764.58000000007
 12
0.9077603103
 22
0.41948923591
 13
-0.41948923591
 23
0.9077603103
 74
0
 75
0
  0
INSERT
  5
9F
100
AcDbEntity
  8
Dzialki
  6
CONTINUOUS
100
AcDbBlockReference
 66
0
  2
L_0_02_1
 10
7565742.11000000034
 20
5722436.53000000026
 41
0.25
 42
0.25
 43
0.25
 50
114.86
  0
INSERT
  5
A0
100
AcDbEntity
  8
Dzialki
  6
CONTINUOUS
100
AcDbBlockReference
 66
0
  2
L_0_02_2
 10
7565592.13999999966
 20
5722760.25
 41
0.25
 42
0.25
 43
0.25
 50
294.86
  0
MLINE
  5
A1
100
AcDbEntity
  8
Dzialki
  6
L_0_02
370
18
100
AcDbMline
  2
L_0_02
340
7
 40
1.0
 70
1
 71
1
 72
2
 73
1
 10
7565742.11000000034
 20
5722436.53000000026
210
0.0
220
0.0
230
1.0
 11
7565742.11000000034
 21
5722436.53000000026
 12
-0.420353518915
 22
0.907360413031
 13
-0.907360413031
 23
-0.420353518915
 74
3
 41
0.0
 41
0.125
 41
356.646130138121
 75
0
 11
7565592.13999999966
 21
5722760.25
 12
-0.420353518915
 22
0.907360413031
 13
-0.907360413031
 23
-0.420353518915
 74
0
 75
0
  0
INSERT
  5
A2
100
AcDbEntity
  8
Dzialki
  6
CONTINUOUS
100
AcDbBlockReference
 66
0
  2
L_0_02_1
 10
7565592.13999999966
 20
5722760.25
 41
0.25
 42
0.25
 43
0.25
 50
204.88
  0
INSERT
  5
A3
100
AcDbEntity
  8
Dzialki
  6
CONTINUOUS
100
AcDbBlockReference
 66
0
  2
L_0_02_2
 10
7565577.91000000015
 20
5722753.65000000037
 41
0.25
 42
0.25
 43
0.25
 50
24.88
  0
MLINE
  5
A4
100
AcDbEntity
  8
Dzialki
  6
L_0_02
370
18
100
AcDbMline
  2
L_0_02
340
7
 40
1.0
 70
1
 71
1
 72
2
 73
1
 10
7565592.13999999966
 20
5722760.25
210
0.0
220
0.0
230
1.0
 11
7565592.13999999966
 21
5722760.25
 12
-0.907174128279
 22
-0.420755393289
 13
0.420755393289
 23
-0.907174128279
 74
3
 41
0.0
 41
0.125
 41
15.561073440517
 75
0
 11
7565577.91000000015
 21
5722753.65000000037
 12
-0.907174128279
 22
-0.420755393289
 13
0.420755393289
 23
-0.907174128279
 74
0
 75
0
  0
INSERT
  5
A5
100
AcDbEntity
  8
Dzialki
  6
CONTINUOUS
100
AcDbBlockReference
 66
0
  2
L_0_02_1
 10
7565577.91000000015
 20
5722753.65000000037
 41
0.25
 42
0.25
 43
0.25
 50
294.84
  0
INSERT
  5
A6
100
AcDbEntity
  8
Dzialki
  6
CONTINUOUS
100
AcDbBlockReference
 66
0
  2
L_0_02_2
 10
7565727.63999999966
 20
5722430.19000000041
 41
0.25
 42
0.25
 43
0.25
 50
114.84
  0
MLINE
  5
A7
100
AcDbEntity
  8
Dzialki
  6
L_0_02
370
18
100
AcDbMline
  2
L_0_02
340
7
 40
1.0
 70
1
 71
1
 72
2
 73
1
 10
7565577.91000000015
 20
5722753.65000000037
210
0.0
220
0.0
230
1.0
 11
7565577.91000000015
 21
5722753.65000000037
 12
0.420077360111
 22
-0.907488298284
 13
0.907488298284
 23
0.420077360111
 74
3
 41
0.0
 41
0.125
 41
356.309348092087
 75
0
 11
7565727.63999999966
 21
5722430.19000000041
 12
0.420077360111
 22
-0.907488298284
 13
0.907488298284
 23
0.420077360111
 74
0
 75
0
  0
INSERT
  5
A8
100
AcDbEntity
  8
Dzialki
  6
CONTINUOUS
100
AcDbBlockReference
 66
0
  2
L_0_02_1
 10
7565625.9299999997
 20
5722779.25
 41
0.25
 42
0.25
 43
0.25
 50
24.79
  0
INSERT
  5
A9
100
AcDbEntity
  8
Dzialki
  6
CONTINUOUS
100
AcDbBlockReference
 66
0
  2
L_0_02_2
 10
7565641.8200000003
 20
5722786.58999999985
 41
0.25
 42
0.25
 43
0.25
 50
204.79
  0
MLINE
  5
AA
100
AcDbEntity
  8
Dzialki
  6
L_0_02
370
18
100
AcDbMline
  2
L_0_02
340
7
 40
1.0
 70
1
 71
1
 72
2
 73
1
 10
7565625.9299999997
 20
5722779.25
210
0.0
220
0.0
230
1.0
 11
7565625.9299999997
 21
5722779.25
 12
0.907825566042
 22
0.419347995869
 13
-0.419347995869
 23
0.907825566042
 74
3
 41
0.0
 41
0.125
 41
17.378362534575
 75
0
 11
7565641.8200000003
 21
5722786.58999999985
 12
0.907825566042
 22
0.419347995869
 13
-0.419347995869
 23
0.907825566042
 74
0
 75
0
  0
INSERT
  5
AB
100
AcDbEntity
  8
Dzialki
  6
CONTINUOUS
100
AcDbBlockReference
 66
0
  2
L_0_02_1
 10
7565594.16999999993
 20
5722764.58000000007
 41
0.25
 42
0.25
 43
0.25
 50
24.79
  0
INSERT
  5
AC
100
AcDbEntity
  8
Dzialki
  6
CONTINUOUS
100
AcDbBlockReference
 66
0
  2
L_0_02_2
 10
7565625.9299999997
 20
5722779.25
 41
0.25
 42
0.25
 43
0.25
 50
204.79
  0
MLINE
  5
AD
100
AcDbEntity
  8
Dzialki
  6
L_0_02
370
18
100
AcDbMline
  2
L_0_02
340
7
 40
1.0
 70
1
 71
1
 72
2
 73
1
 10
7565594.16999999993
 20
5722764.58000000007
210
0.0
220
0.0
230
1.0
 11
7565594.16999999993
 21
5722764.58000000007
 12
0.907833852226
 22
0.419330057059
 13
-0.419330057059
 23
0.907833852226
 74
3
 41
0.0
 41
0.125
 41
34.859375083509
 75
0
 11
7565625.9299999997
 21
5722779.25
 12
0.907833852226
 22
0.419330057059
 13
-0.419330057059
 23
0.907833852226
 74
0
 75
0
  0
INSERT
  5
AE
100
AcDbEntity
  8
Dzialki
  6
CONTINUOUS
100
AcDbBlockReference
 66
0
  2
L_0_02_1
 10
7565577.91000000015
 20
5722753.65000000037
 41
0.25
 42
0.25
 43
0.25
 50
204.92
  0
INSERT
  5
AF
100
AcDbEntity
  8
Dzialki
  6
CONTINUOUS
100
AcDbBlockReference
 66
0
  2
L_0_02_2
 10
7565563.6799999997
 20
5722747.04000000004
 41
0.25
 42
0.25
 43
0.25
 50
24.92
  0
MLINE
  5
B0
100
AcDbEntity
  8
Dzialki
  6
L_0_02
370
18
100
AcDbMline
  2
L_0_02
340
7
 40
1.0
 70
1
 71
1
 72
2
 73
1
 10
7565577.91000000015
 20
5722753.65000000037
210
0.0
220
0.0
230
1.0
 11
7565577.91000000015
 21
5722753.65000000037
 12
-0.906930706084
 22
-0.421279829047
 13
0.421279829047
 23
-0.906930706084
 74
3
 41
0.0
 41
0.125
 41
15.565283618124
 75
0
 11
7565563.6799999997
 21
5722747.04000000004
 12
-0.906930706084
 22
-0.421279829047
 13
0.421279829047
 23
-0.906930706084
 74
0
 75
0
  0
INSERT
  5
B1
100
AcDbEntity
  8
Dzialki
  6
CONTINUOUS
100
AcDbBlockReference
 66
0
  2
L_0_02_1
 10
7565592.13999999966
 20
5722760.25
 41
0.25
 42
0.25
 43
0.25
 50
24.95
  0
INSERT
  5
B2
100
AcDbEntity
  8
Dzialki
  6
CONTINUOUS
100
AcDbBlockReference
 66
0
  2
L_0_02_2
 10
7565606.37000000011
 20
5722766.87000000011
 41
0.25
 42
0.25
 43
0.25
 50
204.95
  0
MLINE
  5
B3
100
AcDbEntity
  8
Dzialki
  6
L_0_02
370
18
100
AcDbMline
  2
L_0_02
340
7
 40
1.0
 70
1
 71
1
 72
2
 73
1
 10
7565592.13999999966
 20
5722760.25
210
0.0
220
0.0
230
1.0
 11
7565592.13999999966
 21
5722760.25
 12
0.906687111652
 22
0.421803842519
 13
-0.421803842519
 23
0.906687111652
 74
3
 41
0.0
 41
0.125
 41
15.569499036739
 75
0
 11
7565606.37000000011
 21
5722766.87000000011
 12
0.906687111652
 22
0.421803842519
 13
-0.421803842519
 23
0.906687111652
 74
0
 75
0
  0
INSERT
  5
B4
100
AcDbEntity
  8
Dzialki
  6
CONTINUOUS
100
AcDbBlockReference
 66
0
  2
L_0_02_1
 10
7565606.37000000011
 20
5722766.87000000011
 41
0.25
 42
0.25
 43
0.25
 50
24.93
  0
INSERT
  5
B5
100
AcDbEntity
  8
Dzialki
  6
CONTINUOUS
100
AcDbBlockReference
 66
0
  2
L_0_02_2
 10
7565620.70000000019
 20
5722773.53000000026
 41
0.25
 42
0.25
 43
0.25
 50
204.93
  0
MLINE
  5
B6
100
AcDbEntity
  8
Dzialki
  6
L_0_02
370
18
100
AcDbMline
  2
L_0_02
340
7
 40
1.0
 70
1
 71
1
 72
2
 73
1
 10
7565606.37000000011
 20
5722766.87000000011
210
0.0
220
0.0
230
1.0
 11
7565606.37000000011
 21
5722766.87000000011
 12
0.906844881192
 22
0.421464543534
 13
-0.421464543534
 23
0.906844881192
 74
3
 41
0.0
 41
0.125
 41
15.677041007545
 75
0
 11
7565620.70000000019
 21
5722773.53000000026
 12
0.906844881192
 22
0.421464543534
 13
-0.421464543534
 23
0.906844881192
 74
0
 75
0
  0
INSERT
  5
B7
100
AcDbEntity
  8
Dzialki
  6
CONTINUOUS
100
AcDbBlockReference
 66
0
  2
L_0_02_1
 10
7565620.70000000019
 20
5722773.53000000026
 41
0.25
 42
0.25
 43
0.25
 50
24.95
  0
INSERT
  5
B8
100
AcDbEntity
  8
Dzialki
  6
CONTINUOUS
100
AcDbBlockReference
 66
0
  2
L_0_02_2
 10
7565634.9299999997
 20
5722780.15000000037
 41
0.25
 42
0.25
 43
0.25
 50
204.95
  0
MLINE
  5
B9
100
AcDbEntity
  8
Dzialki
  6
L_0_02
370
18
100
AcDbMline
  2
L_0_02
340
7
 40
1.0
 70
1
 71
1
 72
2
 73
1
 10
7565620.70000000019
 20
5722773.53000000026
210
0.0
220
0.0
230
1.0
 11
7565620.70000000019
 21
5722773.53000000026
 12
0.906687111642
 22
0.421803842542
 13
-0.421803842542
 23
0.906687111642
 74
3
 41
0.0
 41
0.125
 41
15.569499035895
 75
0
 11
7565634.9299999997
 21
5722780.15000000037
 12
0.906687111642
 22
0.421803842542
 13
-0.421803842542
 23
0.906687111642
 74
0
 75
0
  0
INSERT
  5
BA
100
AcDbEntity
  8
Dzialki
  6
CONTINUOUS
100
AcDbBlockReference
 66
0
  2
L_0_02_1
 10
7565696.09999999963
 20
5722611.01999999862
 41
0.25
 42
0.25
 43
0.25
 50
114.89
  0
INSERT
  5
BB
100
AcDbEntity
  8
Dzialki
  6
CONTINUOUS
100
AcDbBlockReference
 66
0
  2
L_0_02_2
 10
7565620.70000000019
 20
5722773.53000000026
 41
0.25
 42
0.25
 43
0.25
 50
294.89
  0
MLINE
  5
BC
100
AcDbEntity
  8
Dzialki
  6
L_0_02
370
18
100
AcDbMline
  2
L_0_02
340
7
 40
1.0
 70
1
 71
1
 72
2
 73
1
 10
7565696.09999999963
 20
5722611.01999999862
210
0.0
220
0.0
230
1.0
 11
7565696.09999999963
 21
5722611.01999999862
 12
-0.42087676973
 22
0.907117822944
 13
-0.907117822944
 23
-0.42087676973
 74
3
 41
0.0
 41
0.125
 41
179.024825845432
 75
0
 11
7565620.70000000019
 21
5722773.53000000026
 12
-0.42087676973
 22
0.907117822944
 13
-0.907117822944
 23
-0.42087676973
 74
0
 75
0
  0
INSERT
  5
BD
100
AcDbEntity
  8
Dzialki
  6
CONTINUOUS
100
AcDbBlockReference
 66
0
  2
L_0_02_1
 10
7565606.37000000011
 20
5722766.87000000011
 41
0.25
 42
0.25
 43
0.25
 50
294.87
  0
INSERT
  5
BE
100
AcDbEntity
  8
Dzialki
  6
CONTINUOUS
100
AcDbBlockReference
 66
0
  2
L_0_02_2
 10
7565681.5700000003
 20
5722604.66000000015
 41
0.25
 42
0.25
 43
0.25
 50
114.87
  0
MLINE
  5
BF
100
AcDbEntity
  8
Dzialki
  6
L_0_02
370
18
100
AcDbMline
  2
L_0_02
340
7
 40
1.0
 70
1
 71
1
 72
2
 73
1
 10
7565606.37000000011
 20
5722766.87000000011
210
0.0
220
0.0
230
1.0
 11
7565606.37000000011
 21
5722766.87000000011
 12
0.420596889999
 22
-0.907247626684
 13
0.907247626684
 23
0.420596889999
 74
3
 41
0.0
 41
0.125
 41
178.668523652329
 75
0
 11
7565681.5700000003
 21
5722604.66000000015
 12
0.420596889999
 22
-0.907247626684
 13
0.907247626684
 23
0.420596889999
 74
0
 75
0
  0
INSERT
  5
C0
100
AcDbEntity
  8
Dzialki
  6
CONTINUOUS
100
AcDbBlockReference
 66
0
  2
L_0_02_1
 10
7565625.9299999997
 20
5722779.25
 41
0.25
 42
0.25
 43
0.25
 50
115.91
  0
INSERT
  5
C1
100
AcDbEntity
  8
Dzialki
  6
CONTINUOUS
100
AcDbBlockReference
 66
0
  2
L_0_02_2
 10
7565616.02999999654
 20
5722799.62999999709
 41
0.25
 42
0.25
 43
0.25
 50
295.91
  0
MLINE
  5
C2
100
AcDbEntity
  8
Dzialki
  6
L_0_02
370
18
100
AcDbMline
  2
L_0_02
340
7
 40
1.0
 70
1
 71
1
 72
2
 73
1
 10
7565625.9299999997
 20
5722779.25
210
0.0
220
0.0
230
1.0
 11
7565625.9299999997
 21
5722779.25
 12
-0.436944774981
 22
0.899488334342
 13
-0.899488334342
 23
-0.436944774981
 74
3
 41
0.0
 41
0.125
 41
22.532325524966
 75
0
 11
7565616.02999999654
 21
5722799.62999999709
 12
-0.436944774981
 22
0.899488334342
 13
-0.899488334342
 23
-0.436944774981
 74
0
 75
0
  0
POLYLINE
  5
C3
100
AcDbEntity
  8
osie_bud
  6
CONTINUOUS
370
18
100
AcDb2dPolyline
 66
1
 70
128
  0
VERTEX
  5
C4
100
AcDbEntity
  8
osie_bud
100
AcDbVertex
100
AcDb2dVertex
 10
7565626.51426217053
 20
5722719.09110369813
  0
VERTEX
  5
C5
100
AcDbEntity
  8
osie_bud
100
AcDbVertex
100
AcDb2dVertex
 10
7565631.66210471373
 20
5722707.98670271877
  0
SEQEND
  5
C6
100
AcDbEntity
  8
osie_bud
  0
POLYLINE
  5
C7
100
AcDbEntity
  8
osie_bud
  6
CONTINUOUS
370
18
100
AcDb2dPolyline
 66
1
 70
128
  0
VERTEX
  5
C8
100
AcDbEntity
  8
osie_bud
100
AcDbVertex
100
AcDb2dVertex
 10
7565631.66210471373
 20
5722707.98670271877
  0
VERTEX
  5
C9
100
AcDbEntity
  8
osie_bud
100
AcDbVertex
100
AcDb2dVertex
 10
7565623.02570392657
 20
5722703.98193143029
  0
SEQEND
  5
CA
100
AcDbEntity
  8
osie_bud
  0
POLYLINE
  5
CB
100
AcDbEntity
  8
osie_bud
  6
CONTINUOUS
370
18
100
AcDb2dPolyline
 66
1
 70
128
  0
VERTEX
  5
CC
100
AcDbEntity
  8
osie_bud
100
AcDbVertex
100
AcDb2dVertex
 10
7565623.39309215266
 20
5722717.64409495704
  0
VERTEX
  5
CD
100
AcDbEntity
  8
osie_bud
100
AcDbVertex
100
AcDb2dVertex
 10
7565628.54109215178
 20
5722706.54009495676
  0
SEQEND
  5
CE
100
AcDbEntity
  8
osie_bud
  0
POLYLINE
  5
CF
100
AcDbEntity
  8
osie_bud
  6
CONTINUOUS
370
18
100
AcDb2dPolyline
 66
1
 70
128
  0
VERTEX
  5
D0
100
AcDbEntity
  8
osie_bud
100
AcDbVertex
100
AcDb2dVertex
 10
7565620.94345023576
 20
5722716.50834778603
  0
VERTEX
  5
D1
100
AcDbEntity
  8
osie_bud
100
AcDbVertex
100
AcDb2dVertex
 10
7565626.09145023581
 20
5722705.40434778575
  0
SEQEND
  5
D2
100
AcDbEntity
  8
osie_bud
  0
POLYLINE
  5
D3
100
AcDbEntity
  8
osie_bud
  6
CONTINUOUS
370
18
100
AcDb2dPolyline
 66
1
 70
128
  0
VERTEX
  5
D4
100
AcDbEntity
  8
osie_bud
100
AcDbVertex
100
AcDb2dVertex
 10
7565617.87652659137
 20
5722715.08633167297
  0
VERTEX
  5
D5
100
AcDbEntity
  8
osie_bud
100
AcDbVertex
100
AcDb2dVertex
 10
7565623.02452659141
 20
5722703.98233167268
  0
SEQEND
  5
D6
100
AcDbEntity
  8
osie_bud
  0
POLYLINE
  5
D7
100
AcDbEntity
  8
osie_bud
  6
CONTINUOUS
370
18
100
AcDb2dPolyline
 66
1
 70
128
  0
VERTEX
  5
D8
100
AcDbEntity
  8
osie_bud
100
AcDbVertex
100
AcDb2dVertex
 10
7565630.29887948651
 20
5722710.92630305793
  0
VERTEX
  5
D9
100
AcDbEntity
  8
osie_bud
100
AcDbVertex
100
AcDb2dVertex
 10
7565621.66287948657
 20
5722706.92130305804
  0
SEQEND
  5
DA
100
AcDbEntity
  8
osie_bud
  0
POLYLINE
  5
DB
100
AcDbEntity
  8
osie_bud
  6
CONTINUOUS
370
18
100
AcDb2dPolyline
 66
1
 70
128
  0
VERTEX
  5
DC
100
AcDbEntity
  8
osie_bud
100
AcDbVertex
100
AcDb2dVertex
 10
7565629.35659569502
 20
5722712.95811075624
  0
VERTEX
  5
DD
100
AcDbEntity
  8
osie_bud
100
AcDbVertex
100
AcDb2dVertex
 10
7565620.72059569508
 20
5722708.95311075635
  0
SEQEND
  5
DE
100
AcDbEntity
  8
osie_bud
  0
POLYLINE
  5
DF
100
AcDbEntity
  8
osie_bud
  6
CONTINUOUS
370
18
100
AcDb2dPolyline
 66
1
 70
128
  0
VERTEX
  5
E0
100
AcDbEntity
  8
osie_bud
100
AcDbVertex
100
AcDb2dVertex
 10
7565627.34597652778
 20
5722717.29437920265
  0
VERTEX
  5
E1
100
AcDbEntity
  8
osie_bud
100
AcDbVertex
100
AcDb2dVertex
 10
7565618.70997652784
 20
5722713.28937920276
  0
SEQEND
  5
E2
100
AcDbEntity
  8
osie_bud
  0
POLYLINE
  5
E3
100
AcDbEntity
  8
osie_bud
  6
CONTINUOUS
370
18
100
AcDb2dPolyline
 66
1
 70
128
  0
VERTEX
  5
E4
100
AcDbEntity
  8
osie_bud
100
AcDbVertex
100
AcDb2dVertex
 10
7565626.5129819084
 20
5722719.09024075791
  0
VERTEX
  5
E5
100
AcDbEntity
  8
osie_bud
100
AcDbVertex
100
AcDb2dVertex
 10
7565617.87698190846
 20
5722715.08524075802
  0
SEQEND
  5
E6
100
AcDbEntity
  8
osie_bud
  0
POLYLINE
  5
E7
100
AcDbEntity
  8
osie_bud
  6
CONTINUOUS
370
18
100
AcDb2dPolyline
 66
1
 70
128
  0
VERTEX
  5
E8
100
AcDbEntity
  8
osie_bud
100
AcDbVertex
100
AcDb2dVertex
 10
7565625.24243705347
 20
5722721.82972075138
  0
VERTEX
  5
E9
100
AcDbEntity
  8
osie_bud
100
AcDbVertex
100
AcDb2dVertex
 10
7565619.67336894199
 20
5722719.24702994712
  0
SEQEND
  5
EA
100
AcDbEntity
  8
osie_bud
  0
POLYLINE
  5
EB
100
AcDbEntity
  8
osie_bud
  6
CONTINUOUS
370
18
100
AcDb2dPolyline
 66
1
 70
128
  0
VERTEX
  5
EC
100
AcDbEntity
  8
osie_bud
100
AcDbVertex
100
AcDb2dVertex
 10
7565632.37190736737
 20
5722704.43634632323
  0
VERTEX
  5
ED
100
AcDbEntity
  8
osie_bud
100
AcDbVertex
100
AcDb2dVertex
 10
7565625.27800043765
 20
5722701.14685237966
  0
SEQEND
  5
EE
100
AcDbEntity
  8
osie_bud
  0
POLYLINE
  5
EF
100
AcDbEntity
  8
osie_bud
  6
CONTINUOUS
370
18
100
AcDb2dPolyline
 66
1
 70
128
  0
VERTEX
  5
F0
100
AcDbEntity
  8
osie_bud
100
AcDbVertex
100
AcDb2dVertex
 10
7565626.51426217053
 20
5722719.09110369813
  0
VERTEX
  5
F1
100
AcDbEntity
  8
osie_bud
100
AcDbVertex
100
AcDb2dVertex
 10
7565625.24243705347
 20
5722721.82972075138
  0
SEQEND
  5
F2
100
AcDbEntity
  8
osie_bud
  0
POLYLINE
  5
F3
100
AcDbEntity
  8
osie_bud
  6
CONTINUOUS
370
18
100
AcDb2dPolyline
 66
1
 70
128
  0
VERTEX
  5
F4
100
AcDbEntity
  8
osie_bud
100
AcDbVertex
100
AcDb2dVertex
 10
7565620.94345023576
 20
5722716.50834778603
  0
VERTEX
  5
F5
100
AcDbEntity
  8
osie_bud
100
AcDbVertex
100
AcDb2dVertex
 10
7565619.67336894199
 20
5722719.24702994712
  0
SEQEND
  5
F6
100
AcDbEntity
  8
osie_bud
  0
POLYLINE
  5
F7
100
AcDbEntity
  8
osie_bud
  6
CONTINUOUS
370
18
100
AcDb2dPolyline
 66
1
 70
128
  0
VERTEX
  5
F8
100
AcDbEntity
  8
osie_bud
100
AcDbVertex
100
AcDb2dVertex
 10
7565623.79600043781
 20
5722704.33985237964
  0
VERTEX
  5
F9
100
AcDbEntity
  8
osie_bud
100
AcDbVertex
100
AcDb2dVertex
 10
7565625.27800043765
 20
5722701.14685237966
  0
SEQEND
  5
FA
100
AcDbEntity
  8
osie_bud
  0
POLYLINE
  5
FB
100
AcDbEntity
  8
osie_bud
  6
CONTINUOUS
370
18
100
AcDb2dPolyline
 66
1
 70
128
  0
VERTEX
  5
FC
100
AcDbEntity
  8
osie_bud
100
AcDbVertex
100
AcDb2dVertex
 10
7565630.89090736676
 20
5722707.6293463232
  0
VERTEX
  5
FD
100
AcDbEntity
  8
osie_bud
100
AcDbVertex
100
AcDb2dVertex
 10
7565632.37190736737
 20
5722704.43634632323
  0
SEQEND
  5
FE
100
AcDbEntity
  8
osie_bud
  0
POLYLINE
  5
FF
100
AcDbEntity
  8
osie_bud
  6
CONTINUOUS
370
18
100
AcDb2dPolyline
 66
1
 70
129
  0
VERTEX
  5
100
100
AcDbEntity
  8
osie_bud
100
AcDbVertex
100
AcDb2dVertex
 10
7565606.40634411573
 20
5722748.10459422972
  0
VERTEX
  5
101
100
AcDbEntity
  8
osie_bud
100
AcDbVertex
100
AcDb2dVertex
 10
7565612.06759784184
 20
5722750.7286657393
  0
VERTEX
  5
102
100
AcDbEntity
  8
osie_bud
100
AcDbVertex
100
AcDb2dVertex
 10
7565616.62665588502
 20
5722740.89440577012
  0
VERTEX
  5
103
100
AcDbEntity
  8
osie_bud
100
AcDbVertex
100
AcDb2dVertex
 10
7565610.96540215798
 20
5722738.27033426054
  0
SEQEND
  5
104
100
AcDbEntity
  8
osie_bud
  0
POINT
  5
105
100
AcDbEntity
  8
Bud_obrys
100
AcDbPoint
 62
256
 10
7565592.13999999966
 20
5722760.25
  0
POINT
  5
106
100
AcDbEntity
  8
Bud_obrys
100
AcDbPoint
 62
256
 10
7565606.37000000011
 20
5722766.87000000011
  0
POINT
  5
107
100
AcDbEntity
  8
Dzialki
100
AcDbPoint
 62
256
 10
7565681.5700000003
 20
5722604.66000000015
  0
TEXT
  5
108
100
AcDbEntity
  8
Bud_obrys
370
15
100
AcDbText
 39
0.15
 10
7565608.55968477298
 20
5722749.31637074798
 40
0.38
  1
-6.480-
 50
-335.00
 41
0.66
  7
STANDARD
 72
1
 11
7565609.20727654081
 21
5722749.48042550869
100
AcDbText
 73
1
  0
TEXT
  5
109
100
AcDbEntity
  8
Bud_obrys
370
15
100
AcDbText
 39
0.15
 10
7565614.20674409717
 20
5722746.57375017926
 40
0.38
  1
-11.080-
 50
-65.00
 41
0.66
  7
STANDARD
 72
1
 11
7565614.41041931976
 21
5722745.84119205642
100
AcDbText
 73
1
  0
TEXT
  5
10A
100
AcDbEntity
  8
Bud_obrys
370
15
100
AcDbText
 39
0.15
 10
7565613.57523551118
 20
5722738.79265676346
 40
0.38
  1
-6.480-
 50
-335.00
 41
0.66
  7
STANDARD
 72
1
 11
7565614.22282727901
 21
5722738.95671152417
100
AcDbText
 73
1
  0
TEXT
  5
10B
100
AcDbEntity
  8
Bud_obrys
370
15
100
AcDbText
 39
0.15
 10
7565607.79303630069
 20
5722743.79973083735
 40
0.38
  1
-11.080-
 50
-65.00
 41
0.66
  7
STANDARD
 72
1
 11
7565607.99671152327
 21
5722743.06717271451
100
AcDbText
 73
1
  0
TEXT
  5
10C
100
AcDbEntity
  8
Bud_obrys
370
15
100
AcDbText
 39
0.15
 10
7565611.37125161756
 20
5722743.75988664944
 40
0.38
  1
-12.835-
 50
-275.40
 41
0.66
  7
STANDARD
 72
1
 11
7565611.56627809815
 21
5722744.49479458388
100
AcDbText
 73
1
  0
TEXT
  5
10D
100
AcDbEntity
  8
Bud_obrys
370
15
100
AcDbText
 39
0.15
 10
7565611.56413808931
 20
5722744.50803517271
 40
0.38
  1
-12.836-
 50
-34.80
 41
0.66
  7
STANDARD
 72
1
 11
7565612.10866080038
 21
5722743.97735634632
100
AcDbText
 73
1
  0
TEXT
  5
10E
100
AcDbEntity
  8
Bud_obrys
370
15
100
AcDbText
 39
0.15
 10
7565624.19262238126
 20
5722718.44846408535
 40
0.38
  1
-4.080-
 50
-335.00
 41
0.66
  7
STANDARD
 72
1
 11
7565624.8402141491
 21
5722718.61251884606
100
AcDbText
 73
1
  0
TEXT
  5
10F
100
AcDbEntity
  8
Bud_obrys
370
15
100
AcDbText
 39
0.15
 10
7565629.12952175457
 20
5722714.38460438512
 40
0.38
  1
-12.880-
 50
-65.00
 41
0.66
  7
STANDARD
 72
1
 11
7565629.33319697715
 21
5722713.65204626229
100
AcDbText
 73
1
  0
TEXT
  5
110
100
AcDbEntity
  8
Bud_obrys
370
15
100
AcDbText
 39
0.15
 10
7565627.18026915658
 20
5722704.85303630121
 40
0.38
  1
-10.160-
 50
-335.00
 41
0.66
  7
STANDARD
 72
1
 11
7565627.91282727942
 21
5722705.05671152379
100
AcDbText
 73
1
  0
TEXT
  5
111
100
AcDbEntity
  8
Bud_obrys
370
15
100
AcDbText
 39
0.15
 10
7565619.85303630028
 20
5722709.01973083708
 40
0.38
  1
-10.900-
 50
-65.00
 41
0.66
  7
STANDARD
 72
1
 11
7565620.05671152286
 21
5722708.28717271425
100
AcDbText
 73
1
  0
TEXT
  5
112
100
AcDbEntity
  8
Bud_obrys
370
15
100
AcDbText
 39
0.15
 10
7565620.4165862808
 20
5722714.51548158284
 40
0.38
  1
-6.080-
 50
-335.00
 41
0.66
  7
STANDARD
 72
1
 11
7565621.06417804863
 21
5722714.67953634355
100
AcDbText
 73
1
  0
TEXT
  5
113
100
AcDbEntity
  8
Bud_obrys
370
15
100
AcDbText
 39
0.15
 10
7565622.78265676182
 20
5722717.2447644826
 40
0.38
  1
-1.981-
 50
-65.00
 41
0.66
  7
STANDARD
 72
1
 11
7565622.94671152253
 21
5722716.59717271477
100
AcDbText
 73
1
  0
MTEXT
  5
114
100
AcDbEntity
  8
Bud_obrys
370
20
100
AcDbMText
 10
7565613.48674638197
 20
5722751.5188373588
 40
0.5000
 41
0.0
 71
6
 72
1
  1
\W0.6563x;16.92
  7
STANDARD
 11
-0.90704401
 21
-0.42103581
 44
0.90
 90
3
 63
0
 45
1.0
  0
MTEXT
  5
115
100
AcDbEntity
  8
Bud_obrys
370
20
100
AcDbMText
 10
7565612.8484767722
 20
5722751.11271427851
 40
0.5000
 41
0.0
 71
8
 72
1
  1
\W0.6563x;1.50
  7
STANDARD
 11
-0.90704401
 21
-0.42103581
 44
0.90
 90
3
 63
0
 45
1.0
  0
MTEXT
  5
116
100
AcDbEntity
  8
Bud_obrys
370
20
100
AcDbMText
 10
7565618.14680625871
 20
5722741.46686511673
 40
0.5000
 41
0.0
 71
6
 72
1
  1
\W0.6563x;28.00
  7
STANDARD
 11
-0.90704401
 21
-0.42103581
 44
0.90
 90
3
 63
0
 45
1.0
  0
MTEXT
  5
117
100
AcDbEntity
  8
Bud_obrys
370
20
100
AcDbMText
 10
7565617.50850671064
 20
5722741.06072815787
 40
0.5000
 41
0.0
 71
8
 72
1
  1
\W0.6563x;1.50
  7
STANDARD
 11
-0.90704401
 21
-0.42103581
 44
0.90
 90
3
 63
0
 45
1.0
  0
MTEXT
  5
118
100
AcDbEntity
  8
Bud_obrys
370
20
100
AcDbMText
 10
7565628.03070660029
 20
5722720.14681891538
 40
0.5000
 41
0.0
 71
6
 72
1
  1
\W0.6563x;51.50
  7
STANDARD
 11
-0.90704401
 21
-0.42103581
 44
0.90
 90
3
 63
0
 45
1.0
  0
MTEXT
  5
119
100
AcDbEntity
  8
Bud_obrys
370
20
100
AcDbMText
 10
7565627.07999999635
 20
5722720.51999999676
 40
0.5000
 41
0.0
 71
8
 72
1
  1
\W0.6563x;1.50
  7
STANDARD
 11
-0.90704401
 21
-0.42103581
 44
0.90
 90
3
 63
0
 45
1.0
  0
MTEXT
  5
11A
100
AcDbEntity
  8
Bud_obrys
370
20
100
AcDbMText
 10
7565633.4478102671
 20
5722708.46186697576
 40
0.5000
 41
0.0
 71
6
 72
1
  1
\W0.6563x;64.38
  7
STANDARD
 11
-0.90704401
 21
-0.42103581
 44
0.90
 90
3
 63
0
 45
1.0
  0
MTEXT
  5
11B
100
AcDbEntity
  8
Bud_obrys
370
20
100
AcDbMText
 10
7565632.53999999631
 20
5722708.79999999702
 40
0.5000
 41
0.0
 71
8
 72
1
  1
\W0.6563x;1.50
  7
STANDARD
 11
-0.90704401
 21
-0.42103581
 44
0.90
 90
3
 63
0
 45
1.0
  0
TEXT
  5
11C
100
AcDbEntity
  8
osie_bud
370
15
100
AcDbText
 39
0.15
 10
7565608.83238471206
 20
5722748.7314482471
 40
0.38
  1
-6.240-
 50
-335.00
 41
0.66
  7
STANDARD
 72
1
 11
7565609.26866734866
 21
5722749.34865690116
100
AcDbText
 73
3
  0
TEXT
  5
11D
100
AcDbEntity
  8
osie_bud
370
15
100
AcDbText
 39
0.15
 10
7565613.62232466415
 20
5722746.3010883769
 40
0.38
  1
-10.840-
 50
-65.00
 41
0.66
  7
STANDARD
 72
1
 11
7565614.27915378008
 21
5722745.7798393853
100
AcDbText
 73
3
  0
TEXT
  5
11E
100
AcDbEntity
  8
osie_bud
370
15
100
AcDbText
 39
0.15
 10
7565613.20371735934
 20
5722739.37279134337
 40
0.38
  1
-6.240-
 50
-335.00
 41
0.66
  7
STANDARD
 72
1
 11
7565613.63999999594
 21
5722739.98999999743
100
AcDbText
 73
3
  0
TEXT
  5
11F
100
AcDbEntity
  8
osie_bud
370
15
100
AcDbText
 39
0.15
 10
7565608.74317088071
 20
5722744.17124898918
 40
0.38
  1
-10.840-
 50
-65.00
 41
0.66
  7
STANDARD
 72
1
 11
7565609.39999999665
 21
5722743.64999999758
100
AcDbText
 73
3
  0
TEXT
  5
120
100
AcDbEntity
  8
osie_bud
370
15
100
AcDbText
 39
0.15
 10
7565624.54899792932
 20
5722717.68249586411
 40
0.38
  1
-3.440-
 50
-335.00
 41
0.66
  7
STANDARD
 72
1
 11
7565624.98528056592
 21
5722718.29970451817
100
AcDbText
 73
3
  0
TEXT
  5
121
100
AcDbEntity
  8
osie_bud
370
15
100
AcDbText
 39
0.15
 10
7565628.36338124238
 20
5722714.02845583018
 40
0.38
  1
-12.239-
 50
-65.00
 41
0.66
  7
STANDARD
 72
1
 11
7565629.02021035831
 21
5722713.50720683858
100
AcDbText
 73
3
  0
TEXT
  5
122
100
AcDbEntity
  8
osie_bud
370
15
100
AcDbText
 39
0.15
 10
7565626.67371736001
 20
5722705.76279134303
 40
0.38
  1
-9.519-
 50
-335.00
 41
0.66
  7
STANDARD
 72
1
 11
7565627.10999999661
 21
5722706.37999999709
100
AcDbText
 73
3
  0
TEXT
  5
123
100
AcDbEntity
  8
osie_bud
370
15
100
AcDbText
 39
0.15
 10
7565620.76317088027
 20
5722709.39124898892
 40
0.38
  1
-10.260-
 50
-65.00
 41
0.66
  7
STANDARD
 72
1
 11
7565621.4199999962
 21
5722708.86999999732
100
AcDbText
 73
3
  0
TEXT
  5
124
100
AcDbEntity
  8
osie_bud
370
15
100
AcDbText
 39
0.15
 10
7565621.0633284105
 20
5722713.8835816225
 40
0.38
  1
-6.080-
 50
-335.00
 41
0.66
  7
STANDARD
 72
1
 11
7565621.4996110471
 21
5722714.50079027656
100
AcDbText
 73
3
  0
TEXT
  5
125
100
AcDbEntity
  8
osie_bud
370
15
100
AcDbText
 39
0.15
 10
7565623.76979134791
 20
5722717.5042826375
 40
0.38
  1
-1.981-
 50
-65.00
 41
0.66
  7
STANDARD
 72
1
 11
7565624.38700000197
 21
5722717.0680000009
100
AcDbText
 73
3
  0
TEXT
  5
126
100
AcDbEntity
  8
osie_bud
370
25
100
AcDbText
 39
0.25
 10
7565632.08715633862
 20
5722707.20550245885
 40
0.63
  1
A
 50
0.00
 41
0.66
  7
STANDARD
 72
0
 11
7565632.08715633862
 21
5722707.83050245885
100
AcDbText
 73
3
  0
TEXT
  5
127
100
AcDbEntity
  8
osie_bud
370
25
100
AcDbText
 39
0.25
 10
7565624.89999999665
 20
5722722.08499999717
 40
0.63
  1
A
 50
0.00
 41
0.66
  7
STANDARD
 72
0
 11
7565624.89999999665
 21
5722722.70999999717
100
AcDbText
 73
3
  0
TEXT
  5
128
100
AcDbEntity
  8
osie_bud
370
25
100
AcDbText
 39
0.25
 10
7565632.46999999601
 20
5722703.51499999687
 40
0.63
  1
B
 50
0.00
 41
0.66
  7
STANDARD
 72
0
 11
7565632.46999999601
 21
5722704.13999999687
100
AcDbText
 73
3
  0
TEXT
  5
129
100
AcDbEntity
  8
osie_bud
370
25
100
AcDbText
 39
0.25
 10
7565630.37999999616
 20
5722708.4349999968
 40
0.63
  1
B
 50
0.00
 41
0.66
  7
STANDARD
 72
0
 11
7565630.37999999616
 21
5722709.0599999968
100
AcDbText
 73
3
  0
TEXT
  5
12A
100
AcDbEntity
  8
osie_bud
370
25
100
AcDbText
 39
0.25
 10
7565628.71600000188
 20
5722705.60200000182
 40
0.63
  1
C
 50
0.00
 41
0.66
  7
STANDARD
 72
0
 11
7565628.71600000188
 21
5722706.22700000182
100
AcDbText
 73
3
  0
TEXT
  5
12B
100
AcDbEntity
  8
osie_bud
370
25
100
AcDbText
 39
0.25
 10
7565622.88999999594
 20
5722718.15499999747
 40
0.63
  1
C
 50
0.00
 41
0.66
  7
STANDARD
 72
0
 11
7565622.88999999594
 21
5722718.77999999747
100
AcDbText
 73
3
  0
TEXT
  5
12C
100
AcDbEntity
  8
osie_bud
370
25
100
AcDbText
 39
0.25
 10
7565626.31999999657
 20
5722704.20499999728
 40
0.63
  1
D
 50
0.00
 41
0.66
  7
STANDARD
 72
0
 11
7565626.31999999657
 21
5722704.82999999728
100
AcDbText
 73
3
  0
TEXT
  5
12D
100
AcDbEntity
  8
osie_bud
370
25
100
AcDbText
 39
0.25
 10
7565619.38999999594
 20
5722719.49499999732
 40
0.63
  1
D
 50
0.00
 41
0.66
  7
STANDARD
 72
0
 11
7565619.38999999594
 21
5722720.11999999732
100
AcDbText
 73
3
  0
TEXT
  5
12E
100
AcDbEntity
  8
osie_bud
370
25
100
AcDbText
 39
0.25
 10
7565625.4899999965
 20
5722700.04499999713
 40
0.63
  1
E
 50
0.00
 41
0.66
  7
STANDARD
 72
0
 11
7565625.4899999965
 21
5722700.66999999713
100
AcDbText
 73
3
  0
TEXT
  5
12F
100
AcDbEntity
  8
osie_bud
370
25
100
AcDbText
 39
0.25
 10
7565623.24999999628
 20
5722705.30499999691
 40
0.63
  1
E
 50
0.00
 41
0.66
  7
STANDARD
 72
0
 11
7565623.24999999628
 21
5722705.92999999691
100
AcDbText
 73
3
  0
TEXT
  5
130
100
AcDbEntity
  8
osie_bud
370
25
100
AcDbText
 39
0.25
 10
7565623.44999999646
 20
5722702.54499999713
 40
0.63
  1
F
 50
0.00
 41
0.66
  7
STANDARD
 72
0
 11
7565623.44999999646
 21
5722703.16999999713
100
AcDbText
 73
3
  0
TEXT
  5
131
100
AcDbEntity
  8
osie_bud
370
25
100
AcDbText
 39
0.25
 10
7565617.63999999594
 20
5722715.40499999747
 40
0.63
  1
F
 50
0.00
 41
0.66
  7
STANDARD
 72
0
 11
7565617.63999999594
 21
5722716.02999999747
100
AcDbText
 73
3
  0
TEXT
  5
132
100
AcDbEntity
  8
osie_bud
370
15
100
AcDbText
 39
0.15
 10
7565622.78971848078
 20
5722706.94752544165
 40
0.38
  1
-3.381-
 50
-335.10
 41
0.66
  7
STANDARD
 72
1
 11
7565623.2270776853
 21
5722707.56397169922
100
AcDbText
 73
3
  0
TEXT
  5
133
100
AcDbEntity
  8
osie_bud
370
15
100
AcDbText
 39
0.15
 10
7565625.54771848209
 20
5722708.22652544174
 40
0.38
  1
-2.700-
 50
-335.10
 41
0.66
  7
STANDARD
 72
1
 11
7565625.98507768661
 21
5722708.84297169931
100
AcDbText
 73
3
  0
TEXT
  5
134
100
AcDbEntity
  8
osie_bud
370
15
100
AcDbText
 39
0.15
 10
7565628.33271848131
 20
5722709.51802544203
 40
0.38
  1
-3.440-
 50
-335.10
 41
0.66
  7
STANDARD
 72
1
 11
7565628.77007768583
 21
5722710.1344716996
100
AcDbText
 73
3
  0
TEXT
  5
135
100
AcDbEntity
  8
osie_bud
370
15
100
AcDbText
 39
0.15
 10
7565624.54652544111
 20
5722714.08478151821
 40
0.38
  1
-4.779-
 50
-65.10
 41
0.66
  7
STANDARD
 72
1
 11
7565625.16297169868
 21
5722713.64742231369
100
AcDbText
 73
3
  0
TEXT
  5
136
100
AcDbEntity
  8
osie_bud
370
15
100
AcDbText
 39
0.15
 10
7565626.02252544183
 20
5722710.90078151878
 40
0.38
  1
-2.240-
 50
-65.10
 41
0.66
  7
STANDARD
 72
1
 11
7565626.6389716994
 21
5722710.46342231426
100
AcDbText
 73
3
  0
TEXT
  5
137
100
AcDbEntity
  8
osie_bud
370
15
100
AcDbText
 39
0.15
 10
7565627.18811909016
 20
5722708.41488900781
 40
0.38
  1
-3.241-
 50
-64.40
 41
0.66
  7
STANDARD
 72
1
 11
7565627.80986255966
 21
5722707.98509356845
100
AcDbText
 73
3
  0
TEXT
  5
138
100
AcDbEntity
  8
osie_bud
370
15
100
AcDbText
 39
0.15
 10
7565630.94702544156
 20
5722706.43828151841
 40
0.38
  1
-3.520-
 50
-65.10
 41
0.66
  7
STANDARD
 72
1
 11
7565631.56347169913
 21
5722706.00092231389
100
AcDbText
 73
3
  0
TEXT
  5
139
100
AcDbEntity
  8
osie_bud
370
15
100
AcDbText
 39
0.15
 10
7565623.86301043723
 20
5722703.1492929766
 40
0.38
  1
-3.519-
 50
-64.60
 41
0.66
  7
STANDARD
 72
1
 11
7565624.48324985336
 21
5722702.71732986532
100
AcDbText
 73
3
  0
TEXT
  5
13A
100
AcDbEntity
  8
osie_bud
370
15
100
AcDbText
 39
0.15
 10
7565628.42036763579
 20
5722702.10641761404
 40
0.38
  1
-7.819-
 50
-335.00
 41
0.66
  7
STANDARD
 72
1
 11
7565628.85665027238
 21
5722702.7236262681
100
AcDbText
 73
3
  0
TEXT
  5
13B
100
AcDbEntity
  8
osie_bud
370
15
100
AcDbText
 39
0.15
 10
7565622.91156555712
 20
5722704.0543180136
 40
0.38
  1
-0.850-
 50
-335.20
 41
0.66
  7
STANDARD
 72
1
 11
7565623.3499999959
 21
5722704.66999999713
100
AcDbText
 73
3
  0
TEXT
  5
13C
100
AcDbEntity
  8
osie_bud
370
15
100
AcDbText
 39
0.15
 10
7565630.51264079195
 20
5722707.62355373986
 40
0.38
  1
-0.850-
 50
-335.10
 41
0.66
  7
STANDARD
 72
1
 11
7565630.94999999646
 21
5722708.23999999743
100
AcDbText
 73
3
  0
TEXT
  5
13D
100
AcDbEntity
  8
osie_bud
370
15
100
AcDbText
 39
0.15
 10
7565621.76271848194
 20
5722716.3910254417
 40
0.38
  1
-2.699-
 50
-335.10
 41
0.66
  7
STANDARD
 72
1
 11
7565622.20007768646
 21
5722717.00747169927
100
AcDbText
 73
3
  0
TEXT
  5
13E
100
AcDbEntity
  8
osie_bud
370
15
100
AcDbText
 39
0.15
 10
7565619.00471848156
 20
5722715.1120254416
 40
0.38
  1
-3.381-
 50
-335.10
 41
0.66
  7
STANDARD
 72
1
 11
7565619.44207768608
 21
5722715.72847169917
100
AcDbText
 73
3
  0
ENDSEC
  0
SECTION
  2
OBJECTS
  0
DICTIONARY
  5
13F
330
0
100
AcDbDictionary
280
0
281
1
  3
ACAD_GROUP
350
140
  3
ACAD_LAYOUT
350
141
  3
ACAD_MLINESTYLE
350
142
  3
ACAD_PLOTSETTINGS
350
143
  3
ACAD_PLOTSTYLENAME
350
144
  0
DICTIONARY
  5
140
102
{ACAD_REACTORS
330
13F
102
}
330
13F
100
AcDbDictionary
280
0
281
1
  0
DICTIONARY
  5
141
102
{ACAD_REACTORS
330
13F
102
}
330
13F
100
AcDbDictionary
280
0
281
1
  3
Layout
350
2D
  3
Model
350
2B
  0
DICTIONARY
  5
142
102
{ACAD_REACTORS
330
13F
102
}
330
13F
100
AcDbDictionary
280
0
281
1
  3
Standard
350
145
  3
L_0_02
350
7
  3
L_0_15
350
E
  3
L_0_C5
350
10
  3
L_0_E3
350
12
  3
L_2_16
350
16
  3
L_2_20
350
18
  0
DICTIONARY
  5
143
102
{ACAD_REACTORS
330
13F
102
}
330
13F
100
AcDbDictionary
280
0
281
1
  0
ACDBDICTIONARYWDFLT
  5
144
102
{ACAD_REACTORS
330
13F
102
}
330
13F
100
AcDbDictionary
281
1
  3
Normal
350
1C
100
AcDbDictionaryWithDefault
340
1C
  0
LAYOUT
  5
2D
100
AcDbPlotSettings
  1

  2

  4

  6

 40
0.0
 41
0.0
 42
0.0
 43
0.0
 44
0.0
 45
0.0
 46
0.0
 47
0.0
 48
0.0
 49
0.0
140
0.0
141
0.0
142
1.0
143
1.0
 70
688
 72
1
 73
0
 74
5
  7

 75
0
147
1.0
148
0.0
149
0.0
100
AcDbLayout
  1
Layout
 70
1
 71
1
 10
0.0
 20
0.0
 11
420.0
 21
297.0
 12
0.0
 22
0.0
 32
0.0
 14
100000000000000000000.0
 24
100000000000000000000.0
 34
100000000000000000000.0
 15
-100000000000000000000.0
 25
-100000000000000000000.0
 35
-100000000000000000000.0
146
0.0
 13
0.0
 23
0.0
 33
0.0
 16
1.0
 26
0.0
 36
0.0
 17
0.0
 27
1.0
 37
0.0
 76
0
330
2C
  0
LAYOUT
  5
2B
100
AcDbPlotSettings
  1

  2

  4

  6

 40
0.0
 41
0.0
 42
0.0
 43
0.0
 44
0.0
 45
0.0
 46
0.0
 47
0.0
 48
0.0
 49
0.0
140
0.0
141
0.0
142
1.0
143
1.0
 70
1712
 72
1
 73
0
 74
0
  7

 75
0
147
1.0
148
0.0
149
0.0
100
AcDbLayout
  1
Model
 70
1
 71
0
 10
0.0
 20
0.0
 11
12.0
 21
9.0
 12
0.0
 22
0.0
 32
0.0
 14
0.0
 24
0.0
 34
0.0
 15
0.0
 25
0.0
 35
0.0
146
0.0
 13
0.0
 23
0.0
 33
0.0
 16
1.0
 26
0.0
 36
0.0
 17
0.0
 27
1.0
 37
0.0
 76
0
330
2A
  0
MLINESTYLE
  5
145
102
{ACAD_REACTORS
330
142
102
}
330
142
100
AcDbMlineStyle
  2
Standard
 70
0
  3

 62
256
 51
90.0
 52
90.0
  2
Standard
 71
2
 49
0.5
 62
256
  6
ByLayer
 49
-0.5
 62
256
  6
ByLayer
  0
MLINESTYLE
  5
7
100
AcDbMlineStyle
  2
L_0_02
 70
0
  3

 51
90.0
 52
90.0
 71
1
 49
0.0
 62
256
  6
CONTINUOUS
  0
MLINESTYLE
  5
E
100
AcDbMlineStyle
  2
L_0_15
 70
0
  3

 51
90.0
 52
90.0
 71
2
 49
0.0
 62
256
  6
CONTINUOUS
 49
0.0
 62
256
  6
L_0_15_SHX
  0
MLINESTYLE
  5
10
100
AcDbMlineStyle
  2
L_0_C5
 70
0
  3

 51
90.0
 52
90.0
 71
1
 49
0.0
 62
256
  6
CONTINUOUS
  0
MLINESTYLE
  5
12
100
AcDbMlineStyle
  2
L_0_E3
 70
0
  3

 51
90.0
 52
90.0
 71
2
 49
0.0
 62
256
  6
CONTINUOUS
 49
-0.25
 62
256
  6
L_0_E3_00
  0
MLINESTYLE
  5
16
100
AcDbMlineStyle
  2
L_2_16
 70
0
  3

 51
90.0
 52
90.0
 71
2
 49
0.0
 62
256
  6
CONTINUOUS
 49
0.0
 62
256
  6
L_2_16_SHX
  0
MLINESTYLE
  5
18
100
AcDbMlineStyle
  2
L_2_20
 70
0
  3

 51
90.0
 52
90.0
 71
1
 49
0.0
 62
256
  6
CONTINUOUS
  0
ACDBPLACEHOLDER
  5
1C
  0
ENDSEC
  0
EOF
