  0
SECTION
  2
HEADER
  9
$ACADVER
  1
AC1018
  9
$HANDSEED
  5
FFFFFF
  9
$EXTMAX
 10
7568492.58000000007
 20
5713849.63999999966
 30
1000000.00
  9
$EXTMIN
 10
7568331.21999999974
 20
5713586.41999999993
 30
0.00
  9
$LIMMIN
 10
7568331.21999999974
 20
5713586.41999999993
  9
$LIMMAX
 10
7568492.58000000007
 20
5713849.63999999966
  9
$DIMASZ
 40
2.5
  9
$DIMGAP
 40
0.625
  9
$INSUNITS
 70
6
  9
$DIMEXO
 40
0.625
  9
$DIMTXT
 40
2.5
  9
$DIMSTYLE
  2
Standard
  9
$PLIMMIN
 10
0.0
 20
0.0
  9
$PLIMMAX
 10
210.0
 20
297.0
  9
$DIMEXE
 40
1.25
  9
$TEXTSIZE
 40
2.5
  9
$TEXTSTYLE
  7
Standard
  9
$LWDISPLAY
290
1
  9
$TDCREATE
 40
44672.566665810
  9
$TDUCREATE
 40
44672.483332477
  9
$TDUPDATE
 40
44672.566665810
  9
$TDUUPDATE
 40
44672.483332477
  9
$TDINDWG
 40
0.0
  9
$TDUSRTIMER
 40
0.0
  9
$USRTIMER
 70
1
  0
ENDSEC
  0
SECTION
  2
CLASSES
  0
CLASS
  1
WIPEOUT
  2
AcDbWipeout
  3
WipeOut
 90
127
 91
1
280
0
281
1
  0
CLASS
  1
WIPEOUTVARIABLES
  2
AcDbWipeoutVariables
  3
WipeOut
 90
0
 91
1
280
0
281
0
  0
ENDSEC
  0
SECTION
  2
TABLES
  0
TABLE
  2
VPORT
  5
1
100
AcDbSymbolTable
 70
1
  0
VPORT
  5
2
100
AcDbSymbolTableRecord
100
AcDbViewportTableRecord
  2
*ACTIVE
 70
0
 10
0.0
 20
0.0
 11
1.0
 21
1.0
 12
7568411.90
 22
5713718.03
 13
0.0
 23
0.0
 14
1.0
 24
1.0
 15
0.0
 25
0.0
 16
0.0
 26
0.0
 36
1.0
 17
0.0
 27
0.0
 37
0.0
 40
263.22
 41
0.61
 42
50.0
 43
0.0
 44
0.0
 50
0.0
 51
0.0
 71
0
 72
100
 73
1
 74
1
 75
0
 76
0
 77
0
 78
0
  0
ENDTAB
  0
TABLE
  2
LTYPE
  5
3
100
AcDbSymbolTable
 70
3
  0
LTYPE
  5
4
100
AcDbSymbolTableRecord
100
AcDbLinetypeTableRecord
  2
ByBlock
 70
0
  3

 72
65
 73
0
 40
0.0
  0
LTYPE
  5
5
100
AcDbSymbolTableRecord
100
AcDbLinetypeTableRecord
  2
ByLayer
 70
0
  3

 72
65
 73
0
 40
0.0
  0
LTYPE
  5
6
100
AcDbSymbolTableRecord
100
AcDbLinetypeTableRecord
  2
CONTINUOUS
 70
0
  3
Solid line
 72
65
 73
0
 40
0.0
  0
LTYPE
  5
7
100
AcDbSymbolTableRecord
100
AcDbLinetypeTableRecord
  2
L_0_03
 70
0
  3
Uzytek_gruntowy
 72
65
 73
2
 40
1.0
 49
0.5
 74
0
 49
-0.5
 74
0
  0
ENDTAB
  0
TABLE
  2
LAYER
  5
8
100
AcDbSymbolTable
 70
2
  0
LAYER
  5
9
100
AcDbSymbolTableRecord
100
AcDbLayerTableRecord
  2
0
 70
0
 62
7
  6
CONTINUOUS
370
18
390
A
  0
LAYER
  5
B
100
AcDbSymbolTableRecord
100
AcDbLayerTableRecord
  2
RZEDY2
 70
0
 62
5
  6
CONTINUOUS
370
18
390
A
  0
ENDTAB
  0
TABLE
  2
STYLE
  5
C
100
AcDbSymbolTable
 70
2
  0
STYLE
  5
D
100
AcDbSymbolTableRecord
100
AcDbTextStyleTableRecord
  2
STANDARD
 70
0
 40
0.0
 41
1.0
 50
0.0
 71
0
  3
simplex.shx
  4

  0
STYLE
  5
E
100
AcDbSymbolTableRecord
100
AcDbTextStyleTableRecord
  2
STANDARD_ITALIC
 70
0
 40
0.0
 41
1.0
 50
15.0
 71
0
  3
simplex.shx
  4

  0
ENDTAB
  0
TABLE
  2
VIEW
  5
F
100
AcDbSymbolTable
 70
0
  0
ENDTAB
  0
TABLE
  2
UCS
  5
10
100
AcDbSymbolTable
 70
0
  0
ENDTAB
  0
TABLE
  2
APPID
  5
11
100
AcDbSymbolTable
 70
1
  0
APPID
  5
12
100
AcDbSymbolTableRecord
100
AcDbRegAppTableRecord
  2
ACAD
 70
0
  0
ENDTAB
  0
TABLE
  2
DIMSTYLE
  5
13
100
AcDbSymbolTable
 70
1
100
AcDbDimStyleTable
  0
DIMSTYLE
105
14
100
AcDbSymbolTableRecord
100
AcDbDimStyleTableRecord
  2
Standard
 70
0
340
D
  0
ENDTAB
  0
TABLE
  2
BLOCK_RECORD
  5
15
100
AcDbSymbolTable
 70
3
  0
BLOCK_RECORD
  5
16
100
AcDbSymbolTableRecord
100
AcDbBlockTableRecord
  2
*Model_Space
340
17
  0
BLOCK_RECORD
  5
18
100
AcDbSymbolTableRecord
100
AcDbBlockTableRecord
  2
*Paper_Space
340
19
  0
BLOCK_RECORD
  5
1A
100
AcDbSymbolTableRecord
100
AcDbBlockTableRecord
  2
pikieta
340
1B
  0
ENDTAB
  0
ENDSEC
  0
SECTION
  2
BLOCKS
  0
BLOCK
  5
1C
100
AcDbEntity
  8
0
100
AcDbBlockBegin
  2
*Model_Space
 70
0
 10
0.0
 20
0.0
 30
0.0
  3
*Model_Space
  1

  0
ENDBLK
  5
1D
100
AcDbEntity
  8
0
100
AcDbBlockEnd
  0
BLOCK
  5
1E
100
AcDbEntity
 67
1
  8
0
100
AcDbBlockBegin
  2
*Paper_Space
 70
0
 10
0.0
 20
0.0
 30
0.0
  3
*Paper_Space
  1

  0
ENDBLK
  5
1F
100
AcDbEntity
 67
1
  8
0
100
AcDbBlockEnd
  0
BLOCK
  5
1B
100
AcDbEntity
  8
0
100
AcDbBlockBegin
 62
0
370
13
  2
pikieta
 70
0
 10
0
 20
0
 30
0
  3
pikieta
  0
POINT
  5
20
100
AcDbEntity
  8
0
100
AcDbPoint
 62
0
 10
0.0
 20
0.0
 30
0.00
  0
ENDBLK
  5
21
100
AcDbEntity
  8
0
100
AcDbBlockEnd
  0
ENDSEC
  0
SECTION
  2
ENTITIES
  0
POLYLINE
  5
22
100
AcDbEntity
  8
RZEDY2
  6
CONTINUOUS
 62
5
370
50
100
AcDb2dPolyline
 66
1
 70
128
  0
VERTEX
  5
23
100
AcDbEntity
  8
RZEDY2
100
AcDbVertex
100
AcDb2dVertex
 10
7568357.12334081065
 20
5713827.15697073191
  0
VERTEX
  5
24
100
AcDbEntity
  8
RZEDY2
100
AcDbVertex
100
AcDb2dVertex
 10
7568337.78911169991
 20
5713598.41694385745
  0
SEQEND
  5
25
100
AcDbEntity
  8
RZEDY2
  0
POLYLINE
  5
26
100
AcDbEntity
  8
RZEDY2
  6
CONTINUOUS
 62
5
370
50
100
AcDb2dPolyline
 66
1
 70
128
  0
VERTEX
  5
27
100
AcDbEntity
  8
RZEDY2
100
AcDbVertex
100
AcDb2dVertex
 10
7568360.74455163348
 20
5713827.25603837986
  0
VERTEX
  5
28
100
AcDbEntity
  8
RZEDY2
100
AcDbVertex
100
AcDb2dVertex
 10
7568341.37632017303
 20
5713598.11373540107
  0
SEQEND
  5
29
100
AcDbEntity
  8
RZEDY2
  0
POLYLINE
  5
2A
100
AcDbEntity
  8
RZEDY2
  6
CONTINUOUS
 62
5
370
50
100
AcDb2dPolyline
 66
1
 70
128
  0
VERTEX
  5
2B
100
AcDbEntity
  8
RZEDY2
100
AcDbVertex
100
AcDb2dVertex
 10
7568363.82258083299
 20
5713827.34024588112
  0
VERTEX
  5
2C
100
AcDbEntity
  8
RZEDY2
100
AcDbVertex
100
AcDb2dVertex
 10
7568344.42544737551
 20
5713597.85600821301
  0
SEQEND
  5
2D
100
AcDbEntity
  8
RZEDY2
  0
POLYLINE
  5
2E
100
AcDbEntity
  8
RZEDY2
  6
CONTINUOUS
 62
5
370
50
100
AcDb2dPolyline
 66
1
 70
128
  0
VERTEX
  5
2F
100
AcDbEntity
  8
RZEDY2
100
AcDbVertex
100
AcDb2dVertex
 10
7568366.90061003249
 20
5713827.42445338145
  0
VERTEX
  5
30
100
AcDbEntity
  8
RZEDY2
100
AcDbVertex
100
AcDb2dVertex
 10
7568347.47457457799
 20
5713597.59828102496
  0
SEQEND
  5
31
100
AcDbEntity
  8
RZEDY2
  0
POLYLINE
  5
32
100
AcDbEntity
  8
RZEDY2
  6
CONTINUOUS
 62
5
370
50
100
AcDb2dPolyline
 66
1
 70
128
  0
VERTEX
  5
33
100
AcDbEntity
  8
RZEDY2
100
AcDbVertex
100
AcDb2dVertex
 10
7568369.97863923293
 20
5713827.50866088178
  0
VERTEX
  5
34
100
AcDbEntity
  8
RZEDY2
100
AcDbVertex
100
AcDb2dVertex
 10
7568350.52370178048
 20
5713597.3405538369
  0
SEQEND
  5
35
100
AcDbEntity
  8
RZEDY2
  0
POLYLINE
  5
36
100
AcDbEntity
  8
RZEDY2
  6
CONTINUOUS
 62
5
370
50
100
AcDb2dPolyline
 66
1
 70
128
  0
VERTEX
  5
37
100
AcDbEntity
  8
RZEDY2
100
AcDbVertex
100
AcDb2dVertex
 10
7568373.05666843243
 20
5713827.59286838304
  0
VERTEX
  5
38
100
AcDbEntity
  8
RZEDY2
100
AcDbVertex
100
AcDb2dVertex
 10
7568353.57282898296
 20
5713597.08282664884
  0
SEQEND
  5
39
100
AcDbEntity
  8
RZEDY2
  0
POLYLINE
  5
3A
100
AcDbEntity
  8
RZEDY2
  6
CONTINUOUS
 62
5
370
50
100
AcDb2dPolyline
 66
1
 70
128
  0
VERTEX
  5
3B
100
AcDbEntity
  8
RZEDY2
100
AcDbVertex
100
AcDb2dVertex
 10
7568376.13469763193
 20
5713827.67707588337
  0
VERTEX
  5
3C
100
AcDbEntity
  8
RZEDY2
100
AcDbVertex
100
AcDb2dVertex
 10
7568356.62195618544
 20
5713596.82509946078
  0
SEQEND
  5
3D
100
AcDbEntity
  8
RZEDY2
  0
POLYLINE
  5
3E
100
AcDbEntity
  8
RZEDY2
  6
CONTINUOUS
 62
5
370
50
100
AcDb2dPolyline
 66
1
 70
128
  0
VERTEX
  5
3F
100
AcDbEntity
  8
RZEDY2
100
AcDbVertex
100
AcDb2dVertex
 10
7568379.21272683144
 20
5713827.76128338464
  0
VERTEX
  5
40
100
AcDbEntity
  8
RZEDY2
100
AcDbVertex
100
AcDb2dVertex
 10
7568359.67108338792
 20
5713596.56737227272
  0
SEQEND
  5
41
100
AcDbEntity
  8
RZEDY2
  0
POLYLINE
  5
42
100
AcDbEntity
  8
RZEDY2
  6
CONTINUOUS
 62
5
370
50
100
AcDb2dPolyline
 66
1
 70
128
  0
VERTEX
  5
43
100
AcDbEntity
  8
RZEDY2
100
AcDbVertex
100
AcDb2dVertex
 10
7568382.29075603094
 20
5713827.84549088497
  0
VERTEX
  5
44
100
AcDbEntity
  8
RZEDY2
100
AcDbVertex
100
AcDb2dVertex
 10
7568362.7202105904
 20
5713596.30964508466
  0
SEQEND
  5
45
100
AcDbEntity
  8
RZEDY2
  0
POLYLINE
  5
46
100
AcDbEntity
  8
RZEDY2
  6
CONTINUOUS
 62
5
370
50
100
AcDb2dPolyline
 66
1
 70
128
  0
VERTEX
  5
47
100
AcDbEntity
  8
RZEDY2
100
AcDbVertex
100
AcDb2dVertex
 10
7568385.36878523137
 20
5713827.92969838623
  0
VERTEX
  5
48
100
AcDbEntity
  8
RZEDY2
100
AcDbVertex
100
AcDb2dVertex
 10
7568365.76933779288
 20
5713596.05191789661
  0
SEQEND
  5
49
100
AcDbEntity
  8
RZEDY2
  0
POLYLINE
  5
4A
100
AcDbEntity
  8
RZEDY2
  6
CONTINUOUS
 62
5
370
50
100
AcDb2dPolyline
 66
1
 70
128
  0
VERTEX
  5
4B
100
AcDbEntity
  8
RZEDY2
100
AcDbVertex
100
AcDb2dVertex
 10
7568388.44681443088
 20
5713828.01390588656
  0
VERTEX
  5
4C
100
AcDbEntity
  8
RZEDY2
100
AcDbVertex
100
AcDb2dVertex
 10
7568368.81846499536
 20
5713595.79419070855
  0
SEQEND
  5
4D
100
AcDbEntity
  8
RZEDY2
  0
POLYLINE
  5
4E
100
AcDbEntity
  8
RZEDY2
  6
CONTINUOUS
 62
5
370
50
100
AcDb2dPolyline
 66
1
 70
128
  0
VERTEX
  5
4F
100
AcDbEntity
  8
RZEDY2
100
AcDbVertex
100
AcDb2dVertex
 10
7568391.52484363038
 20
5713828.09811338689
  0
VERTEX
  5
50
100
AcDbEntity
  8
RZEDY2
100
AcDbVertex
100
AcDb2dVertex
 10
7568371.86759219784
 20
5713595.53646352049
  0
SEQEND
  5
51
100
AcDbEntity
  8
RZEDY2
  0
POLYLINE
  5
52
100
AcDbEntity
  8
RZEDY2
  6
CONTINUOUS
 62
5
370
50
100
AcDb2dPolyline
 66
1
 70
128
  0
VERTEX
  5
53
100
AcDbEntity
  8
RZEDY2
100
AcDbVertex
100
AcDb2dVertex
 10
7568394.60287282988
 20
5713828.18232088815
  0
VERTEX
  5
54
100
AcDbEntity
  8
RZEDY2
100
AcDbVertex
100
AcDb2dVertex
 10
7568374.91671940032
 20
5713595.27873633243
  0
SEQEND
  5
55
100
AcDbEntity
  8
RZEDY2
  0
POLYLINE
  5
56
100
AcDbEntity
  8
RZEDY2
  6
CONTINUOUS
 62
5
370
50
100
AcDb2dPolyline
 66
1
 70
128
  0
VERTEX
  5
57
100
AcDbEntity
  8
RZEDY2
100
AcDbVertex
100
AcDb2dVertex
 10
7568397.68090202939
 20
5713828.26652838849
  0
VERTEX
  5
58
100
AcDbEntity
  8
RZEDY2
100
AcDbVertex
100
AcDb2dVertex
 10
7568377.9658466028
 20
5713595.02100914437
  0
SEQEND
  5
59
100
AcDbEntity
  8
RZEDY2
  0
POLYLINE
  5
5A
100
AcDbEntity
  8
RZEDY2
  6
CONTINUOUS
 62
5
370
50
100
AcDb2dPolyline
 66
1
 70
128
  0
VERTEX
  5
5B
100
AcDbEntity
  8
RZEDY2
100
AcDbVertex
100
AcDb2dVertex
 10
7568402.16717988253
 20
5713828.38926219661
  0
VERTEX
  5
5C
100
AcDbEntity
  8
RZEDY2
100
AcDbVertex
100
AcDb2dVertex
 10
7568382.40999932308
 20
5713594.64536755625
  0
SEQEND
  5
5D
100
AcDbEntity
  8
RZEDY2
  0
POLYLINE
  5
5E
100
AcDbEntity
  8
RZEDY2
  6
CONTINUOUS
 62
5
370
50
100
AcDb2dPolyline
 66
1
 70
128
  0
VERTEX
  5
5F
100
AcDbEntity
  8
RZEDY2
100
AcDbVertex
100
AcDb2dVertex
 10
7568405.24520908296
 20
5713828.47346969787
  0
VERTEX
  5
60
100
AcDbEntity
  8
RZEDY2
100
AcDbVertex
100
AcDb2dVertex
 10
7568385.45912652556
 20
5713594.38764036819
  0
SEQEND
  5
61
100
AcDbEntity
  8
RZEDY2
  0
POLYLINE
  5
62
100
AcDbEntity
  8
RZEDY2
  6
CONTINUOUS
 62
5
370
50
100
AcDb2dPolyline
 66
1
 70
128
  0
VERTEX
  5
63
100
AcDbEntity
  8
RZEDY2
100
AcDbVertex
100
AcDb2dVertex
 10
7568408.32323828246
 20
5713828.5576771982
  0
VERTEX
  5
64
100
AcDbEntity
  8
RZEDY2
100
AcDbVertex
100
AcDb2dVertex
 10
7568388.50825372804
 20
5713594.12991318014
  0
SEQEND
  5
65
100
AcDbEntity
  8
RZEDY2
  0
POLYLINE
  5
66
100
AcDbEntity
  8
RZEDY2
  6
CONTINUOUS
 62
5
370
50
100
AcDb2dPolyline
 66
1
 70
128
  0
VERTEX
  5
67
100
AcDbEntity
  8
RZEDY2
100
AcDbVertex
100
AcDb2dVertex
 10
7568411.40126748197
 20
5713828.64188469946
  0
VERTEX
  5
68
100
AcDbEntity
  8
RZEDY2
100
AcDbVertex
100
AcDb2dVertex
 10
7568391.55738093052
 20
5713593.87218599208
  0
SEQEND
  5
69
100
AcDbEntity
  8
RZEDY2
  0
POLYLINE
  5
6A
100
AcDbEntity
  8
RZEDY2
  6
CONTINUOUS
 62
5
370
50
100
AcDb2dPolyline
 66
1
 70
128
  0
VERTEX
  5
6B
100
AcDbEntity
  8
RZEDY2
100
AcDbVertex
100
AcDb2dVertex
 10
7568414.47929668147
 20
5713828.7260921998
  0
VERTEX
  5
6C
100
AcDbEntity
  8
RZEDY2
100
AcDbVertex
100
AcDb2dVertex
 10
7568394.606508133
 20
5713593.61445880402
  0
SEQEND
  5
6D
100
AcDbEntity
  8
RZEDY2
  0
POLYLINE
  5
6E
100
AcDbEntity
  8
RZEDY2
  6
CONTINUOUS
 62
5
370
50
100
AcDb2dPolyline
 66
1
 70
128
  0
VERTEX
  5
6F
100
AcDbEntity
  8
RZEDY2
100
AcDbVertex
100
AcDb2dVertex
 10
7568417.55732588097
 20
5713828.81029970106
  0
VERTEX
  5
70
100
AcDbEntity
  8
RZEDY2
100
AcDbVertex
100
AcDb2dVertex
 10
7568397.65563533548
 20
5713593.35673161596
  0
SEQEND
  5
71
100
AcDbEntity
  8
RZEDY2
  0
POLYLINE
  5
72
100
AcDbEntity
  8
RZEDY2
  6
CONTINUOUS
 62
5
370
18
100
AcDb2dPolyline
 66
1
 70
128
  0
VERTEX
  5
73
100
AcDbEntity
  8
RZEDY2
100
AcDbVertex
100
AcDb2dVertex
 10
7568400.26617454272
 20
5713595.68021075334
  0
VERTEX
  5
74
100
AcDbEntity
  8
RZEDY2
100
AcDbVertex
100
AcDb2dVertex
 10
7568400.52441318519
 20
5713596.64886308555
  0
SEQEND
  5
75
100
AcDbEntity
  8
RZEDY2
  0
POLYLINE
  5
76
100
AcDbEntity
  8
RZEDY2
  6
CONTINUOUS
 62
5
370
18
100
AcDb2dPolyline
 66
1
 70
128
  0
VERTEX
  5
77
100
AcDbEntity
  8
RZEDY2
100
AcDbVertex
100
AcDb2dVertex
 10
7568400.46638432145
 20
5713595.62683566753
  0
VERTEX
  5
78
100
AcDbEntity
  8
RZEDY2
100
AcDbVertex
100
AcDb2dVertex
 10
7568400.72462296393
 20
5713596.59548799973
  0
SEQEND
  5
79
100
AcDbEntity
  8
RZEDY2
  0
POLYLINE
  5
7A
100
AcDbEntity
  8
RZEDY2
  6
CONTINUOUS
 62
5
370
18
100
AcDb2dPolyline
 66
1
 70
128
  0
VERTEX
  5
7B
100
AcDbEntity
  8
RZEDY2
100
AcDbVertex
100
AcDb2dVertex
 10
7568397.78678482119
 20
5713596.08504490275
  0
VERTEX
  5
7C
100
AcDbEntity
  8
RZEDY2
100
AcDbVertex
100
AcDb2dVertex
 10
7568395.37115485687
 20
5713596.72904170211
  0
SEQEND
  5
7D
100
AcDbEntity
  8
RZEDY2
  0
POLYLINE
  5
7E
100
AcDbEntity
  8
RZEDY2
  6
CONTINUOUS
 62
5
370
18
100
AcDb2dPolyline
 66
1
 70
128
  0
VERTEX
  5
7F
100
AcDbEntity
  8
RZEDY2
100
AcDbVertex
100
AcDb2dVertex
 10
7568402.81825452857
 20
5713594.7436762182
  0
VERTEX
  5
80
100
AcDbEntity
  8
RZEDY2
100
AcDbVertex
100
AcDb2dVertex
 10
7568405.23388449289
 20
5713594.09967941884
  0
SEQEND
  5
81
100
AcDbEntity
  8
RZEDY2
  0
POLYLINE
  5
82
100
AcDbEntity
  8
RZEDY2
  6
CONTINUOUS
 62
5
370
18
100
AcDb2dPolyline
 66
1
 70
128
  0
VERTEX
  5
83
100
AcDbEntity
  8
RZEDY2
100
AcDbVertex
100
AcDb2dVertex
 10
7568397.67945202161
 20
5713595.68243990838
  0
VERTEX
  5
84
100
AcDbEntity
  8
RZEDY2
100
AcDbVertex
100
AcDb2dVertex
 10
7568397.89411762077
 20
5713596.48764989711
  0
SEQEND
  5
85
100
AcDbEntity
  8
RZEDY2
  0
POLYLINE
  5
86
100
AcDbEntity
  8
RZEDY2
  6
CONTINUOUS
 62
5
370
18
100
AcDb2dPolyline
 66
1
 70
128
  0
VERTEX
  5
87
100
AcDbEntity
  8
RZEDY2
100
AcDbVertex
100
AcDb2dVertex
 10
7568402.92558732815
 20
5713595.14628121257
  0
VERTEX
  5
88
100
AcDbEntity
  8
RZEDY2
100
AcDbVertex
100
AcDb2dVertex
 10
7568402.71092172898
 20
5713594.34107122384
  0
SEQEND
  5
89
100
AcDbEntity
  8
RZEDY2
  0
POLYLINE
  5
8A
100
AcDbEntity
  8
RZEDY2
  6
CONTINUOUS
 62
5
370
18
100
AcDb2dPolyline
 66
1
 70
128
  0
VERTEX
  5
8B
100
AcDbEntity
  8
RZEDY2
100
AcDbVertex
100
AcDb2dVertex
 10
7568407.11610421911
 20
5713675.21541829873
  0
VERTEX
  5
8C
100
AcDbEntity
  8
RZEDY2
100
AcDbVertex
100
AcDb2dVertex
 10
7568407.21845164429
 20
5713675.96280768048
  0
SEQEND
  5
8D
100
AcDbEntity
  8
RZEDY2
  0
POLYLINE
  5
8E
100
AcDbEntity
  8
RZEDY2
  6
CONTINUOUS
 62
5
370
18
100
AcDb2dPolyline
 66
1
 70
128
  0
VERTEX
  5
8F
100
AcDbEntity
  8
RZEDY2
100
AcDbVertex
100
AcDb2dVertex
 10
7568407.78944636509
 20
5713675.12321089394
  0
VERTEX
  5
90
100
AcDbEntity
  8
RZEDY2
100
AcDbVertex
100
AcDb2dVertex
 10
7568407.89179379027
 20
5713675.8706002757
  0
SEQEND
  5
91
100
AcDbEntity
  8
RZEDY2
  0
POLYLINE
  5
92
100
AcDbEntity
  8
RZEDY2
  6
CONTINUOUS
 62
5
370
18
100
AcDb2dPolyline
 66
1
 70
128
  0
VERTEX
  5
93
100
AcDbEntity
  8
RZEDY2
100
AcDbVertex
100
AcDb2dVertex
 10
7568404.57197558694
 20
5713675.0635499442
  0
VERTEX
  5
94
100
AcDbEntity
  8
RZEDY2
100
AcDbVertex
100
AcDb2dVertex
 10
7568402.09509164654
 20
5713675.40273417812
  0
SEQEND
  5
95
100
AcDbEntity
  8
RZEDY2
  0
POLYLINE
  5
96
100
AcDbEntity
  8
RZEDY2
  6
CONTINUOUS
 62
5
370
18
100
AcDb2dPolyline
 66
1
 70
128
  0
VERTEX
  5
97
100
AcDbEntity
  8
RZEDY2
100
AcDbVertex
100
AcDb2dVertex
 10
7568410.19908561371
 20
5713674.29297407158
  0
VERTEX
  5
98
100
AcDbEntity
  8
RZEDY2
100
AcDbVertex
100
AcDb2dVertex
 10
7568412.67596955411
 20
5713673.95378983766
  0
SEQEND
  5
99
100
AcDbEntity
  8
RZEDY2
  0
POLYLINE
  5
9A
100
AcDbEntity
  8
RZEDY2
  6
CONTINUOUS
 62
5
370
18
100
AcDb2dPolyline
 66
1
 70
128
  0
VERTEX
  5
9B
100
AcDbEntity
  8
RZEDY2
100
AcDbVertex
100
AcDb2dVertex
 10
7568404.51544488128
 20
5713674.65073595382
  0
VERTEX
  5
9C
100
AcDbEntity
  8
RZEDY2
100
AcDbVertex
100
AcDb2dVertex
 10
7568404.62850629259
 20
5713675.47636393458
  0
SEQEND
  5
9D
100
AcDbEntity
  8
RZEDY2
  0
POLYLINE
  5
9E
100
AcDbEntity
  8
RZEDY2
  6
CONTINUOUS
 62
5
370
18
100
AcDb2dPolyline
 66
1
 70
128
  0
VERTEX
  5
9F
100
AcDbEntity
  8
RZEDY2
100
AcDbVertex
100
AcDb2dVertex
 10
7568410.25561631937
 20
5713674.70578806195
  0
VERTEX
  5
A0
100
AcDbEntity
  8
RZEDY2
100
AcDbVertex
100
AcDb2dVertex
 10
7568410.14255490806
 20
5713673.8801600812
  0
SEQEND
  5
A1
100
AcDbEntity
  8
RZEDY2
  0
POLYLINE
  5
A2
100
AcDbEntity
  8
RZEDY2
  6
CONTINUOUS
 62
5
370
18
100
AcDb2dPolyline
 66
1
 70
128
  0
VERTEX
  5
A3
100
AcDbEntity
  8
RZEDY2
100
AcDbVertex
100
AcDb2dVertex
 10
7568407.70465030614
 20
5713674.50398990884
  0
VERTEX
  5
A4
100
AcDbEntity
  8
RZEDY2
100
AcDbVertex
100
AcDb2dVertex
 10
7568399.85845618974
 20
5713592.48169042356
  0
SEQEND
  5
A5
100
AcDbEntity
  8
RZEDY2
  0
POLYLINE
  5
A6
100
AcDbEntity
  8
RZEDY2
  6
CONTINUOUS
 62
5
370
50
100
AcDb2dPolyline
 66
1
 70
128
  0
VERTEX
  5
A7
100
AcDbEntity
  8
RZEDY2
100
AcDbVertex
100
AcDb2dVertex
 10
7568407.11610421911
 20
5713675.21541829873
  0
VERTEX
  5
A8
100
AcDbEntity
  8
RZEDY2
100
AcDbVertex
100
AcDb2dVertex
 10
7568400.14675233047
 20
5713593.14617018774
  0
SEQEND
  5
A9
100
AcDbEntity
  8
RZEDY2
  0
POLYLINE
  5
AA
100
AcDbEntity
  8
RZEDY2
  6
CONTINUOUS
 62
5
370
50
100
AcDb2dPolyline
 66
1
 70
128
  0
VERTEX
  5
AB
100
AcDbEntity
  8
RZEDY2
100
AcDbVertex
100
AcDb2dVertex
 10
7568420.6317625381
 20
5713828.85200442746
  0
VERTEX
  5
AC
100
AcDbEntity
  8
RZEDY2
100
AcDbVertex
100
AcDb2dVertex
 10
7568408.66971783526
 20
5713687.3310567271
  0
SEQEND
  5
AD
100
AcDbEntity
  8
RZEDY2
  0
POLYLINE
  5
AE
100
AcDbEntity
  8
RZEDY2
  6
CONTINUOUS
 62
5
370
50
100
AcDb2dPolyline
 66
1
 70
128
  0
VERTEX
  5
AF
100
AcDbEntity
  8
RZEDY2
100
AcDbVertex
100
AcDb2dVertex
 10
7568423.71338428091
 20
5713828.97871470172
  0
VERTEX
  5
B0
100
AcDbEntity
  8
RZEDY2
100
AcDbVertex
100
AcDb2dVertex
 10
7568411.93831072189
 20
5713689.6697912924
  0
SEQEND
  5
B1
100
AcDbEntity
  8
RZEDY2
  0
POLYLINE
  5
B2
100
AcDbEntity
  8
RZEDY2
  6
CONTINUOUS
 62
5
370
50
100
AcDb2dPolyline
 66
1
 70
128
  0
VERTEX
  5
B3
100
AcDbEntity
  8
RZEDY2
100
AcDbVertex
100
AcDb2dVertex
 10
7568426.79141348042
 20
5713829.06292220298
  0
VERTEX
  5
B4
100
AcDbEntity
  8
RZEDY2
100
AcDbVertex
100
AcDb2dVertex
 10
7568415.20690360758
 20
5713692.00852585677
  0
SEQEND
  5
B5
100
AcDbEntity
  8
RZEDY2
  0
POLYLINE
  5
B6
100
AcDbEntity
  8
RZEDY2
  6
CONTINUOUS
 62
5
370
50
100
AcDb2dPolyline
 66
1
 70
128
  0
VERTEX
  5
B7
100
AcDbEntity
  8
RZEDY2
100
AcDbVertex
100
AcDb2dVertex
 10
7568429.86944267992
 20
5713829.14712970331
  0
VERTEX
  5
B8
100
AcDbEntity
  8
RZEDY2
100
AcDbVertex
100
AcDb2dVertex
 10
7568418.47549649421
 20
5713694.34726042207
  0
SEQEND
  5
B9
100
AcDbEntity
  8
RZEDY2
  0
POLYLINE
  5
BA
100
AcDbEntity
  8
RZEDY2
  6
CONTINUOUS
 62
5
370
50
100
AcDb2dPolyline
 66
1
 70
128
  0
VERTEX
  5
BB
100
AcDbEntity
  8
RZEDY2
100
AcDbVertex
100
AcDb2dVertex
 10
7568432.94747187942
 20
5713829.23133720458
  0
VERTEX
  5
BC
100
AcDbEntity
  8
RZEDY2
100
AcDbVertex
100
AcDb2dVertex
 10
7568422.3751192987
 20
5713704.15160427429
  0
SEQEND
  5
BD
100
AcDbEntity
  8
RZEDY2
  0
POLYLINE
  5
BE
100
AcDbEntity
  8
RZEDY2
  6
CONTINUOUS
 62
5
370
50
100
AcDb2dPolyline
 66
1
 70
128
  0
VERTEX
  5
BF
100
AcDbEntity
  8
RZEDY2
100
AcDbVertex
100
AcDb2dVertex
 10
7568436.02550107893
 20
5713829.31554470491
  0
VERTEX
  5
C0
100
AcDbEntity
  8
RZEDY2
100
AcDbVertex
100
AcDb2dVertex
 10
7568426.58743657358
 20
5713717.65538404509
  0
SEQEND
  5
C1
100
AcDbEntity
  8
RZEDY2
  0
POLYLINE
  5
C2
100
AcDbEntity
  8
RZEDY2
  6
CONTINUOUS
 62
5
370
50
100
AcDb2dPolyline
 66
1
 70
128
  0
VERTEX
  5
C3
100
AcDbEntity
  8
RZEDY2
100
AcDbVertex
100
AcDb2dVertex
 10
7568439.10353027936
 20
5713829.39975220617
  0
VERTEX
  5
C4
100
AcDbEntity
  8
RZEDY2
100
AcDbVertex
100
AcDb2dVertex
 10
7568430.55221801158
 20
5713728.23060878087
  0
SEQEND
  5
C5
100
AcDbEntity
  8
RZEDY2
  0
POLYLINE
  5
C6
100
AcDbEntity
  8
RZEDY2
  6
CONTINUOUS
 62
5
370
50
100
AcDb2dPolyline
 66
1
 70
128
  0
VERTEX
  5
C7
100
AcDbEntity
  8
RZEDY2
100
AcDbVertex
100
AcDb2dVertex
 10
7568442.18155947886
 20
5713829.4839597065
  0
VERTEX
  5
C8
100
AcDbEntity
  8
RZEDY2
100
AcDbVertex
100
AcDb2dVertex
 10
7568434.51699944958
 20
5713738.80583351664
  0
SEQEND
  5
C9
100
AcDbEntity
  8
RZEDY2
  0
POLYLINE
  5
CA
100
AcDbEntity
  8
RZEDY2
  6
CONTINUOUS
 62
5
370
50
100
AcDb2dPolyline
 66
1
 70
128
  0
VERTEX
  5
CB
100
AcDbEntity
  8
RZEDY2
100
AcDbVertex
100
AcDb2dVertex
 10
7568445.25958867837
 20
5713829.56816720683
  0
VERTEX
  5
CC
100
AcDbEntity
  8
RZEDY2
100
AcDbVertex
100
AcDb2dVertex
 10
7568438.22622286249
 20
5713746.35759405512
  0
SEQEND
  5
CD
100
AcDbEntity
  8
RZEDY2
  0
POLYLINE
  5
CE
100
AcDbEntity
  8
RZEDY2
  6
CONTINUOUS
 62
5
370
50
100
AcDb2dPolyline
 66
1
 70
128
  0
VERTEX
  5
CF
100
AcDbEntity
  8
RZEDY2
100
AcDbVertex
100
AcDb2dVertex
 10
7568448.33761787787
 20
5713829.65237470809
  0
VERTEX
  5
D0
100
AcDbEntity
  8
RZEDY2
100
AcDbVertex
100
AcDb2dVertex
 10
7568441.54306716192
 20
5713749.26718301326
  0
SEQEND
  5
D1
100
AcDbEntity
  8
RZEDY2
  0
POLYLINE
  5
D2
100
AcDbEntity
  8
RZEDY2
  6
CONTINUOUS
 62
5
370
50
100
AcDb2dPolyline
 66
1
 70
128
  0
VERTEX
  5
D3
100
AcDbEntity
  8
RZEDY2
100
AcDbVertex
100
AcDb2dVertex
 10
7568451.41564707737
 20
5713829.73658220842
  0
VERTEX
  5
D4
100
AcDbEntity
  8
RZEDY2
100
AcDbVertex
100
AcDb2dVertex
 10
7568444.85991146229
 20
5713752.17677197233
  0
SEQEND
  5
D5
100
AcDbEntity
  8
RZEDY2
  0
POLYLINE
  5
D6
100
AcDbEntity
  8
RZEDY2
  6
CONTINUOUS
 62
5
370
18
100
AcDb2dPolyline
 66
1
 70
128
  0
VERTEX
  5
D7
100
AcDbEntity
  8
RZEDY2
100
AcDbVertex
100
AcDb2dVertex
 10
7568406.83600000013
 20
5713686.01900000032
  0
VERTEX
  5
D8
100
AcDbEntity
  8
RZEDY2
100
AcDbVertex
100
AcDb2dVertex
 10
7568419.71200000029
 20
5713695.23199999984
  0
VERTEX
  5
D9
100
AcDbEntity
  8
RZEDY2
100
AcDbVertex
100
AcDb2dVertex
 10
7568425.70100000035
 20
5713715.2910000002
  0
VERTEX
  5
DA
100
AcDbEntity
  8
RZEDY2
100
AcDbVertex
100
AcDb2dVertex
 10
7568436.91799999867
 20
5713745.20999999996
  0
VERTEX
  5
DB
100
AcDbEntity
  8
RZEDY2
100
AcDbVertex
100
AcDb2dVertex
 10
7568447.57899999991
 20
5713754.56199999992
  0
VERTEX
  5
DC
100
AcDbEntity
  8
RZEDY2
100
AcDbVertex
100
AcDb2dVertex
 10
7568454.78500000015
 20
5713835.0839999998
  0
SEQEND
  5
DD
100
AcDbEntity
  8
RZEDY2
  0
POLYLINE
  5
DE
100
AcDbEntity
  8
RZEDY2
  6
CONTINUOUS
 62
5
370
18
100
AcDb2dPolyline
 66
1
 70
128
  0
VERTEX
  5
DF
100
AcDbEntity
  8
RZEDY2
100
AcDbVertex
100
AcDb2dVertex
 10
7568451.17874392029
 20
5713826.89724477008
  0
VERTEX
  5
E0
100
AcDbEntity
  8
RZEDY2
100
AcDbVertex
100
AcDb2dVertex
 10
7568451.23469535727
 20
5713827.52246205881
  0
SEQEND
  5
E1
100
AcDbEntity
  8
RZEDY2
  0
POLYLINE
  5
E2
100
AcDbEntity
  8
RZEDY2
  6
CONTINUOUS
 62
5
370
18
100
AcDb2dPolyline
 66
1
 70
128
  0
VERTEX
  5
E3
100
AcDbEntity
  8
RZEDY2
100
AcDbVertex
100
AcDb2dVertex
 10
7568454.02952764649
 20
5713826.6421250822
  0
VERTEX
  5
E4
100
AcDbEntity
  8
RZEDY2
100
AcDbVertex
100
AcDb2dVertex
 10
7568454.08547908347
 20
5713827.26734237093
  0
SEQEND
  5
E5
100
AcDbEntity
  8
RZEDY2
  0
POLYLINE
  5
E6
100
AcDbEntity
  8
RZEDY2
  6
CONTINUOUS
 62
5
370
18
100
AcDb2dPolyline
 66
1
 70
128
  0
VERTEX
  5
E7
100
AcDbEntity
  8
RZEDY2
100
AcDbVertex
100
AcDb2dVertex
 10
7568448.63322772551
 20
5713826.50027475692
  0
VERTEX
  5
E8
100
AcDbEntity
  8
RZEDY2
100
AcDbVertex
100
AcDb2dVertex
 10
7568446.1431788085
 20
5713826.7231119005
  0
SEQEND
  5
E9
100
AcDbEntity
  8
RZEDY2
  0
POLYLINE
  5
EA
100
AcDbEntity
  8
RZEDY2
  6
CONTINUOUS
 62
5
370
18
100
AcDb2dPolyline
 66
1
 70
128
  0
VERTEX
  5
EB
100
AcDbEntity
  8
RZEDY2
100
AcDbVertex
100
AcDb2dVertex
 10
7568456.46410928573
 20
5713825.79948078189
  0
VERTEX
  5
EC
100
AcDbEntity
  8
RZEDY2
100
AcDbVertex
100
AcDb2dVertex
 10
7568458.95415820274
 20
5713825.57664363831
  0
SEQEND
  5
ED
100
AcDbEntity
  8
RZEDY2
  0
POLYLINE
  5
EE
100
AcDbEntity
  8
RZEDY2
  6
CONTINUOUS
 62
5
370
18
100
AcDb2dPolyline
 66
1
 70
128
  0
VERTEX
  5
EF
100
AcDbEntity
  8
RZEDY2
100
AcDbVertex
100
AcDb2dVertex
 10
7568448.59608820174
 20
5713826.08526660409
  0
VERTEX
  5
F0
100
AcDbEntity
  8
RZEDY2
100
AcDbVertex
100
AcDb2dVertex
 10
7568448.67036724929
 20
5713826.91528290976
  0
SEQEND
  5
F1
100
AcDbEntity
  8
RZEDY2
  0
POLYLINE
  5
F2
100
AcDbEntity
  8
RZEDY2
  6
CONTINUOUS
 62
5
370
18
100
AcDb2dPolyline
 66
1
 70
128
  0
VERTEX
  5
F3
100
AcDbEntity
  8
RZEDY2
100
AcDbVertex
100
AcDb2dVertex
 10
7568456.50124880951
 20
5713826.21448893473
  0
VERTEX
  5
F4
100
AcDbEntity
  8
RZEDY2
100
AcDbVertex
100
AcDb2dVertex
 10
7568456.42696976196
 20
5713825.38447262906
  0
SEQEND
  5
F5
100
AcDbEntity
  8
RZEDY2
  0
POLYLINE
  5
F6
100
AcDbEntity
  8
RZEDY2
  6
CONTINUOUS
 62
5
370
18
100
AcDb2dPolyline
 66
1
 70
128
  0
VERTEX
  5
F7
100
AcDbEntity
  8
RZEDY2
100
AcDbVertex
100
AcDb2dVertex
 10
7568445.15049101878
 20
5713755.577995033
  0
VERTEX
  5
F8
100
AcDbEntity
  8
RZEDY2
100
AcDbVertex
100
AcDb2dVertex
 10
7568445.22565540113
 20
5713756.41790432017
  0
SEQEND
  5
F9
100
AcDbEntity
  8
RZEDY2
  0
POLYLINE
  5
FA
100
AcDbEntity
  8
RZEDY2
  6
CONTINUOUS
 62
5
370
18
100
AcDb2dPolyline
 66
1
 70
128
  0
VERTEX
  5
FB
100
AcDbEntity
  8
RZEDY2
100
AcDbVertex
100
AcDb2dVertex
 10
7568447.64990554377
 20
5713755.35431975126
  0
VERTEX
  5
FC
100
AcDbEntity
  8
RZEDY2
100
AcDbVertex
100
AcDb2dVertex
 10
7568447.72506992612
 20
5713756.19422903843
  0
SEQEND
  5
FD
100
AcDbEntity
  8
RZEDY2
  0
POLYLINE
  5
FE
100
AcDbEntity
  8
RZEDY2
  6
CONTINUOUS
 62
5
370
18
100
AcDb2dPolyline
 66
1
 70
128
  0
VERTEX
  5
FF
100
AcDbEntity
  8
RZEDY2
100
AcDbVertex
100
AcDb2dVertex
 10
7568442.62418791093
 20
5713755.39571700525
  0
VERTEX
  5
100
100
AcDbEntity
  8
RZEDY2
100
AcDbVertex
100
AcDb2dVertex
 10
7568440.13413899392
 20
5713755.61855414882
  0
SEQEND
  5
101
100
AcDbEntity
  8
RZEDY2
  0
POLYLINE
  5
102
100
AcDbEntity
  8
RZEDY2
  6
CONTINUOUS
 62
5
370
18
100
AcDb2dPolyline
 66
1
 70
128
  0
VERTEX
  5
103
100
AcDbEntity
  8
RZEDY2
100
AcDbVertex
100
AcDb2dVertex
 10
7568450.10370026994
 20
5713754.72636743635
  0
VERTEX
  5
104
100
AcDbEntity
  8
RZEDY2
100
AcDbVertex
100
AcDb2dVertex
 10
7568452.59374918696
 20
5713754.50353029277
  0
SEQEND
  5
105
100
AcDbEntity
  8
RZEDY2
  0
POLYLINE
  5
106
100
AcDbEntity
  8
RZEDY2
  6
CONTINUOUS
 62
5
370
18
100
AcDb2dPolyline
 66
1
 70
128
  0
VERTEX
  5
107
100
AcDbEntity
  8
RZEDY2
100
AcDbVertex
100
AcDb2dVertex
 10
7568442.58704838716
 20
5713754.98070885241
  0
VERTEX
  5
108
100
AcDbEntity
  8
RZEDY2
100
AcDbVertex
100
AcDb2dVertex
 10
7568442.6613274347
 20
5713755.81072515808
  0
SEQEND
  5
109
100
AcDbEntity
  8
RZEDY2
  0
POLYLINE
  5
10A
100
AcDbEntity
  8
RZEDY2
  6
CONTINUOUS
 62
5
370
18
100
AcDb2dPolyline
 66
1
 70
128
  0
VERTEX
  5
10B
100
AcDbEntity
  8
RZEDY2
100
AcDbVertex
100
AcDb2dVertex
 10
7568450.14083979372
 20
5713755.14137558918
  0
VERTEX
  5
10C
100
AcDbEntity
  8
RZEDY2
100
AcDbVertex
100
AcDb2dVertex
 10
7568450.06656074617
 20
5713754.31135928351
  0
SEQEND
  5
10D
100
AcDbEntity
  8
RZEDY2
  0
POLYLINE
  5
10E
100
AcDbEntity
  8
RZEDY2
  6
CONTINUOUS
 62
5
370
18
100
AcDb2dPolyline
 66
1
 70
128
  0
VERTEX
  5
10F
100
AcDbEntity
  8
RZEDY2
100
AcDbVertex
100
AcDb2dVertex
 10
7568357.09134571813
 20
5713834.15284217615
  0
VERTEX
  5
110
100
AcDbEntity
  8
RZEDY2
100
AcDbVertex
100
AcDb2dVertex
 10
7568354.82034679595
 20
5713834.09067826159
  0
SEQEND
  5
111
100
AcDbEntity
  8
RZEDY2
  0
POLYLINE
  5
112
100
AcDbEntity
  8
RZEDY2
  6
CONTINUOUS
 62
5
370
18
100
AcDb2dPolyline
 66
1
 70
128
  0
VERTEX
  5
113
100
AcDbEntity
  8
RZEDY2
100
AcDbVertex
100
AcDb2dVertex
 10
7568357.08303303923
 20
5713834.45652454067
  0
VERTEX
  5
114
100
AcDbEntity
  8
RZEDY2
100
AcDbVertex
100
AcDb2dVertex
 10
7568354.81203411706
 20
5713834.39436062612
  0
SEQEND
  5
115
100
AcDbEntity
  8
RZEDY2
  0
POLYLINE
  5
116
100
AcDbEntity
  8
RZEDY2
  6
CONTINUOUS
 62
5
370
18
100
AcDb2dPolyline
 66
1
 70
128
  0
VERTEX
  5
117
100
AcDbEntity
  8
RZEDY2
100
AcDbVertex
100
AcDb2dVertex
 10
7568355.92475263122
 20
5713839.42669184506
  0
VERTEX
  5
118
100
AcDbEntity
  8
RZEDY2
100
AcDbVertex
100
AcDb2dVertex
 10
7568353.42475263122
 20
5713839.42669184506
  0
SEQEND
  5
119
100
AcDbEntity
  8
RZEDY2
  0
POLYLINE
  5
11A
100
AcDbEntity
  8
RZEDY2
  6
CONTINUOUS
 62
5
370
18
100
AcDb2dPolyline
 66
1
 70
128
  0
VERTEX
  5
11B
100
AcDbEntity
  8
RZEDY2
100
AcDbVertex
100
AcDb2dVertex
 10
7568356.13828548603
 20
5713831.6258176947
  0
VERTEX
  5
11C
100
AcDbEntity
  8
RZEDY2
100
AcDbVertex
100
AcDb2dVertex
 10
7568356.20669221133
 20
5713829.12675376609
  0
SEQEND
  5
11D
100
AcDbEntity
  8
RZEDY2
  0
POLYLINE
  5
11E
100
AcDbEntity
  8
RZEDY2
  6
CONTINUOUS
 62
5
370
18
100
AcDb2dPolyline
 66
1
 70
128
  0
VERTEX
  5
11F
100
AcDbEntity
  8
RZEDY2
100
AcDbVertex
100
AcDb2dVertex
 10
7568355.99315935653
 20
5713836.92762791645
  0
VERTEX
  5
120
100
AcDbEntity
  8
RZEDY2
100
AcDbVertex
100
AcDb2dVertex
 10
7568355.92475263122
 20
5713839.42669184506
  0
SEQEND
  5
121
100
AcDbEntity
  8
RZEDY2
  0
POLYLINE
  5
122
100
AcDbEntity
  8
RZEDY2
  6
CONTINUOUS
 62
5
370
18
100
AcDb2dPolyline
 66
1
 70
128
  0
VERTEX
  5
123
100
AcDbEntity
  8
RZEDY2
100
AcDbVertex
100
AcDb2dVertex
 10
7568356.55479614064
 20
5713831.63721881527
  0
VERTEX
  5
124
100
AcDbEntity
  8
RZEDY2
100
AcDbVertex
100
AcDb2dVertex
 10
7568355.72177483141
 20
5713831.61441657413
  0
SEQEND
  5
125
100
AcDbEntity
  8
RZEDY2
  0
POLYLINE
  5
126
100
AcDbEntity
  8
RZEDY2
  6
CONTINUOUS
 62
5
370
18
100
AcDb2dPolyline
 66
1
 70
128
  0
VERTEX
  5
127
100
AcDbEntity
  8
RZEDY2
100
AcDbVertex
100
AcDb2dVertex
 10
7568355.57664870191
 20
5713836.91622679587
  0
VERTEX
  5
128
100
AcDbEntity
  8
RZEDY2
100
AcDbVertex
100
AcDb2dVertex
 10
7568356.40967001114
 20
5713836.93902903702
  0
SEQEND
  5
129
100
AcDbEntity
  8
RZEDY2
  0
POLYLINE
  5
12A
100
AcDbEntity
  8
RZEDY2
  6
CONTINUOUS
 62
5
370
18
100
AcDb2dPolyline
 66
1
 70
128
  0
VERTEX
  5
12B
100
AcDbEntity
  8
RZEDY2
100
AcDbVertex
100
AcDb2dVertex
 10
7568354.20999999996
 20
5713834.37999999989
  0
VERTEX
  5
12C
100
AcDbEntity
  8
RZEDY2
100
AcDbVertex
100
AcDb2dVertex
 10
7568492.37999999989
 20
5713838.16000000015
  0
SEQEND
  5
12D
100
AcDbEntity
  8
RZEDY2
  0
POLYLINE
  5
12E
100
AcDbEntity
  8
RZEDY2
  6
CONTINUOUS
 62
5
370
18
100
AcDb2dPolyline
 66
1
 70
128
  0
VERTEX
  5
12F
100
AcDbEntity
  8
RZEDY2
100
AcDbVertex
100
AcDb2dVertex
 10
7568354.21820421144
 20
5713834.08011220302
  0
VERTEX
  5
130
100
AcDbEntity
  8
RZEDY2
100
AcDbVertex
100
AcDb2dVertex
 10
7568492.38820421137
 20
5713837.86011220328
  0
SEQEND
  5
131
100
AcDbEntity
  8
RZEDY2
  0
POLYLINE
  5
132
100
AcDbEntity
  8
RZEDY2
  6
CONTINUOUS
 62
5
370
18
100
AcDb2dPolyline
 66
1
 70
128
  0
VERTEX
  5
133
100
AcDbEntity
  8
RZEDY2
100
AcDbVertex
100
AcDb2dVertex
 10
7568354.40963580832
 20
5713827.08273026813
  0
VERTEX
  5
134
100
AcDbEntity
  8
RZEDY2
100
AcDbVertex
100
AcDb2dVertex
 10
7568492.57963580824
 20
5713830.86273026839
  0
SEQEND
  5
135
100
AcDbEntity
  8
RZEDY2
  0
TEXT
  5
136
100
AcDbEntity
  8
RZEDY2
 62
5
370
50
100
AcDbText
 39
0.50
 10
7568405.61003586464
 20
5713592.86564657278
 40
2.50
  1
0.2072
 50
0.00
 41
0.66
  7
STANDARD
 72
0
 11
7568405.61003586464
 21
5713595.36564657278
100
AcDbText
 73
3
  0
TEXT
  5
137
100
AcDbEntity
  8
RZEDY2
 62
5
370
50
100
AcDbText
 39
0.50
 10
7568412.99259711709
 20
5713672.71975698974
 40
2.50
  1
0.6796
 50
0.00
 41
0.66
  7
STANDARD
 72
0
 11
7568412.99259711709
 21
5713675.21975698974
100
AcDbText
 73
3
  0
TEXT
  5
138
100
AcDbEntity
  8
RZEDY2
 62
5
370
50
100
AcDbText
 39
0.50
 10
7568459.33030957449
 20
5713824.34261079133
 40
2.50
  1
2.8622
 50
0.00
 41
0.66
  7
STANDARD
 72
0
 11
7568459.33030957449
 21
5713826.84261079133
100
AcDbText
 73
3
  0
TEXT
  5
139
100
AcDbEntity
  8
RZEDY2
 62
5
370
50
100
AcDbText
 39
0.50
 10
7568453.0294243684
 20
5713753.29801021982
 40
2.50
  1
2.5094
 50
0.00
 41
0.66
  7
STANDARD
 72
0
 11
7568453.0294243684
 21
5713755.79801021982
100
AcDbText
 73
3
  0
TEXT
  5
13A
100
AcDbEntity
  8
RZEDY2
 62
5
370
50
100
AcDbText
 39
0.50
 10
7568340.16995162424
 20
5713838.19265899807
 40
2.50
  1
0.3038
 50
0.00
 41
0.66
  7
STANDARD
 72
0
 11
7568340.16995162424
 21
5713840.69265899807
100
AcDbText
 73
3
  0
ENDSEC
  0
SECTION
  2
OBJECTS
  0
DICTIONARY
  5
13B
330
0
100
AcDbDictionary
280
0
281
1
  3
ACAD_GROUP
350
13C
  3
ACAD_LAYOUT
350
13D
  3
ACAD_MLINESTYLE
350
13E
  3
ACAD_PLOTSETTINGS
350
13F
  3
ACAD_PLOTSTYLENAME
350
140
  3
ACAD_WIPEOUT_VARS
350
141
  0
DICTIONARY
  5
13C
102
{ACAD_REACTORS
330
13B
102
}
330
13B
100
AcDbDictionary
280
0
281
1
  0
DICTIONARY
  5
13D
102
{ACAD_REACTORS
330
13B
102
}
330
13B
100
AcDbDictionary
280
0
281
1
  3
Layout
350
19
  3
Model
350
17
  0
DICTIONARY
  5
13E
102
{ACAD_REACTORS
330
13B
102
}
330
13B
100
AcDbDictionary
280
0
281
1
  3
Standard
350
142
  0
DICTIONARY
  5
13F
102
{ACAD_REACTORS
330
13B
102
}
330
13B
100
AcDbDictionary
280
0
281
1
  0
ACDBDICTIONARYWDFLT
  5
140
102
{ACAD_REACTORS
330
13B
102
}
330
13B
100
AcDbDictionary
281
1
  3
Normal
350
A
100
AcDbDictionaryWithDefault
340
A
  0
WIPEOUTVARIABLES
  5
141
102
{ACAD_REACTORS
330
13B
102
}
330
13B
100
AcDbWipeoutVariables
 70
0
  0
LAYOUT
  5
19
100
AcDbPlotSettings
  1

  2

  4

  6

 40
0.0
 41
0.0
 42
0.0
 43
0.0
 44
0.0
 45
0.0
 46
0.0
 47
0.0
 48
0.0
 49
0.0
140
0.0
141
0.0
142
1.0
143
1.0
 70
688
 72
1
 73
0
 74
5
  7

 75
0
147
1.0
148
0.0
149
0.0
100
AcDbLayout
  1
Layout
 70
1
 71
1
 10
0.0
 20
0.0
 11
420.0
 21
297.0
 12
0.0
 22
0.0
 32
0.0
 14
100000000000000000000.0
 24
100000000000000000000.0
 34
100000000000000000000.0
 15
-100000000000000000000.0
 25
-100000000000000000000.0
 35
-100000000000000000000.0
146
0.0
 13
0.0
 23
0.0
 33
0.0
 16
1.0
 26
0.0
 36
0.0
 17
0.0
 27
1.0
 37
0.0
 76
0
330
18
  0
LAYOUT
  5
17
100
AcDbPlotSettings
  1

  2

  4

  6

 40
0.0
 41
0.0
 42
0.0
 43
0.0
 44
0.0
 45
0.0
 46
0.0
 47
0.0
 48
0.0
 49
0.0
140
0.0
141
0.0
142
1.0
143
1.0
 70
1712
 72
1
 73
0
 74
0
  7

 75
0
147
1.0
148
0.0
149
0.0
100
AcDbLayout
  1
Model
 70
1
 71
0
 10
0.0
 20
0.0
 11
12.0
 21
9.0
 12
0.0
 22
0.0
 32
0.0
 14
0.0
 24
0.0
 34
0.0
 15
0.0
 25
0.0
 35
0.0
146
0.0
 13
0.0
 23
0.0
 33
0.0
 16
1.0
 26
0.0
 36
0.0
 17
0.0
 27
1.0
 37
0.0
 76
0
330
16
  0
MLINESTYLE
  5
142
102
{ACAD_REACTORS
330
13E
102
}
330
13E
100
AcDbMlineStyle
  2
Standard
 70
0
  3

 62
256
 51
90.0
 52
90.0
  2
Standard
 71
2
 49
0.5
 62
256
  6
ByLayer
 49
-0.5
 62
256
  6
ByLayer
  0
ACDBPLACEHOLDER
  5
A
  0
ENDSEC
  0
EOF
