  0
SECTION
  2
HEADER
  9
$ACADVER
  1
AC1018
  9
$HANDSEED
  5
FFFFFF
  9
$EXTMAX
 10
7568341.25999999978
 20
5713992.20000000019
 30
1000000.00
  9
$EXTMIN
 10
7568244.91000000015
 20
5713833.53000000026
 30
0.00
  9
$LIMMIN
 10
7568244.91000000015
 20
5713833.53000000026
  9
$LIMMAX
 10
7568341.25999999978
 20
5713992.20000000019
  9
$DIMASZ
 40
2.5
  9
$DIMGAP
 40
0.625
  9
$INSUNITS
 70
6
  9
$DIMEXO
 40
0.625
  9
$DIMTXT
 40
2.5
  9
$DIMSTYLE
  2
Standard
  9
$PLIMMIN
 10
0.0
 20
0.0
  9
$PLIMMAX
 10
210.0
 20
297.0
  9
$DIMEXE
 40
1.25
  9
$TEXTSIZE
 40
2.5
  9
$TEXTSTYLE
  7
Standard
  9
$LWDISPLAY
290
1
  9
$TDCREATE
 40
44671.503985417
  9
$TDUCREATE
 40
44671.420652083
  9
$TDUPDATE
 40
44671.503985417
  9
$TDUUPDATE
 40
44671.420652083
  9
$TDINDWG
 40
0.0
  9
$TDUSRTIMER
 40
0.0
  9
$USRTIMER
 70
1
  0
ENDSEC
  0
SECTION
  2
CLASSES
  0
CLASS
  1
WIPEOUT
  2
AcDbWipeout
  3
WipeOut
 90
127
 91
1
280
0
281
1
  0
CLASS
  1
WIPEOUTVARIABLES
  2
AcDbWipeoutVariables
  3
WipeOut
 90
0
 91
1
280
0
281
0
  0
ENDSEC
  0
SECTION
  2
TABLES
  0
TABLE
  2
VPORT
  5
1
100
AcDbSymbolTable
 70
1
  0
VPORT
  5
2
100
AcDbSymbolTableRecord
100
AcDbViewportTableRecord
  2
*ACTIVE
 70
0
 10
0.0
 20
0.0
 11
1.0
 21
1.0
 12
7568293.08
 22
5713912.87
 13
0.0
 23
0.0
 14
1.0
 24
1.0
 15
0.0
 25
0.0
 16
0.0
 26
0.0
 36
1.0
 17
0.0
 27
0.0
 37
0.0
 40
158.67
 41
0.61
 42
50.0
 43
0.0
 44
0.0
 50
0.0
 51
0.0
 71
0
 72
100
 73
1
 74
1
 75
0
 76
0
 77
0
 78
0
  0
ENDTAB
  0
TABLE
  2
LTYPE
  5
3
100
AcDbSymbolTable
 70
3
  0
LTYPE
  5
4
100
AcDbSymbolTableRecord
100
AcDbLinetypeTableRecord
  2
ByBlock
 70
0
  3

 72
65
 73
0
 40
0.0
  0
LTYPE
  5
5
100
AcDbSymbolTableRecord
100
AcDbLinetypeTableRecord
  2
ByLayer
 70
0
  3

 72
65
 73
0
 40
0.0
  0
LTYPE
  5
6
100
AcDbSymbolTableRecord
100
AcDbLinetypeTableRecord
  2
CONTINUOUS
 70
0
  3
Solid line
 72
65
 73
0
 40
0.0
  0
LTYPE
  5
7
100
AcDbSymbolTableRecord
100
AcDbLinetypeTableRecord
  2
L_0_03
 70
0
  3
Uzytek_gruntowy
 72
65
 73
2
 40
1.0
 49
0.5
 74
0
 49
-0.5
 74
0
  0
ENDTAB
  0
TABLE
  2
LAYER
  5
8
100
AcDbSymbolTable
 70
2
  0
LAYER
  5
9
100
AcDbSymbolTableRecord
100
AcDbLayerTableRecord
  2
0
 70
0
 62
7
  6
CONTINUOUS
370
18
390
A
  0
LAYER
  5
B
100
AcDbSymbolTableRecord
100
AcDbLayerTableRecord
  2
Warstwa1
 70
0
 62
5
  6
CONTINUOUS
370
18
390
A
  0
ENDTAB
  0
TABLE
  2
STYLE
  5
C
100
AcDbSymbolTable
 70
2
  0
STYLE
  5
D
100
AcDbSymbolTableRecord
100
AcDbTextStyleTableRecord
  2
STANDARD
 70
0
 40
0.0
 41
1.0
 50
0.0
 71
0
  3
simplex.shx
  4

  0
STYLE
  5
E
100
AcDbSymbolTableRecord
100
AcDbTextStyleTableRecord
  2
STANDARD_ITALIC
 70
0
 40
0.0
 41
1.0
 50
15.0
 71
0
  3
simplex.shx
  4

  0
ENDTAB
  0
TABLE
  2
VIEW
  5
F
100
AcDbSymbolTable
 70
0
  0
ENDTAB
  0
TABLE
  2
UCS
  5
10
100
AcDbSymbolTable
 70
0
  0
ENDTAB
  0
TABLE
  2
APPID
  5
11
100
AcDbSymbolTable
 70
1
  0
APPID
  5
12
100
AcDbSymbolTableRecord
100
AcDbRegAppTableRecord
  2
ACAD
 70
0
  0
ENDTAB
  0
TABLE
  2
DIMSTYLE
  5
13
100
AcDbSymbolTable
 70
1
100
AcDbDimStyleTable
  0
DIMSTYLE
105
14
100
AcDbSymbolTableRecord
100
AcDbDimStyleTableRecord
  2
Standard
 70
0
340
D
  0
ENDTAB
  0
TABLE
  2
BLOCK_RECORD
  5
15
100
AcDbSymbolTable
 70
3
  0
BLOCK_RECORD
  5
16
100
AcDbSymbolTableRecord
100
AcDbBlockTableRecord
  2
*Model_Space
340
17
  0
BLOCK_RECORD
  5
18
100
AcDbSymbolTableRecord
100
AcDbBlockTableRecord
  2
*Paper_Space
340
19
  0
BLOCK_RECORD
  5
1A
100
AcDbSymbolTableRecord
100
AcDbBlockTableRecord
  2
pikieta
340
1B
  0
ENDTAB
  0
ENDSEC
  0
SECTION
  2
BLOCKS
  0
BLOCK
  5
1C
100
AcDbEntity
  8
0
100
AcDbBlockBegin
  2
*Model_Space
 70
0
 10
0.0
 20
0.0
 30
0.0
  3
*Model_Space
  1

  0
ENDBLK
  5
1D
100
AcDbEntity
  8
0
100
AcDbBlockEnd
  0
BLOCK
  5
1E
100
AcDbEntity
 67
1
  8
0
100
AcDbBlockBegin
  2
*Paper_Space
 70
0
 10
0.0
 20
0.0
 30
0.0
  3
*Paper_Space
  1

  0
ENDBLK
  5
1F
100
AcDbEntity
 67
1
  8
0
100
AcDbBlockEnd
  0
BLOCK
  5
1B
100
AcDbEntity
  8
0
100
AcDbBlockBegin
 62
0
370
13
  2
pikieta
 70
0
 10
0
 20
0
 30
0
  3
pikieta
  0
POINT
  5
20
100
AcDbEntity
  8
0
100
AcDbPoint
 62
0
 10
0.0
 20
0.0
 30
0.00
  0
ENDBLK
  5
21
100
AcDbEntity
  8
0
100
AcDbBlockEnd
  0
ENDSEC
  0
SECTION
  2
ENTITIES
  0
POLYLINE
  5
22
100
AcDbEntity
  8
Warstwa1
  6
CONTINUOUS
370
18
100
AcDb2dPolyline
 66
1
 70
128
  0
VERTEX
  5
23
100
AcDbEntity
  8
Warstwa1
100
AcDbVertex
100
AcDb2dVertex
 10
7568338.97985248733
 20
5713992.20217097364
  0
VERTEX
  5
24
100
AcDbEntity
  8
Warstwa1
100
AcDbVertex
100
AcDb2dVertex
 10
7568324.27985254489
 20
5713833.53217096906
  0
SEQEND
  5
25
100
AcDbEntity
  8
Warstwa1
  0
POLYLINE
  5
26
100
AcDbEntity
  8
Warstwa1
  6
CONTINUOUS
 62
5
370
35
100
AcDb2dPolyline
 66
1
 70
128
  0
VERTEX
  5
27
100
AcDbEntity
  8
Warstwa1
100
AcDbVertex
100
AcDb2dVertex
 10
7568336.43892219383
 20
5713991.87163762562
  0
VERTEX
  5
28
100
AcDbEntity
  8
Warstwa1
100
AcDbVertex
100
AcDb2dVertex
 10
7568322.65724792238
 20
5713843.11393247358
  0
SEQEND
  5
29
100
AcDbEntity
  8
Warstwa1
  0
POLYLINE
  5
2A
100
AcDbEntity
  8
Warstwa1
  6
CONTINUOUS
 62
5
370
35
100
AcDb2dPolyline
 66
1
 70
128
  0
VERTEX
  5
2B
100
AcDbEntity
  8
Warstwa1
100
AcDbVertex
100
AcDb2dVertex
 10
7568333.39848954789
 20
5713991.79068536405
  0
VERTEX
  5
2C
100
AcDbEntity
  8
Warstwa1
100
AcDbVertex
100
AcDb2dVertex
 10
7568319.61698272824
 20
5713843.0347876614
  0
SEQEND
  5
2D
100
AcDbEntity
  8
Warstwa1
  0
POLYLINE
  5
2E
100
AcDbEntity
  8
Warstwa1
  6
CONTINUOUS
 62
5
370
35
100
AcDb2dPolyline
 66
1
 70
128
  0
VERTEX
  5
2F
100
AcDbEntity
  8
Warstwa1
100
AcDbVertex
100
AcDb2dVertex
 10
7568330.35805690102
 20
5713991.70973310154
  0
VERTEX
  5
30
100
AcDbEntity
  8
Warstwa1
100
AcDbVertex
100
AcDb2dVertex
 10
7568316.57671753317
 20
5713842.95564284734
  0
SEQEND
  5
31
100
AcDbEntity
  8
Warstwa1
  0
POLYLINE
  5
32
100
AcDbEntity
  8
Warstwa1
  6
CONTINUOUS
 62
5
370
35
100
AcDb2dPolyline
 66
1
 70
128
  0
VERTEX
  5
33
100
AcDbEntity
  8
Warstwa1
100
AcDbVertex
100
AcDb2dVertex
 10
7568327.31762425415
 20
5713991.62878083996
  0
VERTEX
  5
34
100
AcDbEntity
  8
Warstwa1
100
AcDbVertex
100
AcDb2dVertex
 10
7568313.53645233903
 20
5713842.87649803329
  0
SEQEND
  5
35
100
AcDbEntity
  8
Warstwa1
  0
POLYLINE
  5
36
100
AcDbEntity
  8
Warstwa1
  6
CONTINUOUS
 62
5
370
35
100
AcDb2dPolyline
 66
1
 70
128
  0
VERTEX
  5
37
100
AcDbEntity
  8
Warstwa1
100
AcDbVertex
100
AcDb2dVertex
 10
7568324.27719160914
 20
5713991.54782857932
  0
VERTEX
  5
38
100
AcDbEntity
  8
Warstwa1
100
AcDbVertex
100
AcDb2dVertex
 10
7568310.49618714489
 20
5713842.79735321924
  0
SEQEND
  5
39
100
AcDbEntity
  8
Warstwa1
  0
POLYLINE
  5
3A
100
AcDbEntity
  8
Warstwa1
  6
CONTINUOUS
 62
5
370
35
100
AcDb2dPolyline
 66
1
 70
128
  0
VERTEX
  5
3B
100
AcDbEntity
  8
Warstwa1
100
AcDbVertex
100
AcDb2dVertex
 10
7568321.2367589632
 20
5713991.46687631682
  0
VERTEX
  5
3C
100
AcDbEntity
  8
Warstwa1
100
AcDbVertex
100
AcDb2dVertex
 10
7568307.45592194982
 20
5713842.71820840612
  0
SEQEND
  5
3D
100
AcDbEntity
  8
Warstwa1
  0
POLYLINE
  5
3E
100
AcDbEntity
  8
Warstwa1
  6
CONTINUOUS
 62
5
370
35
100
AcDb2dPolyline
 66
1
 70
128
  0
VERTEX
  5
3F
100
AcDbEntity
  8
Warstwa1
100
AcDbVertex
100
AcDb2dVertex
 10
7568318.19632631727
 20
5713991.38592405524
  0
VERTEX
  5
40
100
AcDbEntity
  8
Warstwa1
100
AcDbVertex
100
AcDb2dVertex
 10
7568304.41565675568
 20
5713842.63906359207
  0
SEQEND
  5
41
100
AcDbEntity
  8
Warstwa1
  0
POLYLINE
  5
42
100
AcDbEntity
  8
Warstwa1
  6
CONTINUOUS
 62
5
370
35
100
AcDb2dPolyline
 66
1
 70
128
  0
VERTEX
  5
43
100
AcDbEntity
  8
Warstwa1
100
AcDbVertex
100
AcDb2dVertex
 10
7568315.15589367226
 20
5713991.30497179274
  0
VERTEX
  5
44
100
AcDbEntity
  8
Warstwa1
100
AcDbVertex
100
AcDb2dVertex
 10
7568301.37539156061
 20
5713842.55991877802
  0
SEQEND
  5
45
100
AcDbEntity
  8
Warstwa1
  0
POLYLINE
  5
46
100
AcDbEntity
  8
Warstwa1
  6
CONTINUOUS
 62
5
370
35
100
AcDb2dPolyline
 66
1
 70
128
  0
VERTEX
  5
47
100
AcDbEntity
  8
Warstwa1
100
AcDbVertex
100
AcDb2dVertex
 10
7568312.11546102632
 20
5713991.22401953209
  0
VERTEX
  5
48
100
AcDbEntity
  8
Warstwa1
100
AcDbVertex
100
AcDb2dVertex
 10
7568298.33512636554
 20
5713842.4807739649
  0
SEQEND
  5
49
100
AcDbEntity
  8
Warstwa1
  0
POLYLINE
  5
4A
100
AcDbEntity
  8
Warstwa1
  6
CONTINUOUS
 62
5
370
35
100
AcDb2dPolyline
 66
1
 70
128
  0
VERTEX
  5
4B
100
AcDbEntity
  8
Warstwa1
100
AcDbVertex
100
AcDb2dVertex
 10
7568309.07502838131
 20
5713991.14306726959
  0
VERTEX
  5
4C
100
AcDbEntity
  8
Warstwa1
100
AcDbVertex
100
AcDb2dVertex
 10
7568295.29486117139
 20
5713842.40162914991
  0
SEQEND
  5
4D
100
AcDbEntity
  8
Warstwa1
  0
POLYLINE
  5
4E
100
AcDbEntity
  8
Warstwa1
  6
CONTINUOUS
 62
5
370
35
100
AcDb2dPolyline
 66
1
 70
128
  0
VERTEX
  5
4F
100
AcDbEntity
  8
Warstwa1
100
AcDbVertex
100
AcDb2dVertex
 10
7568306.03459573444
 20
5713991.06211500801
  0
VERTEX
  5
50
100
AcDbEntity
  8
Warstwa1
100
AcDbVertex
100
AcDb2dVertex
 10
7568292.25459597725
 20
5713842.32248433679
  0
SEQEND
  5
51
100
AcDbEntity
  8
Warstwa1
  0
POLYLINE
  5
52
100
AcDbEntity
  8
Warstwa1
  6
CONTINUOUS
 62
5
370
35
100
AcDb2dPolyline
 66
1
 70
128
  0
VERTEX
  5
53
100
AcDbEntity
  8
Warstwa1
100
AcDbVertex
100
AcDb2dVertex
 10
7568302.99416308757
 20
5713990.98116274644
  0
VERTEX
  5
54
100
AcDbEntity
  8
Warstwa1
100
AcDbVertex
100
AcDb2dVertex
 10
7568289.21433078218
 20
5713842.24333952181
  0
SEQEND
  5
55
100
AcDbEntity
  8
Warstwa1
  0
POLYLINE
  5
56
100
AcDbEntity
  8
Warstwa1
  6
CONTINUOUS
 62
5
370
35
100
AcDb2dPolyline
 66
1
 70
128
  0
VERTEX
  5
57
100
AcDbEntity
  8
Warstwa1
100
AcDbVertex
100
AcDb2dVertex
 10
7568299.95373044256
 20
5713990.90021048486
  0
VERTEX
  5
58
100
AcDbEntity
  8
Warstwa1
100
AcDbVertex
100
AcDb2dVertex
 10
7568286.17406558711
 20
5713842.16419470869
  0
SEQEND
  5
59
100
AcDbEntity
  8
Warstwa1
  0
POLYLINE
  5
5A
100
AcDbEntity
  8
Warstwa1
  6
CONTINUOUS
 62
5
370
35
100
AcDb2dPolyline
 66
1
 70
128
  0
VERTEX
  5
5B
100
AcDbEntity
  8
Warstwa1
100
AcDbVertex
100
AcDb2dVertex
 10
7568296.91329779662
 20
5713990.81925822236
  0
VERTEX
  5
5C
100
AcDbEntity
  8
Warstwa1
100
AcDbVertex
100
AcDb2dVertex
 10
7568283.13380039297
 20
5713842.08504989557
  0
SEQEND
  5
5D
100
AcDbEntity
  8
Warstwa1
  0
POLYLINE
  5
5E
100
AcDbEntity
  8
Warstwa1
  6
CONTINUOUS
 62
5
370
35
100
AcDb2dPolyline
 66
1
 70
128
  0
VERTEX
  5
5F
100
AcDbEntity
  8
Warstwa1
100
AcDbVertex
100
AcDb2dVertex
 10
7568293.87286515068
 20
5713990.73830596171
  0
VERTEX
  5
60
100
AcDbEntity
  8
Warstwa1
100
AcDbVertex
100
AcDb2dVertex
 10
7568280.09353519883
 20
5713842.00590508059
  0
SEQEND
  5
61
100
AcDbEntity
  8
Warstwa1
  0
POLYLINE
  5
62
100
AcDbEntity
  8
Warstwa1
  6
CONTINUOUS
 62
5
370
35
100
AcDb2dPolyline
 66
1
 70
128
  0
VERTEX
  5
63
100
AcDbEntity
  8
Warstwa1
100
AcDbVertex
100
AcDb2dVertex
 10
7568289.42296041734
 20
5713990.61982616037
  0
VERTEX
  5
64
100
AcDbEntity
  8
Warstwa1
100
AcDbVertex
100
AcDb2dVertex
 10
7568275.6438755421
 20
5713841.89007061813
  0
SEQEND
  5
65
100
AcDbEntity
  8
Warstwa1
  0
POLYLINE
  5
66
100
AcDbEntity
  8
Warstwa1
  6
CONTINUOUS
 62
5
370
35
100
AcDb2dPolyline
 66
1
 70
128
  0
VERTEX
  5
67
100
AcDbEntity
  8
Warstwa1
100
AcDbVertex
100
AcDb2dVertex
 10
7568286.38252777141
 20
5713990.53887389973
  0
VERTEX
  5
68
100
AcDbEntity
  8
Warstwa1
100
AcDbVertex
100
AcDb2dVertex
 10
7568272.60361034796
 20
5713841.81092580594
  0
SEQEND
  5
69
100
AcDbEntity
  8
Warstwa1
  0
POLYLINE
  5
6A
100
AcDbEntity
  8
Warstwa1
  6
CONTINUOUS
 62
5
370
35
100
AcDb2dPolyline
 66
1
 70
128
  0
VERTEX
  5
6B
100
AcDbEntity
  8
Warstwa1
100
AcDbVertex
100
AcDb2dVertex
 10
7568283.3420951264
 20
5713990.45792163722
  0
VERTEX
  5
6C
100
AcDbEntity
  8
Warstwa1
100
AcDbVertex
100
AcDb2dVertex
 10
7568269.56334515288
 20
5713841.73178099003
  0
SEQEND
  5
6D
100
AcDbEntity
  8
Warstwa1
  0
POLYLINE
  5
6E
100
AcDbEntity
  8
Warstwa1
  6
CONTINUOUS
 62
5
370
35
100
AcDb2dPolyline
 66
1
 70
128
  0
VERTEX
  5
6F
100
AcDbEntity
  8
Warstwa1
100
AcDbVertex
100
AcDb2dVertex
 10
7568280.30166248046
 20
5713990.37696937565
  0
VERTEX
  5
70
100
AcDbEntity
  8
Warstwa1
100
AcDbVertex
100
AcDb2dVertex
 10
7568266.52307995874
 20
5713841.65263617691
  0
SEQEND
  5
71
100
AcDbEntity
  8
Warstwa1
  0
POLYLINE
  5
72
100
AcDbEntity
  8
Warstwa1
  6
CONTINUOUS
 62
5
370
35
100
AcDb2dPolyline
 66
1
 70
128
  0
VERTEX
  5
73
100
AcDbEntity
  8
Warstwa1
100
AcDbVertex
100
AcDb2dVertex
 10
7568277.26122983359
 20
5713990.29601711314
  0
VERTEX
  5
74
100
AcDbEntity
  8
Warstwa1
100
AcDbVertex
100
AcDb2dVertex
 10
7568263.48281476367
 20
5713841.57349136379
  0
SEQEND
  5
75
100
AcDbEntity
  8
Warstwa1
  0
POLYLINE
  5
76
100
AcDbEntity
  8
Warstwa1
  6
CONTINUOUS
 62
5
370
35
100
AcDb2dPolyline
 66
1
 70
128
  0
VERTEX
  5
77
100
AcDbEntity
  8
Warstwa1
100
AcDbVertex
100
AcDb2dVertex
 10
7568274.22079718672
 20
5713990.21506485157
  0
VERTEX
  5
78
100
AcDbEntity
  8
Warstwa1
100
AcDbVertex
100
AcDb2dVertex
 10
7568260.4425495686
 20
5713841.4943465488
  0
SEQEND
  5
79
100
AcDbEntity
  8
Warstwa1
  0
POLYLINE
  5
7A
100
AcDbEntity
  8
Warstwa1
  6
CONTINUOUS
 62
5
370
35
100
AcDb2dPolyline
 66
1
 70
128
  0
VERTEX
  5
7B
100
AcDbEntity
  8
Warstwa1
100
AcDbVertex
100
AcDb2dVertex
 10
7568271.18036454264
 20
5713990.13411259092
  0
VERTEX
  5
7C
100
AcDbEntity
  8
Warstwa1
100
AcDbVertex
100
AcDb2dVertex
 10
7568257.40228437446
 20
5713841.41520173568
  0
SEQEND
  5
7D
100
AcDbEntity
  8
Warstwa1
  0
POLYLINE
  5
7E
100
AcDbEntity
  8
Warstwa1
  6
CONTINUOUS
 62
5
370
35
100
AcDb2dPolyline
 66
1
 70
128
  0
VERTEX
  5
7F
100
AcDbEntity
  8
Warstwa1
100
AcDbVertex
100
AcDb2dVertex
 10
7568268.13993189577
 20
5713990.05316032935
  0
VERTEX
  5
80
100
AcDbEntity
  8
Warstwa1
100
AcDbVertex
100
AcDb2dVertex
 10
7568254.36201918032
 20
5713841.33605692163
  0
SEQEND
  5
81
100
AcDbEntity
  8
Warstwa1
  0
POLYLINE
  5
82
100
AcDbEntity
  8
Warstwa1
  6
CONTINUOUS
 62
5
370
35
100
AcDb2dPolyline
 66
1
 70
128
  0
VERTEX
  5
83
100
AcDbEntity
  8
Warstwa1
100
AcDbVertex
100
AcDb2dVertex
 10
7568265.09949925076
 20
5713989.97220806591
  0
VERTEX
  5
84
100
AcDbEntity
  8
Warstwa1
100
AcDbVertex
100
AcDb2dVertex
 10
7568251.32175398618
 20
5713841.25691210758
  0
SEQEND
  5
85
100
AcDbEntity
  8
Warstwa1
  0
POLYLINE
  5
86
100
AcDbEntity
  8
Warstwa1
  6
CONTINUOUS
 62
5
370
35
100
AcDb2dPolyline
 66
1
 70
128
  0
VERTEX
  5
87
100
AcDbEntity
  8
Warstwa1
100
AcDbVertex
100
AcDb2dVertex
 10
7568262.05906660482
 20
5713989.89125580527
  0
VERTEX
  5
88
100
AcDbEntity
  8
Warstwa1
100
AcDbVertex
100
AcDb2dVertex
 10
7568248.28148879111
 20
5713841.17776729539
  0
SEQEND
  5
89
100
AcDbEntity
  8
Warstwa1
  0
POLYLINE
  5
8A
100
AcDbEntity
  8
Warstwa1
  6
CONTINUOUS
 62
5
370
18
100
AcDb2dPolyline
 66
1
 70
128
  0
VERTEX
  5
8B
100
AcDbEntity
  8
Warstwa1
100
AcDbVertex
100
AcDb2dVertex
 10
7568244.91000000015
 20
5713841.08999999892
  0
VERTEX
  5
8C
100
AcDbEntity
  8
Warstwa1
100
AcDbVertex
100
AcDb2dVertex
 10
7568327.5
 20
5713843.24000000022
  0
SEQEND
  5
8D
100
AcDbEntity
  8
Warstwa1
  0
POLYLINE
  5
8E
100
AcDbEntity
  8
Warstwa1
  6
CONTINUOUS
 62
5
370
18
100
AcDb2dPolyline
 66
1
 70
128
  0
VERTEX
  5
8F
100
AcDbEntity
  8
Warstwa1
100
AcDbVertex
100
AcDb2dVertex
 10
7568258.85699999984
 20
5713989.80599999893
  0
VERTEX
  5
90
100
AcDbEntity
  8
Warstwa1
100
AcDbVertex
100
AcDb2dVertex
 10
7568341.25999999884
 20
5713992.00000000093
  0
SEQEND
  5
91
100
AcDbEntity
  8
Warstwa1
  0
POLYLINE
  5
92
100
AcDbEntity
  8
Warstwa1
  6
CONTINUOUS
 62
5
370
18
100
AcDb2dPolyline
 66
1
 70
128
  0
VERTEX
  5
93
100
AcDbEntity
  8
Warstwa1
100
AcDbVertex
100
AcDb2dVertex
 10
7568251.96419028379
 20
5713916.29424222
  0
VERTEX
  5
94
100
AcDbEntity
  8
Warstwa1
100
AcDbVertex
100
AcDb2dVertex
 10
7568332.14104421344
 20
5713918.38114865962
  0
SEQEND
  5
95
100
AcDbEntity
  8
Warstwa1
  0
POLYLINE
  5
96
100
AcDbEntity
  8
Warstwa1
  6
CONTINUOUS
 62
5
370
18
100
AcDb2dPolyline
 66
1
 70
128
  0
VERTEX
  5
97
100
AcDbEntity
  8
Warstwa1
100
AcDbVertex
100
AcDb2dVertex
 10
7568251.96419028379
 20
5713916.29424222
  0
VERTEX
  5
98
100
AcDbEntity
  8
Warstwa1
100
AcDbVertex
100
AcDb2dVertex
 10
7568332.14104421344
 20
5713918.38114865962
  0
SEQEND
  5
99
100
AcDbEntity
  8
Warstwa1
  0
POLYLINE
  5
9A
100
AcDbEntity
  8
Warstwa1
  6
CONTINUOUS
 62
5
370
18
100
AcDb2dPolyline
 66
1
 70
128
  0
VERTEX
  5
9B
100
AcDbEntity
  8
Warstwa1
100
AcDbVertex
100
AcDb2dVertex
 10
7568255.48929077759
 20
5713953.89399103448
  0
VERTEX
  5
9C
100
AcDbEntity
  8
Warstwa1
100
AcDbVertex
100
AcDb2dVertex
 10
7568335.62457479443
 20
5713955.98571426515
  0
SEQEND
  5
9D
100
AcDbEntity
  8
Warstwa1
  0
POLYLINE
  5
9E
100
AcDbEntity
  8
Warstwa1
  6
CONTINUOUS
 62
5
370
18
100
AcDb2dPolyline
 66
1
 70
128
  0
VERTEX
  5
9F
100
AcDbEntity
  8
Warstwa1
100
AcDbVertex
100
AcDb2dVertex
 10
7568248.43726450391
 20
5713878.69378399942
  0
VERTEX
  5
A0
100
AcDbEntity
  8
Warstwa1
100
AcDbVertex
100
AcDb2dVertex
 10
7568328.65721254889
 20
5713880.78085903637
  0
SEQEND
  5
A1
100
AcDbEntity
  8
Warstwa1
  0
POLYLINE
  5
A2
100
AcDbEntity
  8
Warstwa1
  6
CONTINUOUS
 62
5
370
18
100
AcDb2dPolyline
 66
1
 70
128
  0
VERTEX
  5
A3
100
AcDbEntity
  8
Warstwa1
100
AcDbVertex
100
AcDb2dVertex
 10
7568244.91000000015
 20
5713841.08999999892
  0
VERTEX
  5
A4
100
AcDbEntity
  8
Warstwa1
100
AcDbVertex
100
AcDb2dVertex
 10
7568258.85699999984
 20
5713989.80599999893
  0
SEQEND
  5
A5
100
AcDbEntity
  8
Warstwa1
  0
INSERT
  5
A6
100
AcDbEntity
  8
Warstwa1
  6
CONTINUOUS
100
AcDbBlockReference
 66
1
  2
pikieta
 10
7568251.96419028379
 20
5713916.29424222
 41
0.50
 42
0.50
 43
0.50
 50
0.00
  0
ATTRIB
  5
A7
100
AcDbEntity
  8
Warstwa1
100
AcDbText
 10
7568251.96419028379
 20
5713916.29424222
 40
0.2
  1
390
 50
0.00
 41
0.62
 51
0.00
  7
STANDARD
100
AcDbAttribute
  2
Nr
 70
0
  0
SEQEND
  5
A8
100
AcDbEntity
  8
Warstwa1
  0
INSERT
  5
A9
100
AcDbEntity
  8
Warstwa1
  6
CONTINUOUS
100
AcDbBlockReference
 66
1
  2
pikieta
 10
7568332.14104421344
 20
5713918.38114865962
 41
0.50
 42
0.50
 43
0.50
 50
0.00
  0
ATTRIB
  5
AA
100
AcDbEntity
  8
Warstwa1
100
AcDbText
 10
7568332.14104421344
 20
5713918.38114865962
 40
0.2
  1
391
 50
0.00
 41
0.62
 51
0.00
  7
STANDARD
100
AcDbAttribute
  2
Nr
 70
0
  0
SEQEND
  5
AB
100
AcDbEntity
  8
Warstwa1
  0
ENDSEC
  0
SECTION
  2
OBJECTS
  0
DICTIONARY
  5
AC
330
0
100
AcDbDictionary
280
0
281
1
  3
ACAD_GROUP
350
AD
  3
ACAD_LAYOUT
350
AE
  3
ACAD_MLINESTYLE
350
AF
  3
ACAD_PLOTSETTINGS
350
B0
  3
ACAD_PLOTSTYLENAME
350
B1
  3
ACAD_WIPEOUT_VARS
350
B2
  0
DICTIONARY
  5
AD
102
{ACAD_REACTORS
330
AC
102
}
330
AC
100
AcDbDictionary
280
0
281
1
  0
DICTIONARY
  5
AE
102
{ACAD_REACTORS
330
AC
102
}
330
AC
100
AcDbDictionary
280
0
281
1
  3
Layout
350
19
  3
Model
350
17
  0
DICTIONARY
  5
AF
102
{ACAD_REACTORS
330
AC
102
}
330
AC
100
AcDbDictionary
280
0
281
1
  3
Standard
350
B3
  0
DICTIONARY
  5
B0
102
{ACAD_REACTORS
330
AC
102
}
330
AC
100
AcDbDictionary
280
0
281
1
  0
ACDBDICTIONARYWDFLT
  5
B1
102
{ACAD_REACTORS
330
AC
102
}
330
AC
100
AcDbDictionary
281
1
  3
Normal
350
A
100
AcDbDictionaryWithDefault
340
A
  0
WIPEOUTVARIABLES
  5
B2
102
{ACAD_REACTORS
330
AC
102
}
330
AC
100
AcDbWipeoutVariables
 70
0
  0
LAYOUT
  5
19
100
AcDbPlotSettings
  1

  2

  4

  6

 40
0.0
 41
0.0
 42
0.0
 43
0.0
 44
0.0
 45
0.0
 46
0.0
 47
0.0
 48
0.0
 49
0.0
140
0.0
141
0.0
142
1.0
143
1.0
 70
688
 72
1
 73
0
 74
5
  7

 75
0
147
1.0
148
0.0
149
0.0
100
AcDbLayout
  1
Layout
 70
1
 71
1
 10
0.0
 20
0.0
 11
420.0
 21
297.0
 12
0.0
 22
0.0
 32
0.0
 14
100000000000000000000.0
 24
100000000000000000000.0
 34
100000000000000000000.0
 15
-100000000000000000000.0
 25
-100000000000000000000.0
 35
-100000000000000000000.0
146
0.0
 13
0.0
 23
0.0
 33
0.0
 16
1.0
 26
0.0
 36
0.0
 17
0.0
 27
1.0
 37
0.0
 76
0
330
18
  0
LAYOUT
  5
17
100
AcDbPlotSettings
  1

  2

  4

  6

 40
0.0
 41
0.0
 42
0.0
 43
0.0
 44
0.0
 45
0.0
 46
0.0
 47
0.0
 48
0.0
 49
0.0
140
0.0
141
0.0
142
1.0
143
1.0
 70
1712
 72
1
 73
0
 74
0
  7

 75
0
147
1.0
148
0.0
149
0.0
100
AcDbLayout
  1
Model
 70
1
 71
0
 10
0.0
 20
0.0
 11
12.0
 21
9.0
 12
0.0
 22
0.0
 32
0.0
 14
0.0
 24
0.0
 34
0.0
 15
0.0
 25
0.0
 35
0.0
146
0.0
 13
0.0
 23
0.0
 33
0.0
 16
1.0
 26
0.0
 36
0.0
 17
0.0
 27
1.0
 37
0.0
 76
0
330
16
  0
MLINESTYLE
  5
B3
102
{ACAD_REACTORS
330
AF
102
}
330
AF
100
AcDbMlineStyle
  2
Standard
 70
0
  3

 62
256
 51
90.0
 52
90.0
  2
Standard
 71
2
 49
0.5
 62
256
  6
ByLayer
 49
-0.5
 62
256
  6
ByLayer
  0
ACDBPLACEHOLDER
  5
A
  0
ENDSEC
  0
EOF
