  0
SECTION
  2
HEADER
  9
$ACADVER
  1
AC1018
  9
$HANDSEED
  5
FFFFFF
  9
$EXTMAX
 10
7563689.5700000003
 20
5721822.79999999981
 30
1000000.00
  9
$EXTMIN
 10
7563570.87999999989
 20
5721682.61000000034
 30
0.00
  9
$LIMMIN
 10
7563570.87999999989
 20
5721682.61000000034
  9
$LIMMAX
 10
7563689.5700000003
 20
5721822.79999999981
  9
$DIMASZ
 40
2.5
  9
$DIMGAP
 40
0.625
  9
$INSUNITS
 70
6
  9
$DIMEXO
 40
0.625
  9
$DIMTXT
 40
2.5
  9
$DIMSTYLE
  2
Standard
  9
$PLIMMIN
 10
0.0
 20
0.0
  9
$PLIMMAX
 10
210.0
 20
297.0
  9
$DIMEXE
 40
1.25
  9
$TEXTSIZE
 40
2.5
  9
$TEXTSTYLE
  7
Standard
  9
$LWDISPLAY
290
1
  9
$TDCREATE
 40
44869.531790313
  9
$TDUCREATE
 40
44869.490123646
  9
$TDUPDATE
 40
44869.531790313
  9
$TDUUPDATE
 40
44869.490123646
  9
$TDINDWG
 40
0.0
  9
$TDUSRTIMER
 40
0.0
  9
$USRTIMER
 70
1
  0
ENDSEC
  0
SECTION
  2
TABLES
  0
TABLE
  2
VPORT
  5
1
100
AcDbSymbolTable
 70
1
  0
VPORT
  5
2
100
AcDbSymbolTableRecord
100
AcDbViewportTableRecord
  2
*ACTIVE
 70
0
 10
0.0
 20
0.0
 11
1.0
 21
1.0
 12
7563630.22
 22
5721752.71
 13
0.0
 23
0.0
 14
1.0
 24
1.0
 15
0.0
 25
0.0
 16
0.0
 26
0.0
 36
1.0
 17
0.0
 27
0.0
 37
0.0
 40
140.19
 41
0.85
 42
50.0
 43
0.0
 44
0.0
 50
0.0
 51
0.0
 71
0
 72
100
 73
1
 74
1
 75
0
 76
0
 77
0
 78
0
  0
ENDTAB
  0
TABLE
  2
LTYPE
  5
3
100
AcDbSymbolTable
 70
3
  0
LTYPE
  5
4
100
AcDbSymbolTableRecord
100
AcDbLinetypeTableRecord
  2
ByBlock
 70
0
  3

 72
65
 73
0
 40
0.0
  0
LTYPE
  5
5
100
AcDbSymbolTableRecord
100
AcDbLinetypeTableRecord
  2
ByLayer
 70
0
  3

 72
65
 73
0
 40
0.0
  0
LTYPE
  5
6
100
AcDbSymbolTableRecord
100
AcDbLinetypeTableRecord
  2
CONTINUOUS
 70
0
  3
Solid line
 72
65
 73
0
 40
0.0
  0
LTYPE
  5
8
100
AcDbSymbolTableRecord
100
AcDbLinetypeTableRecord
  2
L_0_02
 70
0
  3
Dzialka_ewidencyjna (MLineStyle)
 72
65
 73
0
 40
0.0
  0
LTYPE
  5
9
100
AcDbSymbolTableRecord
100
AcDbLinetypeTableRecord
  2
L_0_03
 70
0
  3
Uzytek_gruntowy
 72
65
 73
2
 40
1.0
 49
0.5
 74
0
 49
-0.5
 74
0
  0
LTYPE
  5
A
100
AcDbSymbolTableRecord
100
AcDbLinetypeTableRecord
  2
L_0_04
 70
0
  3
Budynek_projektowany
 72
65
 73
2
 40
1.5
 49
1.0
 74
0
 49
-0.5
 74
0
  0
LTYPE
  5
B
100
AcDbSymbolTableRecord
100
AcDbLinetypeTableRecord
  2
L_0_06
 70
0
  3
Granica_konturu_klasyfikacyjnego_Krawedz_chodnika
 72
65
 73
2
 40
2.0
 49
1.5
 74
0
 49
-0.5
 74
0
  0
LTYPE
  5
C
100
AcDbSymbolTableRecord
100
AcDbLinetypeTableRecord
  2
L_0_0C
 70
0
  3
Budynek_w_ruinie_Warstwica_pomocnicza
 72
65
 73
2
 40
3.0
 49
2.0
 74
0
 49
-1.0
 74
0
  0
ENDTAB
  0
TABLE
  2
LAYER
  5
D
100
AcDbSymbolTable
 70
4
  0
LAYER
  5
E
100
AcDbSymbolTableRecord
100
AcDbLayerTableRecord
  2
0
 70
0
420
0
  6
CONTINUOUS
370
18
390
F
  0
LAYER
  5
10
100
AcDbSymbolTableRecord
100
AcDbLayerTableRecord
  2
Dzialki
 70
0
420
32768
  6
L_0_02
370
18
390
F
  0
LAYER
  5
11
100
AcDbSymbolTableRecord
100
AcDbLayerTableRecord
  2
Numery_dzialek
 70
0
420
32768
  6
CONTINUOUS
370
18
390
F
  0
LAYER
  5
12
100
AcDbSymbolTableRecord
100
AcDbLayerTableRecord
  2
zakres
 70
0
420
1346800
  6
L_0_04
370
35
390
F
  0
ENDTAB
  0
TABLE
  2
STYLE
  5
13
100
AcDbSymbolTable
 70
2
  0
STYLE
  5
14
100
AcDbSymbolTableRecord
100
AcDbTextStyleTableRecord
  2
STANDARD
 70
0
 40
0.0
 41
1.0
 50
0.0
 71
0
  3
simplex.shx
  4

  0
STYLE
  5
15
100
AcDbSymbolTableRecord
100
AcDbTextStyleTableRecord
  2
STANDARD_ITALIC
 70
0
 40
0.0
 41
1.0
 50
15.0
 71
0
  3
simplex.shx
  4

  0
ENDTAB
  0
TABLE
  2
VIEW
  5
16
100
AcDbSymbolTable
 70
0
  0
ENDTAB
  0
TABLE
  2
UCS
  5
17
100
AcDbSymbolTable
 70
0
  0
ENDTAB
  0
TABLE
  2
APPID
  5
18
100
AcDbSymbolTable
 70
1
  0
APPID
  5
19
100
AcDbSymbolTableRecord
100
AcDbRegAppTableRecord
  2
ACAD
 70
0
  0
ENDTAB
  0
TABLE
  2
DIMSTYLE
  5
1A
100
AcDbSymbolTable
 70
1
100
AcDbDimStyleTable
  0
DIMSTYLE
105
1B
100
AcDbSymbolTableRecord
100
AcDbDimStyleTableRecord
  2
Standard
 70
0
340
14
  0
ENDTAB
  0
TABLE
  2
BLOCK_RECORD
  5
1C
100
AcDbSymbolTable
 70
6
  0
BLOCK_RECORD
  5
1D
100
AcDbSymbolTableRecord
100
AcDbBlockTableRecord
  2
*Model_Space
340
1E
  0
BLOCK_RECORD
  5
1F
100
AcDbSymbolTableRecord
100
AcDbBlockTableRecord
  2
*Paper_Space
340
20
  0
BLOCK_RECORD
  5
21
100
AcDbSymbolTableRecord
100
AcDbBlockTableRecord
  2
OSPB
340
22
  0
BLOCK_RECORD
  5
23
100
AcDbSymbolTableRecord
100
AcDbBlockTableRecord
  2
OSHF
340
24
  0
BLOCK_RECORD
  5
25
100
AcDbSymbolTableRecord
100
AcDbBlockTableRecord
  2
L_0_02_1
340
26
  0
BLOCK_RECORD
  5
27
100
AcDbSymbolTableRecord
100
AcDbBlockTableRecord
  2
L_0_02_2
340
28
  0
ENDTAB
  0
ENDSEC
  0
SECTION
  2
BLOCKS
  0
BLOCK
  5
29
100
AcDbEntity
  8
0
100
AcDbBlockBegin
  2
*Model_Space
 70
0
 10
0.0
 20
0.0
 30
0.0
  3
*Model_Space
  1

  0
ENDBLK
  5
2A
100
AcDbEntity
  8
0
100
AcDbBlockEnd
  0
BLOCK
  5
2B
100
AcDbEntity
 67
1
  8
0
100
AcDbBlockBegin
  2
*Paper_Space
 70
0
 10
0.0
 20
0.0
 30
0.0
  3
*Paper_Space
  1

  0
ENDBLK
  5
2C
100
AcDbEntity
 67
1
  8
0
100
AcDbBlockEnd
  0
BLOCK
  5
22
100
AcDbEntity
  8
0
100
AcDbBlockBegin
 62
0
370
13
  2
OSPB
 70
0
 10
0
 20
0
 30
0
  3
OSPB
  0
HATCH
  5
2D
100
AcDbEntity
  8
0
  6
CONTINUOUS
420
16777215
370
18
100
AcDbHatch
 10
0.0
 20
0.0
 30
0.0
210
0.0
220
0.0
230
1.0
  2
SOLID
 70
1
 71
1
 91
1
 92
3
 72
0
 73
1
 93
4
 10
-2.0
 20
-1.1
 10
2.0
 20
-1.1
 10
0.1
 20
2.1
 10
-2.0
 20
-1.1
 97
0
 75
0
 76
1
 98
0
  0
POLYLINE
  5
2E
100
AcDbEntity
  8
0
  6
CONTINUOUS
 62
0
370
18
100
AcDb2dPolyline
 66
1
 70
129
  0
VERTEX
  5
2F
100
AcDbEntity
  8
0
100
AcDbVertex
100
AcDb2dVertex
 10
-2.0
 20
-1.1
  0
VERTEX
  5
30
100
AcDbEntity
  8
0
100
AcDbVertex
100
AcDb2dVertex
 10
2.0
 20
-1.1
  0
VERTEX
  5
31
100
AcDbEntity
  8
0
100
AcDbVertex
100
AcDb2dVertex
 10
0.1
 20
2.1
  0
VERTEX
  5
32
100
AcDbEntity
  8
0
100
AcDbVertex
100
AcDb2dVertex
 10
-2.0
 20
-1.1
  0
SEQEND
  5
33
100
AcDbEntity
  8
0
  0
HATCH
  5
34
100
AcDbEntity
  8
0
  6
CONTINUOUS
 62
0
370
25
100
AcDbHatch
 10
0.0
 20
0.0
 30
0.0
210
0.0
220
0.0
230
1.0
  2
SOLID
 70
1
 71
1
 91
1
 92
3
 72
1
 73
1
 93
2
 10
0.0
 20
-0.22360679775
 42
1.0
 10
0.0
 20
0.22360679775
 42
1.0
 97
0
 75
0
 76
1
 98
0
  0
CIRCLE
  5
35
100
AcDbEntity
  8
0
  6
CONTINUOUS
 62
0
370
25
100
AcDbCircle
 10
0.0
 20
-0.0
 40
0.22360679775
  0
ENDBLK
  5
36
100
AcDbEntity
  8
0
100
AcDbBlockEnd
  0
BLOCK
  5
24
100
AcDbEntity
  8
0
100
AcDbBlockBegin
 62
0
370
13
  2
OSHF
 70
0
 10
0
 20
0
 30
0
  3
OSHF
  0
HATCH
  5
37
100
AcDbEntity
  8
0
  6
CONTINUOUS
420
16777215
370
18
100
AcDbHatch
 10
0.0
 20
0.0
 30
0.0
210
0.0
220
0.0
230
1.0
  2
SOLID
 70
1
 71
1
 91
1
 92
3
 72
1
 73
1
 93
2
 10
0.0
 20
-2.0
 42
1.0
 10
0.0
 20
2.0
 42
1.0
 97
0
 75
0
 76
1
 98
0
  0
CIRCLE
  5
38
100
AcDbEntity
  8
0
  6
CONTINUOUS
 62
0
370
18
100
AcDbCircle
 10
0.0
 20
-0.0
 40
2.0
  0
HATCH
  5
39
100
AcDbEntity
  8
0
  6
CONTINUOUS
 62
0
370
18
100
AcDbHatch
 10
0.0
 20
0.0
 30
0.0
210
0.0
220
0.0
230
1.0
  2
SOLID
 70
1
 71
1
 91
1
 92
3
 72
0
 73
1
 93
4
 10
-1.7
 20
1.0
 10
1.7
 20
1.0
 10
0.0
 20
-2.0
 10
-1.7
 20
0.9
 97
0
 75
0
 76
1
 98
0
  0
POLYLINE
  5
3A
100
AcDbEntity
  8
0
  6
CONTINUOUS
 62
0
370
18
100
AcDb2dPolyline
 66
1
 70
129
  0
VERTEX
  5
3B
100
AcDbEntity
  8
0
100
AcDbVertex
100
AcDb2dVertex
 10
-1.7
 20
1.0
  0
VERTEX
  5
3C
100
AcDbEntity
  8
0
100
AcDbVertex
100
AcDb2dVertex
 10
1.7
 20
1.0
  0
VERTEX
  5
3D
100
AcDbEntity
  8
0
100
AcDbVertex
100
AcDb2dVertex
 10
0.0
 20
-2.0
  0
VERTEX
  5
3E
100
AcDbEntity
  8
0
100
AcDbVertex
100
AcDb2dVertex
 10
-1.7
 20
0.9
  0
SEQEND
  5
3F
100
AcDbEntity
  8
0
  0
HATCH
  5
40
100
AcDbEntity
  8
0
  6
CONTINUOUS
420
16777215
370
18
100
AcDbHatch
 10
0.0
 20
0.0
 30
0.0
210
0.0
220
0.0
230
1.0
  2
SOLID
 70
1
 71
1
 91
1
 92
3
 72
1
 73
1
 93
2
 10
0.0
 20
-0.22360679775
 42
1.0
 10
0.0
 20
0.22360679775
 42
1.0
 97
0
 75
0
 76
1
 98
0
  0
ENDBLK
  5
41
100
AcDbEntity
  8
0
100
AcDbBlockEnd
  0
BLOCK
  5
26
100
AcDbEntity
  8
0
100
AcDbBlockBegin
 62
0
370
13
  2
L_0_02_1
 70
0
 10
0
 20
0
 30
0
  3
L_0_02_1
  0
POINT
  5
42
100
AcDbEntity
  8
0
100
AcDbPoint
 62
0
 10
0.0
 20
0.0
 30
0.000
  0
ENDBLK
  5
43
100
AcDbEntity
  8
0
100
AcDbBlockEnd
  0
BLOCK
  5
28
100
AcDbEntity
  8
0
100
AcDbBlockBegin
 62
0
370
13
  2
L_0_02_2
 70
0
 10
0
 20
0
 30
0
  3
L_0_02_2
  0
POINT
  5
44
100
AcDbEntity
  8
0
100
AcDbPoint
 62
0
 10
-0.0
 20
-0.0
 30
0.000
  0
ENDBLK
  5
45
100
AcDbEntity
  8
0
100
AcDbBlockEnd
  0
ENDSEC
  0
SECTION
  2
ENTITIES
  0
INSERT
  5
46
100
AcDbEntity
  8
Dzialki
  6
CONTINUOUS
100
AcDbBlockReference
 66
0
  2
L_0_02_1
 10
7563638.91000000015
 20
5721783.63999999966
 41
0.50
 42
0.50
 43
0.50
 50
68.67
  0
INSERT
  5
47
100
AcDbEntity
  8
Dzialki
  6
CONTINUOUS
100
AcDbBlockReference
 66
0
  2
L_0_02_2
 10
7563652.94000000041
 20
5721819.5700000003
 41
0.50
 42
0.50
 43
0.50
 50
248.67
  0
MLINE
  5
48
100
AcDbEntity
  8
Dzialki
  6
L_0_02
370
18
100
AcDbMline
  2
L_0_02
340
7
 40
1.0
 70
1
 71
1
 72
2
 73
1
 10
7563638.91000000015
 20
5721783.63999999966
210
0.0
220
0.0
230
1.0
 11
7563638.91000000015
 21
5721783.63999999966
 12
0.363734543336
 22
0.931502647331
 13
-0.931502647331
 23
0.363734543336
 74
3
 41
0.0
 41
0.25
 41
38.322085762282
 75
0
 11
7563652.94000000041
 21
5721819.5700000003
 12
0.363734543336
 22
0.931502647331
 13
-0.931502647331
 23
0.363734543336
 74
0
 75
0
  0
INSERT
  5
49
100
AcDbEntity
  8
Dzialki
  6
CONTINUOUS
100
AcDbBlockReference
 66
0
  2
L_0_02_1
 10
7563628.08000000007
 20
5721822.24000000022
 41
0.50
 42
0.50
 43
0.50
 50
248.65
  0
INSERT
  5
4A
100
AcDbEntity
  8
Dzialki
  6
CONTINUOUS
100
AcDbBlockReference
 66
0
  2
L_0_02_2
 10
7563614.04999999981
 20
5721786.33999999985
 41
0.50
 42
0.50
 43
0.50
 50
68.65
  0
MLINE
  5
4B
100
AcDbEntity
  8
Dzialki
  6
L_0_02
370
18
100
AcDbMline
  2
L_0_02
340
7
 40
1.0
 70
1
 71
1
 72
2
 73
1
 10
7563628.08000000007
 20
5721822.24000000022
210
0.0
220
0.0
230
1.0
 11
7563628.08000000007
 21
5721822.24000000022
 12
-0.363998241744
 22
-0.931399634962
 13
0.931399634962
 23
-0.363998241744
 74
3
 41
0.0
 41
0.25
 41
38.294142227245
 75
0
 11
7563614.04999999981
 21
5721786.33999999985
 12
-0.363998241744
 22
-0.931399634962
 13
0.931399634962
 23
-0.363998241744
 74
0
 75
0
  0
INSERT
  5
4C
100
AcDbEntity
  8
Dzialki
  6
CONTINUOUS
100
AcDbBlockReference
 66
0
  2
L_0_02_1
 10
7563614.04999999981
 20
5721786.33999999985
 41
0.50
 42
0.50
 43
0.50
 50
353.80
  0
INSERT
  5
4D
100
AcDbEntity
  8
Dzialki
  6
CONTINUOUS
100
AcDbBlockReference
 66
0
  2
L_0_02_2
 10
7563638.91000000015
 20
5721783.63999999966
 41
0.50
 42
0.50
 43
0.50
 50
173.80
  0
MLINE
  5
4E
100
AcDbEntity
  8
Dzialki
  6
L_0_02
370
18
100
AcDbMline
  2
L_0_02
340
7
 40
1.0
 70
1
 71
1
 72
2
 73
1
 10
7563614.04999999981
 20
5721786.33999999985
210
0.0
220
0.0
230
1.0
 11
7563614.04999999981
 21
5721786.33999999985
 12
0.994153798472
 22
-0.1079732605
 13
0.1079732605
 23
0.994153798472
 74
3
 41
0.0
 41
0.25
 41
24.756191233726
 75
0
 11
7563638.91000000015
 21
5721783.63999999966
 12
0.994153798472
 22
-0.1079732605
 13
0.1079732605
 23
0.994153798472
 74
0
 75
0
  0
INSERT
  5
4F
100
AcDbEntity
  8
Dzialki
  6
CONTINUOUS
100
AcDbBlockReference
 66
0
  2
L_0_02_1
 10
7563638.91000000015
 20
5721783.63999999966
 41
0.50
 42
0.50
 43
0.50
 50
353.82
  0
INSERT
  5
50
100
AcDbEntity
  8
Dzialki
  6
CONTINUOUS
100
AcDbBlockReference
 66
0
  2
L_0_02_2
 10
7563689.5700000003
 20
5721778.15000000037
 41
0.50
 42
0.50
 43
0.50
 50
173.82
  0
MLINE
  5
51
100
AcDbEntity
  8
Dzialki
  6
L_0_02
370
18
100
AcDbMline
  2
L_0_02
340
7
 40
1.0
 70
1
 71
1
 72
2
 73
1
 10
7563638.91000000015
 20
5721783.63999999966
210
0.0
220
0.0
230
1.0
 11
7563638.91000000015
 21
5721783.63999999966
 12
0.994179242465
 22
-0.107738729578
 13
0.107738729578
 23
0.994179242465
 74
3
 41
0.0
 41
0.25
 41
50.706606048748
 75
0
 11
7563689.5700000003
 21
5721778.15000000037
 12
0.994179242465
 22
-0.107738729578
 13
0.107738729578
 23
0.994179242465
 74
0
 75
0
  0
INSERT
  5
52
100
AcDbEntity
  8
Dzialki
  6
CONTINUOUS
100
AcDbBlockReference
 66
0
  2
L_0_02_1
 10
7563608.12999999989
 20
5721784.84999999963
 41
0.50
 42
0.50
 43
0.50
 50
68.64
  0
INSERT
  5
53
100
AcDbEntity
  8
Dzialki
  6
CONTINUOUS
100
AcDbBlockReference
 66
0
  2
L_0_02_2
 10
7563622.96999999974
 20
5721822.79999999981
 41
0.50
 42
0.50
 43
0.50
 50
248.64
  0
MLINE
  5
54
100
AcDbEntity
  8
Dzialki
  6
L_0_02
370
18
100
AcDbMline
  2
L_0_02
340
7
 40
1.0
 70
1
 71
1
 72
2
 73
1
 10
7563608.12999999989
 20
5721784.84999999963
210
0.0
220
0.0
230
1.0
 11
7563608.12999999989
 21
5721784.84999999963
 12
0.364186517413
 22
0.931326033425
 13
-0.931326033425
 23
0.364186517413
 74
3
 41
0.0
 41
0.25
 41
40.498350886996
 75
0
 11
7563622.96999999974
 21
5721822.79999999981
 12
0.364186517413
 22
0.931326033425
 13
-0.931326033425
 23
0.364186517413
 74
0
 75
0
  0
INSERT
  5
55
100
AcDbEntity
  8
Dzialki
  6
CONTINUOUS
100
AcDbBlockReference
 66
0
  2
L_0_02_1
 10
7563579.45999999996
 20
5721789.74000000022
 41
0.50
 42
0.50
 43
0.50
 50
350.32
  0
INSERT
  5
56
100
AcDbEntity
  8
Dzialki
  6
CONTINUOUS
100
AcDbBlockReference
 66
0
  2
L_0_02_2
 10
7563608.12999999989
 20
5721784.84999999963
 41
0.50
 42
0.50
 43
0.50
 50
170.32
  0
MLINE
  5
57
100
AcDbEntity
  8
Dzialki
  6
L_0_02
370
18
100
AcDbMline
  2
L_0_02
340
7
 40
1.0
 70
1
 71
1
 72
2
 73
1
 10
7563579.45999999996
 20
5721789.74000000022
210
0.0
220
0.0
230
1.0
 11
7563579.45999999996
 21
5721789.74000000022
 12
0.98576423653
 22
-0.168133488568
 13
0.168133488568
 23
0.98576423653
 74
3
 41
0.0
 41
0.25
 41
28.834033420445
 75
0
 11
7563608.12999999989
 21
5721784.84999999963
 12
0.98576423653
 22
-0.168133488568
 13
0.168133488568
 23
0.98576423653
 74
0
 75
0
  0
INSERT
  5
58
100
AcDbEntity
  8
Dzialki
  6
CONTINUOUS
100
AcDbBlockReference
 66
0
  2
L_0_02_1
 10
7563593.03000000026
 20
5721746.25
 41
0.50
 42
0.50
 43
0.50
 50
68.63
  0
INSERT
  5
59
100
AcDbEntity
  8
Dzialki
  6
CONTINUOUS
100
AcDbBlockReference
 66
0
  2
L_0_02_2
 10
7563608.12999999989
 20
5721784.84999999963
 41
0.50
 42
0.50
 43
0.50
 50
248.63
  0
MLINE
  5
5A
100
AcDbEntity
  8
Dzialki
  6
L_0_02
370
18
100
AcDbMline
  2
L_0_02
340
7
 40
1.0
 70
1
 71
1
 72
2
 73
1
 10
7563593.03000000026
 20
5721746.25
210
0.0
220
0.0
230
1.0
 11
7563593.03000000026
 21
5721746.25
 12
0.364308378509
 22
0.931278371567
 13
-0.931278371567
 23
0.364308378509
 74
3
 41
0.0
 41
0.25
 41
41.198401657482
 75
0
 11
7563608.12999999989
 21
5721784.84999999963
 12
0.364308378509
 22
0.931278371567
 13
-0.931278371567
 23
0.364308378509
 74
0
 75
0
  0
INSERT
  5
5B
100
AcDbEntity
  8
Dzialki
  6
CONTINUOUS
100
AcDbBlockReference
 66
0
  2
L_0_02_1
 10
7563585.75999999978
 20
5721727.41000000015
 41
0.50
 42
0.50
 43
0.50
 50
68.90
  0
INSERT
  5
5C
100
AcDbEntity
  8
Dzialki
  6
CONTINUOUS
100
AcDbBlockReference
 66
0
  2
L_0_02_2
 10
7563593.03000000026
 20
5721746.25
 41
0.50
 42
0.50
 43
0.50
 50
248.90
  0
MLINE
  5
5D
100
AcDbEntity
  8
Dzialki
  6
L_0_02
370
18
100
AcDbMline
  2
L_0_02
340
7
 40
1.0
 70
1
 71
1
 72
2
 73
1
 10
7563585.75999999978
 20
5721727.41000000015
210
0.0
220
0.0
230
1.0
 11
7563585.75999999978
 21
5721727.41000000015
 12
0.360007541795
 22
0.932949392974
 13
-0.932949392974
 23
0.360007541795
 74
3
 41
0.0
 41
0.25
 41
19.944021392517
 75
0
 11
7563593.03000000026
 21
5721746.25
 12
0.360007541795
 22
0.932949392974
 13
-0.932949392974
 23
0.360007541795
 74
0
 75
0
  0
INSERT
  5
5E
100
AcDbEntity
  8
Dzialki
  6
CONTINUOUS
100
AcDbBlockReference
 66
0
  2
L_0_02_1
 10
7563687.70000000019
 20
5721773.37999999989
 41
0.50
 42
0.50
 43
0.50
 50
173.80
  0
INSERT
  5
5F
100
AcDbEntity
  8
Dzialki
  6
CONTINUOUS
100
AcDbBlockReference
 66
0
  2
L_0_02_2
 10
7563656.13999999966
 20
5721776.80999999959
 41
0.50
 42
0.50
 43
0.50
 50
353.80
  0
MLINE
  5
60
100
AcDbEntity
  8
Dzialki
  6
L_0_02
370
18
100
AcDbMline
  2
L_0_02
340
7
 40
1.0
 70
1
 71
1
 72
2
 73
1
 10
7563687.70000000019
 20
5721773.37999999989
210
0.0
220
0.0
230
1.0
 11
7563687.70000000019
 21
5721773.37999999989
 12
-0.994145934262
 22
0.108045644936
 13
-0.108045644936
 23
-0.994145934262
 74
3
 41
0.0
 41
0.25
 41
31.495842247937
 75
0
 11
7563656.13999999966
 21
5721776.80999999959
 12
-0.994145934262
 22
0.108045644936
 13
-0.108045644936
 23
-0.994145934262
 74
0
 75
0
  0
INSERT
  5
61
100
AcDbEntity
  8
Dzialki
  6
CONTINUOUS
100
AcDbBlockReference
 66
0
  2
L_0_02_1
 10
7563656.13999999966
 20
5721776.80999999959
 41
0.50
 42
0.50
 43
0.50
 50
248.64
  0
INSERT
  5
62
100
AcDbEntity
  8
Dzialki
  6
CONTINUOUS
100
AcDbBlockReference
 66
0
  2
L_0_02_2
 10
7563655.08000000007
 20
5721774.09999999963
 41
0.50
 42
0.50
 43
0.50
 50
68.64
  0
MLINE
  5
63
100
AcDbEntity
  8
Dzialki
  6
L_0_02
370
18
100
AcDbMline
  2
L_0_02
340
7
 40
1.0
 70
1
 71
1
 72
2
 73
1
 10
7563656.13999999966
 20
5721776.80999999959
210
0.0
220
0.0
230
1.0
 11
7563656.13999999966
 21
5721776.80999999959
 12
-0.36426977171
 22
-0.931293473304
 13
0.931293473304
 23
-0.36426977171
 74
3
 41
0.0
 41
0.25
 41
2.659931270482
 75
0
 11
7563655.08000000007
 21
5721774.09999999963
 12
-0.36426977171
 22
-0.931293473304
 13
0.931293473304
 23
-0.36426977171
 74
0
 75
0
  0
INSERT
  5
64
100
AcDbEntity
  8
Dzialki
  6
CONTINUOUS
100
AcDbBlockReference
 66
0
  2
L_0_02_1
 10
7563655.08000000007
 20
5721774.09999999963
 41
0.50
 42
0.50
 43
0.50
 50
248.63
  0
INSERT
  5
65
100
AcDbEntity
  8
Dzialki
  6
CONTINUOUS
100
AcDbBlockReference
 66
0
  2
L_0_02_2
 10
7563643.91000000015
 20
5721745.54999999981
 41
0.50
 42
0.50
 43
0.50
 50
68.63
  0
MLINE
  5
66
100
AcDbEntity
  8
Dzialki
  6
L_0_02
370
18
100
AcDbMline
  2
L_0_02
340
7
 40
1.0
 70
1
 71
1
 72
2
 73
1
 10
7563655.08000000007
 20
5721774.09999999963
210
0.0
220
0.0
230
1.0
 11
7563655.08000000007
 21
5721774.09999999963
 12
-0.364350152754
 22
-0.931262028748
 13
0.931262028748
 23
-0.364350152754
 74
3
 41
0.0
 41
0.25
 41
30.407322126822
 75
0
 11
7563643.91000000015
 21
5721745.54999999981
 12
-0.364350152754
 22
-0.931262028748
 13
0.931262028748
 23
-0.364350152754
 74
0
 75
0
  0
INSERT
  5
67
100
AcDbEntity
  8
Dzialki
  6
CONTINUOUS
100
AcDbBlockReference
 66
0
  2
L_0_02_1
 10
7563643.91000000015
 20
5721745.54999999981
 41
0.50
 42
0.50
 43
0.50
 50
248.63
  0
INSERT
  5
68
100
AcDbEntity
  8
Dzialki
  6
CONTINUOUS
100
AcDbBlockReference
 66
0
  2
L_0_02_2
 10
7563619.28000000026
 20
5721682.61000000034
 41
0.50
 42
0.50
 43
0.50
 50
68.63
  0
MLINE
  5
69
100
AcDbEntity
  8
Dzialki
  6
L_0_02
370
18
100
AcDbMline
  2
L_0_02
340
7
 40
1.0
 70
1
 71
1
 72
2
 73
1
 10
7563643.91000000015
 20
5721745.54999999981
210
0.0
220
0.0
230
1.0
 11
7563643.91000000015
 21
5721745.54999999981
 12
-0.36441608455
 22
-0.931236230675
 13
0.931236230675
 23
-0.36441608455
 74
3
 41
0.0
 41
0.25
 41
67.337576520607
 75
0
 11
7563619.28000000026
 21
5721682.61000000034
 12
-0.36441608455
 22
-0.931236230675
 13
0.931236230675
 23
-0.36441608455
 74
0
 75
0
  0
INSERT
  5
6A
100
AcDbEntity
  8
Dzialki
  6
CONTINUOUS
100
AcDbBlockReference
 66
0
  2
L_0_02_1
 10
7563593.03000000026
 20
5721746.25
 41
0.50
 42
0.50
 43
0.50
 50
353.75
  0
INSERT
  5
6B
100
AcDbEntity
  8
Dzialki
  6
CONTINUOUS
100
AcDbBlockReference
 66
0
  2
L_0_02_2
 10
7563598.13999999966
 20
5721745.69000000041
 41
0.50
 42
0.50
 43
0.50
 50
173.75
  0
MLINE
  5
6C
100
AcDbEntity
  8
Dzialki
  6
L_0_02
370
18
100
AcDbMline
  2
L_0_02
340
7
 40
1.0
 70
1
 71
1
 72
2
 73
1
 10
7563593.03000000026
 20
5721746.25
210
0.0
220
0.0
230
1.0
 11
7563593.03000000026
 21
5721746.25
 12
0.994048673209
 22
-0.108936840833
 13
0.108936840833
 23
0.994048673209
 74
3
 41
0.0
 41
0.25
 41
4.890593350329
 75
0
 11
7563598.13999999966
 21
5721745.69000000041
 12
0.994048673209
 22
-0.108936840833
 13
0.108936840833
 23
0.994048673209
 74
0
 75
0
  0
INSERT
  5
6D
100
AcDbEntity
  8
Dzialki
  6
CONTINUOUS
100
AcDbBlockReference
 66
0
  2
L_0_02_1
 10
7563598.13999999966
 20
5721745.69000000041
 41
0.50
 42
0.50
 43
0.50
 50
68.58
  0
INSERT
  5
6E
100
AcDbEntity
  8
Dzialki
  6
CONTINUOUS
100
AcDbBlockReference
 66
0
  2
L_0_02_2
 10
7563599.95999999996
 20
5721750.33000000007
 41
0.50
 42
0.50
 43
0.50
 50
248.58
  0
MLINE
  5
6F
100
AcDbEntity
  8
Dzialki
  6
L_0_02
370
18
100
AcDbMline
  2
L_0_02
340
7
 40
1.0
 70
1
 71
1
 72
2
 73
1
 10
7563598.13999999966
 20
5721745.69000000041
210
0.0
220
0.0
230
1.0
 11
7563598.13999999966
 21
5721745.69000000041
 12
0.365155721087
 22
0.930946453539
 13
-0.930946453539
 23
0.365155721087
 74
3
 41
0.0
 41
0.25
 41
4.734174956597
 75
0
 11
7563599.95999999996
 21
5721750.33000000007
 12
0.365155721087
 22
0.930946453539
 13
-0.930946453539
 23
0.365155721087
 74
0
 75
0
  0
INSERT
  5
70
100
AcDbEntity
  8
Dzialki
  6
CONTINUOUS
100
AcDbBlockReference
 66
0
  2
L_0_02_1
 10
7563599.95999999996
 20
5721750.33000000007
 41
0.50
 42
0.50
 43
0.50
 50
68.63
  0
INSERT
  5
71
100
AcDbEntity
  8
Dzialki
  6
CONTINUOUS
100
AcDbBlockReference
 66
0
  2
L_0_02_2
 10
7563609.36000000034
 20
5721774.34999999963
 41
0.50
 42
0.50
 43
0.50
 50
248.63
  0
MLINE
  5
72
100
AcDbEntity
  8
Dzialki
  6
L_0_02
370
18
100
AcDbMline
  2
L_0_02
340
7
 40
1.0
 70
1
 71
1
 72
2
 73
1
 10
7563599.95999999996
 20
5721750.33000000007
210
0.0
220
0.0
230
1.0
 11
7563599.95999999996
 21
5721750.33000000007
 12
0.364428584057
 22
0.931231339207
 13
-0.931231339207
 23
0.364428584057
 74
3
 41
0.0
 41
0.25
 41
25.54380545762
 75
0
 11
7563609.36000000034
 21
5721774.34999999963
 12
0.364428584057
 22
0.931231339207
 13
-0.931231339207
 23
0.364428584057
 74
0
 75
0
  0
INSERT
  5
73
100
AcDbEntity
  8
Dzialki
  6
CONTINUOUS
100
AcDbBlockReference
 66
0
  2
L_0_02_1
 10
7563609.36000000034
 20
5721774.34999999963
 41
0.50
 42
0.50
 43
0.50
 50
68.65
  0
INSERT
  5
74
100
AcDbEntity
  8
Dzialki
  6
CONTINUOUS
100
AcDbBlockReference
 66
0
  2
L_0_02_2
 10
7563612.19000000041
 20
5721781.58999999985
 41
0.50
 42
0.50
 43
0.50
 50
248.65
  0
MLINE
  5
75
100
AcDbEntity
  8
Dzialki
  6
L_0_02
370
18
100
AcDbMline
  2
L_0_02
340
7
 40
1.0
 70
1
 71
1
 72
2
 73
1
 10
7563609.36000000034
 20
5721774.34999999963
210
0.0
220
0.0
230
1.0
 11
7563609.36000000034
 21
5721774.34999999963
 12
0.3640597911
 22
0.931375578649
 13
-0.931375578649
 23
0.3640597911
 74
3
 41
0.0
 41
0.25
 41
7.523448398469
 75
0
 11
7563612.19000000041
 21
5721781.58999999985
 12
0.3640597911
 22
0.931375578649
 13
-0.931375578649
 23
0.3640597911
 74
0
 75
0
  0
INSERT
  5
76
100
AcDbEntity
  8
Dzialki
  6
CONTINUOUS
100
AcDbBlockReference
 66
0
  2
L_0_02_1
 10
7563612.19000000041
 20
5721781.58999999985
 41
0.50
 42
0.50
 43
0.50
 50
353.79
  0
INSERT
  5
77
100
AcDbEntity
  8
Dzialki
  6
CONTINUOUS
100
AcDbBlockReference
 66
0
  2
L_0_02_2
 10
7563656.13999999966
 20
5721776.80999999959
 41
0.50
 42
0.50
 43
0.50
 50
173.79
  0
MLINE
  5
78
100
AcDbEntity
  8
Dzialki
  6
L_0_02
370
18
100
AcDbMline
  2
L_0_02
340
7
 40
1.0
 70
1
 71
1
 72
2
 73
1
 10
7563612.19000000041
 20
5721781.58999999985
210
0.0
220
0.0
230
1.0
 11
7563612.19000000041
 21
5721781.58999999985
 12
0.994137593788
 22
-0.108122359469
 13
0.108122359469
 23
0.994137593788
 74
3
 41
0.0
 41
0.25
 41
43.959172124538
 75
0
 11
7563656.13999999966
 21
5721776.80999999959
 12
0.994137593788
 22
-0.108122359469
 13
0.108122359469
 23
0.994137593788
 74
0
 75
0
  0
INSERT
  5
79
100
AcDbEntity
  8
Dzialki
  6
CONTINUOUS
100
AcDbBlockReference
 66
0
  2
L_0_02_1
 10
7563609.36000000034
 20
5721774.34999999963
 41
0.50
 42
0.50
 43
0.50
 50
33.88
  0
INSERT
  5
7A
100
AcDbEntity
  8
Dzialki
  6
CONTINUOUS
100
AcDbBlockReference
 66
0
  2
L_0_02_2
 10
7563615.62999999989
 20
5721778.55999999959
 41
0.50
 42
0.50
 43
0.50
 50
213.88
  0
MLINE
  5
7B
100
AcDbEntity
  8
Dzialki
  6
L_0_02
370
18
100
AcDbMline
  2
L_0_02
340
7
 40
1.0
 70
1
 71
1
 72
2
 73
1
 10
7563609.36000000034
 20
5721774.34999999963
210
0.0
220
0.0
230
1.0
 11
7563609.36000000034
 21
5721774.34999999963
 12
0.830212376683
 22
0.557447225846
 13
-0.557447225846
 23
0.830212376683
 74
3
 41
0.0
 41
0.25
 41
7.302284422218
 75
0
 11
7563615.62999999989
 21
5721778.55999999959
 12
0.830212376683
 22
0.557447225846
 13
-0.557447225846
 23
0.830212376683
 74
0
 75
0
  0
INSERT
  5
7C
100
AcDbEntity
  8
Dzialki
  6
CONTINUOUS
100
AcDbBlockReference
 66
0
  2
L_0_02_1
 10
7563615.62999999989
 20
5721778.55999999959
 41
0.50
 42
0.50
 43
0.50
 50
353.55
  0
INSERT
  5
7D
100
AcDbEntity
  8
Dzialki
  6
CONTINUOUS
100
AcDbBlockReference
 66
0
  2
L_0_02_2
 10
7563655.08000000007
 20
5721774.09999999963
 41
0.50
 42
0.50
 43
0.50
 50
173.55
  0
MLINE
  5
7E
100
AcDbEntity
  8
Dzialki
  6
L_0_02
370
18
100
AcDbMline
  2
L_0_02
340
7
 40
1.0
 70
1
 71
1
 72
2
 73
1
 10
7563615.62999999989
 20
5721778.55999999959
210
0.0
220
0.0
230
1.0
 11
7563615.62999999989
 21
5721778.55999999959
 12
0.993669955607
 22
-0.112338859365
 13
0.112338859365
 23
0.993669955607
 74
3
 41
0.0
 41
0.25
 41
39.451311061656
 75
0
 11
7563655.08000000007
 21
5721774.09999999963
 12
0.993669955607
 22
-0.112338859365
 13
0.112338859365
 23
0.993669955607
 74
0
 75
0
  0
INSERT
  5
7F
100
AcDbEntity
  8
Dzialki
  6
CONTINUOUS
100
AcDbBlockReference
 66
0
  2
L_0_02_1
 10
7563599.95999999996
 20
5721750.33000000007
 41
0.50
 42
0.50
 43
0.50
 50
353.79
  0
INSERT
  5
80
100
AcDbEntity
  8
Dzialki
  6
CONTINUOUS
100
AcDbBlockReference
 66
0
  2
L_0_02_2
 10
7563643.91000000015
 20
5721745.54999999981
 41
0.50
 42
0.50
 43
0.50
 50
173.79
  0
MLINE
  5
81
100
AcDbEntity
  8
Dzialki
  6
L_0_02
370
18
100
AcDbMline
  2
L_0_02
340
7
 40
1.0
 70
1
 71
1
 72
2
 73
1
 10
7563599.95999999996
 20
5721750.33000000007
210
0.0
220
0.0
230
1.0
 11
7563599.95999999996
 21
5721750.33000000007
 12
0.994137593788
 22
-0.108122359466
 13
0.108122359466
 23
0.994137593788
 74
3
 41
0.0
 41
0.25
 41
43.959172125464
 75
0
 11
7563643.91000000015
 21
5721745.54999999981
 12
0.994137593788
 22
-0.108122359466
 13
0.108122359466
 23
0.994137593788
 74
0
 75
0
  0
INSERT
  5
82
100
AcDbEntity
  8
Dzialki
  6
CONTINUOUS
100
AcDbBlockReference
 66
0
  2
L_0_02_1
 10
7563598.13999999966
 20
5721745.69000000041
 41
0.50
 42
0.50
 43
0.50
 50
245.00
  0
INSERT
  5
83
100
AcDbEntity
  8
Dzialki
  6
CONTINUOUS
100
AcDbBlockReference
 66
0
  2
L_0_02_2
 10
7563588.98000000045
 20
5721726.04999999981
 41
0.50
 42
0.50
 43
0.50
 50
65.00
  0
MLINE
  5
84
100
AcDbEntity
  8
Dzialki
  6
L_0_02
370
18
100
AcDbMline
  2
L_0_02
340
7
 40
1.0
 70
1
 71
1
 72
2
 73
1
 10
7563598.13999999966
 20
5721745.69000000041
210
0.0
220
0.0
230
1.0
 11
7563598.13999999966
 21
5721745.69000000041
 12
-0.422683362197
 22
-0.906277427349
 13
0.906277427349
 23
-0.422683362197
 74
3
 41
0.0
 41
0.25
 41
21.421068271063
 75
0
 11
7563588.98000000045
 21
5721726.04999999981
 12
-0.422683362197
 22
-0.906277427349
 13
0.906277427349
 23
-0.422683362197
 74
0
 75
0
  0
POLYLINE
  5
85
100
AcDbEntity
  8
zakres
  6
ByLayer
370
35
100
AcDb2dPolyline
 66
1
 70
129
  0
VERTEX
  5
86
100
AcDbEntity
  8
zakres
100
AcDbVertex
100
AcDb2dVertex
 10
7563667.37999999989
 20
5721736.37000000011
  0
VERTEX
  5
87
100
AcDbEntity
  8
zakres
100
AcDbVertex
100
AcDb2dVertex
 10
7563665.37999999989
 20
5721732.34999999963
  0
VERTEX
  5
88
100
AcDbEntity
  8
zakres
100
AcDbVertex
100
AcDb2dVertex
 10
7563660.86000000034
 20
5721726.90000000037
  0
VERTEX
  5
89
100
AcDbEntity
  8
zakres
100
AcDbVertex
100
AcDb2dVertex
 10
7563655.0
 20
5721722.91999999993
  0
VERTEX
  5
8A
100
AcDbEntity
  8
zakres
100
AcDbVertex
100
AcDb2dVertex
 10
7563648.25999999978
 20
5721720.73000000045
  0
VERTEX
  5
8B
100
AcDbEntity
  8
zakres
100
AcDbVertex
100
AcDb2dVertex
 10
7563641.19000000041
 20
5721720.5
  0
VERTEX
  5
8C
100
AcDbEntity
  8
zakres
100
AcDbVertex
100
AcDb2dVertex
 10
7563597.24000000022
 20
5721725.28000000026
  0
VERTEX
  5
8D
100
AcDbEntity
  8
zakres
100
AcDbVertex
100
AcDb2dVertex
 10
7563593.66999999993
 20
5721725.9299999997
  0
VERTEX
  5
8E
100
AcDbEntity
  8
zakres
100
AcDbVertex
100
AcDb2dVertex
 10
7563587.12999999989
 20
5721728.63999999966
  0
VERTEX
  5
8F
100
AcDbEntity
  8
zakres
100
AcDbVertex
100
AcDb2dVertex
 10
7563581.59999999963
 20
5721733.05999999959
  0
VERTEX
  5
90
100
AcDbEntity
  8
zakres
100
AcDbVertex
100
AcDb2dVertex
 10
7563577.51999999955
 20
5721738.84999999963
  0
VERTEX
  5
91
100
AcDbEntity
  8
zakres
100
AcDbVertex
100
AcDb2dVertex
 10
7563575.21999999974
 20
5721745.54999999981
  0
VERTEX
  5
92
100
AcDbEntity
  8
zakres
100
AcDbVertex
100
AcDb2dVertex
 10
7563574.86000000034
 20
5721752.62000000011
  0
VERTEX
  5
93
100
AcDbEntity
  8
zakres
100
AcDbVertex
100
AcDb2dVertex
 10
7563576.49000000022
 20
5721759.50999999978
  0
VERTEX
  5
94
100
AcDbEntity
  8
zakres
100
AcDbVertex
100
AcDb2dVertex
 10
7563585.88999999966
 20
5721783.53000000026
  0
VERTEX
  5
95
100
AcDbEntity
  8
zakres
100
AcDbVertex
100
AcDb2dVertex
 10
7563590.04999999981
 20
5721790.54000000004
  0
VERTEX
  5
96
100
AcDbEntity
  8
zakres
100
AcDbVertex
100
AcDb2dVertex
 10
7563595.30999999959
 20
5721795.26999999955
  0
VERTEX
  5
97
100
AcDbEntity
  8
zakres
100
AcDbVertex
100
AcDb2dVertex
 10
7563601.58000000007
 20
5721799.48000000045
  0
VERTEX
  5
98
100
AcDbEntity
  8
zakres
100
AcDbVertex
100
AcDb2dVertex
 10
7563611.37999999989
 20
5721803.40000000037
  0
VERTEX
  5
99
100
AcDbEntity
  8
zakres
100
AcDbVertex
100
AcDb2dVertex
 10
7563618.45999999996
 20
5721803.59999999963
  0
VERTEX
  5
9A
100
AcDbEntity
  8
zakres
100
AcDbVertex
100
AcDb2dVertex
 10
7563657.91000000015
 20
5721799.13999999966
  0
VERTEX
  5
9B
100
AcDbEntity
  8
zakres
100
AcDbVertex
100
AcDb2dVertex
 10
7563667.91000000015
 20
5721795.79000000004
  0
VERTEX
  5
9C
100
AcDbEntity
  8
zakres
100
AcDbVertex
100
AcDb2dVertex
 10
7563673.4299999997
 20
5721791.37000000011
  0
VERTEX
  5
9D
100
AcDbEntity
  8
zakres
100
AcDbVertex
100
AcDb2dVertex
 10
7563677.50999999978
 20
5721785.58000000007
  0
VERTEX
  5
9E
100
AcDbEntity
  8
zakres
100
AcDbVertex
100
AcDb2dVertex
 10
7563679.8200000003
 20
5721778.87999999989
  0
VERTEX
  5
9F
100
AcDbEntity
  8
zakres
100
AcDbVertex
100
AcDb2dVertex
 10
7563680.1799999997
 20
5721771.80999999959
  0
VERTEX
  5
A0
100
AcDbEntity
  8
zakres
100
AcDbVertex
100
AcDb2dVertex
 10
7563678.54999999981
 20
5721764.91999999993
  0
SEQEND
  5
A1
100
AcDbEntity
  8
zakres
  0
TEXT
  5
A2
100
AcDbEntity
  8
Numery_dzialek
370
20
100
AcDbText
 39
0.20
 10
7563626.87398266979
 20
5721801.51999995206
 40
1.00
  1
1-4130
 50
0.00
 41
0.66
  7
STANDARD
 72
0
 11
7563626.87398266979
 21
5721802.51999995206
100
AcDbText
 73
3
  0
TEXT
  5
A3
100
AcDbEntity
  8
Numery_dzialek
370
20
100
AcDbText
 39
0.20
 10
7563652.3179766247
 20
5721730.7499999525
 40
1.00
  1
1-4132/2
 50
0.00
 41
0.66
  7
STANDARD
 72
0
 11
7563652.3179766247
 21
5721731.7499999525
100
AcDbText
 73
3
  0
TEXT
  5
A4
100
AcDbEntity
  8
Numery_dzialek
370
20
100
AcDbText
 39
0.20
 10
7563633.287352941
 20
5721776.72823529039
 40
1.00
  1
1-4132/6
 50
0.00
 41
0.66
  7
STANDARD
 72
0
 11
7563633.287352941
 21
5721777.72823529039
100
AcDbText
 73
3
  0
TEXT
  5
A5
100
AcDbEntity
  8
Numery_dzialek
370
20
100
AcDbText
 39
0.20
 10
7563623.80999999586
 20
5721762.59999999683
 40
1.00
  1
1-4132/7
 50
0.00
 41
0.66
  7
STANDARD
 72
0
 11
7563623.80999999586
 21
5721763.59999999683
100
AcDbText
 73
3
  0
TEXT
  5
A6
100
AcDbEntity
  8
Numery_dzialek
370
20
100
AcDbText
 39
0.20
 10
7563659.27481460292
 20
5721789.75445276033
 40
1.00
  1
1-4131/1
 50
0.00
 41
0.66
  7
STANDARD
 72
0
 11
7563659.27481460292
 21
5721790.75445276033
100
AcDbText
 73
3
  0
TEXT
  5
A7
100
AcDbEntity
  8
Numery_dzialek
370
20
100
AcDbText
 39
0.20
 10
7563600.39999999665
 20
5721790.24999999721
 40
1.00
  1
1-4115/1
 50
0.00
 41
0.66
  7
STANDARD
 72
0
 11
7563600.39999999665
 21
5721791.24999999721
100
AcDbText
 73
3
  0
TEXT
  5
A8
100
AcDbEntity
  8
Numery_dzialek
370
20
100
AcDbText
 39
0.20
 10
7563587.80766595714
 20
5721755.15802559722
 40
1.00
  1
1-4115/2
 50
0.00
 41
0.66
  7
STANDARD
 72
0
 11
7563587.80766595714
 21
5721756.15802559722
100
AcDbText
 73
3
  0
TEXT
  5
A9
100
AcDbEntity
  8
Numery_dzialek
370
20
100
AcDbText
 39
0.20
 10
7563620.3601080915
 20
5721782.43930330221
 40
1.00
  1
1-4120
 50
0.00
 41
0.66
  7
STANDARD
 72
0
 11
7563620.3601080915
 21
5721783.43930330221
100
AcDbText
 73
3
  0
TEXT
  5
AA
100
AcDbEntity
  8
Numery_dzialek
370
20
100
AcDbText
 39
0.20
 10
7563618.00185462926
 20
5721733.51385082118
 40
1.00
  1
1-4132/8
 50
0.00
 41
0.66
  7
STANDARD
 72
0
 11
7563618.00185462926
 21
5721734.51385082118
100
AcDbText
 73
3
  0
TEXT
  5
AB
100
AcDbEntity
  8
Numery_dzialek
370
20
100
AcDbText
 39
0.20
 10
7563591.95079592429
 20
5721736.16645453312
 40
1.00
  1
1-4132/9
 50
0.00
 41
0.66
  7
STANDARD
 72
0
 11
7563591.95079592429
 21
5721737.16645453312
100
AcDbText
 73
3
  0
ENDSEC
  0
SECTION
  2
OBJECTS
  0
DICTIONARY
  5
AC
330
0
100
AcDbDictionary
280
0
281
1
  3
ACAD_GROUP
350
AD
  3
ACAD_LAYOUT
350
AE
  3
ACAD_MLINESTYLE
350
AF
  3
ACAD_PLOTSETTINGS
350
B0
  3
ACAD_PLOTSTYLENAME
350
B1
  0
DICTIONARY
  5
AD
102
{ACAD_REACTORS
330
AC
102
}
330
AC
100
AcDbDictionary
280
0
281
1
  0
DICTIONARY
  5
AE
102
{ACAD_REACTORS
330
AC
102
}
330
AC
100
AcDbDictionary
280
0
281
1
  3
Layout
350
20
  3
Model
350
1E
  0
DICTIONARY
  5
AF
102
{ACAD_REACTORS
330
AC
102
}
330
AC
100
AcDbDictionary
280
0
281
1
  3
Standard
350
B2
  3
L_0_02
350
7
  0
DICTIONARY
  5
B0
102
{ACAD_REACTORS
330
AC
102
}
330
AC
100
AcDbDictionary
280
0
281
1
  0
ACDBDICTIONARYWDFLT
  5
B1
102
{ACAD_REACTORS
330
AC
102
}
330
AC
100
AcDbDictionary
281
1
  3
Normal
350
F
100
AcDbDictionaryWithDefault
340
F
  0
LAYOUT
  5
20
100
AcDbPlotSettings
  1

  2

  4

  6

 40
0.0
 41
0.0
 42
0.0
 43
0.0
 44
0.0
 45
0.0
 46
0.0
 47
0.0
 48
0.0
 49
0.0
140
0.0
141
0.0
142
1.0
143
1.0
 70
688
 72
1
 73
0
 74
5
  7

 75
0
147
1.0
148
0.0
149
0.0
100
AcDbLayout
  1
Layout
 70
1
 71
1
 10
0.0
 20
0.0
 11
420.0
 21
297.0
 12
0.0
 22
0.0
 32
0.0
 14
100000000000000000000.0
 24
100000000000000000000.0
 34
100000000000000000000.0
 15
-100000000000000000000.0
 25
-100000000000000000000.0
 35
-100000000000000000000.0
146
0.0
 13
0.0
 23
0.0
 33
0.0
 16
1.0
 26
0.0
 36
0.0
 17
0.0
 27
1.0
 37
0.0
 76
0
330
1F
  0
LAYOUT
  5
1E
100
AcDbPlotSettings
  1

  2

  4

  6

 40
0.0
 41
0.0
 42
0.0
 43
0.0
 44
0.0
 45
0.0
 46
0.0
 47
0.0
 48
0.0
 49
0.0
140
0.0
141
0.0
142
1.0
143
1.0
 70
1712
 72
1
 73
0
 74
0
  7

 75
0
147
1.0
148
0.0
149
0.0
100
AcDbLayout
  1
Model
 70
1
 71
0
 10
0.0
 20
0.0
 11
12.0
 21
9.0
 12
0.0
 22
0.0
 32
0.0
 14
0.0
 24
0.0
 34
0.0
 15
0.0
 25
0.0
 35
0.0
146
0.0
 13
0.0
 23
0.0
 33
0.0
 16
1.0
 26
0.0
 36
0.0
 17
0.0
 27
1.0
 37
0.0
 76
0
330
1D
  0
MLINESTYLE
  5
B2
102
{ACAD_REACTORS
330
AF
102
}
330
AF
100
AcDbMlineStyle
  2
Standard
 70
0
  3

 62
256
 51
90.0
 52
90.0
  2
Standard
 71
2
 49
0.5
 62
256
  6
ByLayer
 49
-0.5
 62
256
  6
ByLayer
  0
MLINESTYLE
  5
7
100
AcDbMlineStyle
  2
L_0_02
 70
0
  3

 51
90.0
 52
90.0
 71
1
 49
0.0
 62
256
  6
CONTINUOUS
  0
ACDBPLACEHOLDER
  5
F
  0
ENDSEC
  0
EOF
