  0
SECTION
  2
HEADER
  9
$ACADVER
  1
AC1027
  9
$ACADMAINTVER
 70
     8
  9
$DWGCODEPAGE
  3
ANSI_1250
  9
$REQUIREDVERSIONS
160
                 0
  9
$INSBASE
 10
0.0
 20
0.0
 30
0.0
  9
$EXTMIN
 10
7565547.5
 20
5722430.189999975
 30
0.0
  9
$EXTMAX
 10
7565774.883714285
 20
5722774.429999977
 30
0.0
  9
$LIMMIN
 10
7565573.709999999
 20
5722426.89
  9
$LIMMAX
 10
7565775.349999999
 20
5722778.63
  9
$ORTHOMODE
 70
     0
  9
$REGENMODE
 70
     1
  9
$FILLMODE
 70
     1
  9
$QTEXTMODE
 70
     0
  9
$MIRRTEXT
 70
     0
  9
$LTSCALE
 40
1.0
  9
$ATTMODE
 70
     1
  9
$TEXTSIZE
 40
0.2
  9
$TRACEWID
 40
0.05
  9
$TEXTSTYLE
  7
STANDARD
  9
$CLAYER
  8
0
  9
$CELTYPE
  6
CONTINUOUS
  9
$CECOLOR
 62
   256
  9
$CELTSCALE
 40
1.0
  9
$DISPSILH
 70
     0
  9
$DIMSCALE
 40
1.0
  9
$DIMASZ
 40
2.5
  9
$DIMEXO
 40
0.625
  9
$DIMDLI
 40
0.38
  9
$DIMRND
 40
0.0
  9
$DIMDLE
 40
0.0
  9
$DIMEXE
 40
1.25
  9
$DIMTP
 40
0.0
  9
$DIMTM
 40
0.0
  9
$DIMTXT
 40
2.5
  9
$DIMCEN
 40
0.09
  9
$DIMTSZ
 40
0.0
  9
$DIMTOL
 70
     0
  9
$DIMLIM
 70
     0
  9
$DIMTIH
 70
     1
  9
$DIMTOH
 70
     1
  9
$DIMSE1
 70
     0
  9
$DIMSE2
 70
     0
  9
$DIMTAD
 70
     0
  9
$DIMZIN
 70
     0
  9
$DIMBLK
  1

  9
$DIMASO
 70
     1
  9
$DIMSHO
 70
     1
  9
$DIMPOST
  1

  9
$DIMAPOST
  1

  9
$DIMALT
 70
     0
  9
$DIMALTD
 70
     2
  9
$DIMALTF
 40
25.4
  9
$DIMLFAC
 40
1.0
  9
$DIMTOFL
 70
     0
  9
$DIMTVP
 40
0.0
  9
$DIMTIX
 70
     0
  9
$DIMSOXD
 70
     0
  9
$DIMSAH
 70
     0
  9
$DIMBLK1
  1

  9
$DIMBLK2
  1

  9
$DIMSTYLE
  2
Standard
  9
$DIMCLRD
 70
     0
  9
$DIMCLRE
 70
     0
  9
$DIMCLRT
 70
     0
  9
$DIMTFAC
 40
1.0
  9
$DIMGAP
 40
0.625
  9
$DIMJUST
 70
     0
  9
$DIMSD1
 70
     0
  9
$DIMSD2
 70
     0
  9
$DIMTOLJ
 70
     1
  9
$DIMTZIN
 70
     0
  9
$DIMALTZ
 70
     0
  9
$DIMALTTZ
 70
     0
  9
$DIMUPT
 70
     0
  9
$DIMDEC
 70
     4
  9
$DIMTDEC
 70
     4
  9
$DIMALTU
 70
     2
  9
$DIMALTTD
 70
     2
  9
$DIMTXSTY
  7
STANDARD
  9
$DIMAUNIT
 70
     0
  9
$DIMADEC
 70
     0
  9
$DIMALTRND
 40
0.0
  9
$DIMAZIN
 70
     0
  9
$DIMDSEP
 70
    46
  9
$DIMATFIT
 70
     3
  9
$DIMFRAC
 70
     0
  9
$DIMLDRBLK
  1

  9
$DIMLUNIT
 70
     2
  9
$DIMLWD
 70
    -2
  9
$DIMLWE
 70
    -2
  9
$DIMTMOVE
 70
     0
  9
$DIMFXL
 40
1.0
  9
$DIMFXLON
 70
     0
  9
$DIMJOGANG
 40
0.7853981633974483
  9
$DIMTFILL
 70
     0
  9
$DIMTFILLCLR
 70
     0
  9
$DIMARCSYM
 70
     0
  9
$DIMLTYPE
  6

  9
$DIMLTEX1
  6

  9
$DIMLTEX2
  6

  9
$DIMTXTDIRECTION
 70
     0
  9
$LUNITS
 70
     2
  9
$LUPREC
 70
     4
  9
$SKETCHINC
 40
0.1
  9
$FILLETRAD
 40
0.0
  9
$AUNITS
 70
     0
  9
$AUPREC
 70
     0
  9
$MENU
  1

  9
$ELEVATION
 40
0.0
  9
$PELEVATION
 40
0.0
  9
$THICKNESS
 40
0.0
  9
$LIMCHECK
 70
     0
  9
$CHAMFERA
 40
0.0
  9
$CHAMFERB
 40
0.0
  9
$CHAMFERC
 40
0.0
  9
$CHAMFERD
 40
0.0
  9
$SKPOLY
 70
     0
  9
$TDCREATE
 40
2305814.601184838
  9
$TDUCREATE
 40
45100.517851505
  9
$TDUPDATE
 40
2460119.601608959
  9
$TDUUPDATE
 40
2460119.518275625
  9
$TDINDWG
 40
0.000323681
  9
$TDUSRTIMER
 40
0.000323495
  9
$USRTIMER
 70
     1
  9
$ANGBASE
 50
0.0
  9
$ANGDIR
 70
     0
  9
$PDMODE
 70
     0
  9
$PDSIZE
 40
0.0
  9
$PLINEWID
 40
0.0
  9
$SPLFRAME
 70
     0
  9
$SPLINETYPE
 70
     6
  9
$SPLINESEGS
 70
     8
  9
$HANDSEED
  5
1000045
  9
$SURFTAB1
 70
     6
  9
$SURFTAB2
 70
     6
  9
$SURFTYPE
 70
     6
  9
$SURFU
 70
     6
  9
$SURFV
 70
     6
  9
$UCSBASE
  2

  9
$UCSNAME
  2

  9
$UCSORG
 10
0.0
 20
0.0
 30
0.0
  9
$UCSXDIR
 10
1.0
 20
0.0
 30
0.0
  9
$UCSYDIR
 10
0.0
 20
1.0
 30
0.0
  9
$UCSORTHOREF
  2

  9
$UCSORTHOVIEW
 70
     0
  9
$UCSORGTOP
 10
0.0
 20
0.0
 30
0.0
  9
$UCSORGBOTTOM
 10
0.0
 20
0.0
 30
0.0
  9
$UCSORGLEFT
 10
0.0
 20
0.0
 30
0.0
  9
$UCSORGRIGHT
 10
0.0
 20
0.0
 30
0.0
  9
$UCSORGFRONT
 10
0.0
 20
0.0
 30
0.0
  9
$UCSORGBACK
 10
0.0
 20
0.0
 30
0.0
  9
$PUCSBASE
  2

  9
$PUCSNAME
  2

  9
$PUCSORG
 10
0.0
 20
0.0
 30
0.0
  9
$PUCSXDIR
 10
1.0
 20
0.0
 30
0.0
  9
$PUCSYDIR
 10
0.0
 20
1.0
 30
0.0
  9
$PUCSORTHOREF
  2

  9
$PUCSORTHOVIEW
 70
     0
  9
$PUCSORGTOP
 10
0.0
 20
0.0
 30
0.0
  9
$PUCSORGBOTTOM
 10
0.0
 20
0.0
 30
0.0
  9
$PUCSORGLEFT
 10
0.0
 20
0.0
 30
0.0
  9
$PUCSORGRIGHT
 10
0.0
 20
0.0
 30
0.0
  9
$PUCSORGFRONT
 10
0.0
 20
0.0
 30
0.0
  9
$PUCSORGBACK
 10
0.0
 20
0.0
 30
0.0
  9
$USERI1
 70
     0
  9
$USERI2
 70
     0
  9
$USERI3
 70
     0
  9
$USERI4
 70
     0
  9
$USERI5
 70
     0
  9
$USERR1
 40
0.0
  9
$USERR2
 40
0.0
  9
$USERR3
 40
0.0
  9
$USERR4
 40
0.0
  9
$USERR5
 40
0.0
  9
$WORLDVIEW
 70
     1
  9
$SHADEDGE
 70
     3
  9
$SHADEDIF
 70
    70
  9
$TILEMODE
 70
     1
  9
$MAXACTVP
 70
    64
  9
$PINSBASE
 10
0.0
 20
0.0
 30
0.0
  9
$PLIMCHECK
 70
     0
  9
$PEXTMIN
 10
1.000000000000000E+20
 20
1.000000000000000E+20
 30
1.000000000000000E+20
  9
$PEXTMAX
 10
-1.000000000000000E+20
 20
-1.000000000000000E+20
 30
-1.000000000000000E+20
  9
$PLIMMIN
 10
0.0
 20
0.0
  9
$PLIMMAX
 10
210.0
 20
297.0
  9
$UNITMODE
 70
     0
  9
$VISRETAIN
 70
     1
  9
$PLINEGEN
 70
     0
  9
$PSLTSCALE
 70
     1
  9
$TREEDEPTH
 70
  3020
  9
$CMLSTYLE
  2
Standard
  9
$CMLJUST
 70
     0
  9
$CMLSCALE
 40
1.0
  9
$PROXYGRAPHICS
 70
     1
  9
$MEASUREMENT
 70
     0
  9
$CELWEIGHT
370
    -1
  9
$ENDCAPS
280
     0
  9
$JOINSTYLE
280
     0
  9
$LWDISPLAY
290
     1
  9
$INSUNITS
 70
     6
  9
$HYPERLINKBASE
  1

  9
$STYLESHEET
  1

  9
$XEDIT
290
     0
  9
$CEPSNTYPE
380
     0
  9
$PSTYLEMODE
290
     1
  9
$FINGERPRINTGUID
  2
{D681A2ED-6132-4AB6-B9E7-6385E45B2F8A}
  9
$VERSIONGUID
  2
{635336F8-0465-4695-A122-B686AC429D0F}
  9
$EXTNAMES
290
     1
  9
$PSVPSCALE
 40
0.0
  9
$OLESTARTUP
290
     0
  9
$SORTENTS
280
   127
  9
$INDEXCTL
280
     0
  9
$HIDETEXT
280
     1
  9
$XCLIPFRAME
280
     2
  9
$HALOGAP
280
     0
  9
$OBSCOLOR
 70
   257
  9
$OBSLTYPE
280
     0
  9
$INTERSECTIONDISPLAY
280
     0
  9
$INTERSECTIONCOLOR
 70
   257
  9
$DIMASSOC
280
     2
  9
$PROJECTNAME
  1

  9
$CAMERADISPLAY
290
     0
  9
$LENSLENGTH
 40
50.0
  9
$CAMERAHEIGHT
 40
0.0
  9
$STEPSPERSEC
 40
2.0
  9
$STEPSIZE
 40
6.0
  9
$3DDWFPREC
 40
2.0
  9
$PSOLWIDTH
 40
0.25
  9
$PSOLHEIGHT
 40
4.0
  9
$LOFTANG1
 40
1.570796326794896
  9
$LOFTANG2
 40
1.570796326794896
  9
$LOFTMAG1
 40
0.0
  9
$LOFTMAG2
 40
0.0
  9
$LOFTPARAM
 70
     7
  9
$LOFTNORMALS
280
     1
  9
$LATITUDE
 40
0.0
  9
$LONGITUDE
 40
0.0
  9
$NORTHDIRECTION
 40
0.0
  9
$TIMEZONE
 70
 -8000
  9
$LIGHTGLYPHDISPLAY
280
     1
  9
$TILEMODELIGHTSYNCH
280
     1
  9
$CMATERIAL
347
1000000
  9
$SOLIDHIST
280
     1
  9
$SHOWHIST
280
     1
  9
$DWFFRAME
280
     2
  9
$DGNFRAME
280
     0
  9
$REALWORLDSCALE
290
     1
  9
$INTERFERECOLOR
 62
     1
  9
$CSHADOW
280
     0
  9
$SHADOWPLANELOCATION
 40
0.0
  0
ENDSEC
  0
SECTION
  2
CLASSES
  0
CLASS
  1
WIPEOUT
  2
AcDbWipeout
  3
WipeOut
 90
      127
 91
        3
280
     0
281
     1
  0
CLASS
  1
WIPEOUTVARIABLES
  2
AcDbWipeoutVariables
  3
WipeOut
 90
        0
 91
        1
280
     0
281
     0
  0
CLASS
  1
ACDBDICTIONARYWDFLT
  2
AcDbDictionaryWithDefault
  3
ObjectDBX Classes
 90
    32768
 91
        1
280
     0
281
     0
  0
CLASS
  1
MATERIAL
  2
AcDbMaterial
  3
ObjectDBX Classes
 90
        0
 91
        3
280
     0
281
     0
  0
CLASS
  1
VISUALSTYLE
  2
AcDbVisualStyle
  3
ObjectDBX Classes
 90
     4095
 91
       24
280
     0
281
     0
  0
CLASS
  1
TABLESTYLE
  2
AcDbTableStyle
  3
ObjectDBX Classes
 90
     2047
 91
        1
280
     0
281
     0
  0
CLASS
  1
MLEADERSTYLE
  2
AcDbMLeaderStyle
  3
ACDB_MLEADERSTYLE_CLASS
 90
     4095
 91
        1
280
     0
281
     0
  0
CLASS
  1
SCALE
  2
AcDbScale
  3
ObjectDBX Classes
 90
     1153
 91
       17
280
     0
281
     0
  0
CLASS
  1
SORTENTSTABLE
  2
AcDbSortentsTable
  3
ObjectDBX Classes
 90
        0
 91
        1
280
     0
281
     0
  0
CLASS
  1
DICTIONARYVAR
  2
AcDbDictionaryVar
  3
ObjectDBX Classes
 90
        0
 91
        4
280
     0
281
     0
  0
ENDSEC
  0
SECTION
  2
TABLES
  0
TABLE
  2
VPORT
  5
1
330
0
100
AcDbSymbolTable
 70
     1
  0
VPORT
  5
2
330
1
100
AcDbSymbolTableRecord
100
AcDbViewportTableRecord
  2
*ACTIVE
 70
     0
 10
0.0
 20
0.0
 11
1.0
 21
1.0
 12
7565529.484897049
 22
5722601.363267902
 13
0.0
 23
0.0
 14
1.0
 24
1.0
 15
0.0
 25
0.0
 16
0.0
 26
0.0
 36
1.0
 17
0.0
 27
0.0
 37
0.0
 40
772.7727800000002
 41
1.500709219858156
 42
50.0
 43
0.0
 44
0.0
 50
0.0
 51
0.0
 71
     0
 72
   100
 73
     1
 74
     1
 75
     0
 76
     0
 77
     0
 78
     0
281
     0
 65
     1
110
0.0
120
0.0
130
0.0
111
1.0
121
0.0
131
0.0
112
0.0
122
1.0
132
0.0
 79
     0
146
0.0
348
1000008
 60
     3
 61
     5
292
     1
282
     1
141
0.0
142
0.0
 63
   256
  0
ENDTAB
  0
TABLE
  2
LTYPE
  5
3
330
0
100
AcDbSymbolTable
 70
     8
  0
LTYPE
  5
4
330
3
100
AcDbSymbolTableRecord
100
AcDbLinetypeTableRecord
  2
ByBlock
 70
     0
  3

 72
    65
 73
     0
 40
0.0
  0
LTYPE
  5
5
330
3
100
AcDbSymbolTableRecord
100
AcDbLinetypeTableRecord
  2
ByLayer
 70
     0
  3

 72
    65
 73
     0
 40
0.0
  0
LTYPE
  5
6
330
3
100
AcDbSymbolTableRecord
100
AcDbLinetypeTableRecord
  2
CONTINUOUS
 70
     0
  3
Solid line
 72
    65
 73
     0
 40
0.0
  0
LTYPE
  5
8
330
3
100
AcDbSymbolTableRecord
100
AcDbLinetypeTableRecord
  2
L_0_02
 70
     0
  3
Dzialka_ewidencyjna (MLineStyle)
 72
    65
 73
     0
 40
0.0
  0
LTYPE
  5
9
330
3
100
AcDbSymbolTableRecord
100
AcDbLinetypeTableRecord
  2
L_0_03
 70
     0
  3
Uzytek_gruntowy
 72
    65
 73
     2
 40
1.0
 49
0.5
 74
     0
 49
-0.5
 74
     0
  0
LTYPE
  5
A
330
3
100
AcDbSymbolTableRecord
100
AcDbLinetypeTableRecord
  2
L_0_04
 70
     0
  3
Budynek_projektowany
 72
    65
 73
     2
 40
1.5
 49
1.0
 74
     0
 49
-0.5
 74
     0
  0
LTYPE
  5
B
330
3
100
AcDbSymbolTableRecord
100
AcDbLinetypeTableRecord
  2
L_0_06
 70
     0
  3
Granica_konturu_klasyfikacyjnego_Krawedz_chodnika
 72
    65
 73
     2
 40
2.0
 49
1.5
 74
     0
 49
-0.5
 74
     0
  0
LTYPE
  5
C
330
3
100
AcDbSymbolTableRecord
100
AcDbLinetypeTableRecord
  2
L_0_0C
 70
     0
  3
Budynek_w_ruinie_Warstwica_pomocnicza
 72
    65
 73
     2
 40
3.0
 49
2.0
 74
     0
 49
-1.0
 74
     0
  0
LTYPE
  5
D
330
3
100
AcDbSymbolTableRecord
100
AcDbLinetypeTableRecord
  2
L_0_15_SHX
 70
     0
  3
Ogrodzenie_trwale
 72
    65
 73
    12
 40
7.5
 49
0.0
 74
     0
 49
-0.375
 74
     0
 49
-0.75
 74
     0
 49
-0.75
 74
     0
 49
-0.75
 74
     0
 49
-0.75
 74
     0
 49
-0.75
 74
     4
 75
     1
340
E
 46
0.05
 50
0.0
 44
0.0
 45
0.0
 49
-0.75
 74
     0
 49
-0.75
 74
     0
 49
-0.75
 74
     0
 49
-0.75
 74
     0
 49
-0.375
 74
     0
  0
LTYPE
  5
10
330
3
100
AcDbSymbolTableRecord
100
AcDbLinetypeTableRecord
  2
L_0_15
 70
     0
  3
Ogrodzenie_trwale (MLineStyle)
 72
    65
 73
     0
 40
0.0
  0
ENDTAB
  0
TABLE
  2
LAYER
  5
11
330
0
100
AcDbSymbolTable
 70
     5
  0
LAYER
  5
12
330
11
100
AcDbSymbolTableRecord
100
AcDbLayerTableRecord
  2
0
 70
     0
 62
     7
  6
CONTINUOUS
370
    18
390
13
347
1000002
348
0
  0
LAYER
  5
14
330
11
100
AcDbSymbolTableRecord
100
AcDbLayerTableRecord
  2
Dzialki
 70
     0
 62
     7
  6
CONTINUOUS
370
    18
390
13
347
1000002
348
0
  0
LAYER
  5
15
330
11
100
AcDbSymbolTableRecord
100
AcDbLayerTableRecord
  2
Numery_dzialek
 70
     0
 62
     7
  6
CONTINUOUS
370
    18
390
13
347
1000002
348
0
  0
LAYER
  5
16
330
11
100
AcDbSymbolTableRecord
100
AcDbLayerTableRecord
  2
Numery_punktow
 70
     0
 62
     7
  6
CONTINUOUS
370
    13
390
13
347
1000002
348
0
  0
LAYER
  5
17
330
11
100
AcDbSymbolTableRecord
100
AcDbLayerTableRecord
  2
siatka
 70
     0
 62
    -7
  6
CONTINUOUS
370
    18
390
13
347
1000002
348
0
  0
ENDTAB
  0
TABLE
  2
STYLE
  5
18
330
0
100
AcDbSymbolTable
 70
     3
  0
STYLE
  5
19
330
18
100
AcDbSymbolTableRecord
100
AcDbTextStyleTableRecord
  2
STANDARD
 70
     0
 40
0.0
 41
1.0
 50
0.0
 71
     0
 42
0.2
  3
simplex.shx
  4

  0
STYLE
  5
1A
330
18
100
AcDbSymbolTableRecord
100
AcDbTextStyleTableRecord
  2
STANDARD_ITALIC
 70
     0
 40
0.0
 41
1.0
 50
15.0
 71
     0
 42
0.2
  3
simplex.shx
  4

  0
STYLE
  5
E
330
18
100
AcDbSymbolTableRecord
100
AcDbTextStyleTableRecord
  2

 70
     1
 40
0.0
 41
0.05
 50
0.0
 71
     0
 42
0.2
  3
Ryki-dz-705-1-granice.shx
  4

  0
ENDTAB
  0
TABLE
  2
VIEW
  5
1B
330
0
100
AcDbSymbolTable
 70
     0
  0
ENDTAB
  0
TABLE
  2
UCS
  5
1C
330
0
100
AcDbSymbolTable
 70
     0
  0
ENDTAB
  0
TABLE
  2
APPID
  5
1D
330
0
100
AcDbSymbolTable
 70
     1
  0
APPID
  5
1E
330
1D
100
AcDbSymbolTableRecord
100
AcDbRegAppTableRecord
  2
ACAD
 70
     0
  0
ENDTAB
  0
TABLE
  2
DIMSTYLE
  5
1F
330
0
100
AcDbSymbolTable
 70
     1
100
AcDbDimStyleTable
 71
     0
  0
DIMSTYLE
105
20
330
1F
100
AcDbSymbolTableRecord
100
AcDbDimStyleTableRecord
  2
Standard
 70
     0
340
19
  0
ENDTAB
  0
TABLE
  2
BLOCK_RECORD
  5
21
330
0
100
AcDbSymbolTable
 70
     4
  0
BLOCK_RECORD
  5
22
102
{ACAD_XDICTIONARY
360
1000034
102
}
330
21
100
AcDbSymbolTableRecord
100
AcDbBlockTableRecord
  2
*MODEL_SPACE
340
23
 70
     0
280
     1
281
     0
  0
BLOCK_RECORD
  5
24
330
21
100
AcDbSymbolTableRecord
100
AcDbBlockTableRecord
  2
*PAPER_SPACE
340
25
 70
     0
280
     1
281
     0
  0
BLOCK_RECORD
  5
26
330
21
100
AcDbSymbolTableRecord
100
AcDbBlockTableRecord
  2
OSPB
340
0
 70
     0
280
     1
281
     0
  0
BLOCK_RECORD
  5
28
330
21
100
AcDbSymbolTableRecord
100
AcDbBlockTableRecord
  2
OSHF
340
0
 70
     0
280
     1
281
     0
  0
BLOCK_RECORD
  5
2A
330
21
100
AcDbSymbolTableRecord
100
AcDbBlockTableRecord
  2
L_0_02_1
340
0
 70
     0
280
     1
281
     0
  0
BLOCK_RECORD
  5
2C
330
21
100
AcDbSymbolTableRecord
100
AcDbBlockTableRecord
  2
L_0_02_2
340
0
 70
     0
280
     1
281
     0
  0
ENDTAB
  0
ENDSEC
  0
SECTION
  2
BLOCKS
  0
BLOCK
  5
2E
330
22
100
AcDbEntity
  8
0
100
AcDbBlockBegin
  2
*MODEL_SPACE
 70
     0
 10
0.0
 20
0.0
 30
0.0
  3
*MODEL_SPACE
  1

  0
ENDBLK
  5
2F
330
22
100
AcDbEntity
  8
0
100
AcDbBlockEnd
  0
BLOCK
  5
30
330
24
100
AcDbEntity
 67
     1
  8
0
100
AcDbBlockBegin
  2
*PAPER_SPACE
 70
     0
 10
0.0
 20
0.0
 30
0.0
  3
*PAPER_SPACE
  1

  0
ENDBLK
  5
31
330
24
100
AcDbEntity
 67
     1
  8
0
100
AcDbBlockEnd
  0
BLOCK
  5
27
330
26
100
AcDbEntity
  8
0
 62
     0
370
    13
100
AcDbBlockBegin
  2
OSPB
 70
     0
 10
0.0
 20
0.0
 30
0.0
  3
OSPB
  1

  0
WIPEOUT
  5
32
330
26
100
AcDbEntity
  8
0
  6
Continuous
 62
     0
370
    18
160
               152
310
98000000020000000C000000140000000200000084000000060000000500000000000000000000C09A9999999999F1BF000000000000000000000000000000409A9999999999F1BF00000000000000009A9999999999B93FCDCCCCCCCCCC0040000000000000000000000000000000C09A9999999999F1BF00000000000000
310
0000000000000000C09A9999999999F1BF0000000000000000
100
AcDbWipeout
 90
        0
 10
-2.0
 20
-1.1
 30
0.0
 11
4.0
 21
0.0
 31
0.0
 12
0.0
 22
3.2
 32
0.0
 13
1.0
 23
1.0
340
0
 70
     7
280
     1
281
   100
282
   100
283
     0
360
0
 71
     2
 91
        5
 14
-0.5
 24
0.5
 14
0.5
 24
0.5
 14
0.025
 24
-0.5
 14
-0.5
 24
0.5
 14
-0.5
 24
0.5
290
     0
  0
POLYLINE
  5
33
330
26
100
AcDbEntity
  8
0
  6
Continuous
 62
     0
370
    18
100
AcDb2dPolyline
 66
     1
 10
0.0
 20
0.0
 30
0.0
 70
   129
  0
VERTEX
  5
34
330
33
100
AcDbEntity
  8
0
100
AcDbVertex
100
AcDb2dVertex
 10
-2.0
 20
-1.1
 30
0.0
  0
VERTEX
  5
35
330
33
100
AcDbEntity
  8
0
100
AcDbVertex
100
AcDb2dVertex
 10
2.0
 20
-1.1
 30
0.0
  0
VERTEX
  5
36
330
33
100
AcDbEntity
  8
0
100
AcDbVertex
100
AcDb2dVertex
 10
0.1
 20
2.1
 30
0.0
  0
VERTEX
  5
37
330
33
100
AcDbEntity
  8
0
100
AcDbVertex
100
AcDb2dVertex
 10
-2.0
 20
-1.1
 30
0.0
  0
SEQEND
  5
38
330
0
100
AcDbEntity
  8
0
  0
HATCH
  5
39
330
26
100
AcDbEntity
  8
0
  6
Continuous
 62
     0
370
    25
100
AcDbHatch
 10
0.0
 20
0.0
 30
0.0
210
0.0
220
0.0
230
1.0
  2
SOLID
 70
     1
 71
     1
 91
        1
 92
        3
 72
     1
 73
     1
 93
        2
 10
0.0
 20
-0.22360679775
 42
1.0
 10
0.0
 20
0.22360679775
 42
1.0
 97
        0
 75
     0
 76
     1
 98
        1
 10
0.0
 20
0.0
  0
CIRCLE
  5
3A
330
26
100
AcDbEntity
  8
0
  6
Continuous
 62
     0
370
    25
100
AcDbCircle
 10
0.0
 20
0.0
 30
0.0
 40
0.22360679775
  0
ENDBLK
  5
3B
330
26
100
AcDbEntity
  8
0
100
AcDbBlockEnd
  0
BLOCK
  5
29
330
28
100
AcDbEntity
  8
0
 62
     0
370
    13
100
AcDbBlockBegin
  2
OSHF
 70
     0
 10
0.0
 20
0.0
 30
0.0
  3
OSHF
  1

  0
WIPEOUT
  5
3C
330
28
100
AcDbEntity
  8
0
  6
Continuous
 62
     0
370
    18
160
               344
310
58010000020000000C000000140000000200000044010000060000000D000000000000000000000000000000000000C00000000000000000000000000000F03F3B3D58E87AB6FBBF00000000000000003B3D58E87AB6FB3F000000000000F0BF00000000000000000000000000000040000000000000000000000000000000
310
003B3D58E87AB6FB3F000000000000F03F0000000000000000000000000000F03F3B3D58E87AB6FB3F0000000000000000000000000000000000000000000000400000000000000000000000000000F0BF3B3D58E87AB6FB3F00000000000000003B3D58E87AB6FBBF000000000000F03F0000000000000000000000000000
310
00C0000000000000000000000000000000003B3D58E87AB6FBBF000000000000F0BF0000000000000000000000000000F0BF3B3D58E87AB6FBBF0000000000000000000000000000000000000000000000C00000000000000000
100
AcDbWipeout
 90
        0
 10
-2.0
 20
-2.0
 30
0.0
 11
4.0
 21
0.0
 31
0.0
 12
0.0
 22
4.0
 32
0.0
 13
1.0
 23
1.0
340
0
 70
     7
280
     1
281
   100
282
   100
283
     0
360
0
 71
     2
 91
       13
 14
0.0
 24
0.5
 14
0.25
 24
0.433012701892
 14
0.433012701892
 24
0.25
 14
0.5
 24
0.0
 14
0.433012701892
 24
-0.25
 14
0.25
 24
-0.433012701892
 14
0.0
 24
-0.5
 14
-0.25
 24
-0.433012701892
 14
-0.433012701892
 24
-0.25
 14
-0.5
 24
0.0
 14
-0.433012701892
 24
0.25
 14
-0.25
 24
0.433012701892
 14
0.0
 24
0.5
290
     0
  0
CIRCLE
  5
3D
330
28
100
AcDbEntity
  8
0
  6
Continuous
 62
     0
370
    18
100
AcDbCircle
 10
0.0
 20
0.0
 30
0.0
 40
2.0
  0
HATCH
  5
3E
330
28
100
AcDbEntity
  8
0
  6
Continuous
 62
     0
370
    18
100
AcDbHatch
 10
0.0
 20
0.0
 30
0.0
210
0.0
220
0.0
230
1.0
  2
SOLID
 70
     1
 71
     1
 91
        1
 92
        3
 72
     0
 73
     1
 93
        4
 10
-1.7
 20
1.0
 10
1.7
 20
1.0
 10
0.0
 20
-2.0
 10
-1.7
 20
0.9
 97
        0
 75
     0
 76
     1
 98
        1
 10
0.0
 20
0.0
  0
POLYLINE
  5
3F
330
28
100
AcDbEntity
  8
0
  6
Continuous
 62
     0
370
    18
100
AcDb2dPolyline
 66
     1
 10
0.0
 20
0.0
 30
0.0
 70
   129
  0
VERTEX
  5
40
330
3F
100
AcDbEntity
  8
0
100
AcDbVertex
100
AcDb2dVertex
 10
-1.7
 20
1.0
 30
0.0
  0
VERTEX
  5
41
330
3F
100
AcDbEntity
  8
0
100
AcDbVertex
100
AcDb2dVertex
 10
1.7
 20
1.0
 30
0.0
  0
VERTEX
  5
42
330
3F
100
AcDbEntity
  8
0
100
AcDbVertex
100
AcDb2dVertex
 10
0.0
 20
-2.0
 30
0.0
  0
VERTEX
  5
43
330
3F
100
AcDbEntity
  8
0
100
AcDbVertex
100
AcDb2dVertex
 10
-1.7
 20
0.9
 30
0.0
  0
SEQEND
  5
44
330
0
100
AcDbEntity
  8
0
  0
WIPEOUT
  5
45
330
28
100
AcDbEntity
  8
0
  6
Continuous
 62
     0
370
    18
160
               344
310
58010000020000000C000000140000000200000044010000060000000D0000000000000000000000CEF0BFC5259FCCBF0000000000000000CEF0BFC5259FBC3F09673FF47EC9C8BF000000000000000009673FF47EC9C83FCEF0BFC5259FBCBF0000000000000000CEF0BFC5259FCC3F000000000000000000000000000000
310
0009673FF47EC9C83FCEF0BFC5259FBC3F0000000000000000CEF0BFC5259FBC3F09673FF47EC9C83F00000000000000000000000000000000CEF0BFC5259FCC3F0000000000000000CEF0BFC5259FBCBF09673FF47EC9C83F000000000000000009673FF47EC9C8BFCEF0BFC5259FBC3F0000000000000000CEF0BFC5259F
310
CCBF0000000000000000000000000000000009673FF47EC9C8BFCEF0BFC5259FBCBF0000000000000000CEF0BFC5259FBCBF09673FF47EC9C8BF00000000000000000000000000000000CEF0BFC5259FCCBF0000000000000000
100
AcDbWipeout
 90
        0
 10
-0.22360679775
 20
-0.22360679775
 30
0.0
 11
0.4472135955
 21
0.0
 31
0.0
 12
0.0
 22
0.4472135955
 32
0.0
 13
1.0
 23
1.0
340
0
 70
     7
280
     1
281
   100
282
   100
283
     0
360
0
 71
     2
 91
       13
 14
0.0
 24
0.5
 14
0.25
 24
0.433012701892
 14
0.433012701892
 24
0.25
 14
0.5
 24
0.0
 14
0.433012701892
 24
-0.25
 14
0.25
 24
-0.433012701892
 14
0.0
 24
-0.5
 14
-0.25
 24
-0.433012701892
 14
-0.433012701892
 24
-0.25
 14
-0.5
 24
0.0
 14
-0.433012701892
 24
0.25
 14
-0.25
 24
0.433012701892
 14
0.0
 24
0.5
290
     0
  0
ENDBLK
  5
46
330
28
100
AcDbEntity
  8
0
100
AcDbBlockEnd
  0
BLOCK
  5
2B
330
2A
100
AcDbEntity
  8
0
 62
     0
370
    13
100
AcDbBlockBegin
  2
L_0_02_1
 70
     0
 10
0.0
 20
0.0
 30
0.0
  3
L_0_02_1
  1

  0
POINT
  5
47
330
2A
100
AcDbEntity
  8
0
 62
     0
100
AcDbPoint
 10
0.0
 20
0.0
 30
0.0
  0
ENDBLK
  5
48
330
2A
100
AcDbEntity
  8
0
100
AcDbBlockEnd
  0
BLOCK
  5
2D
330
2C
100
AcDbEntity
  8
0
 62
     0
370
    13
100
AcDbBlockBegin
  2
L_0_02_2
 70
     0
 10
0.0
 20
0.0
 30
0.0
  3
L_0_02_2
  1

  0
POINT
  5
49
330
2C
100
AcDbEntity
  8
0
 62
     0
100
AcDbPoint
 10
0.0
 20
0.0
 30
0.0
  0
ENDBLK
  5
4A
330
2C
100
AcDbEntity
  8
0
100
AcDbBlockEnd
  0
ENDSEC
  0
SECTION
  2
ENTITIES
  0
POLYLINE
  5
4B
330
22
100
AcDbEntity
  8
siatka
  6
Continuous
 62
     7
370
    13
100
AcDb2dPolyline
 66
     1
 10
0.0
 20
0.0
 30
0.0
 70
   128
  0
VERTEX
  5
4C
330
4B
100
AcDbEntity
  8
siatka
100
AcDbVertex
100
AcDb2dVertex
 10
7565547.5
 20
5722450.0
 30
0.0
  0
VERTEX
  5
4D
330
4B
100
AcDbEntity
  8
siatka
100
AcDbVertex
100
AcDb2dVertex
 10
7565552.499999999
 20
5722450.0
 30
0.0
  0
SEQEND
  5
4E
330
0
100
AcDbEntity
  8
siatka
  0
POLYLINE
  5
4F
330
22
100
AcDbEntity
  8
siatka
  6
Continuous
 62
     7
370
    13
100
AcDb2dPolyline
 66
     1
 10
0.0
 20
0.0
 30
0.0
 70
   128
  0
VERTEX
  5
50
330
4F
100
AcDbEntity
  8
siatka
100
AcDbVertex
100
AcDb2dVertex
 10
7565550.0
 20
5722447.5
 30
0.0
  0
VERTEX
  5
51
330
4F
100
AcDbEntity
  8
siatka
100
AcDbVertex
100
AcDb2dVertex
 10
7565550.0
 20
5722452.500000001
 30
0.0
  0
SEQEND
  5
52
330
0
100
AcDbEntity
  8
siatka
  0
POLYLINE
  5
53
330
22
100
AcDbEntity
  8
siatka
  6
Continuous
 62
     7
370
    13
100
AcDb2dPolyline
 66
     1
 10
0.0
 20
0.0
 30
0.0
 70
   128
  0
VERTEX
  5
54
330
53
100
AcDbEntity
  8
siatka
100
AcDbVertex
100
AcDb2dVertex
 10
7565597.499999999
 20
5722450.0
 30
0.0
  0
VERTEX
  5
55
330
53
100
AcDbEntity
  8
siatka
100
AcDbVertex
100
AcDb2dVertex
 10
7565602.499999999
 20
5722450.0
 30
0.0
  0
SEQEND
  5
56
330
0
100
AcDbEntity
  8
siatka
  0
POLYLINE
  5
57
330
22
100
AcDbEntity
  8
siatka
  6
Continuous
 62
     7
370
    13
100
AcDb2dPolyline
 66
     1
 10
0.0
 20
0.0
 30
0.0
 70
   128
  0
VERTEX
  5
58
330
57
100
AcDbEntity
  8
siatka
100
AcDbVertex
100
AcDb2dVertex
 10
7565600.0
 20
5722447.5
 30
0.0
  0
VERTEX
  5
59
330
57
100
AcDbEntity
  8
siatka
100
AcDbVertex
100
AcDb2dVertex
 10
7565600.0
 20
5722452.500000001
 30
0.0
  0
SEQEND
  5
5A
330
0
100
AcDbEntity
  8
siatka
  0
POLYLINE
  5
5B
330
22
100
AcDbEntity
  8
siatka
  6
Continuous
 62
     7
370
    13
100
AcDb2dPolyline
 66
     1
 10
0.0
 20
0.0
 30
0.0
 70
   128
  0
VERTEX
  5
5C
330
5B
100
AcDbEntity
  8
siatka
100
AcDbVertex
100
AcDb2dVertex
 10
7565647.499999999
 20
5722450.0
 30
0.0
  0
VERTEX
  5
5D
330
5B
100
AcDbEntity
  8
siatka
100
AcDbVertex
100
AcDb2dVertex
 10
7565652.499999999
 20
5722450.0
 30
0.0
  0
SEQEND
  5
5E
330
0
100
AcDbEntity
  8
siatka
  0
POLYLINE
  5
5F
330
22
100
AcDbEntity
  8
siatka
  6
Continuous
 62
     7
370
    13
100
AcDb2dPolyline
 66
     1
 10
0.0
 20
0.0
 30
0.0
 70
   128
  0
VERTEX
  5
60
330
5F
100
AcDbEntity
  8
siatka
100
AcDbVertex
100
AcDb2dVertex
 10
7565650.0
 20
5722447.5
 30
0.0
  0
VERTEX
  5
61
330
5F
100
AcDbEntity
  8
siatka
100
AcDbVertex
100
AcDb2dVertex
 10
7565650.0
 20
5722452.500000001
 30
0.0
  0
SEQEND
  5
62
330
0
100
AcDbEntity
  8
siatka
  0
POLYLINE
  5
63
330
22
100
AcDbEntity
  8
siatka
  6
Continuous
 62
     7
370
    13
100
AcDb2dPolyline
 66
     1
 10
0.0
 20
0.0
 30
0.0
 70
   128
  0
VERTEX
  5
64
330
63
100
AcDbEntity
  8
siatka
100
AcDbVertex
100
AcDb2dVertex
 10
7565697.499999999
 20
5722450.0
 30
0.0
  0
VERTEX
  5
65
330
63
100
AcDbEntity
  8
siatka
100
AcDbVertex
100
AcDb2dVertex
 10
7565702.5
 20
5722450.0
 30
0.0
  0
SEQEND
  5
66
330
0
100
AcDbEntity
  8
siatka
  0
POLYLINE
  5
67
330
22
100
AcDbEntity
  8
siatka
  6
Continuous
 62
     7
370
    13
100
AcDb2dPolyline
 66
     1
 10
0.0
 20
0.0
 30
0.0
 70
   128
  0
VERTEX
  5
68
330
67
100
AcDbEntity
  8
siatka
100
AcDbVertex
100
AcDb2dVertex
 10
7565700.0
 20
5722447.5
 30
0.0
  0
VERTEX
  5
69
330
67
100
AcDbEntity
  8
siatka
100
AcDbVertex
100
AcDb2dVertex
 10
7565700.0
 20
5722452.500000001
 30
0.0
  0
SEQEND
  5
6A
330
0
100
AcDbEntity
  8
siatka
  0
POLYLINE
  5
6B
330
22
100
AcDbEntity
  8
siatka
  6
Continuous
 62
     7
370
    13
100
AcDb2dPolyline
 66
     1
 10
0.0
 20
0.0
 30
0.0
 70
   128
  0
VERTEX
  5
6C
330
6B
100
AcDbEntity
  8
siatka
100
AcDbVertex
100
AcDb2dVertex
 10
7565747.5
 20
5722450.0
 30
0.0
  0
VERTEX
  5
6D
330
6B
100
AcDbEntity
  8
siatka
100
AcDbVertex
100
AcDb2dVertex
 10
7565752.5
 20
5722450.0
 30
0.0
  0
SEQEND
  5
6E
330
0
100
AcDbEntity
  8
siatka
  0
POLYLINE
  5
6F
330
22
100
AcDbEntity
  8
siatka
  6
Continuous
 62
     7
370
    13
100
AcDb2dPolyline
 66
     1
 10
0.0
 20
0.0
 30
0.0
 70
   128
  0
VERTEX
  5
70
330
6F
100
AcDbEntity
  8
siatka
100
AcDbVertex
100
AcDb2dVertex
 10
7565750.0
 20
5722447.5
 30
0.0
  0
VERTEX
  5
71
330
6F
100
AcDbEntity
  8
siatka
100
AcDbVertex
100
AcDb2dVertex
 10
7565750.0
 20
5722452.500000001
 30
0.0
  0
SEQEND
  5
72
330
0
100
AcDbEntity
  8
siatka
  0
POLYLINE
  5
73
330
22
100
AcDbEntity
  8
siatka
  6
Continuous
 62
     7
370
    13
100
AcDb2dPolyline
 66
     1
 10
0.0
 20
0.0
 30
0.0
 70
   128
  0
VERTEX
  5
74
330
73
100
AcDbEntity
  8
siatka
100
AcDbVertex
100
AcDb2dVertex
 10
7565547.5
 20
5722500.0
 30
0.0
  0
VERTEX
  5
75
330
73
100
AcDbEntity
  8
siatka
100
AcDbVertex
100
AcDb2dVertex
 10
7565552.499999999
 20
5722500.0
 30
0.0
  0
SEQEND
  5
76
330
0
100
AcDbEntity
  8
siatka
  0
POLYLINE
  5
77
330
22
100
AcDbEntity
  8
siatka
  6
Continuous
 62
     7
370
    13
100
AcDb2dPolyline
 66
     1
 10
0.0
 20
0.0
 30
0.0
 70
   128
  0
VERTEX
  5
78
330
77
100
AcDbEntity
  8
siatka
100
AcDbVertex
100
AcDb2dVertex
 10
7565550.0
 20
5722497.500000001
 30
0.0
  0
VERTEX
  5
79
330
77
100
AcDbEntity
  8
siatka
100
AcDbVertex
100
AcDb2dVertex
 10
7565550.0
 20
5722502.5
 30
0.0
  0
SEQEND
  5
7A
330
0
100
AcDbEntity
  8
siatka
  0
POLYLINE
  5
7B
330
22
100
AcDbEntity
  8
siatka
  6
Continuous
 62
     7
370
    13
100
AcDb2dPolyline
 66
     1
 10
0.0
 20
0.0
 30
0.0
 70
   128
  0
VERTEX
  5
7C
330
7B
100
AcDbEntity
  8
siatka
100
AcDbVertex
100
AcDb2dVertex
 10
7565597.499999999
 20
5722500.0
 30
0.0
  0
VERTEX
  5
7D
330
7B
100
AcDbEntity
  8
siatka
100
AcDbVertex
100
AcDb2dVertex
 10
7565602.499999999
 20
5722500.0
 30
0.0
  0
SEQEND
  5
7E
330
0
100
AcDbEntity
  8
siatka
  0
POLYLINE
  5
7F
330
22
100
AcDbEntity
  8
siatka
  6
Continuous
 62
     7
370
    13
100
AcDb2dPolyline
 66
     1
 10
0.0
 20
0.0
 30
0.0
 70
   128
  0
VERTEX
  5
80
330
7F
100
AcDbEntity
  8
siatka
100
AcDbVertex
100
AcDb2dVertex
 10
7565600.0
 20
5722497.500000001
 30
0.0
  0
VERTEX
  5
81
330
7F
100
AcDbEntity
  8
siatka
100
AcDbVertex
100
AcDb2dVertex
 10
7565600.0
 20
5722502.5
 30
0.0
  0
SEQEND
  5
82
330
0
100
AcDbEntity
  8
siatka
  0
POLYLINE
  5
83
330
22
100
AcDbEntity
  8
siatka
  6
Continuous
 62
     7
370
    13
100
AcDb2dPolyline
 66
     1
 10
0.0
 20
0.0
 30
0.0
 70
   128
  0
VERTEX
  5
84
330
83
100
AcDbEntity
  8
siatka
100
AcDbVertex
100
AcDb2dVertex
 10
7565647.499999999
 20
5722500.0
 30
0.0
  0
VERTEX
  5
85
330
83
100
AcDbEntity
  8
siatka
100
AcDbVertex
100
AcDb2dVertex
 10
7565652.499999999
 20
5722500.0
 30
0.0
  0
SEQEND
  5
86
330
0
100
AcDbEntity
  8
siatka
  0
POLYLINE
  5
87
330
22
100
AcDbEntity
  8
siatka
  6
Continuous
 62
     7
370
    13
100
AcDb2dPolyline
 66
     1
 10
0.0
 20
0.0
 30
0.0
 70
   128
  0
VERTEX
  5
88
330
87
100
AcDbEntity
  8
siatka
100
AcDbVertex
100
AcDb2dVertex
 10
7565650.0
 20
5722497.500000001
 30
0.0
  0
VERTEX
  5
89
330
87
100
AcDbEntity
  8
siatka
100
AcDbVertex
100
AcDb2dVertex
 10
7565650.0
 20
5722502.5
 30
0.0
  0
SEQEND
  5
8A
330
0
100
AcDbEntity
  8
siatka
  0
POLYLINE
  5
8B
330
22
100
AcDbEntity
  8
siatka
  6
Continuous
 62
     7
370
    13
100
AcDb2dPolyline
 66
     1
 10
0.0
 20
0.0
 30
0.0
 70
   128
  0
VERTEX
  5
8C
330
8B
100
AcDbEntity
  8
siatka
100
AcDbVertex
100
AcDb2dVertex
 10
7565697.499999999
 20
5722500.0
 30
0.0
  0
VERTEX
  5
8D
330
8B
100
AcDbEntity
  8
siatka
100
AcDbVertex
100
AcDb2dVertex
 10
7565702.5
 20
5722500.0
 30
0.0
  0
SEQEND
  5
8E
330
0
100
AcDbEntity
  8
siatka
  0
POLYLINE
  5
8F
330
22
100
AcDbEntity
  8
siatka
  6
Continuous
 62
     7
370
    13
100
AcDb2dPolyline
 66
     1
 10
0.0
 20
0.0
 30
0.0
 70
   128
  0
VERTEX
  5
90
330
8F
100
AcDbEntity
  8
siatka
100
AcDbVertex
100
AcDb2dVertex
 10
7565700.0
 20
5722497.500000001
 30
0.0
  0
VERTEX
  5
91
330
8F
100
AcDbEntity
  8
siatka
100
AcDbVertex
100
AcDb2dVertex
 10
7565700.0
 20
5722502.5
 30
0.0
  0
SEQEND
  5
92
330
0
100
AcDbEntity
  8
siatka
  0
POLYLINE
  5
93
330
22
100
AcDbEntity
  8
siatka
  6
Continuous
 62
     7
370
    13
100
AcDb2dPolyline
 66
     1
 10
0.0
 20
0.0
 30
0.0
 70
   128
  0
VERTEX
  5
94
330
93
100
AcDbEntity
  8
siatka
100
AcDbVertex
100
AcDb2dVertex
 10
7565747.5
 20
5722500.0
 30
0.0
  0
VERTEX
  5
95
330
93
100
AcDbEntity
  8
siatka
100
AcDbVertex
100
AcDb2dVertex
 10
7565752.5
 20
5722500.0
 30
0.0
  0
SEQEND
  5
96
330
0
100
AcDbEntity
  8
siatka
  0
POLYLINE
  5
97
330
22
100
AcDbEntity
  8
siatka
  6
Continuous
 62
     7
370
    13
100
AcDb2dPolyline
 66
     1
 10
0.0
 20
0.0
 30
0.0
 70
   128
  0
VERTEX
  5
98
330
97
100
AcDbEntity
  8
siatka
100
AcDbVertex
100
AcDb2dVertex
 10
7565750.0
 20
5722497.500000001
 30
0.0
  0
VERTEX
  5
99
330
97
100
AcDbEntity
  8
siatka
100
AcDbVertex
100
AcDb2dVertex
 10
7565750.0
 20
5722502.5
 30
0.0
  0
SEQEND
  5
9A
330
0
100
AcDbEntity
  8
siatka
  0
POLYLINE
  5
9B
330
22
100
AcDbEntity
  8
siatka
  6
Continuous
 62
     7
370
    13
100
AcDb2dPolyline
 66
     1
 10
0.0
 20
0.0
 30
0.0
 70
   128
  0
VERTEX
  5
9C
330
9B
100
AcDbEntity
  8
siatka
100
AcDbVertex
100
AcDb2dVertex
 10
7565547.5
 20
5722550.0
 30
0.0
  0
VERTEX
  5
9D
330
9B
100
AcDbEntity
  8
siatka
100
AcDbVertex
100
AcDb2dVertex
 10
7565552.499999999
 20
5722550.0
 30
0.0
  0
SEQEND
  5
9E
330
0
100
AcDbEntity
  8
siatka
  0
POLYLINE
  5
9F
330
22
100
AcDbEntity
  8
siatka
  6
Continuous
 62
     7
370
    13
100
AcDb2dPolyline
 66
     1
 10
0.0
 20
0.0
 30
0.0
 70
   128
  0
VERTEX
  5
A0
330
9F
100
AcDbEntity
  8
siatka
100
AcDbVertex
100
AcDb2dVertex
 10
7565550.0
 20
5722547.500000001
 30
0.0
  0
VERTEX
  5
A1
330
9F
100
AcDbEntity
  8
siatka
100
AcDbVertex
100
AcDb2dVertex
 10
7565550.0
 20
5722552.5
 30
0.0
  0
SEQEND
  5
A2
330
0
100
AcDbEntity
  8
siatka
  0
POLYLINE
  5
A3
330
22
100
AcDbEntity
  8
siatka
  6
Continuous
 62
     7
370
    13
100
AcDb2dPolyline
 66
     1
 10
0.0
 20
0.0
 30
0.0
 70
   128
  0
VERTEX
  5
A4
330
A3
100
AcDbEntity
  8
siatka
100
AcDbVertex
100
AcDb2dVertex
 10
7565597.499999999
 20
5722550.0
 30
0.0
  0
VERTEX
  5
A5
330
A3
100
AcDbEntity
  8
siatka
100
AcDbVertex
100
AcDb2dVertex
 10
7565602.499999999
 20
5722550.0
 30
0.0
  0
SEQEND
  5
A6
330
0
100
AcDbEntity
  8
siatka
  0
POLYLINE
  5
A7
330
22
100
AcDbEntity
  8
siatka
  6
Continuous
 62
     7
370
    13
100
AcDb2dPolyline
 66
     1
 10
0.0
 20
0.0
 30
0.0
 70
   128
  0
VERTEX
  5
A8
330
A7
100
AcDbEntity
  8
siatka
100
AcDbVertex
100
AcDb2dVertex
 10
7565600.0
 20
5722547.500000001
 30
0.0
  0
VERTEX
  5
A9
330
A7
100
AcDbEntity
  8
siatka
100
AcDbVertex
100
AcDb2dVertex
 10
7565600.0
 20
5722552.5
 30
0.0
  0
SEQEND
  5
AA
330
0
100
AcDbEntity
  8
siatka
  0
POLYLINE
  5
AB
330
22
100
AcDbEntity
  8
siatka
  6
Continuous
 62
     7
370
    13
100
AcDb2dPolyline
 66
     1
 10
0.0
 20
0.0
 30
0.0
 70
   128
  0
VERTEX
  5
AC
330
AB
100
AcDbEntity
  8
siatka
100
AcDbVertex
100
AcDb2dVertex
 10
7565647.499999999
 20
5722550.0
 30
0.0
  0
VERTEX
  5
AD
330
AB
100
AcDbEntity
  8
siatka
100
AcDbVertex
100
AcDb2dVertex
 10
7565652.499999999
 20
5722550.0
 30
0.0
  0
SEQEND
  5
AE
330
0
100
AcDbEntity
  8
siatka
  0
POLYLINE
  5
AF
330
22
100
AcDbEntity
  8
siatka
  6
Continuous
 62
     7
370
    13
100
AcDb2dPolyline
 66
     1
 10
0.0
 20
0.0
 30
0.0
 70
   128
  0
VERTEX
  5
B0
330
AF
100
AcDbEntity
  8
siatka
100
AcDbVertex
100
AcDb2dVertex
 10
7565650.0
 20
5722547.500000001
 30
0.0
  0
VERTEX
  5
B1
330
AF
100
AcDbEntity
  8
siatka
100
AcDbVertex
100
AcDb2dVertex
 10
7565650.0
 20
5722552.5
 30
0.0
  0
SEQEND
  5
B2
330
0
100
AcDbEntity
  8
siatka
  0
POLYLINE
  5
B3
330
22
100
AcDbEntity
  8
siatka
  6
Continuous
 62
     7
370
    13
100
AcDb2dPolyline
 66
     1
 10
0.0
 20
0.0
 30
0.0
 70
   128
  0
VERTEX
  5
B4
330
B3
100
AcDbEntity
  8
siatka
100
AcDbVertex
100
AcDb2dVertex
 10
7565697.499999999
 20
5722550.0
 30
0.0
  0
VERTEX
  5
B5
330
B3
100
AcDbEntity
  8
siatka
100
AcDbVertex
100
AcDb2dVertex
 10
7565702.5
 20
5722550.0
 30
0.0
  0
SEQEND
  5
B6
330
0
100
AcDbEntity
  8
siatka
  0
POLYLINE
  5
B7
330
22
100
AcDbEntity
  8
siatka
  6
Continuous
 62
     7
370
    13
100
AcDb2dPolyline
 66
     1
 10
0.0
 20
0.0
 30
0.0
 70
   128
  0
VERTEX
  5
B8
330
B7
100
AcDbEntity
  8
siatka
100
AcDbVertex
100
AcDb2dVertex
 10
7565700.0
 20
5722547.500000001
 30
0.0
  0
VERTEX
  5
B9
330
B7
100
AcDbEntity
  8
siatka
100
AcDbVertex
100
AcDb2dVertex
 10
7565700.0
 20
5722552.5
 30
0.0
  0
SEQEND
  5
BA
330
0
100
AcDbEntity
  8
siatka
  0
POLYLINE
  5
BB
330
22
100
AcDbEntity
  8
siatka
  6
Continuous
 62
     7
370
    13
100
AcDb2dPolyline
 66
     1
 10
0.0
 20
0.0
 30
0.0
 70
   128
  0
VERTEX
  5
BC
330
BB
100
AcDbEntity
  8
siatka
100
AcDbVertex
100
AcDb2dVertex
 10
7565747.5
 20
5722550.0
 30
0.0
  0
VERTEX
  5
BD
330
BB
100
AcDbEntity
  8
siatka
100
AcDbVertex
100
AcDb2dVertex
 10
7565752.5
 20
5722550.0
 30
0.0
  0
SEQEND
  5
BE
330
0
100
AcDbEntity
  8
siatka
  0
POLYLINE
  5
BF
330
22
100
AcDbEntity
  8
siatka
  6
Continuous
 62
     7
370
    13
100
AcDb2dPolyline
 66
     1
 10
0.0
 20
0.0
 30
0.0
 70
   128
  0
VERTEX
  5
C0
330
BF
100
AcDbEntity
  8
siatka
100
AcDbVertex
100
AcDb2dVertex
 10
7565750.0
 20
5722547.500000001
 30
0.0
  0
VERTEX
  5
C1
330
BF
100
AcDbEntity
  8
siatka
100
AcDbVertex
100
AcDb2dVertex
 10
7565750.0
 20
5722552.5
 30
0.0
  0
SEQEND
  5
C2
330
0
100
AcDbEntity
  8
siatka
  0
POLYLINE
  5
C3
330
22
100
AcDbEntity
  8
siatka
  6
Continuous
 62
     7
370
    13
100
AcDb2dPolyline
 66
     1
 10
0.0
 20
0.0
 30
0.0
 70
   128
  0
VERTEX
  5
C4
330
C3
100
AcDbEntity
  8
siatka
100
AcDbVertex
100
AcDb2dVertex
 10
7565547.5
 20
5722599.999999999
 30
0.0
  0
VERTEX
  5
C5
330
C3
100
AcDbEntity
  8
siatka
100
AcDbVertex
100
AcDb2dVertex
 10
7565552.499999999
 20
5722599.999999999
 30
0.0
  0
SEQEND
  5
C6
330
0
100
AcDbEntity
  8
siatka
  0
POLYLINE
  5
C7
330
22
100
AcDbEntity
  8
siatka
  6
Continuous
 62
     7
370
    13
100
AcDb2dPolyline
 66
     1
 10
0.0
 20
0.0
 30
0.0
 70
   128
  0
VERTEX
  5
C8
330
C7
100
AcDbEntity
  8
siatka
100
AcDbVertex
100
AcDb2dVertex
 10
7565550.0
 20
5722597.5
 30
0.0
  0
VERTEX
  5
C9
330
C7
100
AcDbEntity
  8
siatka
100
AcDbVertex
100
AcDb2dVertex
 10
7565550.0
 20
5722602.5
 30
0.0
  0
SEQEND
  5
CA
330
0
100
AcDbEntity
  8
siatka
  0
POLYLINE
  5
CB
330
22
100
AcDbEntity
  8
siatka
  6
Continuous
 62
     7
370
    13
100
AcDb2dPolyline
 66
     1
 10
0.0
 20
0.0
 30
0.0
 70
   128
  0
VERTEX
  5
CC
330
CB
100
AcDbEntity
  8
siatka
100
AcDbVertex
100
AcDb2dVertex
 10
7565597.499999999
 20
5722599.999999999
 30
0.0
  0
VERTEX
  5
CD
330
CB
100
AcDbEntity
  8
siatka
100
AcDbVertex
100
AcDb2dVertex
 10
7565602.499999999
 20
5722599.999999999
 30
0.0
  0
SEQEND
  5
CE
330
0
100
AcDbEntity
  8
siatka
  0
POLYLINE
  5
CF
330
22
100
AcDbEntity
  8
siatka
  6
Continuous
 62
     7
370
    13
100
AcDb2dPolyline
 66
     1
 10
0.0
 20
0.0
 30
0.0
 70
   128
  0
VERTEX
  5
D0
330
CF
100
AcDbEntity
  8
siatka
100
AcDbVertex
100
AcDb2dVertex
 10
7565600.0
 20
5722597.5
 30
0.0
  0
VERTEX
  5
D1
330
CF
100
AcDbEntity
  8
siatka
100
AcDbVertex
100
AcDb2dVertex
 10
7565600.0
 20
5722602.5
 30
0.0
  0
SEQEND
  5
D2
330
0
100
AcDbEntity
  8
siatka
  0
POLYLINE
  5
D3
330
22
100
AcDbEntity
  8
siatka
  6
Continuous
 62
     7
370
    13
100
AcDb2dPolyline
 66
     1
 10
0.0
 20
0.0
 30
0.0
 70
   128
  0
VERTEX
  5
D4
330
D3
100
AcDbEntity
  8
siatka
100
AcDbVertex
100
AcDb2dVertex
 10
7565647.499999999
 20
5722599.999999999
 30
0.0
  0
VERTEX
  5
D5
330
D3
100
AcDbEntity
  8
siatka
100
AcDbVertex
100
AcDb2dVertex
 10
7565652.499999999
 20
5722599.999999999
 30
0.0
  0
SEQEND
  5
D6
330
0
100
AcDbEntity
  8
siatka
  0
POLYLINE
  5
D7
330
22
100
AcDbEntity
  8
siatka
  6
Continuous
 62
     7
370
    13
100
AcDb2dPolyline
 66
     1
 10
0.0
 20
0.0
 30
0.0
 70
   128
  0
VERTEX
  5
D8
330
D7
100
AcDbEntity
  8
siatka
100
AcDbVertex
100
AcDb2dVertex
 10
7565650.0
 20
5722597.5
 30
0.0
  0
VERTEX
  5
D9
330
D7
100
AcDbEntity
  8
siatka
100
AcDbVertex
100
AcDb2dVertex
 10
7565650.0
 20
5722602.5
 30
0.0
  0
SEQEND
  5
DA
330
0
100
AcDbEntity
  8
siatka
  0
POLYLINE
  5
DB
330
22
100
AcDbEntity
  8
siatka
  6
Continuous
 62
     7
370
    13
100
AcDb2dPolyline
 66
     1
 10
0.0
 20
0.0
 30
0.0
 70
   128
  0
VERTEX
  5
DC
330
DB
100
AcDbEntity
  8
siatka
100
AcDbVertex
100
AcDb2dVertex
 10
7565697.499999999
 20
5722599.999999999
 30
0.0
  0
VERTEX
  5
DD
330
DB
100
AcDbEntity
  8
siatka
100
AcDbVertex
100
AcDb2dVertex
 10
7565702.5
 20
5722599.999999999
 30
0.0
  0
SEQEND
  5
DE
330
0
100
AcDbEntity
  8
siatka
  0
POLYLINE
  5
DF
330
22
100
AcDbEntity
  8
siatka
  6
Continuous
 62
     7
370
    13
100
AcDb2dPolyline
 66
     1
 10
0.0
 20
0.0
 30
0.0
 70
   128
  0
VERTEX
  5
E0
330
DF
100
AcDbEntity
  8
siatka
100
AcDbVertex
100
AcDb2dVertex
 10
7565700.0
 20
5722597.5
 30
0.0
  0
VERTEX
  5
E1
330
DF
100
AcDbEntity
  8
siatka
100
AcDbVertex
100
AcDb2dVertex
 10
7565700.0
 20
5722602.5
 30
0.0
  0
SEQEND
  5
E2
330
0
100
AcDbEntity
  8
siatka
  0
POLYLINE
  5
E3
330
22
100
AcDbEntity
  8
siatka
  6
Continuous
 62
     7
370
    13
100
AcDb2dPolyline
 66
     1
 10
0.0
 20
0.0
 30
0.0
 70
   128
  0
VERTEX
  5
E4
330
E3
100
AcDbEntity
  8
siatka
100
AcDbVertex
100
AcDb2dVertex
 10
7565747.5
 20
5722599.999999999
 30
0.0
  0
VERTEX
  5
E5
330
E3
100
AcDbEntity
  8
siatka
100
AcDbVertex
100
AcDb2dVertex
 10
7565752.5
 20
5722599.999999999
 30
0.0
  0
SEQEND
  5
E6
330
0
100
AcDbEntity
  8
siatka
  0
POLYLINE
  5
E7
330
22
100
AcDbEntity
  8
siatka
  6
Continuous
 62
     7
370
    13
100
AcDb2dPolyline
 66
     1
 10
0.0
 20
0.0
 30
0.0
 70
   128
  0
VERTEX
  5
E8
330
E7
100
AcDbEntity
  8
siatka
100
AcDbVertex
100
AcDb2dVertex
 10
7565750.0
 20
5722597.5
 30
0.0
  0
VERTEX
  5
E9
330
E7
100
AcDbEntity
  8
siatka
100
AcDbVertex
100
AcDb2dVertex
 10
7565750.0
 20
5722602.5
 30
0.0
  0
SEQEND
  5
EA
330
0
100
AcDbEntity
  8
siatka
  0
POLYLINE
  5
EB
330
22
100
AcDbEntity
  8
siatka
  6
Continuous
 62
     7
370
    13
100
AcDb2dPolyline
 66
     1
 10
0.0
 20
0.0
 30
0.0
 70
   128
  0
VERTEX
  5
EC
330
EB
100
AcDbEntity
  8
siatka
100
AcDbVertex
100
AcDb2dVertex
 10
7565547.5
 20
5722649.999999999
 30
0.0
  0
VERTEX
  5
ED
330
EB
100
AcDbEntity
  8
siatka
100
AcDbVertex
100
AcDb2dVertex
 10
7565552.499999999
 20
5722649.999999999
 30
0.0
  0
SEQEND
  5
EE
330
0
100
AcDbEntity
  8
siatka
  0
POLYLINE
  5
EF
330
22
100
AcDbEntity
  8
siatka
  6
Continuous
 62
     7
370
    13
100
AcDb2dPolyline
 66
     1
 10
0.0
 20
0.0
 30
0.0
 70
   128
  0
VERTEX
  5
F0
330
EF
100
AcDbEntity
  8
siatka
100
AcDbVertex
100
AcDb2dVertex
 10
7565550.0
 20
5722647.5
 30
0.0
  0
VERTEX
  5
F1
330
EF
100
AcDbEntity
  8
siatka
100
AcDbVertex
100
AcDb2dVertex
 10
7565550.0
 20
5722652.5
 30
0.0
  0
SEQEND
  5
F2
330
0
100
AcDbEntity
  8
siatka
  0
POLYLINE
  5
F3
330
22
100
AcDbEntity
  8
siatka
  6
Continuous
 62
     7
370
    13
100
AcDb2dPolyline
 66
     1
 10
0.0
 20
0.0
 30
0.0
 70
   128
  0
VERTEX
  5
F4
330
F3
100
AcDbEntity
  8
siatka
100
AcDbVertex
100
AcDb2dVertex
 10
7565597.499999999
 20
5722649.999999999
 30
0.0
  0
VERTEX
  5
F5
330
F3
100
AcDbEntity
  8
siatka
100
AcDbVertex
100
AcDb2dVertex
 10
7565602.499999999
 20
5722649.999999999
 30
0.0
  0
SEQEND
  5
F6
330
0
100
AcDbEntity
  8
siatka
  0
POLYLINE
  5
F7
330
22
100
AcDbEntity
  8
siatka
  6
Continuous
 62
     7
370
    13
100
AcDb2dPolyline
 66
     1
 10
0.0
 20
0.0
 30
0.0
 70
   128
  0
VERTEX
  5
F8
330
F7
100
AcDbEntity
  8
siatka
100
AcDbVertex
100
AcDb2dVertex
 10
7565600.0
 20
5722647.5
 30
0.0
  0
VERTEX
  5
F9
330
F7
100
AcDbEntity
  8
siatka
100
AcDbVertex
100
AcDb2dVertex
 10
7565600.0
 20
5722652.5
 30
0.0
  0
SEQEND
  5
FA
330
0
100
AcDbEntity
  8
siatka
  0
POLYLINE
  5
FB
330
22
100
AcDbEntity
  8
siatka
  6
Continuous
 62
     7
370
    13
100
AcDb2dPolyline
 66
     1
 10
0.0
 20
0.0
 30
0.0
 70
   128
  0
VERTEX
  5
FC
330
FB
100
AcDbEntity
  8
siatka
100
AcDbVertex
100
AcDb2dVertex
 10
7565647.499999999
 20
5722649.999999999
 30
0.0
  0
VERTEX
  5
FD
330
FB
100
AcDbEntity
  8
siatka
100
AcDbVertex
100
AcDb2dVertex
 10
7565652.499999999
 20
5722649.999999999
 30
0.0
  0
SEQEND
  5
FE
330
0
100
AcDbEntity
  8
siatka
  0
POLYLINE
  5
FF
330
22
100
AcDbEntity
  8
siatka
  6
Continuous
 62
     7
370
    13
100
AcDb2dPolyline
 66
     1
 10
0.0
 20
0.0
 30
0.0
 70
   128
  0
VERTEX
  5
100
330
FF
100
AcDbEntity
  8
siatka
100
AcDbVertex
100
AcDb2dVertex
 10
7565650.0
 20
5722647.5
 30
0.0
  0
VERTEX
  5
101
330
FF
100
AcDbEntity
  8
siatka
100
AcDbVertex
100
AcDb2dVertex
 10
7565650.0
 20
5722652.5
 30
0.0
  0
SEQEND
  5
102
330
0
100
AcDbEntity
  8
siatka
  0
POLYLINE
  5
103
330
22
100
AcDbEntity
  8
siatka
  6
Continuous
 62
     7
370
    13
100
AcDb2dPolyline
 66
     1
 10
0.0
 20
0.0
 30
0.0
 70
   128
  0
VERTEX
  5
104
330
103
100
AcDbEntity
  8
siatka
100
AcDbVertex
100
AcDb2dVertex
 10
7565697.499999999
 20
5722649.999999999
 30
0.0
  0
VERTEX
  5
105
330
103
100
AcDbEntity
  8
siatka
100
AcDbVertex
100
AcDb2dVertex
 10
7565702.5
 20
5722649.999999999
 30
0.0
  0
SEQEND
  5
106
330
0
100
AcDbEntity
  8
siatka
  0
POLYLINE
  5
107
330
22
100
AcDbEntity
  8
siatka
  6
Continuous
 62
     7
370
    13
100
AcDb2dPolyline
 66
     1
 10
0.0
 20
0.0
 30
0.0
 70
   128
  0
VERTEX
  5
108
330
107
100
AcDbEntity
  8
siatka
100
AcDbVertex
100
AcDb2dVertex
 10
7565700.0
 20
5722647.5
 30
0.0
  0
VERTEX
  5
109
330
107
100
AcDbEntity
  8
siatka
100
AcDbVertex
100
AcDb2dVertex
 10
7565700.0
 20
5722652.5
 30
0.0
  0
SEQEND
  5
10A
330
0
100
AcDbEntity
  8
siatka
  0
POLYLINE
  5
10B
330
22
100
AcDbEntity
  8
siatka
  6
Continuous
 62
     7
370
    13
100
AcDb2dPolyline
 66
     1
 10
0.0
 20
0.0
 30
0.0
 70
   128
  0
VERTEX
  5
10C
330
10B
100
AcDbEntity
  8
siatka
100
AcDbVertex
100
AcDb2dVertex
 10
7565747.5
 20
5722649.999999999
 30
0.0
  0
VERTEX
  5
10D
330
10B
100
AcDbEntity
  8
siatka
100
AcDbVertex
100
AcDb2dVertex
 10
7565752.5
 20
5722649.999999999
 30
0.0
  0
SEQEND
  5
10E
330
0
100
AcDbEntity
  8
siatka
  0
POLYLINE
  5
10F
330
22
100
AcDbEntity
  8
siatka
  6
Continuous
 62
     7
370
    13
100
AcDb2dPolyline
 66
     1
 10
0.0
 20
0.0
 30
0.0
 70
   128
  0
VERTEX
  5
110
330
10F
100
AcDbEntity
  8
siatka
100
AcDbVertex
100
AcDb2dVertex
 10
7565750.0
 20
5722647.5
 30
0.0
  0
VERTEX
  5
111
330
10F
100
AcDbEntity
  8
siatka
100
AcDbVertex
100
AcDb2dVertex
 10
7565750.0
 20
5722652.5
 30
0.0
  0
SEQEND
  5
112
330
0
100
AcDbEntity
  8
siatka
  0
POLYLINE
  5
113
330
22
100
AcDbEntity
  8
siatka
  6
Continuous
 62
     7
370
    13
100
AcDb2dPolyline
 66
     1
 10
0.0
 20
0.0
 30
0.0
 70
   128
  0
VERTEX
  5
114
330
113
100
AcDbEntity
  8
siatka
100
AcDbVertex
100
AcDb2dVertex
 10
7565547.5
 20
5722699.999999999
 30
0.0
  0
VERTEX
  5
115
330
113
100
AcDbEntity
  8
siatka
100
AcDbVertex
100
AcDb2dVertex
 10
7565552.499999999
 20
5722699.999999999
 30
0.0
  0
SEQEND
  5
116
330
0
100
AcDbEntity
  8
siatka
  0
POLYLINE
  5
117
330
22
100
AcDbEntity
  8
siatka
  6
Continuous
 62
     7
370
    13
100
AcDb2dPolyline
 66
     1
 10
0.0
 20
0.0
 30
0.0
 70
   128
  0
VERTEX
  5
118
330
117
100
AcDbEntity
  8
siatka
100
AcDbVertex
100
AcDb2dVertex
 10
7565550.0
 20
5722697.5
 30
0.0
  0
VERTEX
  5
119
330
117
100
AcDbEntity
  8
siatka
100
AcDbVertex
100
AcDb2dVertex
 10
7565550.0
 20
5722702.5
 30
0.0
  0
SEQEND
  5
11A
330
0
100
AcDbEntity
  8
siatka
  0
POLYLINE
  5
11B
330
22
100
AcDbEntity
  8
siatka
  6
Continuous
 62
     7
370
    13
100
AcDb2dPolyline
 66
     1
 10
0.0
 20
0.0
 30
0.0
 70
   128
  0
VERTEX
  5
11C
330
11B
100
AcDbEntity
  8
siatka
100
AcDbVertex
100
AcDb2dVertex
 10
7565597.499999999
 20
5722699.999999999
 30
0.0
  0
VERTEX
  5
11D
330
11B
100
AcDbEntity
  8
siatka
100
AcDbVertex
100
AcDb2dVertex
 10
7565602.499999999
 20
5722699.999999999
 30
0.0
  0
SEQEND
  5
11E
330
0
100
AcDbEntity
  8
siatka
  0
POLYLINE
  5
11F
330
22
100
AcDbEntity
  8
siatka
  6
Continuous
 62
     7
370
    13
100
AcDb2dPolyline
 66
     1
 10
0.0
 20
0.0
 30
0.0
 70
   128
  0
VERTEX
  5
120
330
11F
100
AcDbEntity
  8
siatka
100
AcDbVertex
100
AcDb2dVertex
 10
7565600.0
 20
5722697.5
 30
0.0
  0
VERTEX
  5
121
330
11F
100
AcDbEntity
  8
siatka
100
AcDbVertex
100
AcDb2dVertex
 10
7565600.0
 20
5722702.5
 30
0.0
  0
SEQEND
  5
122
330
0
100
AcDbEntity
  8
siatka
  0
POLYLINE
  5
123
330
22
100
AcDbEntity
  8
siatka
  6
Continuous
 62
     7
370
    13
100
AcDb2dPolyline
 66
     1
 10
0.0
 20
0.0
 30
0.0
 70
   128
  0
VERTEX
  5
124
330
123
100
AcDbEntity
  8
siatka
100
AcDbVertex
100
AcDb2dVertex
 10
7565647.499999999
 20
5722699.999999999
 30
0.0
  0
VERTEX
  5
125
330
123
100
AcDbEntity
  8
siatka
100
AcDbVertex
100
AcDb2dVertex
 10
7565652.499999999
 20
5722699.999999999
 30
0.0
  0
SEQEND
  5
126
330
0
100
AcDbEntity
  8
siatka
  0
POLYLINE
  5
127
330
22
100
AcDbEntity
  8
siatka
  6
Continuous
 62
     7
370
    13
100
AcDb2dPolyline
 66
     1
 10
0.0
 20
0.0
 30
0.0
 70
   128
  0
VERTEX
  5
128
330
127
100
AcDbEntity
  8
siatka
100
AcDbVertex
100
AcDb2dVertex
 10
7565650.0
 20
5722697.5
 30
0.0
  0
VERTEX
  5
129
330
127
100
AcDbEntity
  8
siatka
100
AcDbVertex
100
AcDb2dVertex
 10
7565650.0
 20
5722702.5
 30
0.0
  0
SEQEND
  5
12A
330
0
100
AcDbEntity
  8
siatka
  0
POLYLINE
  5
12B
330
22
100
AcDbEntity
  8
siatka
  6
Continuous
 62
     7
370
    13
100
AcDb2dPolyline
 66
     1
 10
0.0
 20
0.0
 30
0.0
 70
   128
  0
VERTEX
  5
12C
330
12B
100
AcDbEntity
  8
siatka
100
AcDbVertex
100
AcDb2dVertex
 10
7565697.499999999
 20
5722699.999999999
 30
0.0
  0
VERTEX
  5
12D
330
12B
100
AcDbEntity
  8
siatka
100
AcDbVertex
100
AcDb2dVertex
 10
7565702.5
 20
5722699.999999999
 30
0.0
  0
SEQEND
  5
12E
330
0
100
AcDbEntity
  8
siatka
  0
POLYLINE
  5
12F
330
22
100
AcDbEntity
  8
siatka
  6
Continuous
 62
     7
370
    13
100
AcDb2dPolyline
 66
     1
 10
0.0
 20
0.0
 30
0.0
 70
   128
  0
VERTEX
  5
130
330
12F
100
AcDbEntity
  8
siatka
100
AcDbVertex
100
AcDb2dVertex
 10
7565700.0
 20
5722697.5
 30
0.0
  0
VERTEX
  5
131
330
12F
100
AcDbEntity
  8
siatka
100
AcDbVertex
100
AcDb2dVertex
 10
7565700.0
 20
5722702.5
 30
0.0
  0
SEQEND
  5
132
330
0
100
AcDbEntity
  8
siatka
  0
POLYLINE
  5
133
330
22
100
AcDbEntity
  8
siatka
  6
Continuous
 62
     7
370
    13
100
AcDb2dPolyline
 66
     1
 10
0.0
 20
0.0
 30
0.0
 70
   128
  0
VERTEX
  5
134
330
133
100
AcDbEntity
  8
siatka
100
AcDbVertex
100
AcDb2dVertex
 10
7565747.5
 20
5722699.999999999
 30
0.0
  0
VERTEX
  5
135
330
133
100
AcDbEntity
  8
siatka
100
AcDbVertex
100
AcDb2dVertex
 10
7565752.5
 20
5722699.999999999
 30
0.0
  0
SEQEND
  5
136
330
0
100
AcDbEntity
  8
siatka
  0
POLYLINE
  5
137
330
22
100
AcDbEntity
  8
siatka
  6
Continuous
 62
     7
370
    13
100
AcDb2dPolyline
 66
     1
 10
0.0
 20
0.0
 30
0.0
 70
   128
  0
VERTEX
  5
138
330
137
100
AcDbEntity
  8
siatka
100
AcDbVertex
100
AcDb2dVertex
 10
7565750.0
 20
5722697.5
 30
0.0
  0
VERTEX
  5
139
330
137
100
AcDbEntity
  8
siatka
100
AcDbVertex
100
AcDb2dVertex
 10
7565750.0
 20
5722702.5
 30
0.0
  0
SEQEND
  5
13A
330
0
100
AcDbEntity
  8
siatka
  0
POLYLINE
  5
13B
330
22
100
AcDbEntity
  8
siatka
  6
Continuous
 62
     7
370
    13
100
AcDb2dPolyline
 66
     1
 10
0.0
 20
0.0
 30
0.0
 70
   128
  0
VERTEX
  5
13C
330
13B
100
AcDbEntity
  8
siatka
100
AcDbVertex
100
AcDb2dVertex
 10
7565547.5
 20
5722749.999999999
 30
0.0
  0
VERTEX
  5
13D
330
13B
100
AcDbEntity
  8
siatka
100
AcDbVertex
100
AcDb2dVertex
 10
7565552.499999999
 20
5722749.999999999
 30
0.0
  0
SEQEND
  5
13E
330
0
100
AcDbEntity
  8
siatka
  0
POLYLINE
  5
13F
330
22
100
AcDbEntity
  8
siatka
  6
Continuous
 62
     7
370
    13
100
AcDb2dPolyline
 66
     1
 10
0.0
 20
0.0
 30
0.0
 70
   128
  0
VERTEX
  5
140
330
13F
100
AcDbEntity
  8
siatka
100
AcDbVertex
100
AcDb2dVertex
 10
7565550.0
 20
5722747.5
 30
0.0
  0
VERTEX
  5
141
330
13F
100
AcDbEntity
  8
siatka
100
AcDbVertex
100
AcDb2dVertex
 10
7565550.0
 20
5722752.5
 30
0.0
  0
SEQEND
  5
142
330
0
100
AcDbEntity
  8
siatka
  0
POLYLINE
  5
143
330
22
100
AcDbEntity
  8
siatka
  6
Continuous
 62
     7
370
    13
100
AcDb2dPolyline
 66
     1
 10
0.0
 20
0.0
 30
0.0
 70
   128
  0
VERTEX
  5
144
330
143
100
AcDbEntity
  8
siatka
100
AcDbVertex
100
AcDb2dVertex
 10
7565597.499999999
 20
5722749.999999999
 30
0.0
  0
VERTEX
  5
145
330
143
100
AcDbEntity
  8
siatka
100
AcDbVertex
100
AcDb2dVertex
 10
7565602.499999999
 20
5722749.999999999
 30
0.0
  0
SEQEND
  5
146
330
0
100
AcDbEntity
  8
siatka
  0
POLYLINE
  5
147
330
22
100
AcDbEntity
  8
siatka
  6
Continuous
 62
     7
370
    13
100
AcDb2dPolyline
 66
     1
 10
0.0
 20
0.0
 30
0.0
 70
   128
  0
VERTEX
  5
148
330
147
100
AcDbEntity
  8
siatka
100
AcDbVertex
100
AcDb2dVertex
 10
7565600.0
 20
5722747.5
 30
0.0
  0
VERTEX
  5
149
330
147
100
AcDbEntity
  8
siatka
100
AcDbVertex
100
AcDb2dVertex
 10
7565600.0
 20
5722752.5
 30
0.0
  0
SEQEND
  5
14A
330
0
100
AcDbEntity
  8
siatka
  0
POLYLINE
  5
14B
330
22
100
AcDbEntity
  8
siatka
  6
Continuous
 62
     7
370
    13
100
AcDb2dPolyline
 66
     1
 10
0.0
 20
0.0
 30
0.0
 70
   128
  0
VERTEX
  5
14C
330
14B
100
AcDbEntity
  8
siatka
100
AcDbVertex
100
AcDb2dVertex
 10
7565647.499999999
 20
5722749.999999999
 30
0.0
  0
VERTEX
  5
14D
330
14B
100
AcDbEntity
  8
siatka
100
AcDbVertex
100
AcDb2dVertex
 10
7565652.499999999
 20
5722749.999999999
 30
0.0
  0
SEQEND
  5
14E
330
0
100
AcDbEntity
  8
siatka
  0
POLYLINE
  5
14F
330
22
100
AcDbEntity
  8
siatka
  6
Continuous
 62
     7
370
    13
100
AcDb2dPolyline
 66
     1
 10
0.0
 20
0.0
 30
0.0
 70
   128
  0
VERTEX
  5
150
330
14F
100
AcDbEntity
  8
siatka
100
AcDbVertex
100
AcDb2dVertex
 10
7565650.0
 20
5722747.5
 30
0.0
  0
VERTEX
  5
151
330
14F
100
AcDbEntity
  8
siatka
100
AcDbVertex
100
AcDb2dVertex
 10
7565650.0
 20
5722752.5
 30
0.0
  0
SEQEND
  5
152
330
0
100
AcDbEntity
  8
siatka
  0
POLYLINE
  5
153
330
22
100
AcDbEntity
  8
siatka
  6
Continuous
 62
     7
370
    13
100
AcDb2dPolyline
 66
     1
 10
0.0
 20
0.0
 30
0.0
 70
   128
  0
VERTEX
  5
154
330
153
100
AcDbEntity
  8
siatka
100
AcDbVertex
100
AcDb2dVertex
 10
7565697.499999999
 20
5722749.999999999
 30
0.0
  0
VERTEX
  5
155
330
153
100
AcDbEntity
  8
siatka
100
AcDbVertex
100
AcDb2dVertex
 10
7565702.5
 20
5722749.999999999
 30
0.0
  0
SEQEND
  5
156
330
0
100
AcDbEntity
  8
siatka
  0
POLYLINE
  5
157
330
22
100
AcDbEntity
  8
siatka
  6
Continuous
 62
     7
370
    13
100
AcDb2dPolyline
 66
     1
 10
0.0
 20
0.0
 30
0.0
 70
   128
  0
VERTEX
  5
158
330
157
100
AcDbEntity
  8
siatka
100
AcDbVertex
100
AcDb2dVertex
 10
7565700.0
 20
5722747.5
 30
0.0
  0
VERTEX
  5
159
330
157
100
AcDbEntity
  8
siatka
100
AcDbVertex
100
AcDb2dVertex
 10
7565700.0
 20
5722752.5
 30
0.0
  0
SEQEND
  5
15A
330
0
100
AcDbEntity
  8
siatka
  0
POLYLINE
  5
15B
330
22
100
AcDbEntity
  8
siatka
  6
Continuous
 62
     7
370
    13
100
AcDb2dPolyline
 66
     1
 10
0.0
 20
0.0
 30
0.0
 70
   128
  0
VERTEX
  5
15C
330
15B
100
AcDbEntity
  8
siatka
100
AcDbVertex
100
AcDb2dVertex
 10
7565747.5
 20
5722749.999999999
 30
0.0
  0
VERTEX
  5
15D
330
15B
100
AcDbEntity
  8
siatka
100
AcDbVertex
100
AcDb2dVertex
 10
7565752.5
 20
5722749.999999999
 30
0.0
  0
SEQEND
  5
15E
330
0
100
AcDbEntity
  8
siatka
  0
POLYLINE
  5
15F
330
22
100
AcDbEntity
  8
siatka
  6
Continuous
 62
     7
370
    13
100
AcDb2dPolyline
 66
     1
 10
0.0
 20
0.0
 30
0.0
 70
   128
  0
VERTEX
  5
160
330
15F
100
AcDbEntity
  8
siatka
100
AcDbVertex
100
AcDb2dVertex
 10
7565750.0
 20
5722747.5
 30
0.0
  0
VERTEX
  5
161
330
15F
100
AcDbEntity
  8
siatka
100
AcDbVertex
100
AcDb2dVertex
 10
7565750.0
 20
5722752.5
 30
0.0
  0
SEQEND
  5
162
330
0
100
AcDbEntity
  8
siatka
  0
POINT
  5
18B
330
22
100
AcDbEntity
  8
0
100
AcDbPoint
 10
7565742.110000001
 20
5722436.530000001
 30
0.0
  0
POINT
  5
18C
330
22
100
AcDbEntity
  8
0
100
AcDbPoint
 10
7565592.139999998
 20
5722760.25
 30
0.0
  0
POINT
  5
18D
330
22
100
AcDbEntity
  8
0
100
AcDbPoint
 10
7565681.57
 20
5722604.66
 30
0.0
  0
POINT
  5
18E
330
22
100
AcDbEntity
  8
0
100
AcDbPoint
 10
7565606.37
 20
5722766.87
 30
0.0
  0
POINT
  5
18F
330
22
100
AcDbEntity
  8
0
100
AcDbPoint
 10
7565756.580000001
 20
5722442.88
 30
0.0
  0
TEXT
  5
190
330
22
100
AcDbEntity
  8
Numery_dzialek
 62
     7
370
    20
100
AcDbText
 39
0.2
 10
7565622.868834058
 20
5722702.869999952
 30
0.0
 40
1.0
  1
1-705/1
 41
0.6600000000000001
 11
7565622.868834058
 21
5722703.869999953
 31
0.0
100
AcDbText
 73
     3
  0
TEXT
  5
191
330
22
100
AcDbEntity
  8
Numery_dzialek
 62
     7
370
    20
100
AcDbText
 39
0.2
 10
7565666.034135392
 20
5722596.903076626
 30
0.0
 40
1.0
  1
1-705/2
 41
0.6600000000000001
 11
7565666.034135392
 21
5722597.903076625
 31
0.0
100
AcDbText
 73
     3
  0
TEXT
  5
192
330
22
100
AcDbEntity
  8
Numery_dzialek
 62
     7
370
    20
100
AcDbText
 39
0.2
 10
7565602.242031072
 20
5722764.890193166
 30
0.0
 40
1.0
  1
1-677/1
 41
0.6600000000000001
 11
7565602.242031072
 21
5722765.890193167
 31
0.0
100
AcDbText
 73
     3
  0
TEXT
  5
193
330
22
100
AcDbEntity
  8
Numery_dzialek
 62
     7
370
    20
100
AcDbText
 39
0.2
 10
7565644.888290047
 20
5722685.176662723
 30
0.0
 40
1.0
  1
1-704/1
 41
0.6600000000000001
 11
7565644.888290047
 21
5722686.176662723
 31
0.0
100
AcDbText
 73
     3
  0
TEXT
  5
194
330
22
100
AcDbEntity
  8
Numery_dzialek
 62
     7
370
    20
100
AcDbText
 39
0.2
 10
7565720.386917989
 20
5722523.344375002
 30
0.0
 40
1.0
  1
1-704/2
 41
0.6600000000000001
 11
7565720.386917989
 21
5722524.344375001
 31
0.0
100
AcDbText
 73
     3
  0
TEXT
  5
195
330
22
100
AcDbEntity
  8
Numery_dzialek
 62
     7
370
    20
100
AcDbText
 39
0.2
 10
7565751.780933211
 20
5722437.771481511
 30
0.0
 40
1.0
  1
1-709/3
 41
0.6600000000000001
 11
7565751.780933211
 21
5722438.771481511
 31
0.0
100
AcDbText
 73
     3
  0
TEXT
  5
196
330
22
100
AcDbEntity
  8
Numery_punktow
 62
     7
370
    18
100
AcDbText
 39
0.18
 10
7565742.110000001
 20
5722436.529999976
 30
0.0
 40
0.9
  1
1-119019
 41
0.6600000000000001
 11
7565742.110000001
 21
5722437.429999977
 31
0.0
100
AcDbText
 73
     3
  0
TEXT
  5
197
330
22
100
AcDbEntity
  8
Numery_punktow
 62
     7
370
    18
100
AcDbText
 39
0.18
 10
7565592.139999998
 20
5722760.249999976
 30
0.0
 40
0.9
  1
1-119018
 41
0.6600000000000001
 11
7565592.139999998
 21
5722761.149999976
 31
0.0
100
AcDbText
 73
     3
  0
TEXT
  5
198
330
22
100
AcDbEntity
  8
Numery_punktow
 62
     7
370
    18
100
AcDbText
 39
0.18
 10
7565577.91
 20
5722753.649999977
 30
0.0
 40
0.9
  1
1-12718
 41
0.6600000000000001
 11
7565577.91
 21
5722754.549999977
 31
0.0
100
AcDbText
 73
     3
  0
TEXT
  5
199
330
22
100
AcDbEntity
  8
Numery_punktow
 62
     7
370
    18
100
AcDbText
 39
0.18
 10
7565727.639999998
 20
5722430.189999975
 30
0.0
 40
0.9
  1
1-12754
 41
0.6600000000000001
 11
7565727.639999998
 21
5722431.089999977
 31
0.0
100
AcDbText
 73
     3
  0
TEXT
  5
19A
330
22
100
AcDbEntity
  8
Numery_punktow
 62
     7
370
    18
100
AcDbText
 39
0.18
 10
7565606.37
 20
5722766.869999976
 30
0.0
 40
0.9
  1
1-12719
 41
0.6600000000000001
 11
7565606.37
 21
5722767.769999976
 31
0.0
100
AcDbText
 73
     3
  0
TEXT
  5
19B
330
22
100
AcDbEntity
  8
Numery_punktow
 62
     7
370
    18
100
AcDbText
 39
0.18
 10
7565620.700000001
 20
5722773.529999976
 30
0.0
 40
0.9
  1
1-12720
 41
0.6600000000000001
 11
7565620.700000001
 21
5722774.429999977
 31
0.0
100
AcDbText
 73
     3
  0
TEXT
  5
19C
330
22
100
AcDbEntity
  8
Numery_punktow
 62
     7
370
    18
100
AcDbText
 39
0.18
 10
7565696.099999999
 20
5722611.019999974
 30
0.0
 40
0.9
  1
1-1425
 41
0.6600000000000001
 11
7565696.099999999
 21
5722611.919999975
 31
0.0
100
AcDbText
 73
     3
  0
TEXT
  5
19D
330
22
100
AcDbEntity
  8
Numery_punktow
 62
     7
370
    18
100
AcDbText
 39
0.18
 10
7565681.57
 20
5722604.659999976
 30
0.0
 40
0.9
  1
1-1424
 41
0.6600000000000001
 11
7565681.57
 21
5722605.559999976
 31
0.0
100
AcDbText
 73
     3
  0
TEXT
  5
19E
330
22
100
AcDbEntity
  8
Numery_punktow
 62
     7
370
    18
100
AcDbText
 39
0.18
 10
7565771.15
 20
5722449.259999975
 30
0.0
 40
0.9
  1
1-12752
 41
0.6600000000000001
 11
7565771.15
 21
5722450.159999976
 31
0.0
100
AcDbText
 73
     3
  0
TEXT
  5
19F
330
22
100
AcDbEntity
  8
Numery_punktow
 62
     7
370
    18
100
AcDbText
 39
0.18
 10
7565756.580000001
 20
5722442.879999976
 30
0.0
 40
0.9
  1
1-12753
 41
0.6600000000000001
 11
7565756.580000001
 21
5722443.779999975
 31
0.0
100
AcDbText
 73
     3
  0
LINE
  5
1000036
330
22
100
AcDbEntity
  8
Dzialki
  6
Continuous
370
    18
100
AcDbLine
 10
7565742.110000001
 20
5722436.530000001
 30
0.0
 11
7565592.139999998
 21
5722760.25
 31
0.0
  0
LINE
  5
1000037
330
22
100
AcDbEntity
  8
Dzialki
  6
Continuous
370
    18
100
AcDbLine
 10
7565592.139999998
 20
5722760.25
 30
0.0
 11
7565577.91
 21
5722753.65
 31
0.0
  0
LINE
  5
1000038
330
22
100
AcDbEntity
  8
Dzialki
  6
Continuous
370
    18
100
AcDbLine
 10
7565727.639999998
 20
5722430.190000001
 30
0.0
 11
7565742.110000001
 21
5722436.530000001
 31
0.0
  0
LINE
  5
1000039
330
22
100
AcDbEntity
  8
Dzialki
  6
Continuous
370
    18
100
AcDbLine
 10
7565592.139999998
 20
5722760.25
 30
0.0
 11
7565606.37
 21
5722766.87
 31
0.0
  0
LINE
  5
100003A
330
22
100
AcDbEntity
  8
Dzialki
  6
Continuous
370
    18
100
AcDbLine
 10
7565606.37
 20
5722766.87
 30
0.0
 11
7565620.700000001
 21
5722773.53
 31
0.0
  0
LINE
  5
100003B
330
22
100
AcDbEntity
  8
Dzialki
  6
Continuous
370
    18
100
AcDbLine
 10
7565606.37
 20
5722766.87
 30
0.0
 11
7565681.57
 21
5722604.66
 31
0.0
  0
LINE
  5
100003C
330
22
100
AcDbEntity
  8
Dzialki
  6
Continuous
370
    18
100
AcDbLine
 10
7565681.57
 20
5722604.66
 30
0.0
 11
7565696.099999999
 21
5722611.019999999
 31
0.0
  0
LINE
  5
100003D
330
22
100
AcDbEntity
  8
Dzialki
  6
Continuous
370
    18
100
AcDbLine
 10
7565681.57
 20
5722604.66
 30
0.0
 11
7565756.580000001
 21
5722442.88
 31
0.0
  0
LINE
  5
100003E
330
22
100
AcDbEntity
  8
Dzialki
  6
Continuous
370
    18
100
AcDbLine
 10
7565756.580000001
 20
5722442.88
 30
0.0
 11
7565771.15
 21
5722449.259999999
 31
0.0
  0
LINE
  5
100003F
330
22
100
AcDbEntity
  8
Dzialki
  6
Continuous
370
    18
100
AcDbLine
 10
7565742.110000001
 20
5722436.530000001
 30
0.0
 11
7565756.580000001
 21
5722442.88
 31
0.0
  0
ENDSEC
  0
SECTION
  2
OBJECTS
  0
DICTIONARY
  5
1A0
330
0
100
AcDbDictionary
281
     1
  3
ACAD_COLOR
350
100001C
  3
ACAD_GROUP
350
1A1
  3
ACAD_LAYOUT
350
1A2
  3
ACAD_MATERIAL
350
FFFFFF
  3
ACAD_MLEADERSTYLE
350
100001F
  3
ACAD_MLINESTYLE
350
1A3
  3
ACAD_PLOTSETTINGS
350
1A4
  3
ACAD_PLOTSTYLENAME
350
1A5
  3
ACAD_SCALELIST
350
1000021
  3
ACAD_TABLESTYLE
350
100001D
  3
ACAD_VISUALSTYLE
350
1000003
  3
ACAD_WIPEOUT_VARS
350
1A6
  3
AcDbVariableDictionary
350
1000040
  0
DICTIONARY
  5
1000034
330
22
100
AcDbDictionary
280
     1
281
     1
  3
ACAD_SORTENTS
360
1000035
  0
DICTIONARY
  5
100001C
102
{ACAD_REACTORS
330
1A0
102
}
330
1A0
100
AcDbDictionary
281
     1
  0
DICTIONARY
  5
1A1
102
{ACAD_REACTORS
330
1A0
102
}
330
1A0
100
AcDbDictionary
281
     1
  0
DICTIONARY
  5
1A2
102
{ACAD_REACTORS
330
1A0
102
}
330
1A0
100
AcDbDictionary
281
     1
  3
Layout
350
25
  3
Model
350
23
  0
DICTIONARY
  5
FFFFFF
102
{ACAD_REACTORS
330
1A0
102
}
330
1A0
100
AcDbDictionary
281
     1
  3
ByBlock
350
1000001
  3
ByLayer
350
1000000
  3
Global
350
1000002
  0
DICTIONARY
  5
100001F
102
{ACAD_REACTORS
330
1A0
102
}
330
1A0
100
AcDbDictionary
281
     1
  3
Standard
350
1000020
  0
DICTIONARY
  5
1A3
102
{ACAD_REACTORS
330
1A0
102
}
330
1A0
100
AcDbDictionary
281
     1
  3
L_0_02
350
7
  3
L_0_15
350
F
  3
Standard
350
1A7
  0
DICTIONARY
  5
1A4
102
{ACAD_REACTORS
330
1A0
102
}
330
1A0
100
AcDbDictionary
281
     1
  0
ACDBDICTIONARYWDFLT
  5
1A5
102
{ACAD_REACTORS
330
1A0
102
}
330
1A0
100
AcDbDictionary
281
     1
  3
Normal
350
13
100
AcDbDictionaryWithDefault
340
13
  0
DICTIONARY
  5
1000021
102
{ACAD_REACTORS
330
1A0
102
}
330
1A0
100
AcDbDictionary
281
     1
  3
A0
350
1000022
  3
A1
350
1000023
  3
A2
350
1000024
  3
A3
350
1000025
  3
A4
350
1000026
  3
A5
350
1000027
  3
A6
350
1000028
  3
A7
350
1000029
  3
A8
350
100002A
  3
A9
350
100002B
  3
B0
350
100002C
  3
B1
350
100002D
  3
B2
350
100002E
  3
B3
350
100002F
  3
B4
350
1000030
  3
B5
350
1000031
  3
B6
350
1000032
  0
DICTIONARY
  5
100001D
102
{ACAD_REACTORS
330
1A0
102
}
330
1A0
100
AcDbDictionary
281
     1
  3
Standard
350
100001E
  0
DICTIONARY
  5
1000003
102
{ACAD_REACTORS
330
1A0
102
}
330
1A0
100
AcDbDictionary
281
     1
  3
2dWireframe
350
1000008
  3
Basic
350
100000B
  3
Brighten
350
100000F
  3
ColorChange
350
1000013
  3
Conceptual
350
100000D
  3
Dim
350
100000E
  3
EdgeColorOff
350
1000016
  3
Facepattern
350
1000012
  3
Flat
350
1000004
  3
FlatWithEdges
350
1000005
  3
Gouraud
350
1000006
  3
GouraudWithEdges
350
1000007
  3
Hidden
350
100000A
  3
JitterOff
350
1000014
  3
Linepattern
350
1000011
  3
OverhangOff
350
1000015
  3
Realistic
350
100000C
  3
Shaded
350
100001B
  3
Shaded with edges
350
100001A
  3
Shades of Gray
350
1000017
  3
Sketchy
350
1000018
  3
Thicken
350
1000010
  3
Wireframe
350
1000009
  3
X-Ray
350
1000019
  0
WIPEOUTVARIABLES
  5
1A6
102
{ACAD_REACTORS
330
1A0
102
}
330
1A0
100
AcDbWipeoutVariables
 70
     0
  0
DICTIONARY
  5
1000040
102
{ACAD_REACTORS
330
1A0
102
}
330
1A0
100
AcDbDictionary
281
     1
  3
CANNOSCALE
350
1000044
  3
CMLEADERSTYLE
350
1000042
  3
CTABLESTYLE
350
1000041
  3
MSLTSCALE
350
1000043
  0
SORTENTSTABLE
  5
1000035
102
{ACAD_REACTORS
330
1000034
102
}
330
1000034
100
AcDbSortentsTable
330
22
331
18B
  5
195
331
18C
  5
196
331
18D
  5
197
331
18E
  5
198
331
18F
  5
199
331
190
  5
19A
331
191
  5
19B
331
192
  5
19C
331
193
  5
19D
331
194
  5
19E
331
195
  5
19F
331
196
  5
1000036
331
197
  5
1000037
331
198
  5
1000038
331
199
  5
1000039
331
19A
  5
100003A
331
19B
  5
100003B
331
19C
  5
100003C
331
19D
  5
100003D
331
19E
  5
100003E
331
19F
  5
100003F
331
1000036
  5
18B
331
1000037
  5
18C
331
1000038
  5
18D
331
1000039
  5
18E
331
100003A
  5
18F
331
100003B
  5
190
331
100003C
  5
191
331
100003D
  5
192
331
100003E
  5
193
331
100003F
  5
194
  0
LAYOUT
  5
25
330
1A2
100
AcDbPlotSettings
  1

  2

  4

  6

 40
0.0
 41
0.0
 42
0.0
 43
0.0
 44
0.0
 45
0.0
 46
0.0
 47
0.0
 48
0.0
 49
0.0
140
0.0
141
0.0
142
1.0
143
1.0
 70
   688
 72
     1
 73
     0
 74
     5
  7

 75
     0
 76
     0
 77
     2
 78
   300
147
1.0
148
0.0
149
0.0
100
AcDbLayout
  1
Layout
 70
     1
 71
     1
 10
0.0
 20
0.0
 11
420.0
 21
297.0
 12
0.0
 22
0.0
 32
0.0
 14
1.000000000000000E+20
 24
1.000000000000000E+20
 34
1.000000000000000E+20
 15
-1.000000000000000E+20
 25
-1.000000000000000E+20
 35
-1.000000000000000E+20
146
0.0
 13
0.0
 23
0.0
 33
0.0
 16
1.0
 26
0.0
 36
0.0
 17
0.0
 27
1.0
 37
0.0
 76
     0
330
24
  0
LAYOUT
  5
23
330
1A2
100
AcDbPlotSettings
  1

  2

  4

  6

 40
0.0
 41
0.0
 42
0.0
 43
0.0
 44
0.0
 45
0.0
 46
0.0
 47
0.0
 48
0.0
 49
0.0
140
0.0
141
0.0
142
1.0
143
1.0
 70
  1712
 72
     1
 73
     0
 74
     0
  7

 75
     0
 76
     0
 77
     2
 78
   300
147
1.0
148
0.0
149
0.0
100
AcDbLayout
  1
Model
 70
     1
 71
     0
 10
0.0
 20
0.0
 11
12.0
 21
9.0
 12
0.0
 22
0.0
 32
0.0
 14
0.0
 24
0.0
 34
0.0
 15
0.0
 25
0.0
 35
0.0
146
0.0
 13
0.0
 23
0.0
 33
0.0
 16
1.0
 26
0.0
 36
0.0
 17
0.0
 27
1.0
 37
0.0
 76
     0
330
22
331
2
  0
MATERIAL
  5
1000001
102
{ACAD_REACTORS
330
FFFFFF
102
}
330
FFFFFF
100
AcDbMaterial
  1
ByBlock
 72
     0
 73
     2
 77
     0
 78
     2
171
     0
172
     2
175
     0
176
     2
179
     0
270
     2
274
     2
 94
      127
  0
MATERIAL
  5
1000000
102
{ACAD_REACTORS
330
FFFFFF
102
}
330
FFFFFF
100
AcDbMaterial
  1
ByLayer
 72
     0
 73
     2
 77
     0
 78
     2
171
     0
172
     2
175
     0
176
     2
179
     0
270
     2
274
     2
 94
      127
  0
MATERIAL
  5
1000002
102
{ACAD_REACTORS
330
FFFFFF
102
}
330
FFFFFF
100
AcDbMaterial
  1
Global
 72
     0
 73
     2
 77
     0
 78
     2
171
     0
172
     2
175
     0
176
     2
179
     0
270
     2
274
     2
 94
      127
  0
MLEADERSTYLE
  5
1000020
102
{ACAD_REACTORS
330
100001F
102
}
330
100001F
100
AcDbMLeaderStyle
179
     2
170
     2
171
     1
172
     0
 90
        2
 40
0.0
 41
0.0
173
     1
 91
-1056964608
340
4
 92
       -2
290
     1
 42
0.4
291
     1
 43
2.0
  3
Standard
 44
0.18
300

342
19
174
     1
178
     1
175
     1
176
     0
 93
-1056964608
 45
0.2
292
     0
297
     0
 46
5.0
 94
-1056964608
 47
1.0
 49
1.0
140
1.0
293
     1
141
0.0
294
     1
177
     0
142
1.0
295
     0
296
     0
143
0.125
271
     0
272
     9
273
     9
298
     0
  0
MLINESTYLE
  5
7
330
1A3
100
AcDbMlineStyle
  2
L_0_02
 70
     0
  3

 62
   256
 51
90.0
 52
90.0
 71
     1
 49
0.0
 62
   256
  6
CONTINUOUS
  0
MLINESTYLE
  5
F
330
1A3
100
AcDbMlineStyle
  2
L_0_15
 70
     0
  3

 62
   256
 51
90.0
 52
90.0
 71
     2
 49
0.0
 62
   256
  6
CONTINUOUS
 49
0.0
 62
   256
  6
L_0_15_SHX
  0
MLINESTYLE
  5
1A7
102
{ACAD_REACTORS
330
1A3
102
}
330
1A3
100
AcDbMlineStyle
  2
Standard
 70
     0
  3

 62
   256
 51
90.0
 52
90.0
 71
     2
 49
0.5
 62
   256
  6
BYLAYER
 49
-0.5
 62
   256
  6
BYLAYER
  0
ACDBPLACEHOLDER
  5
13
330
1A5
  0
SCALE
  5
1000022
102
{ACAD_REACTORS
330
1000021
102
}
330
1000021
100
AcDbScale
 70
     0
300
1:1
140
1.0
141
1.0
290
     1
  0
SCALE
  5
1000023
102
{ACAD_REACTORS
330
1000021
102
}
330
1000021
100
AcDbScale
 70
     0
300
1:2
140
1.0
141
2.0
290
     0
  0
SCALE
  5
1000024
102
{ACAD_REACTORS
330
1000021
102
}
330
1000021
100
AcDbScale
 70
     0
300
1:4
140
1.0
141
4.0
290
     0
  0
SCALE
  5
1000025
102
{ACAD_REACTORS
330
1000021
102
}
330
1000021
100
AcDbScale
 70
     0
300
1:5
140
1.0
141
5.0
290
     0
  0
SCALE
  5
1000026
102
{ACAD_REACTORS
330
1000021
102
}
330
1000021
100
AcDbScale
 70
     0
300
1:8
140
1.0
141
8.0
290
     0
  0
SCALE
  5
1000027
102
{ACAD_REACTORS
330
1000021
102
}
330
1000021
100
AcDbScale
 70
     0
300
1:10
140
1.0
141
10.0
290
     0
  0
SCALE
  5
1000028
102
{ACAD_REACTORS
330
1000021
102
}
330
1000021
100
AcDbScale
 70
     0
300
1:16
140
1.0
141
16.0
290
     0
  0
SCALE
  5
1000029
102
{ACAD_REACTORS
330
1000021
102
}
330
1000021
100
AcDbScale
 70
     0
300
1:20
140
1.0
141
20.0
290
     0
  0
SCALE
  5
100002A
102
{ACAD_REACTORS
330
1000021
102
}
330
1000021
100
AcDbScale
 70
     0
300
1:30
140
1.0
141
30.0
290
     0
  0
SCALE
  5
100002B
102
{ACAD_REACTORS
330
1000021
102
}
330
1000021
100
AcDbScale
 70
     0
300
1:40
140
1.0
141
40.0
290
     0
  0
SCALE
  5
100002C
102
{ACAD_REACTORS
330
1000021
102
}
330
1000021
100
AcDbScale
 70
     0
300
1:50
140
1.0
141
50.0
290
     0
  0
SCALE
  5
100002D
102
{ACAD_REACTORS
330
1000021
102
}
330
1000021
100
AcDbScale
 70
     0
300
1:100
140
1.0
141
100.0
290
     0
  0
SCALE
  5
100002E
102
{ACAD_REACTORS
330
1000021
102
}
330
1000021
100
AcDbScale
 70
     0
300
2:1
140
2.0
141
1.0
290
     0
  0
SCALE
  5
100002F
102
{ACAD_REACTORS
330
1000021
102
}
330
1000021
100
AcDbScale
 70
     0
300
4:1
140
4.0
141
1.0
290
     0
  0
SCALE
  5
1000030
102
{ACAD_REACTORS
330
1000021
102
}
330
1000021
100
AcDbScale
 70
     0
300
8:1
140
8.0
141
1.0
290
     0
  0
SCALE
  5
1000031
102
{ACAD_REACTORS
330
1000021
102
}
330
1000021
100
AcDbScale
 70
     0
300
10:1
140
10.0
141
1.0
290
     0
  0
SCALE
  5
1000032
102
{ACAD_REACTORS
330
1000021
102
}
330
1000021
100
AcDbScale
 70
     0
300
100:1
140
100.0
141
1.0
290
     0
  0
TABLESTYLE
  5
100001E
102
{ACAD_REACTORS
330
100001D
102
}
330
100001D
100
AcDbTableStyle
  3
Standard
 70
     0
 71
     0
 40
0.06
 41
0.06
280
     0
281
     0
  7
STANDARD
140
0.18
170
     2
 62
     7
 63
   257
283
     0
 90
        4
 91
        0
  1

274
    -2
284
     1
 64
     0
275
    -2
285
     1
 65
     0
276
    -2
286
     1
 66
     0
277
    -2
287
     1
 67
     0
278
    -2
288
     1
 68
     0
279
    -2
289
     1
 69
     0
  7
STANDARD
140
0.25
170
     5
 62
     7
 63
   257
283
     0
 90
        4
 91
        0
  1

274
    -2
284
     1
 64
     0
275
    -2
285
     1
 65
     0
276
    -2
286
     1
 66
     0
277
    -2
287
     1
 67
     0
278
    -2
288
     1
 68
     0
279
    -2
289
     1
 69
     0
  7
STANDARD
140
0.18
170
     5
 62
     7
 63
   257
283
     0
 90
        4
 91
        0
  1

274
    -2
284
     1
 64
     0
275
    -2
285
     1
 65
     0
276
    -2
286
     1
 66
     0
277
    -2
287
     1
 67
     0
278
    -2
288
     1
 68
     0
279
    -2
289
     1
 69
     0
  0
VISUALSTYLE
  5
1000008
102
{ACAD_REACTORS
330
1000003
102
}
330
1000003
100
AcDbVisualStyle
  2
2dWireframe
 70
     4
177
     3
291
     0
 70
    58
 90
        0
176
     1
 90
        2
176
     1
 90
        0
176
     1
 90
        0
176
     1
 40
0.6
176
     1
 40
30.0
176
     1
 62
     7
420
 16777215
176
     1
 90
        1
176
     1
 90
        4
176
     1
 62
     7
176
     1
 62
   257
176
     1
 90
        1
176
     1
 90
        1
176
     1
 40
1.0
176
     1
 90
        0
176
     1
 62
   257
176
     1
 40
1.0
176
     1
 90
        1
176
     1
 90
        6
176
     1
 90
        2
176
     1
 62
     7
176
     1
 90
        5
176
     1
 90
        0
176
     1
 90
        0
176
     1
290
     0
176
     1
 90
        1
176
     1
 40
0.0
176
     1
 90
        0
176
     1
290
     1
176
     1
290
     1
176
     1
290
     0
176
     1
290
     0
176
     1
290
     0
176
     1
290
     0
176
     1
290
     0
176
     1
290
     0
176
     1
290
     0
176
     1
 90
       50
176
     1
 40
0.0
176
     1
 40
1.0
176
     1
 90
        0
176
     1
 62
    18
420
        0
176
     1
 90
       50
176
     1
 90
        3
176
     1
 62
     5
420
      255
176
     1
290
     0
176
     1
 90
       50
176
     1
 90
       50
176
     1
 90
       50
176
     1
290
     0
176
     1
 90
       50
176
     1
 62
   256
176
     0
 40
1.0
176
     0
 90
        2
176
     1
  1
strokes_ogs.tif
176
     1
290
     0
176
     1
 40
1.0
176
     1
 40
1.0
176
     1
  0
VISUALSTYLE
  5
100000B
102
{ACAD_REACTORS
330
1000003
102
}
330
1000003
100
AcDbVisualStyle
  2
Basic
 70
     7
177
     3
291
     1
 70
    58
 90
        1
176
     1
 90
        0
176
     1
 90
        1
176
     1
 90
        0
176
     1
 40
0.6
176
     1
 40
30.0
176
     1
 62
     7
420
 16777215
176
     1
 90
        0
176
     1
 90
        4
176
     1
 62
     7
176
     1
 62
   257
176
     1
 90
        1
176
     1
 90
        1
176
     1
 40
1.0
176
     1
 90
        8
176
     1
 62
     7
176
     1
 40
1.0
176
     1
 90
        1
176
     1
 90
        6
176
     1
 90
        2
176
     1
 62
     7
176
     1
 90
        5
176
     1
 90
        0
176
     1
 90
        0
176
     1
290
     0
176
     1
 90
        1
176
     1
 40
0.0
176
     1
 90
        0
176
     1
290
     0
176
     1
290
     1
176
     1
290
     1
176
     1
290
     0
176
     1
290
     0
176
     1
290
     0
176
     1
290
     0
176
     1
290
     0
176
     1
290
     0
176
     1
 90
       50
176
     1
 40
0.0
176
     1
 40
1.0
176
     1
 90
        0
176
     1
 62
    18
420
        0
176
     1
 90
       50
176
     1
 90
        3
176
     1
 62
     5
420
      255
176
     1
290
     0
176
     1
 90
       50
176
     1
 90
       50
176
     1
 90
       50
176
     1
290
     0
176
     1
 90
       50
176
     1
 62
   256
176
     0
 40
1.0
176
     0
 90
        2
176
     1
  1
strokes_ogs.tif
176
     1
290
     0
176
     1
 40
1.0
176
     1
 40
1.0
176
     1
  0
VISUALSTYLE
  5
100000F
102
{ACAD_REACTORS
330
1000003
102
}
330
1000003
100
AcDbVisualStyle
  2
Brighten
 70
    12
177
     3
291
     1
 70
    58
 90
        2
176
     1
 90
        2
176
     1
 90
        0
176
     1
 90
        0
176
     1
 40
0.6
176
     1
 40
30.0
176
     1
 62
     7
420
 16777215
176
     1
 90
        1
176
     1
 90
        4
176
     1
 62
     7
176
     1
 62
   257
176
     1
 90
        1
176
     1
 90
        1
176
     1
 40
1.0
176
     1
 90
        8
176
     1
 62
     7
176
     1
 40
1.0
176
     1
 90
        1
176
     1
 90
        6
176
     1
 90
        2
176
     1
 62
     7
176
     1
 90
        5
176
     1
 90
        0
176
     1
 90
        0
176
     1
290
     0
176
     1
 90
        1
176
     1
 40
50.0
176
     1
 90
        0
176
     1
290
     0
176
     1
290
     1
176
     1
290
     1
176
     1
290
     0
176
     1
290
     0
176
     1
290
     0
176
     1
290
     0
176
     1
290
     0
176
     1
290
     0
176
     1
 90
       50
176
     1
 40
0.0
176
     1
 40
1.0
176
     1
 90
        0
176
     1
 62
    18
420
        0
176
     1
 90
       50
176
     1
 90
        3
176
     1
 62
     5
420
      255
176
     1
290
     0
176
     1
 90
       50
176
     1
 90
       50
176
     1
 90
       50
176
     1
290
     0
176
     1
 90
       50
176
     1
 62
   256
176
     0
 40
1.0
176
     0
 90
        2
176
     1
  1
strokes_ogs.tif
176
     1
290
     0
176
     1
 40
1.0
176
     1
 40
1.0
176
     1
  0
VISUALSTYLE
  5
1000013
102
{ACAD_REACTORS
330
1000003
102
}
330
1000003
100
AcDbVisualStyle
  2
ColorChange
 70
    16
177
     3
291
     1
 70
    58
 90
        2
176
     1
 90
        2
176
     1
 90
        3
176
     1
 90
        0
176
     1
 40
0.6
176
     1
 40
30.0
176
     1
 62
     8
420
  8421504
176
     1
 90
        1
176
     1
 90
        4
176
     1
 62
     7
176
     1
 62
   257
176
     1
 90
        1
176
     1
 90
        1
176
     1
 40
1.0
176
     1
 90
        8
176
     1
 62
     8
420
  8421504
176
     1
 40
1.0
176
     1
 90
        1
176
     1
 90
        6
176
     1
 90
        2
176
     1
 62
     7
176
     1
 90
        5
176
     1
 90
        0
176
     1
 90
        0
176
     1
290
     0
176
     1
 90
        1
176
     1
 40
0.0
176
     1
 90
        0
176
     1
290
     0
176
     1
290
     1
176
     1
290
     1
176
     1
290
     0
176
     1
290
     0
176
     1
290
     0
176
     1
290
     0
176
     1
290
     0
176
     1
290
     0
176
     1
 90
       50
176
     1
 40
0.0
176
     1
 40
1.0
176
     1
 90
        0
176
     1
 62
    18
420
        0
176
     1
 90
       50
176
     1
 90
        3
176
     1
 62
     5
420
      255
176
     1
290
     0
176
     1
 90
       50
176
     1
 90
       50
176
     1
 90
       50
176
     1
290
     0
176
     1
 90
       50
176
     1
 62
   256
176
     0
 40
1.0
176
     0
 90
        2
176
     1
  1
strokes_ogs.tif
176
     1
290
     0
176
     1
 40
1.0
176
     1
 40
1.0
176
     1
  0
VISUALSTYLE
  5
100000D
102
{ACAD_REACTORS
330
1000003
102
}
330
1000003
100
AcDbVisualStyle
  2
Conceptual
 70
     9
177
     3
291
     0
 70
    58
 90
        3
176
     1
 90
        2
176
     1
 90
        0
176
     1
 90
        0
176
     1
 40
0.6
176
     1
 40
30.0
176
     1
 62
     7
420
 16777215
176
     1
 90
        2
176
     1
 90
        2
176
     1
 62
     7
176
     1
 62
   257
176
     1
 90
        1
176
     1
 90
        1
176
     1
 40
179.0
176
     1
 90
        8
176
     1
 62
     7
176
     1
 40
1.0
176
     1
 90
        1
176
     1
 90
        6
176
     1
 90
        2
176
     1
 62
     7
176
     1
 90
        3
176
     1
 90
        0
176
     1
 90
        0
176
     1
290
     0
176
     1
 90
        1
176
     1
 40
0.0
176
     1
 90
        0
176
     1
290
     0
176
     1
290
     1
176
     1
290
     1
176
     1
290
     0
176
     1
290
     0
176
     1
290
     0
176
     1
290
     0
176
     1
290
     0
176
     1
290
     0
176
     1
 90
       50
176
     1
 40
0.0
176
     1
 40
1.0
176
     1
 90
        0
176
     1
 62
    18
420
        0
176
     1
 90
       50
176
     1
 90
        3
176
     1
 62
     5
420
      255
176
     1
290
     0
176
     1
 90
       50
176
     1
 90
       50
176
     1
 90
       50
176
     1
290
     0
176
     1
 90
       50
176
     1
 62
   256
176
     0
 40
1.0
176
     0
 90
        2
176
     1
  1
strokes_ogs.tif
176
     1
290
     0
176
     1
 40
1.0
176
     1
 40
1.0
176
     1
  0
VISUALSTYLE
  5
100000E
102
{ACAD_REACTORS
330
1000003
102
}
330
1000003
100
AcDbVisualStyle
  2
Dim
 70
    11
177
     3
291
     1
 70
    58
 90
        2
176
     1
 90
        2
176
     1
 90
        0
176
     1
 90
        0
176
     1
 40
0.6
176
     1
 40
30.0
176
     1
 62
     7
420
 16777215
176
     1
 90
        1
176
     1
 90
        4
176
     1
 62
     7
176
     1
 62
   257
176
     1
 90
        1
176
     1
 90
        1
176
     1
 40
1.0
176
     1
 90
        8
176
     1
 62
     7
176
     1
 40
1.0
176
     1
 90
        1
176
     1
 90
        6
176
     1
 90
        2
176
     1
 62
     7
176
     1
 90
        5
176
     1
 90
        0
176
     1
 90
        0
176
     1
290
     0
176
     1
 90
        1
176
     1
 40
-50.0
176
     1
 90
        0
176
     1
290
     0
176
     1
290
     1
176
     1
290
     1
176
     1
290
     0
176
     1
290
     0
176
     1
290
     0
176
     1
290
     0
176
     1
290
     0
176
     1
290
     0
176
     1
 90
       50
176
     1
 40
0.0
176
     1
 40
1.0
176
     1
 90
        0
176
     1
 62
    18
420
        0
176
     1
 90
       50
176
     1
 90
        3
176
     1
 62
     5
420
      255
176
     1
290
     0
176
     1
 90
       50
176
     1
 90
       50
176
     1
 90
       50
176
     1
290
     0
176
     1
 90
       50
176
     1
 62
   256
176
     0
 40
1.0
176
     0
 90
        2
176
     1
  1
strokes_ogs.tif
176
     1
290
     0
176
     1
 40
1.0
176
     1
 40
1.0
176
     1
  0
VISUALSTYLE
  5
1000016
102
{ACAD_REACTORS
330
1000003
102
}
330
1000003
100
AcDbVisualStyle
  2
EdgeColorOff
 70
    22
177
     3
291
     1
 70
    58
 90
        2
176
     0
 90
        2
176
     0
 90
        0
176
     0
 90
        0
176
     0
 40
0.6
176
     0
 40
30.0
176
     0
 62
     7
420
 16777215
176
     0
 90
        1
176
     0
 90
        4
176
     0
 62
     7
176
     0
 62
   257
176
     0
 90
        1
176
     0
 90
        1
176
     0
 40
1.0
176
     0
 90
        8
176
     2
 62
     7
176
     0
 40
1.0
176
     0
 90
        1
176
     0
 90
        6
176
     0
 90
        2
176
     0
 62
     7
176
     0
 90
        5
176
     0
 90
        0
176
     0
 90
        0
176
     0
290
     0
176
     0
 90
        1
176
     0
 40
0.0
176
     0
 90
        0
176
     0
290
     0
176
     0
290
     1
176
     0
290
     1
176
     0
290
     0
176
     0
290
     0
176
     0
290
     0
176
     0
290
     0
176
     0
290
     0
176
     0
290
     0
176
     0
 90
       50
176
     0
 40
0.0
176
     0
 40
1.0
176
     0
 90
        0
176
     0
 62
    18
420
        0
176
     0
 90
       50
176
     0
 90
        3
176
     0
 62
     5
420
      255
176
     0
290
     0
176
     0
 90
       50
176
     0
 90
       50
176
     0
 90
       50
176
     0
290
     0
176
     0
 90
       50
176
     0
 62
   256
176
     0
 40
1.0
176
     0
 90
        2
176
     0
  1
strokes_ogs.tif
176
     0
290
     0
176
     0
 40
1.0
176
     0
 40
1.0
176
     0
  0
VISUALSTYLE
  5
1000012
102
{ACAD_REACTORS
330
1000003
102
}
330
1000003
100
AcDbVisualStyle
  2
Facepattern
 70
    15
177
     3
291
     1
 70
    58
 90
        2
176
     1
 90
        2
176
     1
 90
        0
176
     1
 90
        0
176
     1
 40
0.6
176
     1
 40
30.0
176
     1
 62
     7
420
 16777215
176
     1
 90
        1
176
     1
 90
        4
176
     1
 62
     7
176
     1
 62
   257
176
     1
 90
        1
176
     1
 90
        1
176
     1
 40
1.0
176
     1
 90
        8
176
     1
 62
     7
176
     1
 40
1.0
176
     1
 90
        1
176
     1
 90
        6
176
     1
 90
        2
176
     1
 62
     7
176
     1
 90
        5
176
     1
 90
        0
176
     1
 90
        0
176
     1
290
     0
176
     1
 90
        1
176
     1
 40
0.0
176
     1
 90
        0
176
     1
290
     0
176
     1
290
     1
176
     1
290
     1
176
     1
290
     0
176
     1
290
     0
176
     1
290
     0
176
     1
290
     0
176
     1
290
     0
176
     1
290
     0
176
     1
 90
       50
176
     1
 40
0.0
176
     1
 40
1.0
176
     1
 90
        0
176
     1
 62
    18
420
        0
176
     1
 90
       50
176
     1
 90
        3
176
     1
 62
     5
420
      255
176
     1
290
     0
176
     1
 90
       50
176
     1
 90
       50
176
     1
 90
       50
176
     1
290
     0
176
     1
 90
       50
176
     1
 62
   256
176
     0
 40
1.0
176
     0
 90
        2
176
     1
  1
strokes_ogs.tif
176
     1
290
     0
176
     1
 40
1.0
176
     1
 40
1.0
176
     1
  0
VISUALSTYLE
  5
1000004
102
{ACAD_REACTORS
330
1000003
102
}
330
1000003
100
AcDbVisualStyle
  2
Flat
 70
     0
177
     3
291
     1
 70
    58
 90
        2
176
     1
 90
        1
176
     1
 90
        1
176
     1
 90
        2
176
     1
 40
0.6
176
     1
 40
30.0
176
     1
 62
     7
420
 16777215
176
     1
 90
        0
176
     1
 90
        0
176
     1
 62
     7
176
     1
 62
   257
176
     1
 90
        1
176
     1
 90
        1
176
     1
 40
1.0
176
     1
 90
        8
176
     1
 62
     7
176
     1
 40
1.0
176
     1
 90
        1
176
     1
 90
        6
176
     1
 90
        2
176
     1
 62
     7
176
     1
 90
        5
176
     1
 90
        0
176
     1
 90
        0
176
     1
290
     0
176
     1
 90
       13
176
     1
 40
0.0
176
     1
 90
        0
176
     1
290
     0
176
     1
290
     1
176
     1
290
     1
176
     1
290
     0
176
     1
290
     0
176
     1
290
     0
176
     1
290
     0
176
     1
290
     0
176
     1
290
     0
176
     1
 90
       50
176
     1
 40
0.0
176
     1
 40
1.0
176
     1
 90
        0
176
     1
 62
    18
420
        0
176
     1
 90
       50
176
     1
 90
        3
176
     1
 62
     5
420
      255
176
     1
290
     0
176
     1
 90
       50
176
     1
 90
       50
176
     1
 90
       50
176
     1
290
     0
176
     1
 90
       50
176
     1
 62
   256
176
     0
 40
1.0
176
     0
 90
        2
176
     1
  1
strokes_ogs.tif
176
     1
290
     0
176
     1
 40
1.0
176
     1
 40
1.0
176
     1
  0
VISUALSTYLE
  5
1000005
102
{ACAD_REACTORS
330
1000003
102
}
330
1000003
100
AcDbVisualStyle
  2
FlatWithEdges
 70
     1
177
     3
291
     1
 70
    58
 90
        2
176
     1
 90
        1
176
     1
 90
        1
176
     1
 90
        2
176
     1
 40
0.6
176
     1
 40
30.0
176
     1
 62
     7
420
 16777215
176
     1
 90
        1
176
     1
 90
        0
176
     1
 62
     7
176
     1
 62
   257
176
     1
 90
        1
176
     1
 90
        1
176
     1
 40
1.0
176
     1
 90
        0
176
     1
 62
   257
176
     1
 40
1.0
176
     1
 90
        1
176
     1
 90
        6
176
     1
 90
        2
176
     1
 62
     7
176
     1
 90
        5
176
     1
 90
        0
176
     1
 90
        0
176
     1
290
     0
176
     1
 90
       13
176
     1
 40
0.0
176
     1
 90
        0
176
     1
290
     0
176
     1
290
     1
176
     1
290
     1
176
     1
290
     0
176
     1
290
     0
176
     1
290
     0
176
     1
290
     0
176
     1
290
     0
176
     1
290
     0
176
     1
 90
       50
176
     1
 40
0.0
176
     1
 40
1.0
176
     1
 90
        0
176
     1
 62
    18
420
        0
176
     1
 90
       50
176
     1
 90
        3
176
     1
 62
     5
420
      255
176
     1
290
     0
176
     1
 90
       50
176
     1
 90
       50
176
     1
 90
       50
176
     1
290
     0
176
     1
 90
       50
176
     1
 62
   256
176
     0
 40
1.0
176
     0
 90
        2
176
     1
  1
strokes_ogs.tif
176
     1
290
     0
176
     1
 40
1.0
176
     1
 40
1.0
176
     1
  0
VISUALSTYLE
  5
1000006
102
{ACAD_REACTORS
330
1000003
102
}
330
1000003
100
AcDbVisualStyle
  2
Gouraud
 70
     2
177
     3
291
     1
 70
    58
 90
        2
176
     1
 90
        2
176
     1
 90
        1
176
     1
 90
        2
176
     1
 40
0.6
176
     1
 40
30.0
176
     1
 62
     7
420
 16777215
176
     1
 90
        0
176
     1
 90
        0
176
     1
 62
     7
176
     1
 62
   257
176
     1
 90
        1
176
     1
 90
        1
176
     1
 40
1.0
176
     1
 90
        0
176
     1
 62
     7
176
     1
 40
1.0
176
     1
 90
        1
176
     1
 90
        6
176
     1
 90
        2
176
     1
 62
     7
176
     1
 90
        5
176
     1
 90
        0
176
     1
 90
        0
176
     1
290
     0
176
     1
 90
       13
176
     1
 40
0.0
176
     1
 90
        0
176
     1
290
     0
176
     1
290
     1
176
     1
290
     1
176
     1
290
     0
176
     1
290
     0
176
     1
290
     0
176
     1
290
     0
176
     1
290
     0
176
     1
290
     0
176
     1
 90
       50
176
     1
 40
0.0
176
     1
 40
1.0
176
     1
 90
        0
176
     1
 62
    18
420
        0
176
     1
 90
       50
176
     1
 90
        3
176
     1
 62
     5
420
      255
176
     1
290
     0
176
     1
 90
       50
176
     1
 90
       50
176
     1
 90
       50
176
     1
290
     0
176
     1
 90
       50
176
     1
 62
   256
176
     0
 40
1.0
176
     0
 90
        2
176
     1
  1
strokes_ogs.tif
176
     1
290
     0
176
     1
 40
1.0
176
     1
 40
1.0
176
     1
  0
VISUALSTYLE
  5
1000007
102
{ACAD_REACTORS
330
1000003
102
}
330
1000003
100
AcDbVisualStyle
  2
GouraudWithEdges
 70
     3
177
     3
291
     1
 70
    58
 90
        2
176
     1
 90
        2
176
     1
 90
        1
176
     1
 90
        2
176
     1
 40
0.6
176
     1
 40
30.0
176
     1
 62
     7
420
 16777215
176
     1
 90
        1
176
     1
 90
        0
176
     1
 62
     7
176
     1
 62
   257
176
     1
 90
        1
176
     1
 90
        1
176
     1
 40
1.0
176
     1
 90
        0
176
     1
 62
   257
176
     1
 40
1.0
176
     1
 90
        1
176
     1
 90
        6
176
     1
 90
        2
176
     1
 62
     7
176
     1
 90
        5
176
     1
 90
        0
176
     1
 90
        0
176
     1
290
     0
176
     1
 90
       13
176
     1
 40
0.0
176
     1
 90
        0
176
     1
290
     0
176
     1
290
     1
176
     1
290
     1
176
     1
290
     0
176
     1
290
     0
176
     1
290
     0
176
     1
290
     0
176
     1
290
     0
176
     1
290
     0
176
     1
 90
       50
176
     1
 40
0.0
176
     1
 40
1.0
176
     1
 90
        0
176
     1
 62
    18
420
        0
176
     1
 90
       50
176
     1
 90
        3
176
     1
 62
     5
420
      255
176
     1
290
     0
176
     1
 90
       50
176
     1
 90
       50
176
     1
 90
       50
176
     1
290
     0
176
     1
 90
       50
176
     1
 62
   256
176
     0
 40
1.0
176
     0
 90
        2
176
     1
  1
strokes_ogs.tif
176
     1
290
     0
176
     1
 40
1.0
176
     1
 40
1.0
176
     1
  0
VISUALSTYLE
  5
100000A
102
{ACAD_REACTORS
330
1000003
102
}
330
1000003
100
AcDbVisualStyle
  2
Hidden
 70
     6
177
     3
291
     0
 70
    58
 90
        1
176
     1
 90
        2
176
     1
 90
        2
176
     1
 90
        0
176
     1
 40
0.6
176
     1
 40
30.0
176
     1
 62
     7
420
 16777215
176
     1
 90
        2
176
     1
 90
        2
176
     1
 62
     7
176
     1
 62
   257
176
     1
 90
        2
176
     1
 90
        1
176
     1
 40
40.0
176
     1
 90
        0
176
     1
 62
   257
176
     1
 40
1.0
176
     1
 90
        1
176
     1
 90
        6
176
     1
 90
        2
176
     1
 62
     7
176
     1
 90
        3
176
     1
 90
        0
176
     1
 90
        0
176
     1
290
     0
176
     1
 90
        1
176
     1
 40
0.0
176
     1
 90
        0
176
     1
290
     0
176
     1
290
     1
176
     1
290
     1
176
     1
290
     0
176
     1
290
     0
176
     1
290
     0
176
     1
290
     0
176
     1
290
     0
176
     1
290
     0
176
     1
 90
       50
176
     1
 40
0.0
176
     1
 40
1.0
176
     1
 90
        0
176
     1
 62
    18
420
        0
176
     1
 90
       50
176
     1
 90
        3
176
     1
 62
     5
420
      255
176
     1
290
     0
176
     1
 90
       50
176
     1
 90
       50
176
     1
 90
       50
176
     1
290
     0
176
     1
 90
       50
176
     1
 62
   256
176
     0
 40
1.0
176
     0
 90
        2
176
     1
  1
strokes_ogs.tif
176
     1
290
     0
176
     1
 40
1.0
176
     1
 40
1.0
176
     1
  0
VISUALSTYLE
  5
1000014
102
{ACAD_REACTORS
330
1000003
102
}
330
1000003
100
AcDbVisualStyle
  2
JitterOff
 70
    20
177
     3
291
     1
 70
    58
 90
        2
176
     0
 90
        2
176
     0
 90
        0
176
     0
 90
        0
176
     0
 40
0.6
176
     0
 40
30.0
176
     0
 62
     7
420
 16777215
176
     0
 90
        1
176
     0
 90
        4
176
     0
 62
     7
176
     0
 62
   257
176
     0
 90
        1
176
     0
 90
        1
176
     0
 40
1.0
176
     0
 90
       10
176
     2
 62
     7
176
     0
 40
1.0
176
     0
 90
        1
176
     0
 90
        6
176
     0
 90
        2
176
     0
 62
     7
176
     0
 90
        5
176
     0
 90
        0
176
     0
 90
        0
176
     0
290
     0
176
     0
 90
        1
176
     0
 40
0.0
176
     0
 90
        0
176
     0
290
     0
176
     0
290
     1
176
     0
290
     1
176
     0
290
     0
176
     0
290
     0
176
     0
290
     0
176
     0
290
     0
176
     0
290
     0
176
     0
290
     0
176
     0
 90
       50
176
     0
 40
0.0
176
     0
 40
1.0
176
     0
 90
        0
176
     0
 62
    18
420
        0
176
     0
 90
       50
176
     0
 90
        3
176
     0
 62
     5
420
      255
176
     0
290
     0
176
     0
 90
       50
176
     0
 90
       50
176
     0
 90
       50
176
     0
290
     0
176
     0
 90
       50
176
     0
 62
   256
176
     0
 40
1.0
176
     0
 90
        2
176
     0
  1
strokes_ogs.tif
176
     0
290
     0
176
     0
 40
1.0
176
     0
 40
1.0
176
     0
  0
VISUALSTYLE
  5
1000011
102
{ACAD_REACTORS
330
1000003
102
}
330
1000003
100
AcDbVisualStyle
  2
Linepattern
 70
    14
177
     3
291
     1
 70
    58
 90
        2
176
     1
 90
        2
176
     1
 90
        0
176
     1
 90
        0
176
     1
 40
0.6
176
     1
 40
30.0
176
     1
 62
     7
420
 16777215
176
     1
 90
        1
176
     1
 90
        4
176
     1
 62
     7
176
     1
 62
   257
176
     1
 90
        7
176
     1
 90
        7
176
     1
 40
1.0
176
     1
 90
        8
176
     1
 62
     7
176
     1
 40
1.0
176
     1
 90
        1
176
     1
 90
        6
176
     1
 90
        2
176
     1
 62
     7
176
     1
 90
        5
176
     1
 90
        0
176
     1
 90
        0
176
     1
290
     0
176
     1
 90
        1
176
     1
 40
0.0
176
     1
 90
        0
176
     1
290
     0
176
     1
290
     1
176
     1
290
     1
176
     1
290
     0
176
     1
290
     0
176
     1
290
     0
176
     1
290
     0
176
     1
290
     0
176
     1
290
     0
176
     1
 90
       50
176
     1
 40
0.0
176
     1
 40
1.0
176
     1
 90
        0
176
     1
 62
    18
420
        0
176
     1
 90
       50
176
     1
 90
        3
176
     1
 62
     5
420
      255
176
     1
290
     0
176
     1
 90
       50
176
     1
 90
       50
176
     1
 90
       50
176
     1
290
     0
176
     1
 90
       50
176
     1
 62
   256
176
     0
 40
1.0
176
     0
 90
        2
176
     1
  1
strokes_ogs.tif
176
     1
290
     0
176
     1
 40
1.0
176
     1
 40
1.0
176
     1
  0
VISUALSTYLE
  5
1000015
102
{ACAD_REACTORS
330
1000003
102
}
330
1000003
100
AcDbVisualStyle
  2
OverhangOff
 70
    21
177
     3
291
     1
 70
    58
 90
        2
176
     0
 90
        2
176
     0
 90
        0
176
     0
 90
        0
176
     0
 40
0.6
176
     0
 40
30.0
176
     0
 62
     7
420
 16777215
176
     0
 90
        1
176
     0
 90
        4
176
     0
 62
     7
176
     0
 62
   257
176
     0
 90
        1
176
     0
 90
        1
176
     0
 40
1.0
176
     0
 90
        9
176
     2
 62
     7
176
     0
 40
1.0
176
     0
 90
        1
176
     0
 90
        6
176
     0
 90
        2
176
     0
 62
     7
176
     0
 90
        5
176
     0
 90
        0
176
     0
 90
        0
176
     0
290
     0
176
     0
 90
        1
176
     0
 40
0.0
176
     0
 90
        0
176
     0
290
     0
176
     0
290
     1
176
     0
290
     1
176
     0
290
     0
176
     0
290
     0
176
     0
290
     0
176
     0
290
     0
176
     0
290
     0
176
     0
290
     0
176
     0
 90
       50
176
     0
 40
0.0
176
     0
 40
1.0
176
     0
 90
        0
176
     0
 62
    18
420
        0
176
     0
 90
       50
176
     0
 90
        3
176
     0
 62
     5
420
      255
176
     0
290
     0
176
     0
 90
       50
176
     0
 90
       50
176
     0
 90
       50
176
     0
290
     0
176
     0
 90
       50
176
     0
 62
   256
176
     0
 40
1.0
176
     0
 90
        2
176
     0
  1
strokes_ogs.tif
176
     0
290
     0
176
     0
 40
1.0
176
     0
 40
1.0
176
     0
  0
VISUALSTYLE
  5
100000C
102
{ACAD_REACTORS
330
1000003
102
}
330
1000003
100
AcDbVisualStyle
  2
Realistic
 70
     8
177
     3
291
     0
 70
    58
 90
        2
176
     1
 90
        3
176
     1
 90
        0
176
     1
 90
        2
176
     1
 40
0.6
176
     1
 40
30.0
176
     1
 62
     7
420
 16777215
176
     1
 90
        0
176
     1
 90
        0
176
     1
 62
     7
176
     1
 62
   257
176
     1
 90
        1
176
     1
 90
        1
176
     1
 40
1.0
176
     1
 90
        8
176
     1
 62
   257
176
     1
 40
1.0
176
     1
 90
        1
176
     1
 90
        6
176
     1
 90
        2
176
     1
 62
     7
176
     1
 90
        3
176
     1
 90
        0
176
     1
 90
        0
176
     1
290
     0
176
     1
 90
       13
176
     1
 40
0.0
176
     1
 90
        0
176
     1
290
     0
176
     1
290
     1
176
     1
290
     1
176
     1
290
     0
176
     1
290
     0
176
     1
290
     0
176
     1
290
     0
176
     1
290
     0
176
     1
290
     0
176
     1
 90
       50
176
     1
 40
0.0
176
     1
 40
1.0
176
     1
 90
        0
176
     1
 62
    18
420
        0
176
     1
 90
       50
176
     1
 90
        3
176
     1
 62
     5
420
      255
176
     1
290
     0
176
     1
 90
       50
176
     1
 90
       50
176
     1
 90
       50
176
     1
290
     0
176
     1
 90
       50
176
     1
 62
   256
176
     0
 40
1.0
176
     0
 90
        2
176
     1
  1
strokes_ogs.tif
176
     1
290
     0
176
     1
 40
1.0
176
     1
 40
1.0
176
     1
  0
VISUALSTYLE
  5
100001B
102
{ACAD_REACTORS
330
1000003
102
}
330
1000003
100
AcDbVisualStyle
  2
Shaded
 70
    27
177
     3
291
     0
 70
    58
 90
        2
176
     1
 90
        2
176
     1
 90
        1
176
     1
 90
        2
176
     1
 40
0.6
176
     1
 40
30.0
176
     1
 62
     7
420
 16777215
176
     1
 90
        0
176
     1
 90
        4
176
     1
 62
     7
176
     1
 62
   257
176
     1
 90
        1
176
     1
 90
        1
176
     1
 40
1.0
176
     1
 90
        8
176
     1
 62
   257
176
     1
 40
1.0
176
     1
 90
        1
176
     1
 90
        6
176
     1
 90
        2
176
     1
 62
     8
420
  7895160
176
     1
 90
        3
176
     1
 90
        0
176
     1
 90
        0
176
     1
290
     0
176
     1
 90
        5
176
     1
 40
0.0
176
     1
 90
        0
176
     1
290
     0
176
     1
290
     1
176
     1
290
     1
176
     1
290
     0
176
     1
290
     0
176
     1
290
     0
176
     1
290
     0
176
     1
290
     0
176
     1
290
     0
176
     1
 90
       50
176
     1
 40
0.0
176
     1
 40
1.0
176
     1
 90
        0
176
     1
 62
    18
420
        0
176
     1
 90
       50
176
     1
 90
        3
176
     1
 62
     5
420
      255
176
     1
290
     0
176
     1
 90
       50
176
     1
 90
       50
176
     1
 90
       50
176
     1
290
     0
176
     1
 90
       50
176
     1
 62
   256
176
     0
 40
1.0
176
     0
 90
        2
176
     1
  1
strokes_ogs.tif
176
     1
290
     0
176
     1
 40
1.0
176
     1
 40
1.0
176
     1
  0
VISUALSTYLE
  5
100001A
102
{ACAD_REACTORS
330
1000003
102
}
330
1000003
100
AcDbVisualStyle
  2
Shaded with edges
 70
    26
177
     3
291
     0
 70
    58
 90
        2
176
     1
 90
        2
176
     1
 90
        1
176
     1
 90
        2
176
     1
 40
0.6
176
     1
 40
30.0
176
     1
 62
     7
420
 16777215
176
     1
 90
        1
176
     1
 90
       10
176
     1
 62
     7
176
     1
 62
   257
176
     1
 90
        2
176
     1
 90
        1
176
     1
 40
1.0
176
     1
 90
        8
176
     1
 62
   257
176
     1
 40
1.0
176
     1
 90
        1
176
     1
 90
        6
176
     1
 90
        2
176
     1
 62
     7
176
     1
 90
        3
176
     1
 90
        0
176
     1
 90
        0
176
     1
290
     0
176
     1
 90
        5
176
     1
 40
0.0
176
     1
 90
        0
176
     1
290
     0
176
     1
290
     1
176
     1
290
     1
176
     1
290
     0
176
     1
290
     0
176
     1
290
     0
176
     1
290
     0
176
     1
290
     0
176
     1
290
     0
176
     1
 90
       50
176
     1
 40
0.0
176
     1
 40
1.0
176
     1
 90
        0
176
     1
 62
    18
420
        0
176
     1
 90
       50
176
     1
 90
        3
176
     1
 62
     5
420
      255
176
     1
290
     0
176
     1
 90
       50
176
     1
 90
       50
176
     1
 90
       50
176
     1
290
     0
176
     1
 90
       50
176
     1
 62
   256
176
     0
 40
1.0
176
     0
 90
        2
176
     1
  1
strokes_ogs.tif
176
     1
290
     0
176
     1
 40
1.0
176
     1
 40
1.0
176
     1
  0
VISUALSTYLE
  5
1000017
102
{ACAD_REACTORS
330
1000003
102
}
330
1000003
100
AcDbVisualStyle
  2
Shades of Gray
 70
    23
177
     3
291
     0
 70
    58
 90
        2
176
     1
 90
        2
176
     1
 90
        3
176
     1
 90
        0
176
     1
 40
0.6
176
     1
 40
30.0
176
     1
 62
     7
420
 16777215
176
     1
 90
        2
176
     1
 90
        2
176
     1
 62
     7
176
     1
 62
     7
176
     1
 90
        1
176
     1
 90
        1
176
     1
 40
40.0
176
     1
 90
        8
176
     1
 62
     7
176
     1
 40
1.0
176
     1
 90
        1
176
     1
 90
        6
176
     1
 90
        2
176
     1
 62
     7
176
     1
 90
        3
176
     1
 90
        0
176
     1
 90
        0
176
     1
290
     0
176
     1
 90
        1
176
     1
 40
0.0
176
     1
 90
        0
176
     1
290
     0
176
     1
290
     1
176
     1
290
     1
176
     1
290
     0
176
     1
290
     0
176
     1
290
     0
176
     1
290
     0
176
     1
290
     0
176
     1
290
     0
176
     1
 90
       50
176
     1
 40
0.0
176
     1
 40
1.0
176
     1
 90
        0
176
     1
 62
    18
420
        0
176
     1
 90
       50
176
     1
 90
        3
176
     1
 62
     5
420
      255
176
     1
290
     0
176
     1
 90
       50
176
     1
 90
       50
176
     1
 90
       50
176
     1
290
     0
176
     1
 90
       50
176
     1
 62
   256
176
     0
 40
1.0
176
     0
 90
        2
176
     1
  1
strokes_ogs.tif
176
     1
290
     0
176
     1
 40
1.0
176
     1
 40
1.0
176
     1
  0
VISUALSTYLE
  5
1000018
102
{ACAD_REACTORS
330
1000003
102
}
330
1000003
100
AcDbVisualStyle
  2
Sketchy
 70
    24
177
     3
291
     0
 70
    58
 90
        1
176
     1
 90
        2
176
     1
 90
        2
176
     1
 90
        0
176
     1
 40
0.6
176
     1
 40
30.0
176
     1
 62
     7
420
 16777215
176
     1
 90
        2
176
     1
 90
        2
176
     1
 62
     7
176
     1
 62
     7
176
     1
 90
        1
176
     1
 90
        1
176
     1
 40
40.0
176
     1
 90
       11
176
     1
 62
     7
176
     1
 40
1.0
176
     1
 90
        1
176
     1
 90
        6
176
     1
 90
        2
176
     1
 62
     7
176
     1
 90
        6
176
     1
 90
        0
176
     1
 90
        0
176
     1
290
     0
176
     1
 90
        1
176
     1
 40
0.0
176
     1
 90
        0
176
     1
290
     0
176
     1
290
     1
176
     1
290
     1
176
     1
290
     0
176
     1
290
     0
176
     1
290
     0
176
     1
290
     0
176
     1
290
     0
176
     1
290
     0
176
     1
 90
       50
176
     1
 40
0.0
176
     1
 40
1.0
176
     1
 90
        0
176
     1
 62
    18
420
        0
176
     1
 90
       50
176
     1
 90
        3
176
     1
 62
     5
420
      255
176
     1
290
     0
176
     1
 90
       50
176
     1
 90
       50
176
     1
 90
       50
176
     1
290
     0
176
     1
 90
       50
176
     1
 62
   256
176
     0
 40
1.0
176
     0
 90
        2
176
     1
  1
strokes_ogs.tif
176
     1
290
     0
176
     1
 40
1.0
176
     1
 40
1.0
176
     1
  0
VISUALSTYLE
  5
1000010
102
{ACAD_REACTORS
330
1000003
102
}
330
1000003
100
AcDbVisualStyle
  2
Thicken
 70
    13
177
     3
291
     1
 70
    58
 90
        2
176
     1
 90
        2
176
     1
 90
        0
176
     1
 90
        0
176
     1
 40
0.6
176
     1
 40
30.0
176
     1
 62
     7
420
 16777215
176
     1
 90
        1
176
     1
 90
        4
176
     1
 62
     7
176
     1
 62
   257
176
     1
 90
        1
176
     1
 90
        1
176
     1
 40
1.0
176
     1
 90
       12
176
     1
 62
     7
176
     1
 40
1.0
176
     1
 90
        1
176
     1
 90
        6
176
     1
 90
        2
176
     1
 62
     7
176
     1
 90
        5
176
     1
 90
        0
176
     1
 90
        0
176
     1
290
     0
176
     1
 90
        1
176
     1
 40
0.0
176
     1
 90
        0
176
     1
290
     0
176
     1
290
     1
176
     1
290
     1
176
     1
290
     0
176
     1
290
     0
176
     1
290
     0
176
     1
290
     0
176
     1
290
     0
176
     1
290
     0
176
     1
 90
       50
176
     1
 40
0.0
176
     1
 40
1.0
176
     1
 90
        0
176
     1
 62
    18
420
        0
176
     1
 90
       50
176
     1
 90
        3
176
     1
 62
     5
420
      255
176
     1
290
     0
176
     1
 90
       50
176
     1
 90
       50
176
     1
 90
       50
176
     1
290
     0
176
     1
 90
       50
176
     1
 62
   256
176
     0
 40
1.0
176
     0
 90
        2
176
     1
  1
strokes_ogs.tif
176
     1
290
     0
176
     1
 40
1.0
176
     1
 40
1.0
176
     1
  0
VISUALSTYLE
  5
1000009
102
{ACAD_REACTORS
330
1000003
102
}
330
1000003
100
AcDbVisualStyle
  2
Wireframe
 70
     5
177
     3
291
     0
 70
    58
 90
        0
176
     1
 90
        2
176
     1
 90
        0
176
     1
 90
        0
176
     1
 40
0.6
176
     1
 40
30.0
176
     1
 62
     7
420
 16777215
176
     1
 90
        1
176
     1
 90
        4
176
     1
 62
     7
176
     1
 62
   257
176
     1
 90
        1
176
     1
 90
        1
176
     1
 40
1.0
176
     1
 90
        0
176
     1
 62
   257
176
     1
 40
1.0
176
     1
 90
        1
176
     1
 90
        6
176
     1
 90
        2
176
     1
 62
     7
176
     1
 90
        3
176
     1
 90
        0
176
     1
 90
        0
176
     1
290
     0
176
     1
 90
        1
176
     1
 40
0.0
176
     1
 90
        0
176
     1
290
     0
176
     1
290
     1
176
     1
290
     1
176
     1
290
     0
176
     1
290
     0
176
     1
290
     0
176
     1
290
     0
176
     1
290
     0
176
     1
290
     0
176
     1
 90
       50
176
     1
 40
0.0
176
     1
 40
1.0
176
     1
 90
        0
176
     1
 62
    18
420
        0
176
     1
 90
       50
176
     1
 90
        3
176
     1
 62
     5
420
      255
176
     1
290
     0
176
     1
 90
       50
176
     1
 90
       50
176
     1
 90
       50
176
     1
290
     0
176
     1
 90
       50
176
     1
 62
   256
176
     0
 40
1.0
176
     0
 90
        2
176
     1
  1
strokes_ogs.tif
176
     1
290
     0
176
     1
 40
1.0
176
     1
 40
1.0
176
     1
  0
VISUALSTYLE
  5
1000019
102
{ACAD_REACTORS
330
1000003
102
}
330
1000003
100
AcDbVisualStyle
  2
X-Ray
 70
    25
177
     3
291
     0
 70
    58
 90
        2
176
     1
 90
        2
176
     1
 90
        1
176
     1
 90
        1
176
     1
 40
0.5
176
     1
 40
30.0
176
     1
 62
     7
420
 16777215
176
     1
 90
        1
176
     1
 90
        0
176
     1
 62
     7
176
     1
 62
   257
176
     1
 90
        1
176
     1
 90
        1
176
     1
 40
1.0
176
     1
 90
        8
176
     1
 62
     7
176
     1
 40
1.0
176
     1
 90
        1
176
     1
 90
        6
176
     1
 90
        2
176
     1
 62
     7
176
     1
 90
        3
176
     1
 90
        0
176
     1
 90
        0
176
     1
290
     0
176
     1
 90
       13
176
     1
 40
0.0
176
     1
 90
        0
176
     1
290
     0
176
     1
290
     1
176
     1
290
     1
176
     1
290
     0
176
     1
290
     0
176
     1
290
     0
176
     1
290
     0
176
     1
290
     0
176
     1
290
     0
176
     1
 90
       50
176
     1
 40
0.0
176
     1
 40
1.0
176
     1
 90
        0
176
     1
 62
    18
420
        0
176
     1
 90
       50
176
     1
 90
        3
176
     1
 62
     5
420
      255
176
     1
290
     0
176
     1
 90
       50
176
     1
 90
       50
176
     1
 90
       50
176
     1
290
     0
176
     1
 90
       50
176
     1
 62
   256
176
     0
 40
1.0
176
     0
 90
        2
176
     1
  1
strokes_ogs.tif
176
     1
290
     0
176
     1
 40
1.0
176
     1
 40
1.0
176
     1
  0
DICTIONARYVAR
  5
1000044
102
{ACAD_REACTORS
330
1000040
102
}
330
1000040
100
DictionaryVariables
280
     0
  1
1:1
  0
DICTIONARYVAR
  5
1000042
102
{ACAD_REACTORS
330
1000040
102
}
330
1000040
100
DictionaryVariables
280
     0
  1
Standard
  0
DICTIONARYVAR
  5
1000041
102
{ACAD_REACTORS
330
1000040
102
}
330
1000040
100
DictionaryVariables
280
     0
  1
Standard
  0
DICTIONARYVAR
  5
1000043
102
{ACAD_REACTORS
330
1000040
102
}
330
1000040
100
DictionaryVariables
280
     0
  1
0
  0
ENDSEC
  0
SECTION
  2
ACDSDATA
 70
     2
 71
     2
  0
ACDSSCHEMA
 90
        0
  1
AcDb3DSolid_ASM_Data
  2
AcDbDs::ID
280
    10
 91
        0
  2
ASM_Data
280
    15
 91
        0
101
ACDSRECORD
 95
        0
 90
        1
  2
AcDbDs::TreatedAsObjectData
280
     1
291
     1
101
ACDSRECORD
 95
        0
 90
        2
  2
AcDbDs::Legacy
280
     1
291
     1
101
ACDSRECORD
  1
AcDbDs::ID
 90
        3
  2
AcDs:Indexable
280
     1
291
     1
101
ACDSRECORD
  1
AcDbDs::ID
 90
        4
  2
AcDbDs::HandleAttribute
280
     7
282
     1
  0
ACDSSCHEMA
 90
        1
  1
AcDbDs::TreatedAsObjectDataSchema
  2
AcDbDs::TreatedAsObjectData
280
     1
 91
        0
  0
ACDSSCHEMA
 90
        2
  1
AcDbDs::LegacySchema
  2
AcDbDs::Legacy
280
     1
 91
        0
  0
ACDSSCHEMA
 90
        3
  1
AcDbDs::IndexedPropertySchema
  2
AcDs:Indexable
280
     1
 91
        0
  0
ACDSSCHEMA
 90
        4
  1
AcDbDs::HandleAttributeSchema
  2
AcDbDs::HandleAttribute
280
     7
 91
        8
  0
ENDSEC
  0
EOF
