  0
SECTION
  2
HEADER
  9
$ACADVER
  1
AC1018
  9
$HANDSEED
  5
FFFFFF
  9
$EXTMAX
 10
7565550.80900000036
 20
5721234.1799999997
 30
1000000.00
  9
$EXTMIN
 10
7565436.56500000041
 20
5721146.89099999983
 30
0.00
  9
$LIMMIN
 10
7565436.56500000041
 20
5721146.89099999983
  9
$LIMMAX
 10
7565550.80900000036
 20
5721234.1799999997
  9
$DIMASZ
 40
2.5
  9
$DIMGAP
 40
0.625
  9
$INSUNITS
 70
6
  9
$MEASUREMENT
 70
1
  9
$DIMEXO
 40
0.625
  9
$DIMTXT
 40
2.5
  9
$DIMSTYLE
  2
Standard
  9
$PLIMMIN
 10
0.0
 20
0.0
  9
$PLIMMAX
 10
210.0
 20
297.0
  9
$DIMEXE
 40
1.25
  9
$TEXTSIZE
 40
2.5
  9
$TEXTSTYLE
  7
Standard
  9
$LWDISPLAY
290
1
  9
$TDCREATE
 40
45607.956145266
  9
$TDUCREATE
 40
45607.914478600
  9
$TDUPDATE
 40
45607.956145266
  9
$TDUUPDATE
 40
45607.914478600
  9
$TDINDWG
 40
0.0
  9
$TDUSRTIMER
 40
0.0
  9
$USRTIMER
 70
1
  0
ENDSEC
  0
SECTION
  2
TABLES
  0
TABLE
  2
VPORT
  5
1
100
AcDbSymbolTable
 70
1
  0
VPORT
  5
2
100
AcDbSymbolTableRecord
100
AcDbViewportTableRecord
  2
*ACTIVE
 70
0
 10
0.0
 20
0.0
 11
1.0
 21
1.0
 12
7565493.687
 22
5721190.535
 13
0.0
 23
0.0
 14
1.0
 24
1.0
 15
0.0
 25
0.0
 16
0.0
 26
0.0
 36
1.0
 17
0.0
 27
0.0
 37
0.0
 40
87.289
 41
1.309
 42
50.0
 43
0.0
 44
0.0
 50
0.0
 51
0.0
 71
0
 72
100
 73
1
 74
1
 75
0
 76
0
 77
0
 78
0
  0
ENDTAB
  0
TABLE
  2
LTYPE
  5
3
100
AcDbSymbolTable
 70
3
  0
LTYPE
  5
4
100
AcDbSymbolTableRecord
100
AcDbLinetypeTableRecord
  2
ByBlock
 70
0
  3

 72
65
 73
0
 40
0.0
  0
LTYPE
  5
5
100
AcDbSymbolTableRecord
100
AcDbLinetypeTableRecord
  2
ByLayer
 70
0
  3

 72
65
 73
0
 40
0.0
  0
LTYPE
  5
6
100
AcDbSymbolTableRecord
100
AcDbLinetypeTableRecord
  2
CONTINUOUS
 70
0
  3
Solid line
 72
65
 73
0
 40
0.0
  0
LTYPE
  5
8
100
AcDbSymbolTableRecord
100
AcDbLinetypeTableRecord
  2
L_0_02
 70
0
  3
Dzialka_ewidencyjna (MLineStyle)
 72
65
 73
0
 40
0.0
  0
ENDTAB
  0
TABLE
  2
LAYER
  5
9
100
AcDbSymbolTable
 70
30
  0
LAYER
  5
A
100
AcDbSymbolTableRecord
100
AcDbLayerTableRecord
  2
0
 70
0
420
0
  6
CONTINUOUS
370
18
390
B
  0
LAYER
  5
C
100
AcDbSymbolTableRecord
100
AcDbLayerTableRecord
  2
1
 70
0
420
16711680
  6
CONTINUOUS
370
18
390
B
  0
LAYER
  5
D
100
AcDbSymbolTableRecord
100
AcDbLayerTableRecord
  2
10
 70
0
420
16711680
  6
CONTINUOUS
370
18
390
B
  0
LAYER
  5
E
100
AcDbSymbolTableRecord
100
AcDbLayerTableRecord
  2
11
 70
0
420
16711680
  6
CONTINUOUS
370
18
390
B
  0
LAYER
  5
F
100
AcDbSymbolTableRecord
100
AcDbLayerTableRecord
  2
12
 70
0
420
16711680
  6
CONTINUOUS
370
18
390
B
  0
LAYER
  5
10
100
AcDbSymbolTableRecord
100
AcDbLayerTableRecord
  2
2
 70
0
420
16711680
  6
CONTINUOUS
370
18
390
B
  0
LAYER
  5
11
100
AcDbSymbolTableRecord
100
AcDbLayerTableRecord
  2
3
 70
0
420
16711680
  6
CONTINUOUS
370
18
390
B
  0
LAYER
  5
12
100
AcDbSymbolTableRecord
100
AcDbLayerTableRecord
  2
4
 70
0
420
16711680
  6
CONTINUOUS
370
18
390
B
  0
LAYER
  5
13
100
AcDbSymbolTableRecord
100
AcDbLayerTableRecord
  2
5
 70
0
420
16711680
  6
CONTINUOUS
370
18
390
B
  0
LAYER
  5
14
100
AcDbSymbolTableRecord
100
AcDbLayerTableRecord
  2
6
 70
0
420
16711680
  6
CONTINUOUS
370
18
390
B
  0
LAYER
  5
15
100
AcDbSymbolTableRecord
100
AcDbLayerTableRecord
  2
7
 70
0
420
16711680
  6
CONTINUOUS
370
18
390
B
  0
LAYER
  5
16
100
AcDbSymbolTableRecord
100
AcDbLayerTableRecord
  2
8
 70
0
420
16711680
  6
CONTINUOUS
370
18
390
B
  0
LAYER
  5
17
100
AcDbSymbolTableRecord
100
AcDbLayerTableRecord
  2
9
 70
0
420
16711680
  6
CONTINUOUS
370
18
390
B
  0
LAYER
  5
18
100
AcDbSymbolTableRecord
100
AcDbLayerTableRecord
  2
A
 70
0
420
16711680
  6
CONTINUOUS
370
18
390
B
  0
LAYER
  5
19
100
AcDbSymbolTableRecord
100
AcDbLayerTableRecord
  2
B
 70
0
420
16711680
  6
CONTINUOUS
370
18
390
B
  0
LAYER
  5
1A
100
AcDbSymbolTableRecord
100
AcDbLayerTableRecord
  2
C
 70
0
420
16711680
  6
CONTINUOUS
370
18
390
B
  0
LAYER
  5
1B
100
AcDbSymbolTableRecord
100
AcDbLayerTableRecord
  2
D
 70
0
420
16711680
  6
CONTINUOUS
370
18
390
B
  0
LAYER
  5
1C
100
AcDbSymbolTableRecord
100
AcDbLayerTableRecord
  2
Dzialki
 70
0
420
32768
  6
CONTINUOUS
370
35
390
B
  0
LAYER
  5
1D
100
AcDbSymbolTableRecord
100
AcDbLayerTableRecord
  2
E
 70
0
420
16711680
  6
CONTINUOUS
370
18
390
B
  0
LAYER
  5
1E
100
AcDbSymbolTableRecord
100
AcDbLayerTableRecord
  2
F
 70
0
420
16711680
  6
CONTINUOUS
370
18
390
B
  0
LAYER
  5
1F
100
AcDbSymbolTableRecord
100
AcDbLayerTableRecord
  2
G
 70
0
420
16711680
  6
CONTINUOUS
370
18
390
B
  0
LAYER
  5
20
100
AcDbSymbolTableRecord
100
AcDbLayerTableRecord
  2
H
 70
0
420
16711680
  6
CONTINUOUS
370
18
390
B
  0
LAYER
  5
21
100
AcDbSymbolTableRecord
100
AcDbLayerTableRecord
  2
I
 70
0
420
16711680
  6
CONTINUOUS
370
18
390
B
  0
LAYER
  5
22
100
AcDbSymbolTableRecord
100
AcDbLayerTableRecord
  2
J
 70
0
420
16711680
  6
CONTINUOUS
370
18
390
B
  0
LAYER
  5
23
100
AcDbSymbolTableRecord
100
AcDbLayerTableRecord
  2
K
 70
0
420
16711680
  6
CONTINUOUS
370
18
390
B
  0
LAYER
  5
24
100
AcDbSymbolTableRecord
100
AcDbLayerTableRecord
  2
L
 70
0
420
16711680
  6
CONTINUOUS
370
18
390
B
  0
LAYER
  5
25
100
AcDbSymbolTableRecord
100
AcDbLayerTableRecord
  2
Numery_dzialek
 70
0
420
32768
  6
CONTINUOUS
370
18
390
B
  0
LAYER
  5
26
100
AcDbSymbolTableRecord
100
AcDbLayerTableRecord
  2
Obrys_bud
 70
0
420
255
  6
CONTINUOUS
370
25
390
B
  0
LAYER
  5
27
100
AcDbSymbolTableRecord
100
AcDbLayerTableRecord
  2
Osie
 70
0
420
16711680
  6
CONTINUOUS
370
18
390
B
  0
LAYER
  5
28
100
AcDbSymbolTableRecord
100
AcDbLayerTableRecord
  2
PKT_OBRYS
 70
0
420
0
  6
CONTINUOUS
370
35
390
B
  0
ENDTAB
  0
TABLE
  2
STYLE
  5
29
100
AcDbSymbolTable
 70
2
  0
STYLE
  5
2A
100
AcDbSymbolTableRecord
100
AcDbTextStyleTableRecord
  2
STANDARD
 70
0
 40
0.0
 41
1.0
 50
0.0
 71
0
  3
simplex.shx
  4

  0
STYLE
  5
2B
100
AcDbSymbolTableRecord
100
AcDbTextStyleTableRecord
  2
STANDARD_ITALIC
 70
0
 40
0.0
 41
1.0
 50
15.0
 71
0
  3
simplex.shx
  4

  0
ENDTAB
  0
TABLE
  2
VIEW
  5
2C
100
AcDbSymbolTable
 70
0
  0
ENDTAB
  0
TABLE
  2
UCS
  5
2D
100
AcDbSymbolTable
 70
0
  0
ENDTAB
  0
TABLE
  2
APPID
  5
2E
100
AcDbSymbolTable
 70
1
  0
APPID
  5
2F
100
AcDbSymbolTableRecord
100
AcDbRegAppTableRecord
  2
ACAD
 70
0
  0
ENDTAB
  0
TABLE
  2
DIMSTYLE
  5
30
100
AcDbSymbolTable
 70
1
100
AcDbDimStyleTable
  0
DIMSTYLE
105
31
100
AcDbSymbolTableRecord
100
AcDbDimStyleTableRecord
  2
Standard
 70
0
340
2A
  0
ENDTAB
  0
TABLE
  2
BLOCK_RECORD
  5
32
100
AcDbSymbolTable
 70
4
  0
BLOCK_RECORD
  5
33
100
AcDbSymbolTableRecord
100
AcDbBlockTableRecord
  2
*Model_Space
340
34
  0
BLOCK_RECORD
  5
35
100
AcDbSymbolTableRecord
100
AcDbBlockTableRecord
  2
*Paper_Space
340
36
  0
BLOCK_RECORD
  5
37
100
AcDbSymbolTableRecord
100
AcDbBlockTableRecord
  2
L_0_02_1
340
38
  0
BLOCK_RECORD
  5
39
100
AcDbSymbolTableRecord
100
AcDbBlockTableRecord
  2
L_0_02_2
340
3A
  0
ENDTAB
  0
ENDSEC
  0
SECTION
  2
BLOCKS
  0
BLOCK
  5
3B
100
AcDbEntity
  8
0
100
AcDbBlockBegin
  2
*Model_Space
 70
0
 10
0.0
 20
0.0
 30
0.0
  3
*Model_Space
  1

  0
ENDBLK
  5
3C
100
AcDbEntity
  8
0
100
AcDbBlockEnd
  0
BLOCK
  5
3D
100
AcDbEntity
 67
1
  8
0
100
AcDbBlockBegin
  2
*Paper_Space
 70
0
 10
0.0
 20
0.0
 30
0.0
  3
*Paper_Space
  1

  0
ENDBLK
  5
3E
100
AcDbEntity
 67
1
  8
0
100
AcDbBlockEnd
  0
BLOCK
  5
38
100
AcDbEntity
  8
0
100
AcDbBlockBegin
 62
0
370
13
  2
L_0_02_1
 70
0
 10
0
 20
0
 30
0
  3
L_0_02_1
  0
POINT
  5
3F
100
AcDbEntity
  8
0
100
AcDbPoint
 62
0
 10
0.0
 20
0.0
 30
0.00
  0
ENDBLK
  5
40
100
AcDbEntity
  8
0
100
AcDbBlockEnd
  0
BLOCK
  5
3A
100
AcDbEntity
  8
0
100
AcDbBlockBegin
 62
0
370
13
  2
L_0_02_2
 70
0
 10
0
 20
0
 30
0
  3
L_0_02_2
  0
POINT
  5
41
100
AcDbEntity
  8
0
100
AcDbPoint
 62
0
 10
-0.0
 20
-0.0
 30
0.00
  0
ENDBLK
  5
42
100
AcDbEntity
  8
0
100
AcDbBlockEnd
  0
ENDSEC
  0
SECTION
  2
ENTITIES
  0
POLYLINE
  5
43
100
AcDbEntity
  8
10
  6
CONTINUOUS
370
18
100
AcDb2dPolyline
 66
1
 70
128
  0
VERTEX
  5
44
100
AcDbEntity
  8
10
100
AcDbVertex
100
AcDb2dVertex
 10
7565517.13083773572
 20
5721191.83546801005
  0
VERTEX
  5
45
100
AcDbEntity
  8
10
100
AcDbVertex
100
AcDb2dVertex
 10
7565505.85583776236
 20
5721205.23146803305
  0
SEQEND
  5
46
100
AcDbEntity
  8
10
  0
POLYLINE
  5
47
100
AcDbEntity
  8
11
  6
CONTINUOUS
370
18
100
AcDb2dPolyline
 66
1
 70
128
  0
VERTEX
  5
48
100
AcDbEntity
  8
11
100
AcDbVertex
100
AcDb2dVertex
 10
7565518.63807130605
 20
5721193.10435239691
  0
VERTEX
  5
49
100
AcDbEntity
  8
11
100
AcDbVertex
100
AcDb2dVertex
 10
7565507.36264710035
 20
5721206.50006545242
  0
SEQEND
  5
4A
100
AcDbEntity
  8
11
  0
POLYLINE
  5
4B
100
AcDbEntity
  8
12
  6
CONTINUOUS
370
18
100
AcDb2dPolyline
 66
1
 70
128
  0
VERTEX
  5
4C
100
AcDbEntity
  8
12
100
AcDbVertex
100
AcDb2dVertex
 10
7565521.02880308498
 20
5721195.11626521219
  0
VERTEX
  5
4D
100
AcDbEntity
  8
12
100
AcDbVertex
100
AcDb2dVertex
 10
7565509.75380304176
 20
5721208.51226517558
  0
SEQEND
  5
4E
100
AcDbEntity
  8
12
  0
POLYLINE
  5
4F
100
AcDbEntity
  8
2
  6
CONTINUOUS
370
18
100
AcDb2dPolyline
 66
1
 70
128
  0
VERTEX
  5
50
100
AcDbEntity
  8
2
100
AcDbVertex
100
AcDb2dVertex
 10
7565495.58892869391
 20
5721196.58964760322
  0
VERTEX
  5
51
100
AcDbEntity
  8
2
100
AcDbVertex
100
AcDb2dVertex
 10
7565506.8643528996
 20
5721183.19393454678
  0
SEQEND
  5
52
100
AcDbEntity
  8
2
  0
POLYLINE
  5
53
100
AcDbEntity
  8
2
  6
CONTINUOUS
370
18
100
AcDb2dPolyline
 66
1
 70
128
  0
VERTEX
  5
54
100
AcDbEntity
  8
2
100
AcDbVertex
100
AcDb2dVertex
 10
7565509.68980520312
 20
5721185.57319204696
  0
VERTEX
  5
55
100
AcDbEntity
  8
2
100
AcDbVertex
100
AcDb2dVertex
 10
7565498.41480521951
 20
5721198.96919206157
  0
SEQEND
  5
56
100
AcDbEntity
  8
2
  0
POLYLINE
  5
57
100
AcDbEntity
  8
3
  6
CONTINUOUS
370
18
100
AcDb2dPolyline
 66
1
 70
128
  0
VERTEX
  5
58
100
AcDbEntity
  8
3
100
AcDbVertex
100
AcDb2dVertex
 10
7565510.62676125485
 20
5721186.36213109456
  0
VERTEX
  5
59
100
AcDbEntity
  8
3
100
AcDbVertex
100
AcDb2dVertex
 10
7565499.35176126473
 20
5721199.75813110359
  0
SEQEND
  5
5A
100
AcDbEntity
  8
3
  0
POLYLINE
  5
5B
100
AcDbEntity
  8
4
  6
CONTINUOUS
370
18
100
AcDb2dPolyline
 66
1
 70
128
  0
VERTEX
  5
5C
100
AcDbEntity
  8
4
100
AcDbVertex
100
AcDb2dVertex
 10
7565511.14746011514
 20
5721186.80025259778
  0
VERTEX
  5
5D
100
AcDbEntity
  8
4
100
AcDbVertex
100
AcDb2dVertex
 10
7565499.87246012408
 20
5721200.19625260588
  0
SEQEND
  5
5E
100
AcDbEntity
  8
4
  0
POLYLINE
  5
5F
100
AcDbEntity
  8
5
  6
CONTINUOUS
370
18
100
AcDb2dPolyline
 66
1
 70
128
  0
VERTEX
  5
60
100
AcDbEntity
  8
5
100
AcDbVertex
100
AcDb2dVertex
 10
7565511.68336894456
 20
5721187.25097281579
  0
VERTEX
  5
61
100
AcDbEntity
  8
5
100
AcDbVertex
100
AcDb2dVertex
 10
7565500.40836897586
 20
5721200.64697284251
  0
SEQEND
  5
62
100
AcDbEntity
  8
5
  0
POLYLINE
  5
63
100
AcDbEntity
  8
6
  6
CONTINUOUS
370
18
100
AcDb2dPolyline
 66
1
 70
128
  0
VERTEX
  5
64
100
AcDbEntity
  8
6
100
AcDbVertex
100
AcDb2dVertex
 10
7565513.44292891677
 20
5721188.73174780048
  0
VERTEX
  5
65
100
AcDbEntity
  8
6
100
AcDbVertex
100
AcDb2dVertex
 10
7565502.16792892292
 20
5721202.12774780579
  0
SEQEND
  5
66
100
AcDbEntity
  8
6
  0
POLYLINE
  5
67
100
AcDbEntity
  8
7
  6
CONTINUOUS
370
18
100
AcDb2dPolyline
 66
1
 70
128
  0
VERTEX
  5
68
100
AcDbEntity
  8
7
100
AcDbVertex
100
AcDb2dVertex
 10
7565513.72596581094
 20
5721188.96964508202
  0
VERTEX
  5
69
100
AcDbEntity
  8
7
100
AcDbVertex
100
AcDb2dVertex
 10
7565502.45096581988
 20
5721202.36564508919
  0
SEQEND
  5
6A
100
AcDbEntity
  8
7
  0
POLYLINE
  5
6B
100
AcDbEntity
  8
8
  6
CONTINUOUS
370
18
100
AcDb2dPolyline
 66
1
 70
128
  0
VERTEX
  5
6C
100
AcDbEntity
  8
8
100
AcDbVertex
100
AcDb2dVertex
 10
7565514.18541452475
 20
5721189.35611270275
  0
VERTEX
  5
6D
100
AcDbEntity
  8
8
100
AcDbVertex
100
AcDb2dVertex
 10
7565502.91041454673
 20
5721202.75211272109
  0
SEQEND
  5
6E
100
AcDbEntity
  8
8
  0
POLYLINE
  5
6F
100
AcDbEntity
  8
9
  6
CONTINUOUS
370
18
100
AcDb2dPolyline
 66
1
 70
128
  0
VERTEX
  5
70
100
AcDbEntity
  8
9
100
AcDbVertex
100
AcDb2dVertex
 10
7565515.33311608434
 20
5721190.32177656423
  0
VERTEX
  5
71
100
AcDbEntity
  8
9
100
AcDbVertex
100
AcDb2dVertex
 10
7565504.05811611656
 20
5721203.71777659096
  0
SEQEND
  5
72
100
AcDbEntity
  8
9
  0
POLYLINE
  5
73
100
AcDbEntity
  8
A
  6
CONTINUOUS
370
18
100
AcDb2dPolyline
 66
1
 70
128
  0
VERTEX
  5
74
100
AcDbEntity
  8
A
100
AcDbVertex
100
AcDb2dVertex
 10
7565507.36264710035
 20
5721206.50006545242
  0
VERTEX
  5
75
100
AcDbEntity
  8
A
100
AcDbVertex
100
AcDb2dVertex
 10
7565495.58892869391
 20
5721196.58964760322
  0
SEQEND
  5
76
100
AcDbEntity
  8
A
  0
POLYLINE
  5
77
100
AcDbEntity
  8
B
  6
CONTINUOUS
370
18
100
AcDb2dPolyline
 66
1
 70
128
  0
VERTEX
  5
78
100
AcDbEntity
  8
B
100
AcDbVertex
100
AcDb2dVertex
 10
7565509.50085418206
 20
5721203.96003076248
  0
VERTEX
  5
79
100
AcDbEntity
  8
B
100
AcDbVertex
100
AcDb2dVertex
 10
7565497.7268541418
 20
5721194.05003081076
  0
SEQEND
  5
7A
100
AcDbEntity
  8
B
  0
POLYLINE
  5
7B
100
AcDbEntity
  8
C
  6
CONTINUOUS
370
18
100
AcDb2dPolyline
 66
1
 70
128
  0
VERTEX
  5
7C
100
AcDbEntity
  8
C
100
AcDbVertex
100
AcDb2dVertex
 10
7565511.13014792185
 20
5721202.024421026
  0
VERTEX
  5
7D
100
AcDbEntity
  8
C
100
AcDbVertex
100
AcDb2dVertex
 10
7565499.35614789091
 20
5721192.1144210631
  0
SEQEND
  5
7E
100
AcDbEntity
  8
C
  0
POLYLINE
  5
7F
100
AcDbEntity
  8
D
  6
CONTINUOUS
370
18
100
AcDb2dPolyline
 66
1
 70
128
  0
VERTEX
  5
80
100
AcDbEntity
  8
D
100
AcDbVertex
100
AcDb2dVertex
 10
7565501.71652550809
 20
5721189.31089411303
  0
VERTEX
  5
81
100
AcDbEntity
  8
D
100
AcDbVertex
100
AcDb2dVertex
 10
7565513.49052550364
 20
5721199.22089411877
  0
SEQEND
  5
82
100
AcDbEntity
  8
D
  0
POLYLINE
  5
83
100
AcDbEntity
  8
Dzialki
  6
CONTINUOUS
370
35
100
AcDb2dPolyline
 66
1
 70
128
  0
VERTEX
  5
84
100
AcDbEntity
  8
Dzialki
100
AcDbVertex
100
AcDb2dVertex
 10
7565519.48360384628
 20
5721159.23301815987
  0
VERTEX
  5
85
100
AcDbEntity
  8
Dzialki
100
AcDbVertex
100
AcDb2dVertex
 10
7565517.03000000026
 20
5721178.54999999981
  0
SEQEND
  5
86
100
AcDbEntity
  8
Dzialki
  0
POLYLINE
  5
87
100
AcDbEntity
  8
Dzialki
  6
CONTINUOUS
370
35
100
AcDb2dPolyline
 66
1
 70
128
  0
VERTEX
  5
88
100
AcDbEntity
  8
Dzialki
100
AcDbVertex
100
AcDb2dVertex
 10
7565517.03000000026
 20
5721178.54999999981
  0
VERTEX
  5
89
100
AcDbEntity
  8
Dzialki
100
AcDbVertex
100
AcDb2dVertex
 10
7565501.5700000003
 20
5721185.62999999989
  0
SEQEND
  5
8A
100
AcDbEntity
  8
Dzialki
  0
POLYLINE
  5
8B
100
AcDbEntity
  8
Dzialki
  6
CONTINUOUS
370
35
100
AcDb2dPolyline
 66
1
 70
128
  0
VERTEX
  5
8C
100
AcDbEntity
  8
Dzialki
100
AcDbVertex
100
AcDb2dVertex
 10
7565501.5700000003
 20
5721185.62999999989
  0
VERTEX
  5
8D
100
AcDbEntity
  8
Dzialki
100
AcDbVertex
100
AcDb2dVertex
 10
7565486.74000000022
 20
5721170.98000000045
  0
SEQEND
  5
8E
100
AcDbEntity
  8
Dzialki
  0
POLYLINE
  5
8F
100
AcDbEntity
  8
Dzialki
  6
CONTINUOUS
370
35
100
AcDb2dPolyline
 66
1
 70
128
  0
VERTEX
  5
90
100
AcDbEntity
  8
Dzialki
100
AcDbVertex
100
AcDb2dVertex
 10
7565486.74000000022
 20
5721170.98000000045
  0
VERTEX
  5
91
100
AcDbEntity
  8
Dzialki
100
AcDbVertex
100
AcDb2dVertex
 10
7565482.78000000026
 20
5721161.03000000026
  0
SEQEND
  5
92
100
AcDbEntity
  8
Dzialki
  0
POLYLINE
  5
93
100
AcDbEntity
  8
Dzialki
  6
CONTINUOUS
370
35
100
AcDb2dPolyline
 66
1
 70
128
  0
VERTEX
  5
94
100
AcDbEntity
  8
Dzialki
100
AcDbVertex
100
AcDb2dVertex
 10
7565482.78000000026
 20
5721161.03000000026
  0
VERTEX
  5
95
100
AcDbEntity
  8
Dzialki
100
AcDbVertex
100
AcDb2dVertex
 10
7565493.98779545445
 20
5721156.56380144693
  0
SEQEND
  5
96
100
AcDbEntity
  8
Dzialki
  0
POLYLINE
  5
97
100
AcDbEntity
  8
Dzialki
  6
CONTINUOUS
370
35
100
AcDb2dPolyline
 66
1
 70
128
  0
VERTEX
  5
98
100
AcDbEntity
  8
Dzialki
100
AcDbVertex
100
AcDb2dVertex
 10
7565481.74192448985
 20
5721216.66026453115
  0
VERTEX
  5
99
100
AcDbEntity
  8
Dzialki
100
AcDbVertex
100
AcDb2dVertex
 10
7565487.78000000026
 20
5721194.36000000034
  0
SEQEND
  5
9A
100
AcDbEntity
  8
Dzialki
  0
POLYLINE
  5
9B
100
AcDbEntity
  8
Dzialki
  6
CONTINUOUS
370
35
100
AcDb2dPolyline
 66
1
 70
128
  0
VERTEX
  5
9C
100
AcDbEntity
  8
Dzialki
100
AcDbVertex
100
AcDb2dVertex
 10
7565487.78000000026
 20
5721194.36000000034
  0
VERTEX
  5
9D
100
AcDbEntity
  8
Dzialki
100
AcDbVertex
100
AcDb2dVertex
 10
7565514.25
 20
5721216.63999999966
  0
SEQEND
  5
9E
100
AcDbEntity
  8
Dzialki
  0
POLYLINE
  5
9F
100
AcDbEntity
  8
Dzialki
  6
CONTINUOUS
370
35
100
AcDb2dPolyline
 66
1
 70
128
  0
VERTEX
  5
A0
100
AcDbEntity
  8
Dzialki
100
AcDbVertex
100
AcDb2dVertex
 10
7565514.25
 20
5721216.63999999966
  0
VERTEX
  5
A1
100
AcDbEntity
  8
Dzialki
100
AcDbVertex
100
AcDb2dVertex
 10
7565526.45268782694
 20
5721228.20948682725
  0
SEQEND
  5
A2
100
AcDbEntity
  8
Dzialki
  0
POLYLINE
  5
A3
100
AcDbEntity
  8
Dzialki
  6
CONTINUOUS
370
35
100
AcDb2dPolyline
 66
1
 70
128
  0
VERTEX
  5
A4
100
AcDbEntity
  8
Dzialki
100
AcDbVertex
100
AcDb2dVertex
 10
7565514.25
 20
5721216.63999999966
  0
VERTEX
  5
A5
100
AcDbEntity
  8
Dzialki
100
AcDbVertex
100
AcDb2dVertex
 10
7565530.12000000011
 20
5721195.70000000019
  0
SEQEND
  5
A6
100
AcDbEntity
  8
Dzialki
  0
POLYLINE
  5
A7
100
AcDbEntity
  8
Dzialki
  6
CONTINUOUS
370
35
100
AcDb2dPolyline
 66
1
 70
128
  0
VERTEX
  5
A8
100
AcDbEntity
  8
Dzialki
100
AcDbVertex
100
AcDb2dVertex
 10
7565530.12000000011
 20
5721195.70000000019
  0
VERTEX
  5
A9
100
AcDbEntity
  8
Dzialki
100
AcDbVertex
100
AcDb2dVertex
 10
7565536.36000000034
 20
5721188.75999999978
  0
SEQEND
  5
AA
100
AcDbEntity
  8
Dzialki
  0
POLYLINE
  5
AB
100
AcDbEntity
  8
Dzialki
  6
CONTINUOUS
370
35
100
AcDb2dPolyline
 66
1
 70
128
  0
VERTEX
  5
AC
100
AcDbEntity
  8
Dzialki
100
AcDbVertex
100
AcDb2dVertex
 10
7565536.36000000034
 20
5721188.75999999978
  0
VERTEX
  5
AD
100
AcDbEntity
  8
Dzialki
100
AcDbVertex
100
AcDb2dVertex
 10
7565545.70999999996
 20
5721190.25
  0
SEQEND
  5
AE
100
AcDbEntity
  8
Dzialki
  0
POLYLINE
  5
AF
100
AcDbEntity
  8
Dzialki
  6
CONTINUOUS
370
35
100
AcDb2dPolyline
 66
1
 70
128
  0
VERTEX
  5
B0
100
AcDbEntity
  8
Dzialki
100
AcDbVertex
100
AcDb2dVertex
 10
7565545.70999999996
 20
5721190.25
  0
VERTEX
  5
B1
100
AcDbEntity
  8
Dzialki
100
AcDbVertex
100
AcDb2dVertex
 10
7565550.80855596717
 20
5721191.06576895434
  0
SEQEND
  5
B2
100
AcDbEntity
  8
Dzialki
  0
POLYLINE
  5
B3
100
AcDbEntity
  8
Dzialki
  6
CONTINUOUS
370
35
100
AcDb2dPolyline
 66
1
 70
128
  0
VERTEX
  5
B4
100
AcDbEntity
  8
Dzialki
100
AcDbVertex
100
AcDb2dVertex
 10
7565545.93014814984
 20
5721183.90666145366
  0
VERTEX
  5
B5
100
AcDbEntity
  8
Dzialki
100
AcDbVertex
100
AcDb2dVertex
 10
7565545.70999999996
 20
5721190.25
  0
SEQEND
  5
B6
100
AcDbEntity
  8
Dzialki
  0
POLYLINE
  5
B7
100
AcDbEntity
  8
Dzialki
  6
CONTINUOUS
370
35
100
AcDb2dPolyline
 66
1
 70
128
  0
VERTEX
  5
B8
100
AcDbEntity
  8
Dzialki
100
AcDbVertex
100
AcDb2dVertex
 10
7565536.36000000034
 20
5721188.75999999978
  0
VERTEX
  5
B9
100
AcDbEntity
  8
Dzialki
100
AcDbVertex
100
AcDb2dVertex
 10
7565543.67890359648
 20
5721180.60293975472
  0
SEQEND
  5
BA
100
AcDbEntity
  8
Dzialki
  0
POLYLINE
  5
BB
100
AcDbEntity
  8
Dzialki
  6
CONTINUOUS
370
35
100
AcDb2dPolyline
 66
1
 70
128
  0
VERTEX
  5
BC
100
AcDbEntity
  8
Dzialki
100
AcDbVertex
100
AcDb2dVertex
 10
7565530.12000000011
 20
5721195.70000000019
  0
VERTEX
  5
BD
100
AcDbEntity
  8
Dzialki
100
AcDbVertex
100
AcDb2dVertex
 10
7565516.30999999959
 20
5721184.19000000041
  0
SEQEND
  5
BE
100
AcDbEntity
  8
Dzialki
  0
POLYLINE
  5
BF
100
AcDbEntity
  8
Dzialki
  6
CONTINUOUS
370
35
100
AcDb2dPolyline
 66
1
 70
128
  0
VERTEX
  5
C0
100
AcDbEntity
  8
Dzialki
100
AcDbVertex
100
AcDb2dVertex
 10
7565516.30999999959
 20
5721184.19000000041
  0
VERTEX
  5
C1
100
AcDbEntity
  8
Dzialki
100
AcDbVertex
100
AcDb2dVertex
 10
7565517.03000000026
 20
5721178.54999999981
  0
SEQEND
  5
C2
100
AcDbEntity
  8
Dzialki
  0
POLYLINE
  5
C3
100
AcDbEntity
  8
Dzialki
  6
CONTINUOUS
370
35
100
AcDb2dPolyline
 66
1
 70
128
  0
VERTEX
  5
C4
100
AcDbEntity
  8
Dzialki
100
AcDbVertex
100
AcDb2dVertex
 10
7565482.33650647197
 20
5721147.10455701128
  0
VERTEX
  5
C5
100
AcDbEntity
  8
Dzialki
100
AcDbVertex
100
AcDb2dVertex
 10
7565456.12999999989
 20
5721157.62999999989
  0
SEQEND
  5
C6
100
AcDbEntity
  8
Dzialki
  0
POLYLINE
  5
C7
100
AcDbEntity
  8
Dzialki
  6
CONTINUOUS
370
35
100
AcDb2dPolyline
 66
1
 70
128
  0
VERTEX
  5
C8
100
AcDbEntity
  8
Dzialki
100
AcDbVertex
100
AcDb2dVertex
 10
7565456.12999999989
 20
5721157.62999999989
  0
VERTEX
  5
C9
100
AcDbEntity
  8
Dzialki
100
AcDbVertex
100
AcDb2dVertex
 10
7565450.76999999955
 20
5721161.70000000019
  0
SEQEND
  5
CA
100
AcDbEntity
  8
Dzialki
  0
POLYLINE
  5
CB
100
AcDbEntity
  8
Dzialki
  6
CONTINUOUS
370
35
100
AcDb2dPolyline
 66
1
 70
128
  0
VERTEX
  5
CC
100
AcDbEntity
  8
Dzialki
100
AcDbVertex
100
AcDb2dVertex
 10
7565450.76999999955
 20
5721161.70000000019
  0
VERTEX
  5
CD
100
AcDbEntity
  8
Dzialki
100
AcDbVertex
100
AcDb2dVertex
 10
7565445.06911779847
 20
5721156.92825279571
  0
SEQEND
  5
CE
100
AcDbEntity
  8
Dzialki
  0
POLYLINE
  5
CF
100
AcDbEntity
  8
Dzialki
  6
CONTINUOUS
370
35
100
AcDb2dPolyline
 66
1
 70
128
  0
VERTEX
  5
D0
100
AcDbEntity
  8
Dzialki
100
AcDbVertex
100
AcDb2dVertex
 10
7565450.76999999955
 20
5721161.70000000019
  0
VERTEX
  5
D1
100
AcDbEntity
  8
Dzialki
100
AcDbVertex
100
AcDb2dVertex
 10
7565443.87999999989
 20
5721166.94000000041
  0
SEQEND
  5
D2
100
AcDbEntity
  8
Dzialki
  0
POLYLINE
  5
D3
100
AcDbEntity
  8
Dzialki
  6
CONTINUOUS
370
35
100
AcDb2dPolyline
 66
1
 70
128
  0
VERTEX
  5
D4
100
AcDbEntity
  8
Dzialki
100
AcDbVertex
100
AcDb2dVertex
 10
7565443.87999999989
 20
5721166.94000000041
  0
VERTEX
  5
D5
100
AcDbEntity
  8
Dzialki
100
AcDbVertex
100
AcDb2dVertex
 10
7565436.56455452368
 20
5721176.77455452364
  0
SEQEND
  5
D6
100
AcDbEntity
  8
Dzialki
  0
POLYLINE
  5
D7
100
AcDbEntity
  8
Dzialki
  6
CONTINUOUS
370
35
100
AcDb2dPolyline
 66
1
 70
128
  0
VERTEX
  5
D8
100
AcDbEntity
  8
Dzialki
100
AcDbVertex
100
AcDb2dVertex
 10
7565473.87000000011
 20
5721164.5700000003
  0
VERTEX
  5
D9
100
AcDbEntity
  8
Dzialki
100
AcDbVertex
100
AcDb2dVertex
 10
7565463.5700000003
 20
5721168.66999999993
  0
SEQEND
  5
DA
100
AcDbEntity
  8
Dzialki
  0
POLYLINE
  5
DB
100
AcDbEntity
  8
Dzialki
  6
CONTINUOUS
370
35
100
AcDb2dPolyline
 66
1
 70
128
  0
VERTEX
  5
DC
100
AcDbEntity
  8
Dzialki
100
AcDbVertex
100
AcDb2dVertex
 10
7565463.5700000003
 20
5721168.66999999993
  0
VERTEX
  5
DD
100
AcDbEntity
  8
Dzialki
100
AcDbVertex
100
AcDb2dVertex
 10
7565459.44000000041
 20
5721171.66000000015
  0
SEQEND
  5
DE
100
AcDbEntity
  8
Dzialki
  0
POLYLINE
  5
DF
100
AcDbEntity
  8
Dzialki
  6
CONTINUOUS
370
35
100
AcDb2dPolyline
 66
1
 70
128
  0
VERTEX
  5
E0
100
AcDbEntity
  8
Dzialki
100
AcDbVertex
100
AcDb2dVertex
 10
7565459.44000000041
 20
5721171.66000000015
  0
VERTEX
  5
E1
100
AcDbEntity
  8
Dzialki
100
AcDbVertex
100
AcDb2dVertex
 10
7565457.00999999978
 20
5721169.71999999974
  0
SEQEND
  5
E2
100
AcDbEntity
  8
Dzialki
  0
POLYLINE
  5
E3
100
AcDbEntity
  8
Dzialki
  6
CONTINUOUS
370
35
100
AcDb2dPolyline
 66
1
 70
128
  0
VERTEX
  5
E4
100
AcDbEntity
  8
Dzialki
100
AcDbVertex
100
AcDb2dVertex
 10
7565457.00999999978
 20
5721169.71999999974
  0
VERTEX
  5
E5
100
AcDbEntity
  8
Dzialki
100
AcDbVertex
100
AcDb2dVertex
 10
7565462.11000000034
 20
5721166.01999999862
  0
SEQEND
  5
E6
100
AcDbEntity
  8
Dzialki
  0
POLYLINE
  5
E7
100
AcDbEntity
  8
Dzialki
  6
CONTINUOUS
370
35
100
AcDb2dPolyline
 66
1
 70
128
  0
VERTEX
  5
E8
100
AcDbEntity
  8
Dzialki
100
AcDbVertex
100
AcDb2dVertex
 10
7565462.11000000034
 20
5721166.01999999862
  0
VERTEX
  5
E9
100
AcDbEntity
  8
Dzialki
100
AcDbVertex
100
AcDb2dVertex
 10
7565471.46999999974
 20
5721162.29999999981
  0
SEQEND
  5
EA
100
AcDbEntity
  8
Dzialki
  0
POLYLINE
  5
EB
100
AcDbEntity
  8
Dzialki
  6
CONTINUOUS
370
35
100
AcDb2dPolyline
 66
1
 70
128
  0
VERTEX
  5
EC
100
AcDbEntity
  8
Dzialki
100
AcDbVertex
100
AcDb2dVertex
 10
7565471.46999999974
 20
5721162.29999999981
  0
VERTEX
  5
ED
100
AcDbEntity
  8
Dzialki
100
AcDbVertex
100
AcDb2dVertex
 10
7565473.87000000011
 20
5721164.5700000003
  0
SEQEND
  5
EE
100
AcDbEntity
  8
Dzialki
  0
POLYLINE
  5
EF
100
AcDbEntity
  8
Dzialki
  6
CONTINUOUS
370
35
100
AcDb2dPolyline
 66
1
 70
128
  0
VERTEX
  5
F0
100
AcDbEntity
  8
Dzialki
100
AcDbVertex
100
AcDb2dVertex
 10
7565487.78000000026
 20
5721194.36000000034
  0
VERTEX
  5
F1
100
AcDbEntity
  8
Dzialki
100
AcDbVertex
100
AcDb2dVertex
 10
7565459.44000000041
 20
5721171.66000000015
  0
SEQEND
  5
F2
100
AcDbEntity
  8
Dzialki
  0
POLYLINE
  5
F3
100
AcDbEntity
  8
Dzialki
  6
CONTINUOUS
370
35
100
AcDb2dPolyline
 66
1
 70
128
  0
VERTEX
  5
F4
100
AcDbEntity
  8
Dzialki
100
AcDbVertex
100
AcDb2dVertex
 10
7565473.87000000011
 20
5721164.5700000003
  0
VERTEX
  5
F5
100
AcDbEntity
  8
Dzialki
100
AcDbVertex
100
AcDb2dVertex
 10
7565497.90000000037
 20
5721187.30999999959
  0
SEQEND
  5
F6
100
AcDbEntity
  8
Dzialki
  0
POLYLINE
  5
F7
100
AcDbEntity
  8
Dzialki
  6
CONTINUOUS
370
35
100
AcDb2dPolyline
 66
1
 70
128
  0
VERTEX
  5
F8
100
AcDbEntity
  8
Dzialki
100
AcDbVertex
100
AcDb2dVertex
 10
7565497.90000000037
 20
5721187.30999999959
  0
VERTEX
  5
F9
100
AcDbEntity
  8
Dzialki
100
AcDbVertex
100
AcDb2dVertex
 10
7565501.5700000003
 20
5721185.62999999989
  0
SEQEND
  5
FA
100
AcDbEntity
  8
Dzialki
  0
POLYLINE
  5
FB
100
AcDbEntity
  8
Dzialki
  6
CONTINUOUS
370
35
100
AcDb2dPolyline
 66
1
 70
128
  0
VERTEX
  5
FC
100
AcDbEntity
  8
Dzialki
100
AcDbVertex
100
AcDb2dVertex
 10
7565482.78000000026
 20
5721161.03000000026
  0
VERTEX
  5
FD
100
AcDbEntity
  8
Dzialki
100
AcDbVertex
100
AcDb2dVertex
 10
7565473.87000000011
 20
5721164.5700000003
  0
SEQEND
  5
FE
100
AcDbEntity
  8
Dzialki
  0
POLYLINE
  5
FF
100
AcDbEntity
  8
Dzialki
  6
CONTINUOUS
370
35
100
AcDb2dPolyline
 66
1
 70
128
  0
VERTEX
  5
100
100
AcDbEntity
  8
Dzialki
100
AcDbVertex
100
AcDb2dVertex
 10
7565471.46999999974
 20
5721162.29999999981
  0
VERTEX
  5
101
100
AcDbEntity
  8
Dzialki
100
AcDbVertex
100
AcDb2dVertex
 10
7565491.32594849449
 20
5721154.40274775773
  0
SEQEND
  5
102
100
AcDbEntity
  8
Dzialki
  0
POLYLINE
  5
103
100
AcDbEntity
  8
Dzialki
  6
CONTINUOUS
370
35
100
AcDb2dPolyline
 66
1
 70
128
  0
VERTEX
  5
104
100
AcDbEntity
  8
Dzialki
100
AcDbVertex
100
AcDb2dVertex
 10
7565444.01924267784
 20
5721183.54385100957
  0
VERTEX
  5
105
100
AcDbEntity
  8
Dzialki
100
AcDbVertex
100
AcDb2dVertex
 10
7565450.69000000041
 20
5721174.3200000003
  0
SEQEND
  5
106
100
AcDbEntity
  8
Dzialki
  0
POLYLINE
  5
107
100
AcDbEntity
  8
Dzialki
  6
CONTINUOUS
370
35
100
AcDb2dPolyline
 66
1
 70
128
  0
VERTEX
  5
108
100
AcDbEntity
  8
Dzialki
100
AcDbVertex
100
AcDb2dVertex
 10
7565450.69000000041
 20
5721174.3200000003
  0
VERTEX
  5
109
100
AcDbEntity
  8
Dzialki
100
AcDbVertex
100
AcDb2dVertex
 10
7565457.00999999978
 20
5721169.71999999974
  0
SEQEND
  5
10A
100
AcDbEntity
  8
Dzialki
  0
INSERT
  5
10B
100
AcDbEntity
  8
Dzialki
  6
CONTINUOUS
420
536870911
100
AcDbBlockReference
 66
0
  2
L_0_02_1
 10
7565477.1508204313
 20
5721233.61646767985
 41
0.20
 42
0.20
 43
0.20
 50
285.15
  0
INSERT
  5
10C
100
AcDbEntity
  8
Dzialki
  6
CONTINUOUS
420
536870911
100
AcDbBlockReference
 66
0
  2
L_0_02_2
 10
7565481.74192448985
 20
5721216.66026453115
 41
0.20
 42
0.20
 43
0.20
 50
105.15
  0
MLINE
  5
10D
100
AcDbEntity
  8
Dzialki
  6
L_0_02
420
536870911
370
18
100
AcDbMline
  2
L_0_02
340
7
 40
1.0
 70
1
 71
1
 72
2
 73
1
 10
7565477.1508204313
 20
5721233.61646767985
210
0.0
220
0.0
230
1.0
 11
7565477.1508204313
 21
5721233.61646767985
 12
0.261351781595
 22
-0.965243620159
 13
0.965243620159
 23
0.261351781595
 74
3
 41
0.0
 41
0.1
 41
17.466760136588
 75
0
 11
7565481.74192448985
 21
5721216.66026453115
 12
0.261351781595
 22
-0.965243620159
 13
0.965243620159
 23
0.261351781595
 74
0
 75
0
  0
INSERT
  5
10E
100
AcDbEntity
  8
Dzialki
  6
CONTINUOUS
420
536870911
100
AcDbBlockReference
 66
0
  2
L_0_02_1
 10
7565526.45268782694
 20
5721228.20948682725
 41
0.20
 42
0.20
 43
0.20
 50
43.47
  0
INSERT
  5
10F
100
AcDbEntity
  8
Dzialki
  6
CONTINUOUS
420
536870911
100
AcDbBlockReference
 66
0
  2
L_0_02_2
 10
7565527.74000000022
 20
5721229.4299999997
 41
0.20
 42
0.20
 43
0.20
 50
223.47
  0
MLINE
  5
110
100
AcDbEntity
  8
Dzialki
  6
L_0_02
420
536870911
370
18
100
AcDbMline
  2
L_0_02
340
7
 40
1.0
 70
1
 71
1
 72
2
 73
1
 10
7565526.45268782694
 20
5721228.20948682725
210
0.0
220
0.0
230
1.0
 11
7565526.45268782694
 21
5721228.20948682725
 12
0.7256840501
 22
0.688028094943
 13
-0.688028094943
 23
0.7256840501
 74
3
 41
0.0
 41
0.1
 41
1.673929264544
 75
0
 11
7565527.74000000022
 21
5721229.4299999997
 12
0.7256840501
 22
0.688028094943
 13
-0.688028094943
 23
0.7256840501
 74
0
 75
0
  0
INSERT
  5
111
100
AcDbEntity
  8
Dzialki
  6
CONTINUOUS
420
536870911
100
AcDbBlockReference
 66
0
  2
L_0_02_1
 10
7565527.74000000022
 20
5721229.4299999997
 41
0.20
 42
0.20
 43
0.20
 50
44.24
  0
INSERT
  5
112
100
AcDbEntity
  8
Dzialki
  6
CONTINUOUS
420
536870911
100
AcDbBlockReference
 66
0
  2
L_0_02_2
 10
7565532.61716767773
 20
5721234.17993721552
 41
0.20
 42
0.20
 43
0.20
 50
224.24
  0
MLINE
  5
113
100
AcDbEntity
  8
Dzialki
  6
L_0_02
420
536870911
370
18
100
AcDbMline
  2
L_0_02
340
7
 40
1.0
 70
1
 71
1
 72
2
 73
1
 10
7565527.74000000022
 20
5721229.4299999997
210
0.0
220
0.0
230
1.0
 11
7565527.74000000022
 21
5721229.4299999997
 12
0.716389245608
 22
0.697700830426
 13
-0.697700830426
 23
0.716389245608
 74
3
 41
0.0
 41
0.1
 41
6.707985613142
 75
0
 11
7565532.61716767773
 21
5721234.17993721552
 12
0.716389245608
 22
0.697700830426
 13
-0.697700830426
 23
0.716389245608
 74
0
 75
0
  0
POLYLINE
  5
114
100
AcDbEntity
  8
Dzialki
  6
CONTINUOUS
370
35
100
AcDb2dPolyline
 66
1
 70
128
  0
VERTEX
  5
115
100
AcDbEntity
  8
Dzialki
100
AcDbVertex
100
AcDb2dVertex
 10
7565497.90000000037
 20
5721187.30999999959
  0
VERTEX
  5
116
100
AcDbEntity
  8
Dzialki
100
AcDbVertex
100
AcDb2dVertex
 10
7565517.03000000026
 20
5721178.54999999981
  0
SEQEND
  5
117
100
AcDbEntity
  8
Dzialki
  0
POLYLINE
  5
118
100
AcDbEntity
  8
E
  6
CONTINUOUS
370
18
100
AcDb2dPolyline
 66
1
 70
128
  0
VERTEX
  5
119
100
AcDbEntity
  8
E
100
AcDbVertex
100
AcDb2dVertex
 10
7565501.95797345415
 20
5721189.02387997508
  0
VERTEX
  5
11A
100
AcDbEntity
  8
E
100
AcDbVertex
100
AcDb2dVertex
 10
7565513.73197342269
 20
5721198.93388001155
  0
SEQEND
  5
11B
100
AcDbEntity
  8
E
  0
POLYLINE
  5
11C
100
AcDbEntity
  8
F
  6
CONTINUOUS
370
18
100
AcDb2dPolyline
 66
1
 70
128
  0
VERTEX
  5
11D
100
AcDbEntity
  8
F
100
AcDbVertex
100
AcDb2dVertex
 10
7565501.99067108985
 20
5721188.98585333861
  0
VERTEX
  5
11E
100
AcDbEntity
  8
F
100
AcDbVertex
100
AcDb2dVertex
 10
7565513.76467109565
 20
5721198.89585333224
  0
SEQEND
  5
11F
100
AcDbEntity
  8
F
  0
POLYLINE
  5
120
100
AcDbEntity
  8
G
  6
CONTINUOUS
370
18
100
AcDb2dPolyline
 66
1
 70
128
  0
VERTEX
  5
121
100
AcDbEntity
  8
G
100
AcDbVertex
100
AcDb2dVertex
 10
7565503.60001700558
 20
5721187.07326274272
  0
VERTEX
  5
122
100
AcDbEntity
  8
G
100
AcDbVertex
100
AcDb2dVertex
 10
7565515.37401700206
 20
5721196.98326274659
  0
SEQEND
  5
123
100
AcDbEntity
  8
G
  0
POLYLINE
  5
124
100
AcDbEntity
  8
H
  6
CONTINUOUS
370
18
100
AcDb2dPolyline
 66
1
 70
128
  0
VERTEX
  5
125
100
AcDbEntity
  8
H
100
AcDbVertex
100
AcDb2dVertex
 10
7565503.76050850283
 20
5721186.88163137156
  0
VERTEX
  5
126
100
AcDbEntity
  8
H
100
AcDbVertex
100
AcDb2dVertex
 10
7565515.53450850118
 20
5721196.79163137358
  0
SEQEND
  5
127
100
AcDbEntity
  8
H
  0
POLYLINE
  5
128
100
AcDbEntity
  8
I
  6
CONTINUOUS
370
18
100
AcDb2dPolyline
 66
1
 70
128
  0
VERTEX
  5
129
100
AcDbEntity
  8
I
100
AcDbVertex
100
AcDb2dVertex
 10
7565503.84052550793
 20
5721186.78589411359
  0
VERTEX
  5
12A
100
AcDbEntity
  8
I
100
AcDbVertex
100
AcDb2dVertex
 10
7565515.61452550255
 20
5721196.69589411933
  0
SEQEND
  5
12B
100
AcDbEntity
  8
I
  0
POLYLINE
  5
12C
100
AcDbEntity
  8
J
  6
CONTINUOUS
370
18
100
AcDb2dPolyline
 66
1
 70
128
  0
VERTEX
  5
12D
100
AcDbEntity
  8
J
100
AcDbVertex
100
AcDb2dVertex
 10
7565504.08221383765
 20
5721186.49902021047
  0
VERTEX
  5
12E
100
AcDbEntity
  8
J
100
AcDbVertex
100
AcDb2dVertex
 10
7565515.85621378478
 20
5721196.40902027301
  0
SEQEND
  5
12F
100
AcDbEntity
  8
J
  0
POLYLINE
  5
130
100
AcDbEntity
  8
K
  6
CONTINUOUS
370
18
100
AcDb2dPolyline
 66
1
 70
128
  0
VERTEX
  5
131
100
AcDbEntity
  8
K
100
AcDbVertex
100
AcDb2dVertex
 10
7565506.24904495757
 20
5721183.92462368123
  0
VERTEX
  5
132
100
AcDbEntity
  8
K
100
AcDbVertex
100
AcDb2dVertex
 10
7565518.02304494567
 20
5721193.83462369442
  0
SEQEND
  5
133
100
AcDbEntity
  8
K
  0
POLYLINE
  5
134
100
AcDbEntity
  8
L
  6
CONTINUOUS
370
18
100
AcDb2dPolyline
 66
1
 70
128
  0
VERTEX
  5
135
100
AcDbEntity
  8
L
100
AcDbVertex
100
AcDb2dVertex
 10
7565506.8643528996
 20
5721183.19393454678
  0
VERTEX
  5
136
100
AcDbEntity
  8
L
100
AcDbVertex
100
AcDb2dVertex
 10
7565518.63807130605
 20
5721193.10435239691
  0
SEQEND
  5
137
100
AcDbEntity
  8
L
  0
POLYLINE
  5
138
100
AcDbEntity
  8
Obrys_bud
  6
CONTINUOUS
370
25
100
AcDb2dPolyline
 66
1
 70
129
  0
VERTEX
  5
139
100
AcDbEntity
  8
Obrys_bud
100
AcDbVertex
100
AcDb2dVertex
 10
7565503.080499148
 20
5721194.82428071089
  0
VERTEX
  5
13A
100
AcDbEntity
  8
Obrys_bud
100
AcDbVertex
100
AcDb2dVertex
 10
7565499.31653850526
 20
5721191.65602820739
  0
VERTEX
  5
13B
100
AcDbEntity
  8
Obrys_bud
100
AcDbVertex
100
AcDb2dVertex
 10
7565495.13083906006
 20
5721196.62874043919
  0
VERTEX
  5
13C
100
AcDbEntity
  8
Obrys_bud
100
AcDbVertex
100
AcDb2dVertex
 10
7565505.8948484594
 20
5721205.68916985393
  0
VERTEX
  5
13D
100
AcDbEntity
  8
Obrys_bud
100
AcDbVertex
100
AcDb2dVertex
 10
7565508.03277494572
 20
5721203.14926145226
  0
VERTEX
  5
13E
100
AcDbEntity
  8
Obrys_bud
100
AcDbVertex
100
AcDb2dVertex
 10
7565509.53988926765
 20
5721204.41785036121
  0
VERTEX
  5
13F
100
AcDbEntity
  8
Obrys_bud
100
AcDbVertex
100
AcDb2dVertex
 10
7565519.09616307914
 20
5721193.06476582028
  0
VERTEX
  5
140
100
AcDbEntity
  8
Obrys_bud
100
AcDbVertex
100
AcDb2dVertex
 10
7565510.58879530523
 20
5721185.90427878313
  0
SEQEND
  5
141
100
AcDbEntity
  8
Obrys_bud
  0
POINT
  5
142
100
AcDbEntity
  8
Dzialki
100
AcDbPoint
 62
256
 10
7565517.03000000026
 20
5721178.54999999981
  0
POINT
  5
143
100
AcDbEntity
  8
Dzialki
100
AcDbPoint
 62
256
 10
7565501.5700000003
 20
5721185.62999999989
  0
POINT
  5
144
100
AcDbEntity
  8
Dzialki
100
AcDbPoint
 62
256
 10
7565497.90000000037
 20
5721187.30999999959
  0
POINT
  5
145
100
AcDbEntity
  8
PKT_OBRYS
100
AcDbPoint
 62
256
 10
7565510.58879530523
 20
5721185.90427878313
  0
POINT
  5
146
100
AcDbEntity
  8
PKT_OBRYS
100
AcDbPoint
 62
256
 10
7565527.87000000011
 20
5721200.45000000019
  0
POINT
  5
147
100
AcDbEntity
  8
PKT_OBRYS
100
AcDbPoint
 62
256
 10
7565519.09616307914
 20
5721193.06476582028
  0
POINT
  5
148
100
AcDbEntity
  8
PKT_OBRYS
100
AcDbPoint
 62
256
 10
7565509.53988926765
 20
5721204.41785036121
  0
POINT
  5
149
100
AcDbEntity
  8
PKT_OBRYS
100
AcDbPoint
 62
256
 10
7565508.03277494572
 20
5721203.14926145226
  0
POINT
  5
14A
100
AcDbEntity
  8
PKT_OBRYS
100
AcDbPoint
 62
256
 10
7565505.8948484594
 20
5721205.68916985393
  0
POINT
  5
14B
100
AcDbEntity
  8
PKT_OBRYS
100
AcDbPoint
 62
256
 10
7565495.13083906006
 20
5721196.62874043919
  0
POINT
  5
14C
100
AcDbEntity
  8
PKT_OBRYS
100
AcDbPoint
 62
256
 10
7565499.31653850526
 20
5721191.65602820739
  0
POINT
  5
14D
100
AcDbEntity
  8
PKT_OBRYS
100
AcDbPoint
 62
256
 10
7565503.080499148
 20
5721194.82428071089
  0
POINT
  5
14E
100
AcDbEntity
  8
PKT_OBRYS
100
AcDbPoint
 62
256
 10
7565506.82503935695
 20
5721182.7357474966
  0
POINT
  5
14F
100
AcDbEntity
  8
PKT_OBRYS
100
AcDbPoint
 62
256
 10
7565507.40196278132
 20
5721206.95775876287
  0
TEXT
  5
150
100
AcDbEntity
  8
Numery_dzialek
370
20
100
AcDbText
 39
0.20
 10
7565499.06999999657
 20
5721164.63999999687
 40
0.40
  1
1-835/2
 50
0.00
 41
0.66
  7
STANDARD
 72
0
 11
7565499.06999999657
 21
5721165.03999999724
100
AcDbText
 73
3
  0
TEXT
  5
151
100
AcDbEntity
  8
Numery_dzialek
370
20
100
AcDbText
 39
0.20
 10
7565539.65000000037
 20
5721188.14999999944
 40
0.40
  1
1-837/23
 50
0.00
 41
0.66
  7
STANDARD
 72
0
 11
7565539.65000000037
 21
5721188.54999999981
100
AcDbText
 73
3
  0
TEXT
  5
152
100
AcDbEntity
  8
Numery_dzialek
370
20
100
AcDbText
 39
0.20
 10
7565528.95999999996
 20
5721176.9299999997
 40
0.40
  1
1-836/2
 50
0.00
 41
0.66
  7
STANDARD
 72
0
 11
7565528.95999999996
 21
5721177.33000000007
100
AcDbText
 73
3
  0
TEXT
  5
153
100
AcDbEntity
  8
Numery_dzialek
370
20
100
AcDbText
 39
0.20
 10
7565460.52999999654
 20
5721167.71999999694
 40
0.40
  1
1-835/3
 50
0.00
 41
0.66
  7
STANDARD
 72
0
 11
7565460.52999999654
 21
5721168.11999999732
100
AcDbText
 73
3
  0
TEXT
  5
154
100
AcDbEntity
  8
Numery_dzialek
370
20
100
AcDbText
 39
0.20
 10
7565504.58999999613
 20
5721197.24999999721
 40
0.40
  1
1-835/4
 50
0.00
 41
0.66
  7
STANDARD
 72
0
 11
7565504.58999999613
 21
5721197.64999999758
100
AcDbText
 73
3
  0
TEXT
  5
155
100
AcDbEntity
  8
Numery_dzialek
370
20
100
AcDbText
 39
0.20
 10
7565480.2399999965
 20
5721159.67999999691
 40
0.40
  1
1-835/5
 50
0.00
 41
0.66
  7
STANDARD
 72
0
 11
7565480.2399999965
 21
5721160.07999999728
100
AcDbText
 73
3
  0
TEXT
  5
156
100
AcDbEntity
  8
Numery_dzialek
370
20
100
AcDbText
 39
0.20
 10
7565479.38999999594
 20
5721167.59999999683
 40
0.40
  1
1-835/6
 50
0.00
 41
0.66
  7
STANDARD
 72
0
 11
7565479.38999999594
 21
5721167.99999999721
100
AcDbText
 73
3
  0
TEXT
  5
157
100
AcDbEntity
  8
Numery_dzialek
370
20
100
AcDbText
 39
0.20
 10
7565500.71830762923
 20
5721219.20995027292
 40
0.40
  1
1-834
 50
0.00
 41
0.66
  7
STANDARD
 72
0
 11
7565500.71830762923
 21
5721219.6099502733
100
AcDbText
 73
3
  0
TEXT
  5
158
100
AcDbEntity
  8
Numery_dzialek
370
20
100
AcDbText
 39
0.20
 10
7565533.24758027308
 20
5721207.87195622083
 40
0.40
  1
1-837/12
 50
0.00
 41
0.66
  7
STANDARD
 72
0
 11
7565533.24758027308
 21
5721208.2719562212
100
AcDbText
 73
3
  0
TEXT
  5
159
100
AcDbEntity
  8
Numery_dzialek
370
20
100
AcDbText
 39
0.20
 10
7565544.29999999609
 20
5721189.64999999665
 40
0.40
  1
1-837/44
 50
0.00
 41
0.66
  7
STANDARD
 72
0
 11
7565544.29999999609
 21
5721190.04999999702
100
AcDbText
 73
3
  0
TEXT
  5
15A
100
AcDbEntity
  8
Numery_dzialek
370
20
100
AcDbText
 39
0.20
 10
7565462.77388177812
 20
5721150.98001375701
 40
0.40
  1
1-1567/5
 50
0.00
 41
0.66
  7
STANDARD
 72
0
 11
7565462.77388177812
 21
5721151.38001375739
100
AcDbText
 73
3
  0
TEXT
  5
15B
100
AcDbEntity
  8
Numery_dzialek
370
20
100
AcDbText
 39
0.20
 10
7565443.5180071881
 20
5721163.18614296801
 40
0.40
  1
1-1448/14
 50
0.00
 41
0.66
  7
STANDARD
 72
0
 11
7565443.5180071881
 21
5721163.58614296839
100
AcDbText
 73
3
  0
TEXT
  5
15C
100
AcDbEntity
  8
Numery_dzialek
370
20
100
AcDbText
 39
0.20
 10
7565463.61999999639
 20
5721186.81999999657
 40
0.40
  1
1-833
 50
0.00
 41
0.66
  7
STANDARD
 72
0
 11
7565463.61999999639
 21
5721187.21999999694
100
AcDbText
 73
3
  0
TEXT
  5
15D
100
AcDbEntity
  8
Numery_dzialek
370
20
100
AcDbText
 39
0.20
 10
7565457.05052100494
 20
5721162.86781276669
 40
0.40
  1
1-1255
 50
0.00
 41
0.66
  7
STANDARD
 72
0
 11
7565457.05052100494
 21
5721163.26781276707
100
AcDbText
 73
3
  0
TEXT
  5
15E
100
AcDbEntity
  8
Osie
370
18
100
AcDbText
 39
0.18
 10
7565506.06462829188
 20
5721207.69811549038
 40
0.36
  1
11
 50
-49.90
 41
0.66
  7
STANDARD
 72
0
 11
7565506.33999999613
 21
5721207.92999999691
100
AcDbText
 73
3
  0
TEXT
  5
15F
100
AcDbEntity
  8
Osie
370
18
100
AcDbText
 39
0.18
 10
7565518.9846282918
 20
5721192.19811549038
 40
0.36
  1
11
 50
-49.90
 41
0.66
  7
STANDARD
 72
0
 11
7565519.25999999605
 21
5721192.42999999691
100
AcDbText
 73
3
  0
TEXT
  5
160
100
AcDbEntity
  8
Osie
370
18
100
AcDbText
 39
0.18
 10
7565508.96462829225
 20
5721209.20811549015
 40
0.36
  1
12
 50
-49.90
 41
0.66
  7
STANDARD
 72
0
 11
7565509.2399999965
 21
5721209.43999999668
100
AcDbText
 73
3
  0
TEXT
  5
161
100
AcDbEntity
  8
Osie
370
18
100
AcDbText
 39
0.18
 10
7565521.22462829202
 20
5721194.69811549038
 40
0.36
  1
12
 50
-49.90
 41
0.66
  7
STANDARD
 72
0
 11
7565521.49999999627
 21
5721194.92999999691
100
AcDbText
 73
3
  0
TEXT
  5
162
100
AcDbEntity
  8
Osie
370
18
100
AcDbText
 39
0.18
 10
7565517.41462829243
 20
5721191.22811549064
 40
0.36
  1
10
 50
-49.90
 41
0.66
  7
STANDARD
 72
0
 11
7565517.68999999668
 21
5721191.45999999717
100
AcDbText
 73
3
  0
TEXT
  5
163
100
AcDbEntity
  8
Osie
370
18
100
AcDbText
 39
0.18
 10
7565504.68462829199
 20
5721206.30811549071
 40
0.36
  1
10
 50
-49.90
 41
0.66
  7
STANDARD
 72
0
 11
7565504.95999999624
 21
5721206.53999999724
100
AcDbText
 73
3
  0
TEXT
  5
164
100
AcDbEntity
  8
Osie
370
18
100
AcDbText
 39
0.18
 10
7565502.96462829225
 20
5721204.57811549026
 40
0.36
  1
9
 50
-49.90
 41
0.66
  7
STANDARD
 72
0
 11
7565503.2399999965
 21
5721204.8099999968
100
AcDbText
 73
3
  0
TEXT
  5
165
100
AcDbEntity
  8
Osie
370
18
100
AcDbText
 39
0.18
 10
7565515.86462829169
 20
5721189.49811549019
 40
0.36
  1
9
 50
-49.90
 41
0.66
  7
STANDARD
 72
0
 11
7565516.13999999594
 21
5721189.72999999672
100
AcDbText
 73
3
  0
TEXT
  5
166
100
AcDbEntity
  8
Osie
370
18
100
AcDbText
 39
0.18
 10
7565514.58062829729
 20
5721188.65011549462
 40
0.36
  1
8
 50
-49.90
 41
0.66
  7
STANDARD
 72
0
 11
7565514.85600000154
 21
5721188.88200000115
100
AcDbText
 73
3
  0
TEXT
  5
167
100
AcDbEntity
  8
Osie
370
18
100
AcDbText
 39
0.18
 10
7565502.07462829165
 20
5721203.59811549075
 40
0.36
  1
8
 50
-49.90
 41
0.66
  7
STANDARD
 72
0
 11
7565502.3499999959
 21
5721203.82999999728
100
AcDbText
 73
3
  0
TEXT
  5
168
100
AcDbEntity
  8
Osie
370
18
100
AcDbText
 39
0.18
 10
7565501.59462829214
 20
5721203.16811549105
 40
0.36
  1
7
 50
-49.90
 41
0.66
  7
STANDARD
 72
0
 11
7565501.86999999639
 21
5721203.39999999758
100
AcDbText
 73
3
  0
TEXT
  5
169
100
AcDbEntity
  8
Osie
370
18
100
AcDbText
 39
0.18
 10
7565514.03462829161
 20
5721188.46811549086
 40
0.36
  1
7
 50
-49.90
 41
0.66
  7
STANDARD
 72
0
 11
7565514.30999999586
 21
5721188.69999999739
100
AcDbText
 73
3
  0
TEXT
  5
16A
100
AcDbEntity
  8
Osie
370
18
100
AcDbText
 39
0.18
 10
7565513.6246282924
 20
5721188.10811549053
 40
0.36
  1
6
 50
-49.90
 41
0.66
  7
STANDARD
 72
0
 11
7565513.89999999665
 21
5721188.33999999706
100
AcDbText
 73
3
  0
TEXT
  5
16B
100
AcDbEntity
  8
Osie
370
18
100
AcDbText
 39
0.18
 10
7565501.2346282918
 20
5721202.80811549071
 40
0.36
  1
6
 50
-49.90
 41
0.66
  7
STANDARD
 72
0
 11
7565501.50999999605
 21
5721203.03999999724
100
AcDbText
 73
3
  0
TEXT
  5
16C
100
AcDbEntity
  8
Osie
370
18
100
AcDbText
 39
0.18
 10
7565499.53462829161
 20
5721201.46811549086
 40
0.36
  1
5
 50
-49.90
 41
0.66
  7
STANDARD
 72
0
 11
7565499.80999999586
 21
5721201.69999999739
100
AcDbText
 73
3
  0
TEXT
  5
16D
100
AcDbEntity
  8
Osie
370
18
100
AcDbText
 39
0.18
 10
7565512.01462829206
 20
5721186.65811549034
 40
0.36
  1
5
 50
-49.90
 41
0.66
  7
STANDARD
 72
0
 11
7565512.28999999631
 21
5721186.88999999687
100
AcDbText
 73
3
  0
TEXT
  5
16E
100
AcDbEntity
  8
Osie
370
18
100
AcDbText
 39
0.18
 10
7565511.47462829202
 20
5721186.22811549064
 40
0.36
  1
4
 50
-49.90
 41
0.66
  7
STANDARD
 72
0
 11
7565511.74999999628
 21
5721186.45999999717
100
AcDbText
 73
3
  0
TEXT
  5
16F
100
AcDbEntity
  8
Osie
370
18
100
AcDbText
 39
0.18
 10
7565498.9846282918
 20
5721200.92811549082
 40
0.36
  1
4
 50
-49.90
 41
0.66
  7
STANDARD
 72
0
 11
7565499.25999999605
 21
5721201.15999999736
100
AcDbText
 73
3
  0
TEXT
  5
170
100
AcDbEntity
  8
Osie
370
18
100
AcDbText
 39
0.18
 10
7565498.51462829206
 20
5721200.40811549034
 40
0.36
  1
3
 50
-49.90
 41
0.66
  7
STANDARD
 72
0
 11
7565498.78999999631
 21
5721200.63999999687
100
AcDbText
 73
3
  0
TEXT
  5
171
100
AcDbEntity
  8
Osie
370
18
100
AcDbText
 39
0.18
 10
7565510.89462829195
 20
5721185.63811549079
 40
0.36
  1
3
 50
-49.90
 41
0.66
  7
STANDARD
 72
0
 11
7565511.1699999962
 21
5721185.86999999732
100
AcDbText
 73
3
  0
TEXT
  5
172
100
AcDbEntity
  8
Osie
370
18
100
AcDbText
 39
0.18
 10
7565510.06462829188
 20
5721184.97811549064
 40
0.36
  1
2
 50
-49.90
 41
0.66
  7
STANDARD
 72
0
 11
7565510.33999999613
 21
5721185.20999999717
100
AcDbText
 73
3
  0
TEXT
  5
173
100
AcDbEntity
  8
Osie
370
18
100
AcDbText
 39
0.18
 10
7565497.60462829191
 20
5721199.66811549105
 40
0.36
  1
2
 50
-49.90
 41
0.66
  7
STANDARD
 72
0
 11
7565497.87999999616
 21
5721199.89999999758
100
AcDbText
 73
3
  0
TEXT
  5
174
100
AcDbEntity
  8
Osie
370
18
100
AcDbText
 39
0.18
 10
7565494.70462829154
 20
5721197.38811549079
 40
0.36
  1
1
 50
-49.90
 41
0.66
  7
STANDARD
 72
0
 11
7565494.97999999579
 21
5721197.61999999732
100
AcDbText
 73
3
  0
TEXT
  5
175
100
AcDbEntity
  8
Osie
370
18
100
AcDbText
 39
0.18
 10
7565507.54462829232
 20
5721182.23811549041
 40
0.36
  1
1
 50
-49.90
 41
0.66
  7
STANDARD
 72
0
 11
7565507.81999999657
 21
5721182.46999999694
100
AcDbText
 73
3
  0
TEXT
  5
176
100
AcDbEntity
  8
Osie
370
18
100
AcDbText
 39
0.18
 10
7565508.15188450273
 20
5721206.65462829266
 40
0.36
  1
A
 50
-319.90
 41
0.66
  7
STANDARD
 72
0
 11
7565507.9199999962
 21
5721206.92999999691
100
AcDbText
 73
3
  0
TEXT
  5
177
100
AcDbEntity
  8
Osie
370
18
100
AcDbText
 39
0.18
 10
7565494.92188450322
 20
5721195.77462829277
 40
0.36
  1
A
 50
-319.90
 41
0.66
  7
STANDARD
 72
0
 11
7565494.68999999668
 21
5721196.04999999702
100
AcDbText
 73
3
  0
TEXT
  5
178
100
AcDbEntity
  8
Osie
370
18
100
AcDbText
 39
0.18
 10
7565510.33188450243
 20
5721204.45462829247
 40
0.36
  1
B
 50
-319.90
 41
0.66
  7
STANDARD
 72
0
 11
7565510.0999999959
 21
5721204.72999999672
100
AcDbText
 73
3
  0
TEXT
  5
179
100
AcDbEntity
  8
Osie
370
18
100
AcDbText
 39
0.18
 10
7565497.17188450322
 20
5721193.30462829303
 40
0.36
  1
B
 50
-319.90
 41
0.66
  7
STANDARD
 72
0
 11
7565496.93999999668
 21
5721193.57999999728
100
AcDbText
 73
3
  0
TEXT
  5
17A
100
AcDbEntity
  8
Osie
370
18
100
AcDbText
 39
0.18
 10
7565498.61188450269
 20
5721191.36462829262
 40
0.36
  1
c
 50
-319.90
 41
0.66
  7
STANDARD
 72
0
 11
7565498.37999999616
 21
5721191.63999999687
100
AcDbText
 73
3
  0
TEXT
  5
17B
100
AcDbEntity
  8
Osie
370
18
100
AcDbText
 39
0.18
 10
7565511.76188450307
 20
5721202.25462829322
 40
0.36
  1
C
 50
-319.90
 41
0.66
  7
STANDARD
 72
0
 11
7565511.52999999654
 21
5721202.52999999747
100
AcDbText
 73
3
  0
TEXT
  5
17C
100
AcDbEntity
  8
Osie
370
18
100
AcDbText
 39
0.18
 10
7565514.45188450254
 20
5721199.76462829299
 40
0.36
  1
D
 50
-319.90
 41
0.66
  7
STANDARD
 72
0
 11
7565514.21999999601
 21
5721200.03999999724
100
AcDbText
 73
3
  0
TEXT
  5
17D
100
AcDbEntity
  8
Osie
370
18
100
AcDbText
 39
0.18
 10
7565500.97188450303
 20
5721188.74462829251
 40
0.36
  1
D
 50
-319.90
 41
0.66
  7
STANDARD
 72
0
 11
7565500.7399999965
 21
5721189.01999999676
100
AcDbText
 73
3
  0
TEXT
  5
17E
100
AcDbEntity
  8
Osie
370
18
100
AcDbText
 39
0.18
 10
7565501.39688450843
 20
5721188.59762829728
 40
0.36
  1
E
 50
-319.90
 41
0.66
  7
STANDARD
 72
0
 11
7565501.1650000019
 21
5721188.87300000153
100
AcDbText
 73
3
  0
TEXT
  5
17F
100
AcDbEntity
  8
Osie
370
18
100
AcDbText
 39
0.18
 10
7565514.55688450858
 20
5721199.31962829735
 40
0.36
  1
E
 50
-319.90
 41
0.66
  7
STANDARD
 72
0
 11
7565514.32500000205
 21
5721199.5950000016
100
AcDbText
 73
3
  0
TEXT
  5
180
100
AcDbEntity
  8
Osie
370
18
100
AcDbText
 39
0.18
 10
7565514.92088450864
 20
5721199.34162829723
 40
0.36
  1
F
 50
-319.90
 41
0.66
  7
STANDARD
 72
0
 11
7565514.68900000211
 21
5721199.61700000148
100
AcDbText
 73
3
  0
TEXT
  5
181
100
AcDbEntity
  8
Osie
370
18
100
AcDbText
 39
0.18
 10
7565501.40588450804
 20
5721188.18262829725
 40
0.36
  1
F
 50
-319.90
 41
0.66
  7
STANDARD
 72
0
 11
7565501.17400000151
 21
5721188.4580000015
100
AcDbText
 73
3
  0
TEXT
  5
182
100
AcDbEntity
  8
Osie
370
18
100
AcDbText
 39
0.18
 10
7565503.08888450824
 20
5721186.57662829757
 40
0.36
  1
G
 50
-319.90
 41
0.66
  7
STANDARD
 72
0
 11
7565502.85700000171
 21
5721186.85200000182
100
AcDbText
 73
3
  0
TEXT
  5
183
100
AcDbEntity
  8
Osie
370
18
100
AcDbText
 39
0.18
 10
7565515.82088450808
 20
5721197.25362829678
 40
0.36
  1
G
 50
-319.90
 41
0.66
  7
STANDARD
 72
0
 11
7565515.58900000155
 21
5721197.52900000103
100
AcDbText
 73
3
  0
TEXT
  5
184
100
AcDbEntity
  8
Osie
370
18
100
AcDbText
 39
0.18
 10
7565515.88488450833
 20
5721196.8976282971
 40
0.36
  1
H
 50
-319.90
 41
0.66
  7
STANDARD
 72
0
 11
7565515.6530000018
 21
5721197.17300000135
100
AcDbText
 73
3
  0
TEXT
  5
185
100
AcDbEntity
  8
Osie
370
18
100
AcDbText
 39
0.18
 10
7565503.41688450798
 20
5721186.42562829703
 40
0.36
  1
H
 50
-319.90
 41
0.66
  7
STANDARD
 72
0
 11
7565503.18500000145
 21
5721186.70100000128
100
AcDbText
 73
3
  0
TEXT
  5
186
100
AcDbEntity
  8
Osie
370
18
100
AcDbText
 39
0.18
 10
7565503.38988450822
 20
5721186.15362829715
 40
0.36
  1
I
 50
-319.90
 41
0.66
  7
STANDARD
 72
0
 11
7565503.15800000168
 21
5721186.4290000014
100
AcDbText
 73
3
  0
TEXT
  5
187
100
AcDbEntity
  8
Osie
370
18
100
AcDbText
 39
0.18
 10
7565516.29188450798
 20
5721196.90462829731
 40
0.36
  1
I
 50
-319.90
 41
0.66
  7
STANDARD
 72
0
 11
7565516.06000000145
 21
5721197.18000000156
100
AcDbText
 73
3
  0
TEXT
  5
188
100
AcDbEntity
  8
Osie
370
18
100
AcDbText
 39
0.18
 10
7565516.33188450802
 20
5721196.4646282969
 40
0.36
  1
J
 50
-319.90
 41
0.66
  7
STANDARD
 72
0
 11
7565516.10000000149
 21
5721196.74000000115
100
AcDbText
 73
3
  0
TEXT
  5
189
100
AcDbEntity
  8
Osie
370
18
100
AcDbText
 39
0.18
 10
7565503.77188450284
 20
5721185.96462829318
 40
0.36
  1
J
 50
-319.90
 41
0.66
  7
STANDARD
 72
0
 11
7565503.53999999631
 21
5721186.23999999743
100
AcDbText
 73
3
  0
TEXT
  5
18A
100
AcDbEntity
  8
Osie
370
18
100
AcDbText
 39
0.18
 10
7565506.22188450303
 20
5721182.62462829333
 40
0.36
  1
L
 50
-319.90
 41
0.66
  7
STANDARD
 72
0
 11
7565505.9899999965
 21
5721182.89999999758
100
AcDbText
 73
3
  0
TEXT
  5
18B
100
AcDbEntity
  8
Osie
370
18
100
AcDbText
 39
0.18
 10
7565519.13188450318
 20
5721193.43462829292
 40
0.36
  1
L
 50
-319.90
 41
0.66
  7
STANDARD
 72
0
 11
7565518.89999999665
 21
5721193.70999999717
100
AcDbText
 73
3
  0
TEXT
  5
18C
100
AcDbEntity
  8
Osie
370
18
100
AcDbText
 39
0.18
 10
7565505.38188450318
 20
5721183.23462829273
 40
0.36
  1
K
 50
-319.90
 41
0.66
  7
STANDARD
 72
0
 11
7565505.14999999665
 21
5721183.50999999698
100
AcDbText
 73
3
  0
TEXT
  5
18D
100
AcDbEntity
  8
Osie
370
18
100
AcDbText
 39
0.18
 10
7565518.68188450299
 20
5721194.04462829325
 40
0.36
  1
K
 50
-319.90
 41
0.66
  7
STANDARD
 72
0
 11
7565518.44999999646
 21
5721194.3199999975
100
AcDbText
 73
3
  0
TEXT
  5
18E
100
AcDbEntity
  8
Osie
370
15
100
AcDbText
 39
0.15
 10
7565506.26423037797
 20
5721183.99973115325
 40
0.30
  1
-0.955-
 50
-49.90
 41
0.66
  7
STANDARD
 72
1
 11
7565506.52590314392
 21
5721183.53373505455
100
AcDbText
 73
1
  0
TEXT
  5
18F
100
AcDbEntity
  8
Osie
370
15
100
AcDbText
 39
0.15
 10
7565504.87323037814
 20
5721185.6522311531
 40
0.30
  1
-3.365-
 50
-49.90
 41
0.66
  7
STANDARD
 72
1
 11
7565505.13490314409
 21
5721185.1862350544
100
AcDbText
 73
1
  0
TEXT
  5
190
100
AcDbEntity
  8
Osie
370
15
100
AcDbText
 39
0.15
 10
7565504.01053650677
 20
5721187.20417333394
 40
0.30
  1
-0.375-
 50
-50.00
 41
0.66
  7
STANDARD
 72
1
 11
7565504.27139555756
 21
5721186.73772124015
100
AcDbText
 73
1
  0
TEXT
  5
191
100
AcDbEntity
  8
Osie
370
15
100
AcDbText
 39
0.15
 10
7565503.3111347165
 20
5721186.96399291605
 40
0.30
  1
-0.126-
 50
-49.80
 41
0.66
  7
STANDARD
 72
1
 11
7565503.57362039946
 21
5721186.4984542327
100
AcDbText
 73
1
  0
TEXT
  5
192
100
AcDbEntity
  8
Osie
370
15
100
AcDbText
 39
0.15
 10
7565503.31483509578
 20
5721187.54758373741
 40
0.30
  1
-0.250-
 50
-49.90
 41
0.66
  7
STANDARD
 72
1
 11
7565503.57650786173
 21
5721187.08158763871
100
AcDbText
 73
1
  0
TEXT
  5
193
100
AcDbEntity
  8
Osie
370
15
100
AcDbText
 39
0.15
 10
7565502.5022303788
 20
5721188.46923115384
 40
0.30
  1
-2.499-
 50
-49.90
 41
0.66
  7
STANDARD
 72
1
 11
7565502.76390314475
 21
5721188.00323505513
100
AcDbText
 73
1
  0
TEXT
  5
194
100
AcDbEntity
  8
Osie
370
15
100
AcDbText
 39
0.15
 10
7565502.19856901094
 20
5721189.70022253133
 40
0.30
  1
-0.050-
 50
-49.00
 41
0.66
  7
STANDARD
 72
1
 11
7565502.46752904356
 21
5721189.23839409836
100
AcDbText
 73
1
  0
TEXT
  5
195
100
AcDbEntity
  8
Osie
370
15
100
AcDbText
 39
0.15
 10
7565501.54599917121
 20
5721189.6082405895
 40
0.30
  1
-0.375-
 50
-50.00
 41
0.66
  7
STANDARD
 72
1
 11
7565501.806858222
 21
5721189.1417884957
100
AcDbText
 73
1
  0
TEXT
  5
196
100
AcDbEntity
  8
Osie
370
15
100
AcDbText
 39
0.15
 10
7565500.24373037834
 20
5721191.1522311531
 40
0.30
  1
-3.665-
 50
-49.90
 41
0.66
  7
STANDARD
 72
1
 11
7565500.50540314428
 21
5721190.6862350544
100
AcDbText
 73
1
  0
TEXT
  5
197
100
AcDbEntity
  8
Osie
370
15
100
AcDbText
 39
0.15
 10
7565498.24923037831
 20
5721193.52223115414
 40
0.30
  1
-2.530-
 50
-49.90
 41
0.66
  7
STANDARD
 72
1
 11
7565498.51090314426
 21
5721193.05623505544
100
AcDbText
 73
1
  0
TEXT
  5
198
100
AcDbEntity
  8
Osie
370
15
100
AcDbText
 39
0.15
 10
7565496.36573037785
 20
5721195.76023115404
 40
0.30
  1
-3.320-
 50
-49.90
 41
0.66
  7
STANDARD
 72
1
 11
7565496.62740314379
 21
5721195.29423505533
100
AcDbText
 73
1
  0
TEXT
  5
199
100
AcDbEntity
  8
Osie
370
15
100
AcDbText
 39
0.15
 10
7565508.13973037805
 20
5721205.67023115419
 40
0.30
  1
-3.320-
 50
-49.90
 41
0.66
  7
STANDARD
 72
1
 11
7565508.401403144
 21
5721205.20423505548
100
AcDbText
 73
1
  0
TEXT
  5
19A
100
AcDbEntity
  8
Osie
370
15
100
AcDbText
 39
0.15
 10
7565510.02323037852
 20
5721203.43223115429
 40
0.30
  1
-2.530-
 50
-49.90
 41
0.66
  7
STANDARD
 72
1
 11
7565510.28490314446
 21
5721202.96623505559
100
AcDbText
 73
1
  0
TEXT
  5
19B
100
AcDbEntity
  8
Osie
370
15
100
AcDbText
 39
0.15
 10
7565512.0182303777
 20
5721201.06273115426
 40
0.30
  1
-3.665-
 50
-49.90
 41
0.66
  7
STANDARD
 72
1
 11
7565512.27990314364
 21
5721200.59673505556
100
AcDbText
 73
1
  0
TEXT
  5
19C
100
AcDbEntity
  8
Osie
370
15
100
AcDbText
 39
0.15
 10
7565513.31999917142
 20
5721199.51824058965
 40
0.30
  1
-0.375-
 50
-50.00
 41
0.66
  7
STANDARD
 72
1
 11
7565513.58085822221
 21
5721199.05178849585
100
AcDbText
 73
1
  0
TEXT
  5
19D
100
AcDbEntity
  8
Osie
370
15
100
AcDbText
 39
0.15
 10
7565513.23056901153
 20
5721199.00722253136
 40
0.30
  1
-0.050-
 50
-49.00
 41
0.66
  7
STANDARD
 72
1
 11
7565513.49952904414
 21
5721198.54539409839
100
AcDbText
 73
1
  0
TEXT
  5
19E
100
AcDbEntity
  8
Osie
370
15
100
AcDbText
 39
0.15
 10
7565514.27723037731
 20
5721198.37973115407
 40
0.30
  1
-2.500-
 50
-49.90
 41
0.66
  7
STANDARD
 72
1
 11
7565514.53890314326
 21
5721197.91373505536
100
AcDbText
 73
1
  0
TEXT
  5
19F
100
AcDbEntity
  8
Osie
370
15
100
AcDbText
 39
0.15
 10
7565515.16223037802
 20
5721197.32773115393
 40
0.30
  1
-0.250-
 50
-49.90
 41
0.66
  7
STANDARD
 72
1
 11
7565515.42390314396
 21
5721196.86173505522
100
AcDbText
 73
1
  0
TEXT
  5
1A0
100
AcDbEntity
  8
Osie
370
15
100
AcDbText
 39
0.15
 10
7565514.54394240957
 20
5721196.579348851
 40
0.30
  1
-0.125-
 50
-50.20
 41
0.66
  7
STANDARD
 72
1
 11
7565514.80317164958
 21
5721196.11198903061
100
AcDbText
 73
1
  0
TEXT
  5
1A1
100
AcDbEntity
  8
Osie
370
15
100
AcDbText
 39
0.15
 10
7565515.14553650655
 20
5721196.63517333381
 40
0.30
  1
-0.375-
 50
-50.00
 41
0.66
  7
STANDARD
 72
1
 11
7565515.40639555734
 21
5721196.16872124001
100
AcDbText
 73
1
  0
TEXT
  5
1A2
100
AcDbEntity
  8
Osie
370
15
100
AcDbText
 39
0.15
 10
7565516.64723037835
 20
5721195.56223115325
 40
0.30
  1
-3.365-
 50
-49.90
 41
0.66
  7
STANDARD
 72
1
 11
7565516.9089031443
 21
5721195.09623505455
100
AcDbText
 73
1
  0
TEXT
  5
1A3
100
AcDbEntity
  8
Osie
370
15
100
AcDbText
 39
0.15
 10
7565518.03823037818
 20
5721193.9097311534
 40
0.30
  1
-0.955-
 50
-49.90
 41
0.66
  7
STANDARD
 72
1
 11
7565518.29990314413
 21
5721193.44373505469
100
AcDbText
 73
1
  0
TEXT
  5
1A4
100
AcDbEntity
  8
Osie
370
15
100
AcDbText
 39
0.15
 10
7565517.44426884688
 20
5721192.17723037768
 40
0.30
  1
-1.970-
 50
-319.90
 41
0.66
  7
STANDARD
 72
1
 11
7565517.91026494559
 21
5721192.43890314363
100
AcDbText
 73
1
  0
TEXT
  5
1A5
100
AcDbEntity
  8
Osie
370
15
100
AcDbText
 39
0.15
 10
7565515.7917688461
 20
5721190.78623037785
 40
0.30
  1
-2.350-
 50
-319.90
 41
0.66
  7
STANDARD
 72
1
 11
7565516.25776494481
 21
5721191.0479031438
100
AcDbText
 73
1
  0
TEXT
  5
1A6
100
AcDbEntity
  8
Osie
370
15
100
AcDbText
 39
0.15
 10
7565514.31876884587
 20
5721189.54673037771
 40
0.30
  1
-1.500-
 50
-319.90
 41
0.66
  7
STANDARD
 72
1
 11
7565514.78476494458
 21
5721189.80840314366
100
AcDbText
 73
1
  0
TEXT
  5
1A7
100
AcDbEntity
  8
Osie
370
15
100
AcDbText
 39
0.15
 10
7565513.51526884548
 20
5721188.87073037773
 40
0.30
  1
-0.600-
 50
-319.90
 41
0.66
  7
STANDARD
 72
1
 11
7565513.98126494419
 21
5721189.13240314368
100
AcDbText
 73
1
  0
TEXT
  5
1A8
100
AcDbEntity
  8
Osie
370
15
100
AcDbText
 39
0.15
 10
7565513.40241626557
 20
5721188.16083509568
 40
0.30
  1
-0.370-
 50
-319.90
 41
0.66
  7
STANDARD
 72
1
 11
7565513.86841236427
 21
5721188.42250786163
100
AcDbText
 73
1
  0
TEXT
  5
1A9
100
AcDbEntity
  8
Osie
370
15
100
AcDbText
 39
0.15
 10
7565512.12276884634
 20
5721187.69923037756
 40
0.30
  1
-2.300-
 50
-319.90
 41
0.66
  7
STANDARD
 72
1
 11
7565512.58876494504
 21
5721187.96090314351
100
AcDbText
 73
1
  0
TEXT
  5
1AA
100
AcDbEntity
  8
Osie
370
15
100
AcDbText
 39
0.15
 10
7565510.9747688463
 20
5721186.73323037755
 40
0.30
  1
-0.700-
 50
-319.90
 41
0.66
  7
STANDARD
 72
1
 11
7565511.440764945
 21
5721186.9949031435
100
AcDbText
 73
1
  0
TEXT
  5
1AB
100
AcDbEntity
  8
Osie
370
15
100
AcDbText
 39
0.15
 10
7565507.83676884696
 20
5721184.09123037849
 40
0.30
  1
-3.694-
 50
-319.90
 41
0.66
  7
STANDARD
 72
1
 11
7565508.30276494566
 21
5721184.35290314443
100
AcDbText
 73
1
  0
TEXT
  5
1AC
100
AcDbEntity
  8
Osie
370
15
100
AcDbText
 39
0.15
 10
7565496.56176884659
 20
5721197.4872303782
 40
0.30
  1
-3.694-
 50
-319.90
 41
0.66
  7
STANDARD
 72
1
 11
7565497.02776494529
 21
5721197.74890314415
100
AcDbText
 73
1
  0
TEXT
  5
1AD
100
AcDbEntity
  8
Osie
370
15
100
AcDbText
 39
0.15
 10
7565498.44326884672
 20
5721199.071230378
 40
0.30
  1
-1.225-
 50
-319.90
 41
0.66
  7
STANDARD
 72
1
 11
7565498.90926494542
 21
5721199.33290314395
100
AcDbText
 73
1
  0
TEXT
  5
1AE
100
AcDbEntity
  8
Osie
370
15
100
AcDbText
 39
0.15
 10
7565498.87741626613
 20
5721199.8478350956
 40
0.30
  1
-0.680-
 50
-319.90
 41
0.66
  7
STANDARD
 72
1
 11
7565499.34341236483
 21
5721200.10950786155
100
AcDbText
 73
1
  0
TEXT
  5
1AF
100
AcDbEntity
  8
Osie
370
15
100
AcDbText
 39
0.15
 10
7565499.69976884685
 20
5721200.1292303782
 40
0.30
  1
-0.700-
 50
-319.90
 41
0.66
  7
STANDARD
 72
1
 11
7565500.16576494556
 21
5721200.39090314414
100
AcDbText
 73
1
  0
TEXT
  5
1B0
100
AcDbEntity
  8
Osie
370
15
100
AcDbText
 39
0.15
 10
7565500.84776884597
 20
5721201.09523037728
 40
0.30
  1
-2.300-
 50
-319.90
 41
0.66
  7
STANDARD
 72
1
 11
7565501.31376494467
 21
5721201.35690314323
100
AcDbText
 73
1
  0
TEXT
  5
1B1
100
AcDbEntity
  8
Osie
370
15
100
AcDbText
 39
0.15
 10
7565501.64441626612
 20
5721202.17183509562
 40
0.30
  1
-0.370-
 50
-319.90
 41
0.66
  7
STANDARD
 72
1
 11
7565502.11041236483
 21
5721202.43350786157
100
AcDbText
 73
1
  0
TEXT
  5
1B2
100
AcDbEntity
  8
Osie
370
15
100
AcDbText
 39
0.15
 10
7565502.24141626619
 20
5721202.25383509509
 40
0.30
  1
-0.600-
 50
-319.90
 41
0.66
  7
STANDARD
 72
1
 11
7565502.70741236489
 21
5721202.51550786104
100
AcDbText
 73
1
  0
TEXT
  5
1B3
100
AcDbEntity
  8
Osie
370
15
100
AcDbText
 39
0.15
 10
7565503.04376884643
 20
5721202.94273037836
 40
0.30
  1
-1.500-
 50
-319.90
 41
0.66
  7
STANDARD
 72
1
 11
7565503.50976494514
 21
5721203.20440314431
100
AcDbText
 73
1
  0
TEXT
  5
1B4
100
AcDbEntity
  8
Osie
370
15
100
AcDbText
 39
0.15
 10
7565504.51676884666
 20
5721204.1822303785
 40
0.30
  1
-2.350-
 50
-319.90
 41
0.66
  7
STANDARD
 72
1
 11
7565504.98276494537
 21
5721204.44390314445
100
AcDbText
 73
1
  0
TEXT
  5
1B5
100
AcDbEntity
  8
Osie
370
15
100
AcDbText
 39
0.15
 10
7565506.16926884651
 20
5721205.5732303774
 40
0.30
  1
-1.970-
 50
-319.90
 41
0.66
  7
STANDARD
 72
1
 11
7565506.63526494522
 21
5721205.83490314335
100
AcDbText
 73
1
  0
TEXT
  5
1B6
100
AcDbEntity
  8
Osie
370
15
100
AcDbText
 39
0.15
 10
7565509.71826884709
 20
5721185.67523037735
 40
0.30
  1
-1.225-
 50
-319.90
 41
0.66
  7
STANDARD
 72
1
 11
7565510.1842649458
 21
5721185.9369031433
100
AcDbText
 73
1
  0
TEXT
  5
1B7
100
AcDbEntity
  8
Osie
370
15
100
AcDbText
 39
0.15
 10
7565510.09241626598
 20
5721186.53783509508
 40
0.30
  1
-0.680-
 50
-319.90
 41
0.66
  7
STANDARD
 72
1
 11
7565510.55841236468
 21
5721186.79950786103
100
AcDbText
 73
1
  0
TEXT
  5
1B8
100
AcDbEntity
  8
PKT_OBRYS
370
18
100
AcDbText
 39
0.18
 10
7565514.60644800309
 20
5721188.74319292232
 40
0.36
  1
-11.120-
 50
-320.00
 41
0.66
  7
STANDARD
 72
1
 11
7565515.23513451498
 21
5721189.11407466792
100
AcDbText
 73
1
  0
TEXT
  5
1B9
100
AcDbEntity
  8
PKT_OBRYS
370
18
100
AcDbText
 39
0.18
 10
7565513.99310709443
 20
5721199.40856185928
 40
0.36
  1
-14.839-
 50
-50.00
 41
0.66
  7
STANDARD
 72
1
 11
7565514.36398884002
 21
5721198.77987534739
100
AcDbText
 73
1
  0
TEXT
  5
1BA
100
AcDbEntity
  8
PKT_OBRYS
370
18
100
AcDbText
 39
0.18
 10
7565508.18802233785
 20
5721203.51648771204
 40
0.36
  1
-1.970-
 50
-320.00
 41
0.66
  7
STANDARD
 72
1
 11
7565508.74776485004
 21
5721203.82951857243
100
AcDbText
 73
1
  0
TEXT
  5
1BB
100
AcDbEntity
  8
PKT_OBRYS
370
18
100
AcDbText
 39
0.18
 10
7565506.5820184974
 20
5721204.87430546153
 40
0.36
  1
-3.320-
 50
-50.00
 41
0.66
  7
STANDARD
 72
1
 11
7565506.89504935779
 21
5721204.31456294935
100
AcDbText
 73
1
  0
TEXT
  5
1BC
100
AcDbEntity
  8
PKT_OBRYS
370
18
100
AcDbText
 39
0.18
 10
7565499.84558999166
 20
5721200.83403606713
 40
0.36
  1
-14.069-
 50
-320.00
 41
0.66
  7
STANDARD
 72
1
 11
7565500.47427650355
 21
5721201.20491781272
100
AcDbText
 73
1
  0
TEXT
  5
1BD
100
AcDbEntity
  8
PKT_OBRYS
370
18
100
AcDbText
 39
0.18
 10
7565496.51604380831
 20
5721194.35760799982
 40
0.36
  1
-6.500-
 50
-50.00
 41
0.66
  7
STANDARD
 72
1
 11
7565496.8290746687
 21
5721193.79786548764
100
AcDbText
 73
1
  0
TEXT
  5
1BE
100
AcDbEntity
  8
PKT_OBRYS
370
18
100
AcDbText
 39
0.18
 10
7565500.60020905826
 20
5721192.97308626492
 40
0.36
  1
-4.919-
 50
-320.00
 41
0.66
  7
STANDARD
 72
1
 11
7565501.15995157044
 21
5721193.2861171253
100
AcDbText
 73
1
  0
TEXT
  5
1BF
100
AcDbEntity
  8
PKT_OBRYS
370
18
100
AcDbText
 39
0.18
 10
7565506.50972814765
 20
5721191.03153351508
 40
0.36
  1
-11.660-
 50
-50.00
 41
0.66
  7
STANDARD
 72
1
 11
7565506.88060989324
 21
5721190.40284700319
100
AcDbText
 73
1
  0
ENDSEC
  0
SECTION
  2
OBJECTS
  0
DICTIONARY
  5
1C0
330
0
100
AcDbDictionary
280
0
281
1
  3
ACAD_GROUP
350
1C1
  3
ACAD_LAYOUT
350
1C2
  3
ACAD_MLINESTYLE
350
1C3
  3
ACAD_PLOTSETTINGS
350
1C4
  3
ACAD_PLOTSTYLENAME
350
1C5
  0
DICTIONARY
  5
1C1
102
{ACAD_REACTORS
330
1C0
102
}
330
1C0
100
AcDbDictionary
280
0
281
1
  0
DICTIONARY
  5
1C2
102
{ACAD_REACTORS
330
1C0
102
}
330
1C0
100
AcDbDictionary
280
0
281
1
  3
Layout
350
36
  3
Model
350
34
  0
DICTIONARY
  5
1C3
102
{ACAD_REACTORS
330
1C0
102
}
330
1C0
100
AcDbDictionary
280
0
281
1
  3
Standard
350
1C6
  3
L_0_02
350
7
  0
DICTIONARY
  5
1C4
102
{ACAD_REACTORS
330
1C0
102
}
330
1C0
100
AcDbDictionary
280
0
281
1
  0
ACDBDICTIONARYWDFLT
  5
1C5
102
{ACAD_REACTORS
330
1C0
102
}
330
1C0
100
AcDbDictionary
281
1
  3
Normal
350
B
100
AcDbDictionaryWithDefault
340
B
  0
LAYOUT
  5
36
100
AcDbPlotSettings
  1

  2

  4

  6

 40
0.0
 41
0.0
 42
0.0
 43
0.0
 44
0.0
 45
0.0
 46
0.0
 47
0.0
 48
0.0
 49
0.0
140
0.0
141
0.0
142
1.0
143
1.0
 70
688
 72
1
 73
0
 74
5
  7

 75
0
147
1.0
148
0.0
149
0.0
100
AcDbLayout
  1
Layout
 70
1
 71
1
 10
0.0
 20
0.0
 11
420.0
 21
297.0
 12
0.0
 22
0.0
 32
0.0
 14
100000000000000000000.0
 24
100000000000000000000.0
 34
100000000000000000000.0
 15
-100000000000000000000.0
 25
-100000000000000000000.0
 35
-100000000000000000000.0
146
0.0
 13
0.0
 23
0.0
 33
0.0
 16
1.0
 26
0.0
 36
0.0
 17
0.0
 27
1.0
 37
0.0
 76
0
330
35
  0
LAYOUT
  5
34
100
AcDbPlotSettings
  1

  2

  4

  6

 40
0.0
 41
0.0
 42
0.0
 43
0.0
 44
0.0
 45
0.0
 46
0.0
 47
0.0
 48
0.0
 49
0.0
140
0.0
141
0.0
142
1.0
143
1.0
 70
1712
 72
1
 73
0
 74
0
  7

 75
0
147
1.0
148
0.0
149
0.0
100
AcDbLayout
  1
Model
 70
1
 71
0
 10
0.0
 20
0.0
 11
12.0
 21
9.0
 12
0.0
 22
0.0
 32
0.0
 14
0.0
 24
0.0
 34
0.0
 15
0.0
 25
0.0
 35
0.0
146
0.0
 13
0.0
 23
0.0
 33
0.0
 16
1.0
 26
0.0
 36
0.0
 17
0.0
 27
1.0
 37
0.0
 76
0
330
33
  0
MLINESTYLE
  5
1C6
102
{ACAD_REACTORS
330
1C3
102
}
330
1C3
100
AcDbMlineStyle
  2
Standard
 70
0
  3

 62
256
 51
90.0
 52
90.0
  2
Standard
 71
2
 49
0.5
 62
256
  6
ByLayer
 49
-0.5
 62
256
  6
ByLayer
  0
MLINESTYLE
  5
7
100
AcDbMlineStyle
  2
L_0_02
 70
0
  3

 51
90.0
 52
90.0
 71
1
 49
0.0
 62
256
  6
CONTINUOUS
  0
ACDBPLACEHOLDER
  5
B
  0
ENDSEC
  0
EOF
