  0
SECTION
  2
HEADER
  9
$ACADVER
  1
AC1018
  9
$HANDSEED
  5
FFFFFF
  9
$EXTMAX
 10
8395492.43999999948
 20
5710432.0
 30
1000000.00
  9
$EXTMIN
 10
8393904.28999999911
 20
5709110.38999999966
 30
0.00
  9
$LIMMIN
 10
8393904.28999999911
 20
5709110.38999999966
  9
$LIMMAX
 10
8395492.43999999948
 20
5710432.0
  9
$DIMASZ
 40
2.5
  9
$DIMGAP
 40
0.625
  9
$INSUNITS
 70
6
  9
$DIMEXO
 40
0.625
  9
$DIMTXT
 40
2.5
  9
$DIMSTYLE
  2
Standard
  9
$PLIMMIN
 10
0.0
 20
0.0
  9
$PLIMMAX
 10
210.0
 20
297.0
  9
$DIMEXE
 40
1.25
  9
$TEXTSIZE
 40
2.5
  9
$TEXTSTYLE
  7
Standard
  9
$LWDISPLAY
290
1
  9
$TDCREATE
 40
45184.321249826
  9
$TDUCREATE
 40
45184.237916493
  9
$TDUPDATE
 40
45184.321249826
  9
$TDUUPDATE
 40
45184.237916493
  9
$TDINDWG
 40
0.0
  9
$TDUSRTIMER
 40
0.0
  9
$USRTIMER
 70
1
  0
ENDSEC
  0
SECTION
  2
TABLES
  0
TABLE
  2
VPORT
  5
1
100
AcDbSymbolTable
 70
1
  0
VPORT
  5
2
100
AcDbSymbolTableRecord
100
AcDbViewportTableRecord
  2
*ACTIVE
 70
0
 10
0.0
 20
0.0
 11
1.0
 21
1.0
 12
8394698.36
 22
5709771.20
 13
0.0
 23
0.0
 14
1.0
 24
1.0
 15
0.0
 25
0.0
 16
0.0
 26
0.0
 36
1.0
 17
0.0
 27
0.0
 37
0.0
 40
1321.61
 41
1.20
 42
50.0
 43
0.0
 44
0.0
 50
0.0
 51
0.0
 71
0
 72
100
 73
1
 74
1
 75
0
 76
0
 77
0
 78
0
  0
ENDTAB
  0
TABLE
  2
LTYPE
  5
3
100
AcDbSymbolTable
 70
3
  0
LTYPE
  5
4
100
AcDbSymbolTableRecord
100
AcDbLinetypeTableRecord
  2
ByBlock
 70
0
  3

 72
65
 73
0
 40
0.0
  0
LTYPE
  5
5
100
AcDbSymbolTableRecord
100
AcDbLinetypeTableRecord
  2
ByLayer
 70
0
  3

 72
65
 73
0
 40
0.0
  0
LTYPE
  5
6
100
AcDbSymbolTableRecord
100
AcDbLinetypeTableRecord
  2
CONTINUOUS
 70
0
  3
Solid line
 72
65
 73
0
 40
0.0
  0
LTYPE
  5
8
100
AcDbSymbolTableRecord
100
AcDbLinetypeTableRecord
  2
L_0_02
 70
0
  3
Dzialka_ewidencyjna (MLineStyle)
 72
65
 73
0
 40
0.0
  0
ENDTAB
  0
TABLE
  2
LAYER
  5
9
100
AcDbSymbolTable
 70
2
  0
LAYER
  5
A
100
AcDbSymbolTableRecord
100
AcDbLayerTableRecord
  2
0
 70
0
420
0
  6
CONTINUOUS
370
18
390
B
  0
LAYER
  5
C
100
AcDbSymbolTableRecord
100
AcDbLayerTableRecord
  2
dzailki
 70
0
420
32768
  6
L_0_02
370
18
390
B
  0
ENDTAB
  0
TABLE
  2
STYLE
  5
D
100
AcDbSymbolTable
 70
2
  0
STYLE
  5
E
100
AcDbSymbolTableRecord
100
AcDbTextStyleTableRecord
  2
STANDARD
 70
0
 40
0.0
 41
1.0
 50
0.0
 71
0
  3
simplex.shx
  4

  0
STYLE
  5
F
100
AcDbSymbolTableRecord
100
AcDbTextStyleTableRecord
  2
STANDARD_ITALIC
 70
0
 40
0.0
 41
1.0
 50
15.0
 71
0
  3
simplex.shx
  4

  0
ENDTAB
  0
TABLE
  2
VIEW
  5
10
100
AcDbSymbolTable
 70
0
  0
ENDTAB
  0
TABLE
  2
UCS
  5
11
100
AcDbSymbolTable
 70
0
  0
ENDTAB
  0
TABLE
  2
APPID
  5
12
100
AcDbSymbolTable
 70
1
  0
APPID
  5
13
100
AcDbSymbolTableRecord
100
AcDbRegAppTableRecord
  2
ACAD
 70
0
  0
ENDTAB
  0
TABLE
  2
DIMSTYLE
  5
14
100
AcDbSymbolTable
 70
1
100
AcDbDimStyleTable
  0
DIMSTYLE
105
15
100
AcDbSymbolTableRecord
100
AcDbDimStyleTableRecord
  2
Standard
 70
0
340
E
  0
ENDTAB
  0
TABLE
  2
BLOCK_RECORD
  5
16
100
AcDbSymbolTable
 70
4
  0
BLOCK_RECORD
  5
17
100
AcDbSymbolTableRecord
100
AcDbBlockTableRecord
  2
*Model_Space
340
18
  0
BLOCK_RECORD
  5
19
100
AcDbSymbolTableRecord
100
AcDbBlockTableRecord
  2
*Paper_Space
340
1A
  0
BLOCK_RECORD
  5
1B
100
AcDbSymbolTableRecord
100
AcDbBlockTableRecord
  2
L_0_02_1
340
1C
  0
BLOCK_RECORD
  5
1D
100
AcDbSymbolTableRecord
100
AcDbBlockTableRecord
  2
L_0_02_2
340
1E
  0
ENDTAB
  0
ENDSEC
  0
SECTION
  2
BLOCKS
  0
BLOCK
  5
1F
100
AcDbEntity
  8
0
100
AcDbBlockBegin
  2
*Model_Space
 70
0
 10
0.0
 20
0.0
 30
0.0
  3
*Model_Space
  1

  0
ENDBLK
  5
20
100
AcDbEntity
  8
0
100
AcDbBlockEnd
  0
BLOCK
  5
21
100
AcDbEntity
 67
1
  8
0
100
AcDbBlockBegin
  2
*Paper_Space
 70
0
 10
0.0
 20
0.0
 30
0.0
  3
*Paper_Space
  1

  0
ENDBLK
  5
22
100
AcDbEntity
 67
1
  8
0
100
AcDbBlockEnd
  0
BLOCK
  5
1C
100
AcDbEntity
  8
0
100
AcDbBlockBegin
 62
0
370
13
  2
L_0_02_1
 70
0
 10
0
 20
0
 30
0
  3
L_0_02_1
  0
POINT
  5
23
100
AcDbEntity
  8
0
100
AcDbPoint
 62
0
 10
0.0
 20
0.0
 30
0.000
  0
ENDBLK
  5
24
100
AcDbEntity
  8
0
100
AcDbBlockEnd
  0
BLOCK
  5
1E
100
AcDbEntity
  8
0
100
AcDbBlockBegin
 62
0
370
13
  2
L_0_02_2
 70
0
 10
0
 20
0
 30
0
  3
L_0_02_2
  0
POINT
  5
25
100
AcDbEntity
  8
0
100
AcDbPoint
 62
0
 10
-0.0
 20
-0.0
 30
0.000
  0
ENDBLK
  5
26
100
AcDbEntity
  8
0
100
AcDbBlockEnd
  0
ENDSEC
  0
SECTION
  2
ENTITIES
  0
INSERT
  5
27
100
AcDbEntity
  8
dzailki
  6
CONTINUOUS
100
AcDbBlockReference
 66
0
  2
L_0_02_1
 10
8394027.05000000074
 20
5709963.90000000037
 41
0.50
 42
0.50
 43
0.50
 50
343.86
  0
INSERT
  5
28
100
AcDbEntity
  8
dzailki
  6
CONTINUOUS
100
AcDbBlockReference
 66
0
  2
L_0_02_2
 10
8394642.3900000006
 20
5709785.78000000026
 41
0.50
 42
0.50
 43
0.50
 50
163.86
  0
INSERT
  5
29
100
AcDbEntity
  8
dzailki
  6
CONTINUOUS
100
AcDbBlockReference
 66
0
  2
L_0_02_1
 10
8394642.3900000006
 20
5709785.78000000026
 41
0.50
 42
0.50
 43
0.50
 50
189.71
  0
INSERT
  5
2A
100
AcDbEntity
  8
dzailki
  6
CONTINUOUS
100
AcDbBlockReference
 66
0
  2
L_0_02_2
 10
8394628.77999999933
 20
5709783.45000000019
 41
0.50
 42
0.50
 43
0.50
 50
9.71
  0
INSERT
  5
2B
100
AcDbEntity
  8
dzailki
  6
CONTINUOUS
100
AcDbBlockReference
 66
0
  2
L_0_02_1
 10
8394628.77999999933
 20
5709783.45000000019
 41
0.50
 42
0.50
 43
0.50
 50
164.00
  0
INSERT
  5
2C
100
AcDbEntity
  8
dzailki
  6
CONTINUOUS
100
AcDbBlockReference
 66
0
  2
L_0_02_2
 10
8394067.25999999978
 20
5709944.50999999978
 41
0.50
 42
0.50
 43
0.50
 50
344.00
  0
INSERT
  5
2D
100
AcDbEntity
  8
dzailki
  6
CONTINUOUS
100
AcDbBlockReference
 66
0
  2
L_0_02_1
 10
8394067.25999999978
 20
5709944.50999999978
 41
0.50
 42
0.50
 43
0.50
 50
164.00
  0
INSERT
  5
2E
100
AcDbEntity
  8
dzailki
  6
CONTINUOUS
100
AcDbBlockReference
 66
0
  2
L_0_02_2
 10
8394024.1799999997
 20
5709956.86000000034
 41
0.50
 42
0.50
 43
0.50
 50
344.00
  0
INSERT
  5
2F
100
AcDbEntity
  8
dzailki
  6
CONTINUOUS
100
AcDbBlockReference
 66
0
  2
L_0_02_1
 10
8394024.1799999997
 20
5709956.86000000034
 41
0.50
 42
0.50
 43
0.50
 50
67.82
  0
INSERT
  5
30
100
AcDbEntity
  8
dzailki
  6
CONTINUOUS
100
AcDbBlockReference
 66
0
  2
L_0_02_2
 10
8394027.05000000074
 20
5709963.90000000037
 41
0.50
 42
0.50
 43
0.50
 50
247.82
  0
MLINE
  5
31
100
AcDbEntity
  8
dzailki
  6
L_0_02
370
18
100
AcDbMline
  2
L_0_02
340
7
 40
1.0
 70
1
 71
3
 72
5
 73
1
 10
8394027.05000000074
 20
5709963.90000000037
210
0.0
220
0.0
230
1.0
 11
8394027.05000000074
 21
5709963.90000000037
 12
0.960566239372
 22
-0.278051253871
 13
-0.435834381512
 23
0.900026883983
 74
3
 41
0.0
 41
0.25
 41
640.351319074396
 75
0
 11
8394642.3900000006
 21
5709785.78000000026
 12
-0.985660135136
 22
-0.168742697629
 13
0.998426504046
 23
-0.056075984326
 74
3
 41
0.0
 41
0.25
 41
13.558004925941
 75
0
 11
8394628.77999999933
 21
5709783.45000000019
 12
-0.961240497213
 22
0.27571127383
 13
-0.0548602657
 23
-0.998494041668
 74
3
 41
0.0
 41
0.25
 41
583.911821757778
 75
0
 11
8394067.25999999978
 21
5709944.50999999978
 12
-0.961279378823
 22
0.275575680803
 13
-0.275643478002
 23
-0.961259940409
 74
3
 41
0.0
 41
0.25
 41
44.565275297829
 75
0
 11
8394024.1799999997
 21
5709956.86000000034
 12
0.377505786545
 22
0.926007225201
 13
-0.899464729577
 23
-0.436993364077
 74
3
 41
0.0
 41
0.25
 41
7.35253247323
 75
0
  0
INSERT
  5
32
100
AcDbEntity
  8
dzailki
  6
CONTINUOUS
100
AcDbBlockReference
 66
0
  2
L_0_02_1
 10
8393959.8200000003
 20
5709964.87000000011
 41
0.50
 42
0.50
 43
0.50
 50
343.09
  0
INSERT
  5
33
100
AcDbEntity
  8
dzailki
  6
CONTINUOUS
100
AcDbBlockReference
 66
0
  2
L_0_02_2
 10
8394019.98000000045
 20
5709946.58000000007
 41
0.50
 42
0.50
 43
0.50
 50
163.09
  0
INSERT
  5
34
100
AcDbEntity
  8
dzailki
  6
CONTINUOUS
100
AcDbBlockReference
 66
0
  2
L_0_02_1
 10
8394019.98000000045
 20
5709946.58000000007
 41
0.50
 42
0.50
 43
0.50
 50
344.69
  0
INSERT
  5
35
100
AcDbEntity
  8
dzailki
  6
CONTINUOUS
100
AcDbBlockReference
 66
0
  2
L_0_02_2
 10
8394050.15000000037
 20
5709938.3200000003
 41
0.50
 42
0.50
 43
0.50
 50
164.69
  0
INSERT
  5
36
100
AcDbEntity
  8
dzailki
  6
CONTINUOUS
100
AcDbBlockReference
 66
0
  2
L_0_02_1
 10
8394050.15000000037
 20
5709938.3200000003
 41
0.50
 42
0.50
 43
0.50
 50
343.89
  0
INSERT
  5
37
100
AcDbEntity
  8
dzailki
  6
CONTINUOUS
100
AcDbBlockReference
 66
0
  2
L_0_02_2
 10
8394064.31000000052
 20
5709934.23000000045
 41
0.50
 42
0.50
 43
0.50
 50
163.89
  0
INSERT
  5
38
100
AcDbEntity
  8
dzailki
  6
CONTINUOUS
100
AcDbBlockReference
 66
0
  2
L_0_02_1
 10
8394064.31000000052
 20
5709934.23000000045
 41
0.50
 42
0.50
 43
0.50
 50
343.98
  0
INSERT
  5
39
100
AcDbEntity
  8
dzailki
  6
CONTINUOUS
100
AcDbBlockReference
 66
0
  2
L_0_02_2
 10
8394604.1400000006
 20
5709779.25
 41
0.50
 42
0.50
 43
0.50
 50
163.98
  0
INSERT
  5
3A
100
AcDbEntity
  8
dzailki
  6
CONTINUOUS
100
AcDbBlockReference
 66
0
  2
L_0_02_1
 10
8394604.1400000006
 20
5709779.25
 41
0.50
 42
0.50
 43
0.50
 50
189.70
  0
INSERT
  5
3B
100
AcDbEntity
  8
dzailki
  6
CONTINUOUS
100
AcDbBlockReference
 66
0
  2
L_0_02_2
 10
8394578.50999999978
 20
5709774.87000000011
 41
0.50
 42
0.50
 43
0.50
 50
9.70
  0
INSERT
  5
3C
100
AcDbEntity
  8
dzailki
  6
CONTINUOUS
100
AcDbBlockReference
 66
0
  2
L_0_02_1
 10
8394578.50999999978
 20
5709774.87000000011
 41
0.50
 42
0.50
 43
0.50
 50
163.90
  0
INSERT
  5
3D
100
AcDbEntity
  8
dzailki
  6
CONTINUOUS
100
AcDbBlockReference
 66
0
  2
L_0_02_2
 10
8394098.91000000015
 20
5709913.25999999978
 41
0.50
 42
0.50
 43
0.50
 50
343.90
  0
INSERT
  5
3E
100
AcDbEntity
  8
dzailki
  6
CONTINUOUS
100
AcDbBlockReference
 66
0
  2
L_0_02_1
 10
8394098.91000000015
 20
5709913.25999999978
 41
0.50
 42
0.50
 43
0.50
 50
163.90
  0
INSERT
  5
3F
100
AcDbEntity
  8
dzailki
  6
CONTINUOUS
100
AcDbBlockReference
 66
0
  2
L_0_02_2
 10
8394046.36999999918
 20
5709928.41999999993
 41
0.50
 42
0.50
 43
0.50
 50
343.90
  0
INSERT
  5
40
100
AcDbEntity
  8
dzailki
  6
CONTINUOUS
100
AcDbBlockReference
 66
0
  2
L_0_02_1
 10
8394046.36999999918
 20
5709928.41999999993
 41
0.50
 42
0.50
 43
0.50
 50
69.08
  0
INSERT
  5
41
100
AcDbEntity
  8
dzailki
  6
CONTINUOUS
100
AcDbBlockReference
 66
0
  2
L_0_02_2
 10
8394049.43999999948
 20
5709936.45000000019
 41
0.50
 42
0.50
 43
0.50
 50
249.08
  0
INSERT
  5
42
100
AcDbEntity
  8
dzailki
  6
CONTINUOUS
100
AcDbBlockReference
 66
0
  2
L_0_02_1
 10
8394049.43999999948
 20
5709936.45000000019
 41
0.50
 42
0.50
 43
0.50
 50
164.67
  0
INSERT
  5
43
100
AcDbEntity
  8
dzailki
  6
CONTINUOUS
100
AcDbBlockReference
 66
0
  2
L_0_02_2
 10
8394019.23000000045
 20
5709944.73000000045
 41
0.50
 42
0.50
 43
0.50
 50
344.67
  0
INSERT
  5
44
100
AcDbEntity
  8
dzailki
  6
CONTINUOUS
100
AcDbBlockReference
 66
0
  2
L_0_02_1
 10
8394019.23000000045
 20
5709944.73000000045
 41
0.50
 42
0.50
 43
0.50
 50
163.09
  0
INSERT
  5
45
100
AcDbEntity
  8
dzailki
  6
CONTINUOUS
100
AcDbBlockReference
 66
0
  2
L_0_02_2
 10
8393959.06000000052
 20
5709963.01999999955
 41
0.50
 42
0.50
 43
0.50
 50
343.09
  0
INSERT
  5
46
100
AcDbEntity
  8
dzailki
  6
CONTINUOUS
100
AcDbBlockReference
 66
0
  2
L_0_02_1
 10
8393959.06000000052
 20
5709963.01999999955
 41
0.50
 42
0.50
 43
0.50
 50
67.67
  0
INSERT
  5
47
100
AcDbEntity
  8
dzailki
  6
CONTINUOUS
100
AcDbBlockReference
 66
0
  2
L_0_02_2
 10
8393959.8200000003
 20
5709964.87000000011
 41
0.50
 42
0.50
 43
0.50
 50
247.67
  0
MLINE
  5
48
100
AcDbEntity
  8
dzailki
  6
L_0_02
370
18
100
AcDbMline
  2
L_0_02
340
7
 40
1.0
 70
1
 71
3
 72
11
 73
1
 10
8393959.8200000003
 20
5709964.87000000011
210
0.0
220
0.0
230
1.0
 11
8393959.8200000003
 21
5709964.87000000011
 12
0.956760509905
 22
-0.290876823906
 13
-0.428589460914
 23
0.903499349194
 74
3
 41
0.0
 41
0.25
 41
62.6288493853
 75
0
 11
8394019.98000000045
 21
5709946.58000000007
 12
0.964505145414
 22
-0.264064053726
 13
0.277497458117
 23
0.960726371418
 74
3
 41
0.0
 41
0.25
 41
31.030289320782
 75
0
 11
8394050.15000000037
 21
5709938.3200000003
 12
0.960726242412
 22
-0.277497904751
 13
0.270787571252
 23
0.962639128259
 74
3
 41
0.0
 41
0.25
 41
14.488850023085
 75
0
 11
8394064.31000000052
 21
5709934.23000000045
 12
0.961173786566
 22
-0.275943747925
 13
0.276720916816
 23
0.960950328683
 74
3
 41
0.0
 41
0.25
 41
561.38620725539
 75
0
 11
8394604.1400000006
 21
5709779.25
 12
-0.985709958722
 22
-0.168451409245
 13
0.998479265356
 23
-0.055128546641
 74
3
 41
0.0
 41
0.25
 41
25.751563415322
 75
0
 11
8394578.50999999978
 21
5709774.87000000011
 12
-0.960800196121
 22
0.277241741328
 13
-0.055802850795
 23
-0.998441806939
 74
3
 41
0.0
 41
0.25
 41
498.91725864138
 75
0
 11
8394098.91000000015
 21
5709913.25999999978
 12
-0.960802985129
 22
0.277232075646
 13
-0.27723690849
 23
-0.960801590637
 74
3
 41
0.0
 41
0.25
 41
54.433427106449
 75
0
 11
8394046.36999999918
 21
5709928.41999999993
 12
0.357107617517
 22
0.934063247062
 13
-0.895003451862
 23
-0.446059212611
 74
3
 41
0.0
 41
0.25
 41
8.346848260032
 75
0
 11
8394049.43999999948
 21
5709936.45000000019
 12
-0.964431534398
 22
0.264332774092
 13
-0.891994780473
 23
-0.452045696373
 74
3
 41
0.0
 41
0.25
 41
31.074152022773
 75
0
 11
8394019.23000000045
 21
5709944.73000000045
 12
-0.956773962767
 22
0.290832570686
 13
-0.277609076962
 23
-0.96069412426
 74
3
 41
0.0
 41
0.25
 41
62.638417057184
 75
0
 11
8393959.06000000052
 21
5709963.01999999955
 12
0.379995249895
 22
0.924988437796
 13
-0.903489437208
 23
-0.428610355513
 74
3
 41
0.0
 41
0.25
 41
1.750025000276
 75
0
  0
INSERT
  5
49
100
AcDbEntity
  8
dzailki
  6
CONTINUOUS
100
AcDbBlockReference
 66
0
  2
L_0_02_1
 10
8395227.99000000022
 20
5709595.37999999989
 41
0.50
 42
0.50
 43
0.50
 50
328.18
  0
INSERT
  5
4A
100
AcDbEntity
  8
dzailki
  6
CONTINUOUS
100
AcDbBlockReference
 66
0
  2
L_0_02_2
 10
8395255.28999999911
 20
5709578.44000000041
 41
0.50
 42
0.50
 43
0.50
 50
148.18
  0
INSERT
  5
4B
100
AcDbEntity
  8
dzailki
  6
CONTINUOUS
100
AcDbBlockReference
 66
0
  2
L_0_02_1
 10
8395255.28999999911
 20
5709578.44000000041
 41
0.50
 42
0.50
 43
0.50
 50
238.37
  0
INSERT
  5
4C
100
AcDbEntity
  8
dzailki
  6
CONTINUOUS
100
AcDbBlockReference
 66
0
  2
L_0_02_2
 10
8395253.34999999963
 20
5709575.29000000004
 41
0.50
 42
0.50
 43
0.50
 50
58.37
  0
INSERT
  5
4D
100
AcDbEntity
  8
dzailki
  6
CONTINUOUS
100
AcDbBlockReference
 66
0
  2
L_0_02_1
 10
8395253.34999999963
 20
5709575.29000000004
 41
0.50
 42
0.50
 43
0.50
 50
163.62
  0
INSERT
  5
4E
100
AcDbEntity
  8
dzailki
  6
CONTINUOUS
100
AcDbBlockReference
 66
0
  2
L_0_02_2
 10
8395246.50999999978
 20
5709577.29999999981
 41
0.50
 42
0.50
 43
0.50
 50
343.62
  0
INSERT
  5
4F
100
AcDbEntity
  8
dzailki
  6
CONTINUOUS
100
AcDbBlockReference
 66
0
  2
L_0_02_1
 10
8395246.50999999978
 20
5709577.29999999981
 41
0.50
 42
0.50
 43
0.50
 50
163.66
  0
INSERT
  5
50
100
AcDbEntity
  8
dzailki
  6
CONTINUOUS
100
AcDbBlockReference
 66
0
  2
L_0_02_2
 10
8394771.06000000052
 20
5709716.65000000037
 41
0.50
 42
0.50
 43
0.50
 50
343.66
  0
INSERT
  5
51
100
AcDbEntity
  8
dzailki
  6
CONTINUOUS
100
AcDbBlockReference
 66
0
  2
L_0_02_1
 10
8394771.06000000052
 20
5709716.65000000037
 41
0.50
 42
0.50
 43
0.50
 50
163.68
  0
INSERT
  5
52
100
AcDbEntity
  8
dzailki
  6
CONTINUOUS
100
AcDbBlockReference
 66
0
  2
L_0_02_2
 10
8394581.1400000006
 20
5709772.26999999955
 41
0.50
 42
0.50
 43
0.50
 50
343.68
  0
INSERT
  5
53
100
AcDbEntity
  8
dzailki
  6
CONTINUOUS
100
AcDbBlockReference
 66
0
  2
L_0_02_1
 10
8394581.1400000006
 20
5709772.26999999955
 41
0.50
 42
0.50
 43
0.50
 50
9.71
  0
INSERT
  5
54
100
AcDbEntity
  8
dzailki
  6
CONTINUOUS
100
AcDbBlockReference
 66
0
  2
L_0_02_2
 10
8394606.02999999933
 20
5709776.53000000026
 41
0.50
 42
0.50
 43
0.50
 50
189.71
  0
INSERT
  5
55
100
AcDbEntity
  8
dzailki
  6
CONTINUOUS
100
AcDbBlockReference
 66
0
  2
L_0_02_1
 10
8394606.02999999933
 20
5709776.53000000026
 41
0.50
 42
0.50
 43
0.50
 50
343.71
  0
INSERT
  5
56
100
AcDbEntity
  8
dzailki
  6
CONTINUOUS
100
AcDbBlockReference
 66
0
  2
L_0_02_2
 10
8394774.88000000082
 20
5709727.19000000041
 41
0.50
 42
0.50
 43
0.50
 50
163.71
  0
INSERT
  5
57
100
AcDbEntity
  8
dzailki
  6
CONTINUOUS
100
AcDbBlockReference
 66
0
  2
L_0_02_1
 10
8394774.88000000082
 20
5709727.19000000041
 41
0.50
 42
0.50
 43
0.50
 50
343.78
  0
INSERT
  5
58
100
AcDbEntity
  8
dzailki
  6
CONTINUOUS
100
AcDbBlockReference
 66
0
  2
L_0_02_2
 10
8395227.99000000022
 20
5709595.37999999989
 41
0.50
 42
0.50
 43
0.50
 50
163.78
  0
MLINE
  5
59
100
AcDbEntity
  8
dzailki
  6
L_0_02
370
18
100
AcDbMline
  2
L_0_02
340
7
 40
1.0
 70
1
 71
3
 72
8
 73
1
 10
8395227.99000000022
 20
5709595.37999999989
210
0.0
220
0.0
230
1.0
 11
8395227.99000000022
 21
5709595.37999999989
 12
0.849707485055
 22
-0.527254388168
 13
0.407054553024
 23
0.913403848723
 74
3
 41
0.0
 41
0.25
 41
31.878703676328
 75
0
 11
8395255.28999999911
 21
5709578.44000000041
 12
-0.524399024757
 22
-0.85147264362
 13
0.973275003338
 23
0.229642696112
 74
3
 41
0.0
 41
0.25
 41
3.449472935477
 75
0
 11
8395253.34999999963
 21
5709575.29000000004
 12
-0.959432481489
 22
0.281938492342
 13
0.358337570577
 23
-0.933592087323
 74
3
 41
0.0
 41
0.25
 41
6.879214542785
 75
0
 11
8395246.50999999978
 21
5709577.29999999981
 12
-0.959631831329
 22
0.281259219048
 13
-0.281598873336
 23
-0.959532216518
 74
3
 41
0.0
 41
0.25
 41
495.200426379317
 75
0
 11
8394771.06000000052
 21
5709716.65000000037
 12
-0.959691542208
 22
0.281055410577
 13
-0.281157316398
 23
-0.959661692179
 74
3
 41
0.0
 41
0.25
 41
197.646919632117
 75
0
 11
8394581.1400000006
 21
5709772.26999999955
 12
0.985667441834
 22
0.168700012178
 13
-0.998336305697
 23
0.057659524171
 74
3
 41
0.0
 41
0.25
 41
25.001924677992
 75
0
 11
8394606.02999999933
 21
5709776.53000000026
 12
0.959859171446
 22
-0.280482389805
 13
0.057361500086
 23
0.998353473629
 74
3
 41
0.0
 41
0.25
 41
175.661222213048
 75
0
 11
8394774.88000000082
 21
5709727.19000000041
 12
0.960197466725
 22
-0.279322080929
 13
0.279902286476
 23
0.960028494382
 74
3
 41
0.0
 41
0.25
 41
471.642517634681
 75
0
  0
INSERT
  5
5A
100
AcDbEntity
  8
dzailki
  6
CONTINUOUS
100
AcDbBlockReference
 66
0
  2
L_0_02_1
 10
8393968.81000000052
 20
5709986.79999999981
 41
0.50
 42
0.50
 43
0.50
 50
344.45
  0
INSERT
  5
5B
100
AcDbEntity
  8
dzailki
  6
CONTINUOUS
100
AcDbBlockReference
 66
0
  2
L_0_02_2
 10
8394025.13000000082
 20
5709971.12999999989
 41
0.50
 42
0.50
 43
0.50
 50
164.45
  0
INSERT
  5
5C
100
AcDbEntity
  8
dzailki
  6
CONTINUOUS
100
AcDbBlockReference
 66
0
  2
L_0_02_1
 10
8394025.13000000082
 20
5709971.12999999989
 41
0.50
 42
0.50
 43
0.50
 50
344.40
  0
INSERT
  5
5D
100
AcDbEntity
  8
dzailki
  6
CONTINUOUS
100
AcDbBlockReference
 66
0
  2
L_0_02_2
 10
8394029.5
 20
5709969.91000000015
 41
0.50
 42
0.50
 43
0.50
 50
164.40
  0
INSERT
  5
5E
100
AcDbEntity
  8
dzailki
  6
CONTINUOUS
100
AcDbBlockReference
 66
0
  2
L_0_02_1
 10
8394029.5
 20
5709969.91000000015
 41
0.50
 42
0.50
 43
0.50
 50
247.82
  0
INSERT
  5
5F
100
AcDbEntity
  8
dzailki
  6
CONTINUOUS
100
AcDbBlockReference
 66
0
  2
L_0_02_2
 10
8394027.05000000074
 20
5709963.90000000037
 41
0.50
 42
0.50
 43
0.50
 50
67.82
  0
INSERT
  5
60
100
AcDbEntity
  8
dzailki
  6
CONTINUOUS
100
AcDbBlockReference
 66
0
  2
L_0_02_1
 10
8394027.05000000074
 20
5709963.90000000037
 41
0.50
 42
0.50
 43
0.50
 50
247.82
  0
INSERT
  5
61
100
AcDbEntity
  8
dzailki
  6
CONTINUOUS
100
AcDbBlockReference
 66
0
  2
L_0_02_2
 10
8394024.1799999997
 20
5709956.86000000034
 41
0.50
 42
0.50
 43
0.50
 50
67.82
  0
INSERT
  5
62
100
AcDbEntity
  8
dzailki
  6
CONTINUOUS
100
AcDbBlockReference
 66
0
  2
L_0_02_1
 10
8394024.1799999997
 20
5709956.86000000034
 41
0.50
 42
0.50
 43
0.50
 50
344.00
  0
INSERT
  5
63
100
AcDbEntity
  8
dzailki
  6
CONTINUOUS
100
AcDbBlockReference
 66
0
  2
L_0_02_2
 10
8394067.25999999978
 20
5709944.50999999978
 41
0.50
 42
0.50
 43
0.50
 50
164.00
  0
INSERT
  5
64
100
AcDbEntity
  8
dzailki
  6
CONTINUOUS
100
AcDbBlockReference
 66
0
  2
L_0_02_1
 10
8394067.25999999978
 20
5709944.50999999978
 41
0.50
 42
0.50
 43
0.50
 50
253.99
  0
INSERT
  5
65
100
AcDbEntity
  8
dzailki
  6
CONTINUOUS
100
AcDbBlockReference
 66
0
  2
L_0_02_2
 10
8394064.31000000052
 20
5709934.23000000045
 41
0.50
 42
0.50
 43
0.50
 50
73.99
  0
INSERT
  5
66
100
AcDbEntity
  8
dzailki
  6
CONTINUOUS
100
AcDbBlockReference
 66
0
  2
L_0_02_1
 10
8394064.31000000052
 20
5709934.23000000045
 41
0.50
 42
0.50
 43
0.50
 50
163.89
  0
INSERT
  5
67
100
AcDbEntity
  8
dzailki
  6
CONTINUOUS
100
AcDbBlockReference
 66
0
  2
L_0_02_2
 10
8394050.15000000037
 20
5709938.3200000003
 41
0.50
 42
0.50
 43
0.50
 50
343.89
  0
INSERT
  5
68
100
AcDbEntity
  8
dzailki
  6
CONTINUOUS
100
AcDbBlockReference
 66
0
  2
L_0_02_1
 10
8394050.15000000037
 20
5709938.3200000003
 41
0.50
 42
0.50
 43
0.50
 50
164.69
  0
INSERT
  5
69
100
AcDbEntity
  8
dzailki
  6
CONTINUOUS
100
AcDbBlockReference
 66
0
  2
L_0_02_2
 10
8394019.98000000045
 20
5709946.58000000007
 41
0.50
 42
0.50
 43
0.50
 50
344.69
  0
INSERT
  5
6A
100
AcDbEntity
  8
dzailki
  6
CONTINUOUS
100
AcDbBlockReference
 66
0
  2
L_0_02_1
 10
8394019.98000000045
 20
5709946.58000000007
 41
0.50
 42
0.50
 43
0.50
 50
163.09
  0
INSERT
  5
6B
100
AcDbEntity
  8
dzailki
  6
CONTINUOUS
100
AcDbBlockReference
 66
0
  2
L_0_02_2
 10
8393959.8200000003
 20
5709964.87000000011
 41
0.50
 42
0.50
 43
0.50
 50
343.09
  0
INSERT
  5
6C
100
AcDbEntity
  8
dzailki
  6
CONTINUOUS
100
AcDbBlockReference
 66
0
  2
L_0_02_1
 10
8393959.8200000003
 20
5709964.87000000011
 41
0.50
 42
0.50
 43
0.50
 50
67.71
  0
INSERT
  5
6D
100
AcDbEntity
  8
dzailki
  6
CONTINUOUS
100
AcDbBlockReference
 66
0
  2
L_0_02_2
 10
8393968.81000000052
 20
5709986.79999999981
 41
0.50
 42
0.50
 43
0.50
 50
247.71
  0
MLINE
  5
6E
100
AcDbEntity
  8
dzailki
  6
L_0_02
370
18
100
AcDbMline
  2
L_0_02
340
7
 40
1.0
 70
1
 71
3
 72
10
 73
1
 10
8393968.81000000052
 20
5709986.79999999981
210
0.0
220
0.0
230
1.0
 11
8393968.81000000052
 21
5709986.79999999981
 12
0.963405091775
 22
-0.268049676633
 13
-0.439633780303
 23
0.898177120181
 74
3
 41
0.0
 41
0.25
 41
58.209313201844
 75
0
 11
8394025.13000000082
 21
5709971.12999999989
 12
0.963169755147
 22
-0.268894073512
 13
0.268471900859
 23
0.963287515983
 74
3
 41
0.0
 41
0.25
 41
4.287102598818
 75
0
 11
8394029.5
 21
5709969.91000000015
 12
-0.377492649295
 22
-0.926012580762
 13
0.897938972747
 23
0.440119985029
 74
3
 41
0.0
 41
0.25
 41
6.24019260066
 75
0
 11
8394027.05000000074
 21
5709963.90000000037
 12
-0.377505786545
 22
-0.926007225201
 13
0.926009903005
 23
-0.377499217929
 74
3
 41
0.0
 41
0.25
 41
7.35253247323
 75
0
 11
8394024.1799999997
 21
5709956.86000000034
 12
0.961279378823
 22
-0.275575680803
 13
0.899464729577
 23
0.436993364077
 74
3
 41
0.0
 41
0.25
 41
44.565275297829
 75
0
 11
8394067.25999999978
 21
5709944.50999999978
 12
-0.275832389184
 22
-0.961205749607
 13
0.874653336063
 23
0.484748947099
 74
3
 41
0.0
 41
0.25
 41
10.4449006532
 75
0
 11
8394064.31000000052
 21
5709934.23000000045
 12
-0.960726242412
 22
0.277497904751
 13
0.483873952416
 23
-0.875137702407
 74
3
 41
0.0
 41
0.25
 41
14.488850023085
 75
0
 11
8394050.15000000037
 21
5709938.3200000003
 12
-0.964505145414
 22
0.264064053726
 13
-0.270787571252
 23
-0.962639128259
 74
3
 41
0.0
 41
0.25
 41
31.030289320782
 75
0
 11
8394019.98000000045
 21
5709946.58000000007
 12
-0.956760509905
 22
0.290876823906
 13
-0.277497458117
 23
-0.960726371418
 74
3
 41
0.0
 41
0.25
 41
62.6288493853
 75
0
 11
8393959.8200000003
 21
5709964.87000000011
 12
0.379306324375
 22
0.925271156088
 13
-0.903339705608
 23
-0.428925840062
 74
3
 41
0.0
 41
0.25
 41
23.451160308958
 75
0
  0
INSERT
  5
6F
100
AcDbEntity
  8
dzailki
  6
CONTINUOUS
100
AcDbBlockReference
 66
0
  2
L_0_02_1
 10
8394092.72000000067
 20
5709891.87999999989
 41
0.50
 42
0.50
 43
0.50
 50
73.85
  0
INSERT
  5
70
100
AcDbEntity
  8
dzailki
  6
CONTINUOUS
100
AcDbBlockReference
 66
0
  2
L_0_02_2
 10
8394098.91000000015
 20
5709913.25999999978
 41
0.50
 42
0.50
 43
0.50
 50
253.85
  0
INSERT
  5
71
100
AcDbEntity
  8
dzailki
  6
CONTINUOUS
100
AcDbBlockReference
 66
0
  2
L_0_02_1
 10
8394098.91000000015
 20
5709913.25999999978
 41
0.50
 42
0.50
 43
0.50
 50
343.90
  0
INSERT
  5
72
100
AcDbEntity
  8
dzailki
  6
CONTINUOUS
100
AcDbBlockReference
 66
0
  2
L_0_02_2
 10
8394578.50999999978
 20
5709774.87000000011
 41
0.50
 42
0.50
 43
0.50
 50
163.90
  0
INSERT
  5
73
100
AcDbEntity
  8
dzailki
  6
CONTINUOUS
100
AcDbBlockReference
 66
0
  2
L_0_02_1
 10
8394578.50999999978
 20
5709774.87000000011
 41
0.50
 42
0.50
 43
0.50
 50
189.69
  0
INSERT
  5
74
100
AcDbEntity
  8
dzailki
  6
CONTINUOUS
100
AcDbBlockReference
 66
0
  2
L_0_02_2
 10
8394549.09999999963
 20
5709769.84999999963
 41
0.50
 42
0.50
 43
0.50
 50
9.69
  0
INSERT
  5
75
100
AcDbEntity
  8
dzailki
  6
CONTINUOUS
100
AcDbBlockReference
 66
0
  2
L_0_02_1
 10
8394549.09999999963
 20
5709769.84999999963
 41
0.50
 42
0.50
 43
0.50
 50
189.70
  0
INSERT
  5
76
100
AcDbEntity
  8
dzailki
  6
CONTINUOUS
100
AcDbBlockReference
 66
0
  2
L_0_02_2
 10
8394527.16000000015
 20
5709766.09999999963
 41
0.50
 42
0.50
 43
0.50
 50
9.70
  0
INSERT
  5
77
100
AcDbEntity
  8
dzailki
  6
CONTINUOUS
100
AcDbBlockReference
 66
0
  2
L_0_02_1
 10
8394527.16000000015
 20
5709766.09999999963
 41
0.50
 42
0.50
 43
0.50
 50
163.85
  0
INSERT
  5
78
100
AcDbEntity
  8
dzailki
  6
CONTINUOUS
100
AcDbBlockReference
 66
0
  2
L_0_02_2
 10
8394129.31000000052
 20
5709881.28000000026
 41
0.50
 42
0.50
 43
0.50
 50
343.85
  0
INSERT
  5
79
100
AcDbEntity
  8
dzailki
  6
CONTINUOUS
100
AcDbBlockReference
 66
0
  2
L_0_02_1
 10
8394129.31000000052
 20
5709881.28000000026
 41
0.50
 42
0.50
 43
0.50
 50
163.84
  0
INSERT
  5
7A
100
AcDbEntity
  8
dzailki
  6
CONTINUOUS
100
AcDbBlockReference
 66
0
  2
L_0_02_2
 10
8394092.72000000067
 20
5709891.87999999989
 41
0.50
 42
0.50
 43
0.50
 50
343.84
  0
MLINE
  5
7B
100
AcDbEntity
  8
dzailki
  6
L_0_02
370
18
100
AcDbMline
  2
L_0_02
340
7
 40
1.0
 70
1
 71
3
 72
6
 73
1
 10
8394092.72000000067
 20
5709891.87999999989
210
0.0
220
0.0
230
1.0
 11
8394092.72000000067
 21
5709891.87999999989
 12
0.278101711965
 22
0.960551632033
 13
-0.875898848252
 23
-0.482494774719
 74
3
 41
0.0
 41
0.25
 41
22.008043489686
 75
0
 11
8394098.91000000015
 21
5709913.25999999978
 12
0.960800196121
 22
-0.277241741328
 13
-0.482956940887
 23
0.875644101932
 74
3
 41
0.0
 41
0.25
 41
498.91725864138
 75
0
 11
8394578.50999999978
 21
5709774.87000000011
 12
-0.98574320566
 22
-0.168256745762
 13
0.998436292036
 23
-0.05590143778
 74
3
 41
0.0
 41
0.25
 41
29.585356542425
 75
0
 11
8394549.09999999963
 21
5709769.84999999963
 12
-0.985705505124
 22
-0.168477467835
 13
0.168367107854
 23
-0.98572436157
 74
3
 41
0.0
 41
0.25
 41
22.008169286289
 75
0
 11
8394527.16000000015
 21
5709766.09999999963
 12
-0.960555948688
 22
0.278086801987
 13
-0.056228787827
 23
-0.998417910206
 74
3
 41
0.0
 41
0.25
 41
413.937222038355
 75
0
 11
8394129.31000000052
 21
5709881.28000000026
 12
-0.960507046445
 22
0.278255662531
 13
-0.278171233334
 23
-0.960531501277
 74
3
 41
0.0
 41
0.25
 41
37.844462851984
 75
0
  0
INSERT
  5
7C
100
AcDbEntity
  8
dzailki
  6
CONTINUOUS
100
AcDbBlockReference
 66
0
  2
L_0_02_1
 10
8394555.66999999992
 20
5709767.91999999993
 41
0.50
 42
0.50
 43
0.50
 50
9.69
  0
INSERT
  5
7D
100
AcDbEntity
  8
dzailki
  6
CONTINUOUS
100
AcDbBlockReference
 66
0
  2
L_0_02_2
 10
8394581.1400000006
 20
5709772.26999999955
 41
0.50
 42
0.50
 43
0.50
 50
189.69
  0
INSERT
  5
7E
100
AcDbEntity
  8
dzailki
  6
CONTINUOUS
100
AcDbBlockReference
 66
0
  2
L_0_02_1
 10
8394581.1400000006
 20
5709772.26999999955
 41
0.50
 42
0.50
 43
0.50
 50
343.68
  0
INSERT
  5
7F
100
AcDbEntity
  8
dzailki
  6
CONTINUOUS
100
AcDbBlockReference
 66
0
  2
L_0_02_2
 10
8394771.06000000052
 20
5709716.65000000037
 41
0.50
 42
0.50
 43
0.50
 50
163.68
  0
INSERT
  5
80
100
AcDbEntity
  8
dzailki
  6
CONTINUOUS
100
AcDbBlockReference
 66
0
  2
L_0_02_1
 10
8394771.06000000052
 20
5709716.65000000037
 41
0.50
 42
0.50
 43
0.50
 50
343.66
  0
INSERT
  5
81
100
AcDbEntity
  8
dzailki
  6
CONTINUOUS
100
AcDbBlockReference
 66
0
  2
L_0_02_2
 10
8395246.50999999978
 20
5709577.29999999981
 41
0.50
 42
0.50
 43
0.50
 50
163.66
  0
INSERT
  5
82
100
AcDbEntity
  8
dzailki
  6
CONTINUOUS
100
AcDbBlockReference
 66
0
  2
L_0_02_1
 10
8395246.50999999978
 20
5709577.29999999981
 41
0.50
 42
0.50
 43
0.50
 50
343.62
  0
INSERT
  5
83
100
AcDbEntity
  8
dzailki
  6
CONTINUOUS
100
AcDbBlockReference
 66
0
  2
L_0_02_2
 10
8395253.34999999963
 20
5709575.29000000004
 41
0.50
 42
0.50
 43
0.50
 50
163.62
  0
INSERT
  5
84
100
AcDbEntity
  8
dzailki
  6
CONTINUOUS
100
AcDbBlockReference
 66
0
  2
L_0_02_1
 10
8395253.34999999963
 20
5709575.29000000004
 41
0.50
 42
0.50
 43
0.50
 50
242.30
  0
INSERT
  5
85
100
AcDbEntity
  8
dzailki
  6
CONTINUOUS
100
AcDbBlockReference
 66
0
  2
L_0_02_2
 10
8395249.3599999994
 20
5709567.69000000041
 41
0.50
 42
0.50
 43
0.50
 50
62.30
  0
INSERT
  5
86
100
AcDbEntity
  8
dzailki
  6
CONTINUOUS
100
AcDbBlockReference
 66
0
  2
L_0_02_1
 10
8395249.3599999994
 20
5709567.69000000041
 41
0.50
 42
0.50
 43
0.50
 50
243.80
  0
INSERT
  5
87
100
AcDbEntity
  8
dzailki
  6
CONTINUOUS
100
AcDbBlockReference
 66
0
  2
L_0_02_2
 10
8395248.43999999948
 20
5709565.8200000003
 41
0.50
 42
0.50
 43
0.50
 50
63.80
  0
INSERT
  5
88
100
AcDbEntity
  8
dzailki
  6
CONTINUOUS
100
AcDbBlockReference
 66
0
  2
L_0_02_1
 10
8395248.43999999948
 20
5709565.8200000003
 41
0.50
 42
0.50
 43
0.50
 50
163.84
  0
INSERT
  5
89
100
AcDbEntity
  8
dzailki
  6
CONTINUOUS
100
AcDbBlockReference
 66
0
  2
L_0_02_2
 10
8395243.08999999985
 20
5709567.37000000011
 41
0.50
 42
0.50
 43
0.50
 50
343.84
  0
INSERT
  5
8A
100
AcDbEntity
  8
dzailki
  6
CONTINUOUS
100
AcDbBlockReference
 66
0
  2
L_0_02_1
 10
8395243.08999999985
 20
5709567.37000000011
 41
0.50
 42
0.50
 43
0.50
 50
163.76
  0
INSERT
  5
8B
100
AcDbEntity
  8
dzailki
  6
CONTINUOUS
100
AcDbBlockReference
 66
0
  2
L_0_02_2
 10
8394767.22000000067
 20
5709706.01999999955
 41
0.50
 42
0.50
 43
0.50
 50
343.76
  0
INSERT
  5
8C
100
AcDbEntity
  8
dzailki
  6
CONTINUOUS
100
AcDbBlockReference
 66
0
  2
L_0_02_1
 10
8394767.22000000067
 20
5709706.01999999955
 41
0.50
 42
0.50
 43
0.50
 50
163.69
  0
INSERT
  5
8D
100
AcDbEntity
  8
dzailki
  6
CONTINUOUS
100
AcDbBlockReference
 66
0
  2
L_0_02_2
 10
8394555.66999999992
 20
5709767.91999999993
 41
0.50
 42
0.50
 43
0.50
 50
343.69
  0
MLINE
  5
8E
100
AcDbEntity
  8
dzailki
  6
L_0_02
370
18
100
AcDbMline
  2
L_0_02
340
7
 40
1.0
 70
1
 71
3
 72
9
 73
1
 10
8394555.66999999992
 20
5709767.91999999993
210
0.0
220
0.0
230
1.0
 11
8394555.66999999992
 21
5709767.91999999993
 12
0.985727028239
 22
0.168351494792
 13
-0.998332959694
 23
0.057717428803
 74
3
 41
0.0
 41
0.25
 41
25.588796412196
 75
0
 11
8394581.1400000006
 21
5709772.26999999955
 12
0.959691542208
 22
-0.281055410577
 13
0.057836016387
 23
0.998326096628
 74
3
 41
0.0
 41
0.25
 41
197.646919632117
 75
0
 11
8394771.06000000052
 21
5709716.65000000037
 12
0.959631831329
 22
-0.281259219048
 13
0.281157316398
 23
0.959661692179
 74
3
 41
0.0
 41
0.25
 41
495.200426379317
 75
0
 11
8395246.50999999978
 21
5709577.29999999981
 12
0.959432481489
 22
-0.281938492342
 13
0.281598873336
 23
0.959532216518
 74
3
 41
0.0
 41
0.25
 41
6.879214542785
 75
0
 11
8395253.34999999963
 21
5709575.29000000004
 12
-0.464833899028
 22
-0.885397902818
 13
0.920761774583
 23
0.390125306108
 74
3
 41
0.0
 41
0.25
 41
8.333711318312
 75
0
 11
8395249.3599999994
 21
5709567.69000000041
 12
-0.44144633274
 22
-0.897287654718
 13
0.891419482526
 23
-0.453179110478
 74
3
 41
0.0
 41
0.25
 41
1.834058540512
 75
0
 11
8395248.43999999948
 21
5709565.8200000003
 12
-0.960501145051
 22
0.278276032664
 13
0.403916230926
 23
-0.914795976377
 74
3
 41
0.0
 41
0.25
 41
5.320008976244
 75
0
 11
8395243.08999999985
 21
5709567.37000000011
 12
-0.960078822876
 22
0.279729608489
 13
-0.279002900484
 23
-0.960290258995
 74
3
 41
0.0
 41
0.25
 41
495.407219657966
 75
0
 11
8394767.22000000067
 21
5709706.01999999955
 12
-0.959758286028
 22
0.280827406784
 13
-0.280278553459
 23
-0.959918711387
 74
3
 41
0.0
 41
0.25
 41
220.170081889925
 75
0
  0
INSERT
  5
8F
100
AcDbEntity
  8
dzailki
  6
CONTINUOUS
100
AcDbBlockReference
 66
0
  2
L_0_02_1
 10
8394029.5
 20
5709969.91000000015
 41
0.50
 42
0.50
 43
0.50
 50
343.81
  0
INSERT
  5
90
100
AcDbEntity
  8
dzailki
  6
CONTINUOUS
100
AcDbBlockReference
 66
0
  2
L_0_02_2
 10
8394655.8900000006
 20
5709788.08000000007
 41
0.50
 42
0.50
 43
0.50
 50
163.81
  0
INSERT
  5
91
100
AcDbEntity
  8
dzailki
  6
CONTINUOUS
100
AcDbBlockReference
 66
0
  2
L_0_02_1
 10
8394655.8900000006
 20
5709788.08000000007
 41
0.50
 42
0.50
 43
0.50
 50
189.67
  0
INSERT
  5
92
100
AcDbEntity
  8
dzailki
  6
CONTINUOUS
100
AcDbBlockReference
 66
0
  2
L_0_02_2
 10
8394642.3900000006
 20
5709785.78000000026
 41
0.50
 42
0.50
 43
0.50
 50
9.67
  0
INSERT
  5
93
100
AcDbEntity
  8
dzailki
  6
CONTINUOUS
100
AcDbBlockReference
 66
0
  2
L_0_02_1
 10
8394642.3900000006
 20
5709785.78000000026
 41
0.50
 42
0.50
 43
0.50
 50
163.86
  0
INSERT
  5
94
100
AcDbEntity
  8
dzailki
  6
CONTINUOUS
100
AcDbBlockReference
 66
0
  2
L_0_02_2
 10
8394027.05000000074
 20
5709963.90000000037
 41
0.50
 42
0.50
 43
0.50
 50
343.86
  0
INSERT
  5
95
100
AcDbEntity
  8
dzailki
  6
CONTINUOUS
100
AcDbBlockReference
 66
0
  2
L_0_02_1
 10
8394027.05000000074
 20
5709963.90000000037
 41
0.50
 42
0.50
 43
0.50
 50
67.82
  0
INSERT
  5
96
100
AcDbEntity
  8
dzailki
  6
CONTINUOUS
100
AcDbBlockReference
 66
0
  2
L_0_02_2
 10
8394029.5
 20
5709969.91000000015
 41
0.50
 42
0.50
 43
0.50
 50
247.82
  0
MLINE
  5
97
100
AcDbEntity
  8
dzailki
  6
L_0_02
370
18
100
AcDbMline
  2
L_0_02
340
7
 40
1.0
 70
1
 71
3
 72
4
 73
1
 10
8394029.5
 20
5709969.91000000015
210
0.0
220
0.0
230
1.0
 11
8394029.5
 21
5709969.91000000015
 12
0.960356555066
 22
-0.278774617104
 13
-0.435501812353
 23
0.900187853416
 74
3
 41
0.0
 41
0.25
 41
651.997331156498
 75
0
 11
8394655.8900000006
 21
5709788.08000000007
 12
-0.985795457604
 22
-0.167950337208
 13
0.998382547076
 23
-0.056853229409
 74
3
 41
0.0
 41
0.25
 41
13.444524453195
 75
0
 11
8394642.3900000006
 21
5709785.78000000026
 12
-0.960566239372
 22
0.278051253871
 13
-0.056477263794
 23
-0.998403885546
 74
3
 41
0.0
 41
0.25
 41
640.351319074396
 75
0
 11
8394027.05000000074
 21
5709963.90000000037
 12
0.377492649295
 22
0.926012580762
 13
-0.900023792381
 23
-0.435840765817
 74
3
 41
0.0
 41
0.25
 41
6.24019260066
 75
0
  0
INSERT
  5
98
100
AcDbEntity
  8
dzailki
  6
CONTINUOUS
100
AcDbBlockReference
 66
0
  2
L_0_02_1
 10
8393974.02999999933
 20
5709999.54999999981
 41
0.50
 42
0.50
 43
0.50
 50
343.56
  0
INSERT
  5
99
100
AcDbEntity
  8
dzailki
  6
CONTINUOUS
100
AcDbBlockReference
 66
0
  2
L_0_02_2
 10
8394028.56000000052
 20
5709983.45999999996
 41
0.50
 42
0.50
 43
0.50
 50
163.56
  0
INSERT
  5
9A
100
AcDbEntity
  8
dzailki
  6
CONTINUOUS
100
AcDbBlockReference
 66
0
  2
L_0_02_1
 10
8394028.56000000052
 20
5709983.45999999996
 41
0.50
 42
0.50
 43
0.50
 50
254.47
  0
INSERT
  5
9B
100
AcDbEntity
  8
dzailki
  6
CONTINUOUS
100
AcDbBlockReference
 66
0
  2
L_0_02_2
 10
8394026.86999999918
 20
5709977.37999999989
 41
0.50
 42
0.50
 43
0.50
 50
74.47
  0
INSERT
  5
9C
100
AcDbEntity
  8
dzailki
  6
CONTINUOUS
100
AcDbBlockReference
 66
0
  2
L_0_02_1
 10
8394026.86999999918
 20
5709977.37999999989
 41
0.50
 42
0.50
 43
0.50
 50
254.44
  0
INSERT
  5
9D
100
AcDbEntity
  8
dzailki
  6
CONTINUOUS
100
AcDbBlockReference
 66
0
  2
L_0_02_2
 10
8394025.13000000082
 20
5709971.12999999989
 41
0.50
 42
0.50
 43
0.50
 50
74.44
  0
INSERT
  5
9E
100
AcDbEntity
  8
dzailki
  6
CONTINUOUS
100
AcDbBlockReference
 66
0
  2
L_0_02_1
 10
8394025.13000000082
 20
5709971.12999999989
 41
0.50
 42
0.50
 43
0.50
 50
164.45
  0
INSERT
  5
9F
100
AcDbEntity
  8
dzailki
  6
CONTINUOUS
100
AcDbBlockReference
 66
0
  2
L_0_02_2
 10
8393968.81000000052
 20
5709986.79999999981
 41
0.50
 42
0.50
 43
0.50
 50
344.45
  0
INSERT
  5
A0
100
AcDbEntity
  8
dzailki
  6
CONTINUOUS
100
AcDbBlockReference
 66
0
  2
L_0_02_1
 10
8393968.81000000052
 20
5709986.79999999981
 41
0.50
 42
0.50
 43
0.50
 50
67.74
  0
INSERT
  5
A1
100
AcDbEntity
  8
dzailki
  6
CONTINUOUS
100
AcDbBlockReference
 66
0
  2
L_0_02_2
 10
8393974.02999999933
 20
5709999.54999999981
 41
0.50
 42
0.50
 43
0.50
 50
247.74
  0
MLINE
  5
A2
100
AcDbEntity
  8
dzailki
  6
L_0_02
370
18
100
AcDbMline
  2
L_0_02
340
7
 40
1.0
 70
1
 71
3
 72
5
 73
1
 10
8393974.02999999933
 20
5709999.54999999981
210
0.0
220
0.0
230
1.0
 11
8393974.02999999933
 21
5709999.54999999981
 12
0.959118667966
 22
-0.283004206255
 13
-0.432838303915
 23
0.901471576182
 74
3
 41
0.0
 41
0.25
 41
56.604278643961
 75
0
 11
8394028.56000000052
 21
5709983.45999999996
 12
-0.267807320625
 22
-0.963472490017
 13
0.874507223502
 23
0.485012490604
 74
3
 41
0.0
 41
0.25
 41
6.060507111591
 75
0
 11
8394026.86999999918
 21
5709977.37999999989
 12
-0.268200306061
 22
-0.96336316923
 13
0.963417849661
 23
-0.268003818917
 74
3
 41
0.0
 41
0.25
 41
6.237688339794
 75
0
 11
8394025.13000000082
 21
5709971.12999999989
 12
-0.963405091775
 22
0.268049676633
 13
0.491622453481
 23
-0.870808453814
 74
3
 41
0.0
 41
0.25
 41
58.209313201844
 75
0
 11
8393968.81000000052
 21
5709986.79999999981
 12
0.378887195653
 22
0.925442863158
 13
-0.898077533878
 23
-0.439837177992
 74
3
 41
0.0
 41
0.25
 41
13.527187666122
 75
0
  0
INSERT
  5
A3
100
AcDbEntity
  8
dzailki
  6
CONTINUOUS
100
AcDbBlockReference
 66
0
  2
L_0_02_1
 10
8393998.75999999978
 20
5710059.87000000011
 41
0.50
 42
0.50
 43
0.50
 50
247.69
  0
INSERT
  5
A4
100
AcDbEntity
  8
dzailki
  6
CONTINUOUS
100
AcDbBlockReference
 66
0
  2
L_0_02_2
 10
8393992.75999999978
 20
5710045.25
 41
0.50
 42
0.50
 43
0.50
 50
67.69
  0
INSERT
  5
A5
100
AcDbEntity
  8
dzailki
  6
CONTINUOUS
100
AcDbBlockReference
 66
0
  2
L_0_02_1
 10
8393992.75999999978
 20
5710045.25
 41
0.50
 42
0.50
 43
0.50
 50
247.79
  0
INSERT
  5
A6
100
AcDbEntity
  8
dzailki
  6
CONTINUOUS
100
AcDbBlockReference
 66
0
  2
L_0_02_2
 10
8393990.77999999933
 20
5710040.40000000037
 41
0.50
 42
0.50
 43
0.50
 50
67.79
  0
INSERT
  5
A7
100
AcDbEntity
  8
dzailki
  6
CONTINUOUS
100
AcDbBlockReference
 66
0
  2
L_0_02_1
 10
8393990.77999999933
 20
5710040.40000000037
 41
0.50
 42
0.50
 43
0.50
 50
247.44
  0
INSERT
  5
A8
100
AcDbEntity
  8
dzailki
  6
CONTINUOUS
100
AcDbBlockReference
 66
0
  2
L_0_02_2
 10
8393989.65000000037
 20
5710037.6799999997
 41
0.50
 42
0.50
 43
0.50
 50
67.44
  0
INSERT
  5
A9
100
AcDbEntity
  8
dzailki
  6
CONTINUOUS
100
AcDbBlockReference
 66
0
  2
L_0_02_1
 10
8393989.65000000037
 20
5710037.6799999997
 41
0.50
 42
0.50
 43
0.50
 50
247.77
  0
INSERT
  5
AA
100
AcDbEntity
  8
dzailki
  6
CONTINUOUS
100
AcDbBlockReference
 66
0
  2
L_0_02_2
 10
8393987.48000000045
 20
5710032.37000000011
 41
0.50
 42
0.50
 43
0.50
 50
67.77
  0
INSERT
  5
AB
100
AcDbEntity
  8
dzailki
  6
CONTINUOUS
100
AcDbBlockReference
 66
0
  2
L_0_02_1
 10
8393987.48000000045
 20
5710032.37000000011
 41
0.50
 42
0.50
 43
0.50
 50
247.72
  0
INSERT
  5
AC
100
AcDbEntity
  8
dzailki
  6
CONTINUOUS
100
AcDbBlockReference
 66
0
  2
L_0_02_2
 10
8393981.56000000052
 20
5710017.91999999993
 41
0.50
 42
0.50
 43
0.50
 50
67.72
  0
INSERT
  5
AD
100
AcDbEntity
  8
dzailki
  6
CONTINUOUS
100
AcDbBlockReference
 66
0
  2
L_0_02_1
 10
8393981.56000000052
 20
5710017.91999999993
 41
0.50
 42
0.50
 43
0.50
 50
247.71
  0
INSERT
  5
AE
100
AcDbEntity
  8
dzailki
  6
CONTINUOUS
100
AcDbBlockReference
 66
0
  2
L_0_02_2
 10
8393979.58000000008
 20
5710013.08999999985
 41
0.50
 42
0.50
 43
0.50
 50
67.71
  0
INSERT
  5
AF
100
AcDbEntity
  8
dzailki
  6
CONTINUOUS
100
AcDbBlockReference
 66
0
  2
L_0_02_1
 10
8393979.58000000008
 20
5710013.08999999985
 41
0.50
 42
0.50
 43
0.50
 50
247.76
  0
INSERT
  5
B0
100
AcDbEntity
  8
dzailki
  6
CONTINUOUS
100
AcDbBlockReference
 66
0
  2
L_0_02_2
 10
8393977.49000000022
 20
5710007.98000000045
 41
0.50
 42
0.50
 43
0.50
 50
67.76
  0
INSERT
  5
B1
100
AcDbEntity
  8
dzailki
  6
CONTINUOUS
100
AcDbBlockReference
 66
0
  2
L_0_02_1
 10
8393977.49000000022
 20
5710007.98000000045
 41
0.50
 42
0.50
 43
0.50
 50
247.72
  0
INSERT
  5
B2
100
AcDbEntity
  8
dzailki
  6
CONTINUOUS
100
AcDbBlockReference
 66
0
  2
L_0_02_2
 10
8393975.90000000037
 20
5710004.09999999963
 41
0.50
 42
0.50
 43
0.50
 50
67.72
  0
INSERT
  5
B3
100
AcDbEntity
  8
dzailki
  6
CONTINUOUS
100
AcDbBlockReference
 66
0
  2
L_0_02_1
 10
8393975.90000000037
 20
5710004.09999999963
 41
0.50
 42
0.50
 43
0.50
 50
247.66
  0
INSERT
  5
B4
100
AcDbEntity
  8
dzailki
  6
CONTINUOUS
100
AcDbBlockReference
 66
0
  2
L_0_02_2
 10
8393974.02999999933
 20
5709999.54999999981
 41
0.50
 42
0.50
 43
0.50
 50
67.66
  0
INSERT
  5
B5
100
AcDbEntity
  8
dzailki
  6
CONTINUOUS
100
AcDbBlockReference
 66
0
  2
L_0_02_1
 10
8393974.02999999933
 20
5709999.54999999981
 41
0.50
 42
0.50
 43
0.50
 50
247.74
  0
INSERT
  5
B6
100
AcDbEntity
  8
dzailki
  6
CONTINUOUS
100
AcDbBlockReference
 66
0
  2
L_0_02_2
 10
8393968.81000000052
 20
5709986.79999999981
 41
0.50
 42
0.50
 43
0.50
 50
67.74
  0
INSERT
  5
B7
100
AcDbEntity
  8
dzailki
  6
CONTINUOUS
100
AcDbBlockReference
 66
0
  2
L_0_02_1
 10
8393968.81000000052
 20
5709986.79999999981
 41
0.50
 42
0.50
 43
0.50
 50
247.71
  0
INSERT
  5
B8
100
AcDbEntity
  8
dzailki
  6
CONTINUOUS
100
AcDbBlockReference
 66
0
  2
L_0_02_2
 10
8393959.8200000003
 20
5709964.87000000011
 41
0.50
 42
0.50
 43
0.50
 50
67.71
  0
INSERT
  5
B9
100
AcDbEntity
  8
dzailki
  6
CONTINUOUS
100
AcDbBlockReference
 66
0
  2
L_0_02_1
 10
8393959.8200000003
 20
5709964.87000000011
 41
0.50
 42
0.50
 43
0.50
 50
247.67
  0
INSERT
  5
BA
100
AcDbEntity
  8
dzailki
  6
CONTINUOUS
100
AcDbBlockReference
 66
0
  2
L_0_02_2
 10
8393959.06000000052
 20
5709963.01999999955
 41
0.50
 42
0.50
 43
0.50
 50
67.67
  0
INSERT
  5
BB
100
AcDbEntity
  8
dzailki
  6
CONTINUOUS
100
AcDbBlockReference
 66
0
  2
L_0_02_1
 10
8393959.06000000052
 20
5709963.01999999955
 41
0.50
 42
0.50
 43
0.50
 50
247.71
  0
INSERT
  5
BC
100
AcDbEntity
  8
dzailki
  6
CONTINUOUS
100
AcDbBlockReference
 66
0
  2
L_0_02_2
 10
8393947.18999999948
 20
5709934.05999999959
 41
0.50
 42
0.50
 43
0.50
 50
67.71
  0
INSERT
  5
BD
100
AcDbEntity
  8
dzailki
  6
CONTINUOUS
100
AcDbBlockReference
 66
0
  2
L_0_02_1
 10
8393947.18999999948
 20
5709934.05999999959
 41
0.50
 42
0.50
 43
0.50
 50
247.72
  0
INSERT
  5
BE
100
AcDbEntity
  8
dzailki
  6
CONTINUOUS
100
AcDbBlockReference
 66
0
  2
L_0_02_2
 10
8393941.3200000003
 20
5709919.73000000045
 41
0.50
 42
0.50
 43
0.50
 50
67.72
  0
INSERT
  5
BF
100
AcDbEntity
  8
dzailki
  6
CONTINUOUS
100
AcDbBlockReference
 66
0
  2
L_0_02_1
 10
8393941.3200000003
 20
5709919.73000000045
 41
0.50
 42
0.50
 43
0.50
 50
247.59
  0
INSERT
  5
C0
100
AcDbEntity
  8
dzailki
  6
CONTINUOUS
100
AcDbBlockReference
 66
0
  2
L_0_02_2
 10
8393939.98000000045
 20
5709916.48000000045
 41
0.50
 42
0.50
 43
0.50
 50
67.59
  0
INSERT
  5
C1
100
AcDbEntity
  8
dzailki
  6
CONTINUOUS
100
AcDbBlockReference
 66
0
  2
L_0_02_1
 10
8393939.98000000045
 20
5709916.48000000045
 41
0.50
 42
0.50
 43
0.50
 50
247.77
  0
INSERT
  5
C2
100
AcDbEntity
  8
dzailki
  6
CONTINUOUS
100
AcDbBlockReference
 66
0
  2
L_0_02_2
 10
8393937.90000000037
 20
5709911.38999999966
 41
0.50
 42
0.50
 43
0.50
 50
67.77
  0
INSERT
  5
C3
100
AcDbEntity
  8
dzailki
  6
CONTINUOUS
100
AcDbBlockReference
 66
0
  2
L_0_02_1
 10
8393937.90000000037
 20
5709911.38999999966
 41
0.50
 42
0.50
 43
0.50
 50
247.67
  0
INSERT
  5
C4
100
AcDbEntity
  8
dzailki
  6
CONTINUOUS
100
AcDbBlockReference
 66
0
  2
L_0_02_2
 10
8393934.8200000003
 20
5709903.88999999966
 41
0.50
 42
0.50
 43
0.50
 50
67.67
  0
INSERT
  5
C5
100
AcDbEntity
  8
dzailki
  6
CONTINUOUS
100
AcDbBlockReference
 66
0
  2
L_0_02_1
 10
8393934.8200000003
 20
5709903.88999999966
 41
0.50
 42
0.50
 43
0.50
 50
247.75
  0
INSERT
  5
C6
100
AcDbEntity
  8
dzailki
  6
CONTINUOUS
100
AcDbBlockReference
 66
0
  2
L_0_02_2
 10
8393932.6799999997
 20
5709898.66000000015
 41
0.50
 42
0.50
 43
0.50
 50
67.75
  0
INSERT
  5
C7
100
AcDbEntity
  8
dzailki
  6
CONTINUOUS
100
AcDbBlockReference
 66
0
  2
L_0_02_1
 10
8393932.6799999997
 20
5709898.66000000015
 41
0.50
 42
0.50
 43
0.50
 50
247.32
  0
INSERT
  5
C8
100
AcDbEntity
  8
dzailki
  6
CONTINUOUS
100
AcDbBlockReference
 66
0
  2
L_0_02_2
 10
8393930.3900000006
 20
5709893.1799999997
 41
0.50
 42
0.50
 43
0.50
 50
67.32
  0
INSERT
  5
C9
100
AcDbEntity
  8
dzailki
  6
CONTINUOUS
100
AcDbBlockReference
 66
0
  2
L_0_02_1
 10
8393930.3900000006
 20
5709893.1799999997
 41
0.50
 42
0.50
 43
0.50
 50
245.58
  0
INSERT
  5
CA
100
AcDbEntity
  8
dzailki
  6
CONTINUOUS
100
AcDbBlockReference
 66
0
  2
L_0_02_2
 10
8393922.52999999933
 20
5709875.87000000011
 41
0.50
 42
0.50
 43
0.50
 50
65.58
  0
INSERT
  5
CB
100
AcDbEntity
  8
dzailki
  6
CONTINUOUS
100
AcDbBlockReference
 66
0
  2
L_0_02_1
 10
8393922.52999999933
 20
5709875.87000000011
 41
0.50
 42
0.50
 43
0.50
 50
247.45
  0
INSERT
  5
CC
100
AcDbEntity
  8
dzailki
  6
CONTINUOUS
100
AcDbBlockReference
 66
0
  2
L_0_02_2
 10
8393911.8900000006
 20
5709850.25
 41
0.50
 42
0.50
 43
0.50
 50
67.45
  0
INSERT
  5
CD
100
AcDbEntity
  8
dzailki
  6
CONTINUOUS
100
AcDbBlockReference
 66
0
  2
L_0_02_1
 10
8393911.8900000006
 20
5709850.25
 41
0.50
 42
0.50
 43
0.50
 50
161.11
  0
INSERT
  5
CE
100
AcDbEntity
  8
dzailki
  6
CONTINUOUS
100
AcDbBlockReference
 66
0
  2
L_0_02_2
 10
8393904.28999999911
 20
5709852.84999999963
 41
0.50
 42
0.50
 43
0.50
 50
341.11
  0
INSERT
  5
CF
100
AcDbEntity
  8
dzailki
  6
CONTINUOUS
100
AcDbBlockReference
 66
0
  2
L_0_02_1
 10
8393904.28999999911
 20
5709852.84999999963
 41
0.50
 42
0.50
 43
0.50
 50
67.77
  0
INSERT
  5
D0
100
AcDbEntity
  8
dzailki
  6
CONTINUOUS
100
AcDbBlockReference
 66
0
  2
L_0_02_2
 10
8393911.21000000089
 20
5709869.78000000026
 41
0.50
 42
0.50
 43
0.50
 50
247.77
  0
INSERT
  5
D1
100
AcDbEntity
  8
dzailki
  6
CONTINUOUS
100
AcDbBlockReference
 66
0
  2
L_0_02_1
 10
8393911.21000000089
 20
5709869.78000000026
 41
0.50
 42
0.50
 43
0.50
 50
67.73
  0
INSERT
  5
D2
100
AcDbEntity
  8
dzailki
  6
CONTINUOUS
100
AcDbBlockReference
 66
0
  2
L_0_02_2
 10
8393917.78999999911
 20
5709885.84999999963
 41
0.50
 42
0.50
 43
0.50
 50
247.73
  0
INSERT
  5
D3
100
AcDbEntity
  8
dzailki
  6
CONTINUOUS
100
AcDbBlockReference
 66
0
  2
L_0_02_1
 10
8393917.78999999911
 20
5709885.84999999963
 41
0.50
 42
0.50
 43
0.50
 50
67.75
  0
INSERT
  5
D4
100
AcDbEntity
  8
dzailki
  6
CONTINUOUS
100
AcDbBlockReference
 66
0
  2
L_0_02_2
 10
8393924.5700000003
 20
5709902.41999999993
 41
0.50
 42
0.50
 43
0.50
 50
247.75
  0
INSERT
  5
D5
100
AcDbEntity
  8
dzailki
  6
CONTINUOUS
100
AcDbBlockReference
 66
0
  2
L_0_02_1
 10
8393924.5700000003
 20
5709902.41999999993
 41
0.50
 42
0.50
 43
0.50
 50
67.76
  0
INSERT
  5
D6
100
AcDbEntity
  8
dzailki
  6
CONTINUOUS
100
AcDbBlockReference
 66
0
  2
L_0_02_2
 10
8393931.23000000045
 20
5709918.70999999996
 41
0.50
 42
0.50
 43
0.50
 50
247.76
  0
INSERT
  5
D7
100
AcDbEntity
  8
dzailki
  6
CONTINUOUS
100
AcDbBlockReference
 66
0
  2
L_0_02_1
 10
8393931.23000000045
 20
5709918.70999999996
 41
0.50
 42
0.50
 43
0.50
 50
67.75
  0
INSERT
  5
D8
100
AcDbEntity
  8
dzailki
  6
CONTINUOUS
100
AcDbBlockReference
 66
0
  2
L_0_02_2
 10
8393944.0700000003
 20
5709950.08999999985
 41
0.50
 42
0.50
 43
0.50
 50
247.75
  0
INSERT
  5
D9
100
AcDbEntity
  8
dzailki
  6
CONTINUOUS
100
AcDbBlockReference
 66
0
  2
L_0_02_1
 10
8393944.0700000003
 20
5709950.08999999985
 41
0.50
 42
0.50
 43
0.50
 50
67.75
  0
INSERT
  5
DA
100
AcDbEntity
  8
dzailki
  6
CONTINUOUS
100
AcDbBlockReference
 66
0
  2
L_0_02_2
 10
8393958.08000000007
 20
5709984.33999999985
 41
0.50
 42
0.50
 43
0.50
 50
247.75
  0
INSERT
  5
DB
100
AcDbEntity
  8
dzailki
  6
CONTINUOUS
100
AcDbBlockReference
 66
0
  2
L_0_02_1
 10
8393958.08000000007
 20
5709984.33999999985
 41
0.50
 42
0.50
 43
0.50
 50
67.75
  0
INSERT
  5
DC
100
AcDbEntity
  8
dzailki
  6
CONTINUOUS
100
AcDbBlockReference
 66
0
  2
L_0_02_2
 10
8393964.8599999994
 20
5710000.91000000015
 41
0.50
 42
0.50
 43
0.50
 50
247.75
  0
INSERT
  5
DD
100
AcDbEntity
  8
dzailki
  6
CONTINUOUS
100
AcDbBlockReference
 66
0
  2
L_0_02_1
 10
8393964.8599999994
 20
5710000.91000000015
 41
0.50
 42
0.50
 43
0.50
 50
67.70
  0
INSERT
  5
DE
100
AcDbEntity
  8
dzailki
  6
CONTINUOUS
100
AcDbBlockReference
 66
0
  2
L_0_02_2
 10
8393971.72000000067
 20
5710017.63999999966
 41
0.50
 42
0.50
 43
0.50
 50
247.70
  0
INSERT
  5
DF
100
AcDbEntity
  8
dzailki
  6
CONTINUOUS
100
AcDbBlockReference
 66
0
  2
L_0_02_1
 10
8393971.72000000067
 20
5710017.63999999966
 41
0.50
 42
0.50
 43
0.50
 50
67.70
  0
INSERT
  5
E0
100
AcDbEntity
  8
dzailki
  6
CONTINUOUS
100
AcDbBlockReference
 66
0
  2
L_0_02_2
 10
8393977.94999999926
 20
5710032.83000000007
 41
0.50
 42
0.50
 43
0.50
 50
247.70
  0
INSERT
  5
E1
100
AcDbEntity
  8
dzailki
  6
CONTINUOUS
100
AcDbBlockReference
 66
0
  2
L_0_02_1
 10
8393977.94999999926
 20
5710032.83000000007
 41
0.50
 42
0.50
 43
0.50
 50
67.73
  0
INSERT
  5
E2
100
AcDbEntity
  8
dzailki
  6
CONTINUOUS
100
AcDbBlockReference
 66
0
  2
L_0_02_2
 10
8393984.6799999997
 20
5710049.25999999978
 41
0.50
 42
0.50
 43
0.50
 50
247.73
  0
INSERT
  5
E3
100
AcDbEntity
  8
dzailki
  6
CONTINUOUS
100
AcDbBlockReference
 66
0
  2
L_0_02_1
 10
8393984.6799999997
 20
5710049.25999999978
 41
0.50
 42
0.50
 43
0.50
 50
67.70
  0
INSERT
  5
E4
100
AcDbEntity
  8
dzailki
  6
CONTINUOUS
100
AcDbBlockReference
 66
0
  2
L_0_02_2
 10
8393991.9299999997
 20
5710066.94000000041
 41
0.50
 42
0.50
 43
0.50
 50
247.70
  0
INSERT
  5
E5
100
AcDbEntity
  8
dzailki
  6
CONTINUOUS
100
AcDbBlockReference
 66
0
  2
L_0_02_1
 10
8393991.9299999997
 20
5710066.94000000041
 41
0.50
 42
0.50
 43
0.50
 50
67.71
  0
INSERT
  5
E6
100
AcDbEntity
  8
dzailki
  6
CONTINUOUS
100
AcDbBlockReference
 66
0
  2
L_0_02_2
 10
8393999.05000000074
 20
5710084.30999999959
 41
0.50
 42
0.50
 43
0.50
 50
247.71
  0
INSERT
  5
E7
100
AcDbEntity
  8
dzailki
  6
CONTINUOUS
100
AcDbBlockReference
 66
0
  2
L_0_02_1
 10
8393999.05000000074
 20
5710084.30999999959
 41
0.50
 42
0.50
 43
0.50
 50
67.73
  0
INSERT
  5
E8
100
AcDbEntity
  8
dzailki
  6
CONTINUOUS
100
AcDbBlockReference
 66
0
  2
L_0_02_2
 10
8394005.63000000082
 20
5710100.37999999989
 41
0.50
 42
0.50
 43
0.50
 50
247.73
  0
INSERT
  5
E9
100
AcDbEntity
  8
dzailki
  6
CONTINUOUS
100
AcDbBlockReference
 66
0
  2
L_0_02_1
 10
8394005.63000000082
 20
5710100.37999999989
 41
0.50
 42
0.50
 43
0.50
 50
67.72
  0
INSERT
  5
EA
100
AcDbEntity
  8
dzailki
  6
CONTINUOUS
100
AcDbBlockReference
 66
0
  2
L_0_02_2
 10
8394012.31000000052
 20
5710116.6799999997
 41
0.50
 42
0.50
 43
0.50
 50
247.72
  0
INSERT
  5
EB
100
AcDbEntity
  8
dzailki
  6
CONTINUOUS
100
AcDbBlockReference
 66
0
  2
L_0_02_1
 10
8394012.31000000052
 20
5710116.6799999997
 41
0.50
 42
0.50
 43
0.50
 50
67.70
  0
INSERT
  5
EC
100
AcDbEntity
  8
dzailki
  6
CONTINUOUS
100
AcDbBlockReference
 66
0
  2
L_0_02_2
 10
8394018.83999999985
 20
5710132.59999999963
 41
0.50
 42
0.50
 43
0.50
 50
247.70
  0
INSERT
  5
ED
100
AcDbEntity
  8
dzailki
  6
CONTINUOUS
100
AcDbBlockReference
 66
0
  2
L_0_02_1
 10
8394018.83999999985
 20
5710132.59999999963
 41
0.50
 42
0.50
 43
0.50
 50
67.72
  0
INSERT
  5
EE
100
AcDbEntity
  8
dzailki
  6
CONTINUOUS
100
AcDbBlockReference
 66
0
  2
L_0_02_2
 10
8394025.53999999911
 20
5710148.95000000019
 41
0.50
 42
0.50
 43
0.50
 50
247.72
  0
INSERT
  5
EF
100
AcDbEntity
  8
dzailki
  6
CONTINUOUS
100
AcDbBlockReference
 66
0
  2
L_0_02_1
 10
8394025.53999999911
 20
5710148.95000000019
 41
0.50
 42
0.50
 43
0.50
 50
67.66
  0
INSERT
  5
F0
100
AcDbEntity
  8
dzailki
  6
CONTINUOUS
100
AcDbBlockReference
 66
0
  2
L_0_02_2
 10
8394027.5
 20
5710153.71999999974
 41
0.50
 42
0.50
 43
0.50
 50
247.66
  0
INSERT
  5
F1
100
AcDbEntity
  8
dzailki
  6
CONTINUOUS
100
AcDbBlockReference
 66
0
  2
L_0_02_1
 10
8394027.5
 20
5710153.71999999974
 41
0.50
 42
0.50
 43
0.50
 50
67.74
  0
INSERT
  5
F2
100
AcDbEntity
  8
dzailki
  6
CONTINUOUS
100
AcDbBlockReference
 66
0
  2
L_0_02_2
 10
8394031.56000000052
 20
5710163.63999999966
 41
0.50
 42
0.50
 43
0.50
 50
247.74
  0
INSERT
  5
F3
100
AcDbEntity
  8
dzailki
  6
CONTINUOUS
100
AcDbBlockReference
 66
0
  2
L_0_02_1
 10
8394031.56000000052
 20
5710163.63999999966
 41
0.50
 42
0.50
 43
0.50
 50
67.71
  0
INSERT
  5
F4
100
AcDbEntity
  8
dzailki
  6
CONTINUOUS
100
AcDbBlockReference
 66
0
  2
L_0_02_2
 10
8394037.96000000089
 20
5710179.25
 41
0.50
 42
0.50
 43
0.50
 50
247.71
  0
INSERT
  5
F5
100
AcDbEntity
  8
dzailki
  6
CONTINUOUS
100
AcDbBlockReference
 66
0
  2
L_0_02_1
 10
8394037.96000000089
 20
5710179.25
 41
0.50
 42
0.50
 43
0.50
 50
67.71
  0
INSERT
  5
F6
100
AcDbEntity
  8
dzailki
  6
CONTINUOUS
100
AcDbBlockReference
 66
0
  2
L_0_02_2
 10
8394041.33000000007
 20
5710187.46999999974
 41
0.50
 42
0.50
 43
0.50
 50
247.71
  0
INSERT
  5
F7
100
AcDbEntity
  8
dzailki
  6
CONTINUOUS
100
AcDbBlockReference
 66
0
  2
L_0_02_1
 10
8394041.33000000007
 20
5710187.46999999974
 41
0.50
 42
0.50
 43
0.50
 50
67.74
  0
INSERT
  5
F8
100
AcDbEntity
  8
dzailki
  6
CONTINUOUS
100
AcDbBlockReference
 66
0
  2
L_0_02_2
 10
8394044.33000000007
 20
5710194.79999999981
 41
0.50
 42
0.50
 43
0.50
 50
247.74
  0
INSERT
  5
F9
100
AcDbEntity
  8
dzailki
  6
CONTINUOUS
100
AcDbBlockReference
 66
0
  2
L_0_02_1
 10
8394044.33000000007
 20
5710194.79999999981
 41
0.50
 42
0.50
 43
0.50
 50
67.72
  0
INSERT
  5
FA
100
AcDbEntity
  8
dzailki
  6
CONTINUOUS
100
AcDbBlockReference
 66
0
  2
L_0_02_2
 10
8394050.73000000045
 20
5710210.41999999993
 41
0.50
 42
0.50
 43
0.50
 50
247.72
  0
INSERT
  5
FB
100
AcDbEntity
  8
dzailki
  6
CONTINUOUS
100
AcDbBlockReference
 66
0
  2
L_0_02_1
 10
8394050.73000000045
 20
5710210.41999999993
 41
0.50
 42
0.50
 43
0.50
 50
67.70
  0
INSERT
  5
FC
100
AcDbEntity
  8
dzailki
  6
CONTINUOUS
100
AcDbBlockReference
 66
0
  2
L_0_02_2
 10
8394057.75
 20
5710227.54000000004
 41
0.50
 42
0.50
 43
0.50
 50
247.70
  0
INSERT
  5
FD
100
AcDbEntity
  8
dzailki
  6
CONTINUOUS
100
AcDbBlockReference
 66
0
  2
L_0_02_1
 10
8394057.75
 20
5710227.54000000004
 41
0.50
 42
0.50
 43
0.50
 50
67.71
  0
INSERT
  5
FE
100
AcDbEntity
  8
dzailki
  6
CONTINUOUS
100
AcDbBlockReference
 66
0
  2
L_0_02_2
 10
8394064.83999999985
 20
5710244.83999999985
 41
0.50
 42
0.50
 43
0.50
 50
247.71
  0
INSERT
  5
FF
100
AcDbEntity
  8
dzailki
  6
CONTINUOUS
100
AcDbBlockReference
 66
0
  2
L_0_02_1
 10
8394064.83999999985
 20
5710244.83999999985
 41
0.50
 42
0.50
 43
0.50
 50
67.69
  0
INSERT
  5
100
100
AcDbEntity
  8
dzailki
  6
CONTINUOUS
100
AcDbBlockReference
 66
0
  2
L_0_02_2
 10
8394071.28999999911
 20
5710260.55999999959
 41
0.50
 42
0.50
 43
0.50
 50
247.69
  0
INSERT
  5
101
100
AcDbEntity
  8
dzailki
  6
CONTINUOUS
100
AcDbBlockReference
 66
0
  2
L_0_02_1
 10
8394071.28999999911
 20
5710260.55999999959
 41
0.50
 42
0.50
 43
0.50
 50
67.73
  0
INSERT
  5
102
100
AcDbEntity
  8
dzailki
  6
CONTINUOUS
100
AcDbBlockReference
 66
0
  2
L_0_02_2
 10
8394077.84999999963
 20
5710276.58000000007
 41
0.50
 42
0.50
 43
0.50
 50
247.73
  0
INSERT
  5
103
100
AcDbEntity
  8
dzailki
  6
CONTINUOUS
100
AcDbBlockReference
 66
0
  2
L_0_02_1
 10
8394077.84999999963
 20
5710276.58000000007
 41
0.50
 42
0.50
 43
0.50
 50
67.71
  0
INSERT
  5
104
100
AcDbEntity
  8
dzailki
  6
CONTINUOUS
100
AcDbBlockReference
 66
0
  2
L_0_02_2
 10
8394107.1400000006
 20
5710348.04000000004
 41
0.50
 42
0.50
 43
0.50
 50
247.71
  0
INSERT
  5
105
100
AcDbEntity
  8
dzailki
  6
CONTINUOUS
100
AcDbBlockReference
 66
0
  2
L_0_02_1
 10
8394107.1400000006
 20
5710348.04000000004
 41
0.50
 42
0.50
 43
0.50
 50
65.89
  0
INSERT
  5
106
100
AcDbEntity
  8
dzailki
  6
CONTINUOUS
100
AcDbBlockReference
 66
0
  2
L_0_02_2
 10
8394122.88000000082
 20
5710383.20999999996
 41
0.50
 42
0.50
 43
0.50
 50
245.89
  0
INSERT
  5
107
100
AcDbEntity
  8
dzailki
  6
CONTINUOUS
100
AcDbBlockReference
 66
0
  2
L_0_02_1
 10
8394122.88000000082
 20
5710383.20999999996
 41
0.50
 42
0.50
 43
0.50
 50
65.92
  0
INSERT
  5
108
100
AcDbEntity
  8
dzailki
  6
CONTINUOUS
100
AcDbBlockReference
 66
0
  2
L_0_02_2
 10
8394126.08000000008
 20
5710390.37000000011
 41
0.50
 42
0.50
 43
0.50
 50
245.92
  0
INSERT
  5
109
100
AcDbEntity
  8
dzailki
  6
CONTINUOUS
100
AcDbBlockReference
 66
0
  2
L_0_02_1
 10
8394126.08000000008
 20
5710390.37000000011
 41
0.50
 42
0.50
 43
0.50
 50
65.89
  0
INSERT
  5
10A
100
AcDbEntity
  8
dzailki
  6
CONTINUOUS
100
AcDbBlockReference
 66
0
  2
L_0_02_2
 10
8394144.71000000089
 20
5710432.0
 41
0.50
 42
0.50
 43
0.50
 50
245.89
  0
INSERT
  5
10B
100
AcDbEntity
  8
dzailki
  6
CONTINUOUS
100
AcDbBlockReference
 66
0
  2
L_0_02_1
 10
8394144.71000000089
 20
5710432.0
 41
0.50
 42
0.50
 43
0.50
 50
342.96
  0
INSERT
  5
10C
100
AcDbEntity
  8
dzailki
  6
CONTINUOUS
100
AcDbBlockReference
 66
0
  2
L_0_02_2
 10
8394153.25999999978
 20
5710429.37999999989
 41
0.50
 42
0.50
 43
0.50
 50
162.96
  0
INSERT
  5
10D
100
AcDbEntity
  8
dzailki
  6
CONTINUOUS
100
AcDbBlockReference
 66
0
  2
L_0_02_1
 10
8394153.25999999978
 20
5710429.37999999989
 41
0.50
 42
0.50
 43
0.50
 50
245.98
  0
INSERT
  5
10E
100
AcDbEntity
  8
dzailki
  6
CONTINUOUS
100
AcDbBlockReference
 66
0
  2
L_0_02_2
 10
8394151.00999999978
 20
5710424.33000000007
 41
0.50
 42
0.50
 43
0.50
 50
65.98
  0
INSERT
  5
10F
100
AcDbEntity
  8
dzailki
  6
CONTINUOUS
100
AcDbBlockReference
 66
0
  2
L_0_02_1
 10
8394151.00999999978
 20
5710424.33000000007
 41
0.50
 42
0.50
 43
0.50
 50
245.97
  0
INSERT
  5
110
100
AcDbEntity
  8
dzailki
  6
CONTINUOUS
100
AcDbBlockReference
 66
0
  2
L_0_02_2
 10
8394115.41999999993
 20
5710344.5
 41
0.50
 42
0.50
 43
0.50
 50
65.97
  0
INSERT
  5
111
100
AcDbEntity
  8
dzailki
  6
CONTINUOUS
100
AcDbBlockReference
 66
0
  2
L_0_02_1
 10
8394115.41999999993
 20
5710344.5
 41
0.50
 42
0.50
 43
0.50
 50
247.70
  0
INSERT
  5
112
100
AcDbEntity
  8
dzailki
  6
CONTINUOUS
100
AcDbBlockReference
 66
0
  2
L_0_02_2
 10
8394107.6099999994
 20
5710325.45999999996
 41
0.50
 42
0.50
 43
0.50
 50
67.70
  0
INSERT
  5
113
100
AcDbEntity
  8
dzailki
  6
CONTINUOUS
100
AcDbBlockReference
 66
0
  2
L_0_02_1
 10
8394107.6099999994
 20
5710325.45999999996
 41
0.50
 42
0.50
 43
0.50
 50
247.75
  0
INSERT
  5
114
100
AcDbEntity
  8
dzailki
  6
CONTINUOUS
100
AcDbBlockReference
 66
0
  2
L_0_02_2
 10
8394104.36999999918
 20
5710317.54000000004
 41
0.50
 42
0.50
 43
0.50
 50
67.75
  0
INSERT
  5
115
100
AcDbEntity
  8
dzailki
  6
CONTINUOUS
100
AcDbBlockReference
 66
0
  2
L_0_02_1
 10
8394104.36999999918
 20
5710317.54000000004
 41
0.50
 42
0.50
 43
0.50
 50
247.70
  0
INSERT
  5
116
100
AcDbEntity
  8
dzailki
  6
CONTINUOUS
100
AcDbBlockReference
 66
0
  2
L_0_02_2
 10
8394095.83999999985
 20
5710296.74000000022
 41
0.50
 42
0.50
 43
0.50
 50
67.70
  0
INSERT
  5
117
100
AcDbEntity
  8
dzailki
  6
CONTINUOUS
100
AcDbBlockReference
 66
0
  2
L_0_02_1
 10
8394095.83999999985
 20
5710296.74000000022
 41
0.50
 42
0.50
 43
0.50
 50
247.72
  0
INSERT
  5
118
100
AcDbEntity
  8
dzailki
  6
CONTINUOUS
100
AcDbBlockReference
 66
0
  2
L_0_02_2
 10
8394085.41000000015
 20
5710271.29000000004
 41
0.50
 42
0.50
 43
0.50
 50
67.72
  0
INSERT
  5
119
100
AcDbEntity
  8
dzailki
  6
CONTINUOUS
100
AcDbBlockReference
 66
0
  2
L_0_02_1
 10
8394085.41000000015
 20
5710271.29000000004
 41
0.50
 42
0.50
 43
0.50
 50
247.71
  0
INSERT
  5
11A
100
AcDbEntity
  8
dzailki
  6
CONTINUOUS
100
AcDbBlockReference
 66
0
  2
L_0_02_2
 10
8394076.33000000007
 20
5710249.13999999966
 41
0.50
 42
0.50
 43
0.50
 50
67.71
  0
INSERT
  5
11B
100
AcDbEntity
  8
dzailki
  6
CONTINUOUS
100
AcDbBlockReference
 66
0
  2
L_0_02_1
 10
8394076.33000000007
 20
5710249.13999999966
 41
0.50
 42
0.50
 43
0.50
 50
247.73
  0
INSERT
  5
11C
100
AcDbEntity
  8
dzailki
  6
CONTINUOUS
100
AcDbBlockReference
 66
0
  2
L_0_02_2
 10
8394073.5700000003
 20
5710242.40000000037
 41
0.50
 42
0.50
 43
0.50
 50
67.73
  0
INSERT
  5
11D
100
AcDbEntity
  8
dzailki
  6
CONTINUOUS
100
AcDbBlockReference
 66
0
  2
L_0_02_1
 10
8394073.5700000003
 20
5710242.40000000037
 41
0.50
 42
0.50
 43
0.50
 50
247.72
  0
INSERT
  5
11E
100
AcDbEntity
  8
dzailki
  6
CONTINUOUS
100
AcDbBlockReference
 66
0
  2
L_0_02_2
 10
8394067.98000000045
 20
5710228.75999999978
 41
0.50
 42
0.50
 43
0.50
 50
67.72
  0
INSERT
  5
11F
100
AcDbEntity
  8
dzailki
  6
CONTINUOUS
100
AcDbBlockReference
 66
0
  2
L_0_02_1
 10
8394067.98000000045
 20
5710228.75999999978
 41
0.50
 42
0.50
 43
0.50
 50
247.72
  0
INSERT
  5
120
100
AcDbEntity
  8
dzailki
  6
CONTINUOUS
100
AcDbBlockReference
 66
0
  2
L_0_02_2
 10
8394058.96000000089
 20
5710206.75
 41
0.50
 42
0.50
 43
0.50
 50
67.72
  0
INSERT
  5
121
100
AcDbEntity
  8
dzailki
  6
CONTINUOUS
100
AcDbBlockReference
 66
0
  2
L_0_02_1
 10
8394058.96000000089
 20
5710206.75
 41
0.50
 42
0.50
 43
0.50
 50
247.69
  0
INSERT
  5
122
100
AcDbEntity
  8
dzailki
  6
CONTINUOUS
100
AcDbBlockReference
 66
0
  2
L_0_02_2
 10
8394057.03999999911
 20
5710202.0700000003
 41
0.50
 42
0.50
 43
0.50
 50
67.69
  0
INSERT
  5
123
100
AcDbEntity
  8
dzailki
  6
CONTINUOUS
100
AcDbBlockReference
 66
0
  2
L_0_02_1
 10
8394057.03999999911
 20
5710202.0700000003
 41
0.50
 42
0.50
 43
0.50
 50
247.68
  0
INSERT
  5
124
100
AcDbEntity
  8
dzailki
  6
CONTINUOUS
100
AcDbBlockReference
 66
0
  2
L_0_02_2
 10
8394054.94999999926
 20
5710196.98000000045
 41
0.50
 42
0.50
 43
0.50
 50
67.68
  0
INSERT
  5
125
100
AcDbEntity
  8
dzailki
  6
CONTINUOUS
100
AcDbBlockReference
 66
0
  2
L_0_02_1
 10
8394054.94999999926
 20
5710196.98000000045
 41
0.50
 42
0.50
 43
0.50
 50
247.76
  0
INSERT
  5
126
100
AcDbEntity
  8
dzailki
  6
CONTINUOUS
100
AcDbBlockReference
 66
0
  2
L_0_02_2
 10
8394052.8200000003
 20
5710191.76999999955
 41
0.50
 42
0.50
 43
0.50
 50
67.76
  0
INSERT
  5
127
100
AcDbEntity
  8
dzailki
  6
CONTINUOUS
100
AcDbBlockReference
 66
0
  2
L_0_02_1
 10
8394052.8200000003
 20
5710191.76999999955
 41
0.50
 42
0.50
 43
0.50
 50
247.72
  0
INSERT
  5
128
100
AcDbEntity
  8
dzailki
  6
CONTINUOUS
100
AcDbBlockReference
 66
0
  2
L_0_02_2
 10
8394050.71000000089
 20
5710186.62000000011
 41
0.50
 42
0.50
 43
0.50
 50
67.72
  0
INSERT
  5
129
100
AcDbEntity
  8
dzailki
  6
CONTINUOUS
100
AcDbBlockReference
 66
0
  2
L_0_02_1
 10
8394050.71000000089
 20
5710186.62000000011
 41
0.50
 42
0.50
 43
0.50
 50
247.70
  0
INSERT
  5
12A
100
AcDbEntity
  8
dzailki
  6
CONTINUOUS
100
AcDbBlockReference
 66
0
  2
L_0_02_2
 10
8394043.56000000052
 20
5710169.19000000041
 41
0.50
 42
0.50
 43
0.50
 50
67.70
  0
INSERT
  5
12B
100
AcDbEntity
  8
dzailki
  6
CONTINUOUS
100
AcDbBlockReference
 66
0
  2
L_0_02_1
 10
8394043.56000000052
 20
5710169.19000000041
 41
0.50
 42
0.50
 43
0.50
 50
247.78
  0
INSERT
  5
12C
100
AcDbEntity
  8
dzailki
  6
CONTINUOUS
100
AcDbBlockReference
 66
0
  2
L_0_02_2
 10
8394041.83999999985
 20
5710164.98000000045
 41
0.50
 42
0.50
 43
0.50
 50
67.78
  0
INSERT
  5
12D
100
AcDbEntity
  8
dzailki
  6
CONTINUOUS
100
AcDbBlockReference
 66
0
  2
L_0_02_1
 10
8394041.83999999985
 20
5710164.98000000045
 41
0.50
 42
0.50
 43
0.50
 50
247.71
  0
INSERT
  5
12E
100
AcDbEntity
  8
dzailki
  6
CONTINUOUS
100
AcDbBlockReference
 66
0
  2
L_0_02_2
 10
8394039.38000000082
 20
5710158.98000000045
 41
0.50
 42
0.50
 43
0.50
 50
67.71
  0
INSERT
  5
12F
100
AcDbEntity
  8
dzailki
  6
CONTINUOUS
100
AcDbBlockReference
 66
0
  2
L_0_02_1
 10
8394039.38000000082
 20
5710158.98000000045
 41
0.50
 42
0.50
 43
0.50
 50
247.71
  0
INSERT
  5
130
100
AcDbEntity
  8
dzailki
  6
CONTINUOUS
100
AcDbBlockReference
 66
0
  2
L_0_02_2
 10
8394037.65000000037
 20
5710154.75999999978
 41
0.50
 42
0.50
 43
0.50
 50
67.71
  0
INSERT
  5
131
100
AcDbEntity
  8
dzailki
  6
CONTINUOUS
100
AcDbBlockReference
 66
0
  2
L_0_02_1
 10
8394037.65000000037
 20
5710154.75999999978
 41
0.50
 42
0.50
 43
0.50
 50
247.70
  0
INSERT
  5
132
100
AcDbEntity
  8
dzailki
  6
CONTINUOUS
100
AcDbBlockReference
 66
0
  2
L_0_02_2
 10
8394035.71000000089
 20
5710150.03000000026
 41
0.50
 42
0.50
 43
0.50
 50
67.70
  0
INSERT
  5
133
100
AcDbEntity
  8
dzailki
  6
CONTINUOUS
100
AcDbBlockReference
 66
0
  2
L_0_02_1
 10
8394035.71000000089
 20
5710150.03000000026
 41
0.50
 42
0.50
 43
0.50
 50
247.74
  0
INSERT
  5
134
100
AcDbEntity
  8
dzailki
  6
CONTINUOUS
100
AcDbBlockReference
 66
0
  2
L_0_02_2
 10
8394033.6799999997
 20
5710145.0700000003
 41
0.50
 42
0.50
 43
0.50
 50
67.74
  0
INSERT
  5
135
100
AcDbEntity
  8
dzailki
  6
CONTINUOUS
100
AcDbBlockReference
 66
0
  2
L_0_02_1
 10
8394033.6799999997
 20
5710145.0700000003
 41
0.50
 42
0.50
 43
0.50
 50
247.70
  0
INSERT
  5
136
100
AcDbEntity
  8
dzailki
  6
CONTINUOUS
100
AcDbBlockReference
 66
0
  2
L_0_02_2
 10
8394028.66000000015
 20
5710132.83000000007
 41
0.50
 42
0.50
 43
0.50
 50
67.70
  0
INSERT
  5
137
100
AcDbEntity
  8
dzailki
  6
CONTINUOUS
100
AcDbBlockReference
 66
0
  2
L_0_02_1
 10
8394028.66000000015
 20
5710132.83000000007
 41
0.50
 42
0.50
 43
0.50
 50
247.73
  0
INSERT
  5
138
100
AcDbEntity
  8
dzailki
  6
CONTINUOUS
100
AcDbBlockReference
 66
0
  2
L_0_02_2
 10
8394024.76999999955
 20
5710123.33000000007
 41
0.50
 42
0.50
 43
0.50
 50
67.73
  0
INSERT
  5
139
100
AcDbEntity
  8
dzailki
  6
CONTINUOUS
100
AcDbBlockReference
 66
0
  2
L_0_02_1
 10
8394024.76999999955
 20
5710123.33000000007
 41
0.50
 42
0.50
 43
0.50
 50
247.69
  0
INSERT
  5
13A
100
AcDbEntity
  8
dzailki
  6
CONTINUOUS
100
AcDbBlockReference
 66
0
  2
L_0_02_2
 10
8394021.58999999985
 20
5710115.58000000007
 41
0.50
 42
0.50
 43
0.50
 50
67.69
  0
INSERT
  5
13B
100
AcDbEntity
  8
dzailki
  6
CONTINUOUS
100
AcDbBlockReference
 66
0
  2
L_0_02_1
 10
8394021.58999999985
 20
5710115.58000000007
 41
0.50
 42
0.50
 43
0.50
 50
247.67
  0
INSERT
  5
13C
100
AcDbEntity
  8
dzailki
  6
CONTINUOUS
100
AcDbBlockReference
 66
0
  2
L_0_02_2
 10
8394018.11999999918
 20
5710107.12999999989
 41
0.50
 42
0.50
 43
0.50
 50
67.67
  0
INSERT
  5
13D
100
AcDbEntity
  8
dzailki
  6
CONTINUOUS
100
AcDbBlockReference
 66
0
  2
L_0_02_1
 10
8394018.11999999918
 20
5710107.12999999989
 41
0.50
 42
0.50
 43
0.50
 50
247.75
  0
INSERT
  5
13E
100
AcDbEntity
  8
dzailki
  6
CONTINUOUS
100
AcDbBlockReference
 66
0
  2
L_0_02_2
 10
8394016.6799999997
 20
5710103.61000000034
 41
0.50
 42
0.50
 43
0.50
 50
67.75
  0
INSERT
  5
13F
100
AcDbEntity
  8
dzailki
  6
CONTINUOUS
100
AcDbBlockReference
 66
0
  2
L_0_02_1
 10
8394016.6799999997
 20
5710103.61000000034
 41
0.50
 42
0.50
 43
0.50
 50
247.76
  0
INSERT
  5
140
100
AcDbEntity
  8
dzailki
  6
CONTINUOUS
100
AcDbBlockReference
 66
0
  2
L_0_02_2
 10
8394012.3200000003
 20
5710092.95000000019
 41
0.50
 42
0.50
 43
0.50
 50
67.76
  0
INSERT
  5
141
100
AcDbEntity
  8
dzailki
  6
CONTINUOUS
100
AcDbBlockReference
 66
0
  2
L_0_02_1
 10
8394012.3200000003
 20
5710092.95000000019
 41
0.50
 42
0.50
 43
0.50
 50
247.67
  0
INSERT
  5
142
100
AcDbEntity
  8
dzailki
  6
CONTINUOUS
100
AcDbBlockReference
 66
0
  2
L_0_02_2
 10
8394009.8599999994
 20
5710086.95999999996
 41
0.50
 42
0.50
 43
0.50
 50
67.67
  0
INSERT
  5
143
100
AcDbEntity
  8
dzailki
  6
CONTINUOUS
100
AcDbBlockReference
 66
0
  2
L_0_02_1
 10
8394009.8599999994
 20
5710086.95999999996
 41
0.50
 42
0.50
 43
0.50
 50
247.65
  0
INSERT
  5
144
100
AcDbEntity
  8
dzailki
  6
CONTINUOUS
100
AcDbBlockReference
 66
0
  2
L_0_02_2
 10
8394007.58999999985
 20
5710081.44000000041
 41
0.50
 42
0.50
 43
0.50
 50
67.65
  0
INSERT
  5
145
100
AcDbEntity
  8
dzailki
  6
CONTINUOUS
100
AcDbBlockReference
 66
0
  2
L_0_02_1
 10
8394007.58999999985
 20
5710081.44000000041
 41
0.50
 42
0.50
 43
0.50
 50
247.73
  0
INSERT
  5
146
100
AcDbEntity
  8
dzailki
  6
CONTINUOUS
100
AcDbBlockReference
 66
0
  2
L_0_02_2
 10
8394001.0
 20
5710065.34999999963
 41
0.50
 42
0.50
 43
0.50
 50
67.73
  0
INSERT
  5
147
100
AcDbEntity
  8
dzailki
  6
CONTINUOUS
100
AcDbBlockReference
 66
0
  2
L_0_02_1
 10
8394001.0
 20
5710065.34999999963
 41
0.50
 42
0.50
 43
0.50
 50
247.77
  0
INSERT
  5
148
100
AcDbEntity
  8
dzailki
  6
CONTINUOUS
100
AcDbBlockReference
 66
0
  2
L_0_02_2
 10
8393998.75999999978
 20
5710059.87000000011
 41
0.50
 42
0.50
 43
0.50
 50
67.77
  0
MLINE
  5
149
100
AcDbEntity
  8
dzailki
  6
L_0_02
370
18
100
AcDbMline
  2
L_0_02
340
7
 40
1.0
 70
1
 71
3
 72
83
 73
1
 10
8393998.75999999978
 20
5710059.87000000011
210
0.0
220
0.0
230
1.0
 11
8393998.75999999978
 21
5710059.87000000011
 12
-0.379667454854
 22
-0.925123031669
 13
0.925389016357
 23
-0.379018691366
 74
3
 41
0.0
 41
0.25
 41
15.55330345223
 75
0
 11
8393992.75999999978
 21
5710045.25
 12
-0.377963784469
 22
-0.925820380868
 13
0.925472098297
 23
-0.378815780127
 74
3
 41
0.0
 41
0.25
 41
4.988597140281
 75
0
 11
8393990.77999999933
 21
5710040.40000000037
 12
-0.38365087411
 22
-0.923478211327
 13
0.924653668419
 23
-0.380809129985
 74
3
 41
0.0
 41
0.25
 41
2.695386222771
 75
0
 11
8393989.65000000037
 21
5710037.6799999997
 12
-0.378293419142
 22
-0.925685739889
 13
0.924585856046
 23
-0.380973745553
 74
3
 41
0.0
 41
0.25
 41
5.486287997941
 75
0
 11
8393987.48000000045
 21
5710032.37000000011
 12
-0.379106565973
 22
-0.925353020007
 13
0.92551946925
 23
-0.378700029098
 74
3
 41
0.0
 41
0.25
 41
15.365662009806
 75
0
 11
8393981.56000000052
 21
5710017.91999999993
 12
-0.379304080843
 22
-0.9252720758
 13
0.925312553174
 23
-0.379205325567
 74
3
 41
0.0
 41
0.25
 41
4.970086206423
 75
0
 11
8393979.58000000008
 21
5710013.08999999985
 12
-0.378562316026
 22
-0.925575806126
 13
0.925424015282
 23
-0.378933228866
 74
3
 41
0.0
 41
0.25
 41
5.270887609188
 75
0
 11
8393977.49000000022
 21
5710007.98000000045
 12
-0.379189943739
 22
-0.925318856701
 13
0.92544738462
 23
-0.378876151665
 74
3
 41
0.0
 41
0.25
 41
3.943149175248
 75
0
 11
8393975.90000000037
 21
5710004.09999999963
 12
-0.380136268832
 22
-0.924930493128
 13
0.925124795916
 23
-0.379663155943
 74
3
 41
0.0
 41
0.25
 41
4.669288566674
 75
0
 11
8393974.02999999933
 21
5709999.54999999981
 12
-0.378887195653
 22
-0.925442863158
 13
0.925186888936
 23
-0.37951181871
 74
3
 41
0.0
 41
0.25
 41
13.527187666122
 75
0
 11
8393968.81000000052
 21
5709986.79999999981
 12
-0.379306324375
 22
-0.925271156088
 13
0.925357033353
 23
-0.379096769736
 74
3
 41
0.0
 41
0.25
 41
23.451160308958
 75
0
 11
8393959.8200000003
 21
5709964.87000000011
 12
-0.379995249895
 22
-0.924988437796
 13
0.925129861071
 23
-0.379650813452
 74
3
 41
0.0
 41
0.25
 41
1.750025000276
 75
0
 11
8393959.06000000052
 21
5709963.01999999955
 12
-0.379254809262
 22
-0.925292272556
 13
0.925140429253
 23
-0.379625059975
 74
3
 41
0.0
 41
0.25
 41
31.04821879952
 75
0
 11
8393947.18999999948
 21
5709934.05999999959
 12
-0.379060263179
 22
-0.92537198838
 13
0.925332135581
 23
-0.379157538315
 74
3
 41
0.0
 41
0.25
 41
15.235664337245
 75
0
 11
8393941.3200000003
 21
5709919.73000000045
 12
-0.381178981899
 22
-0.924501262172
 13
0.924937231935
 23
-0.380119871857
 74
3
 41
0.0
 41
0.25
 41
3.265408937748
 75
0
 11
8393939.98000000045
 21
5709916.48000000045
 12
-0.378278744951
 22
-0.925691736551
 13
0.925097635915
 23
-0.379729329951
 74
3
 41
0.0
 41
0.25
 41
5.248590729294
 75
0
 11
8393937.90000000037
 21
5709911.38999999966
 12
-0.379881162372
 22
-0.925035297962
 13
0.925363864112
 23
-0.379080095753
 74
3
 41
0.0
 41
0.25
 41
7.857798714846
 75
0
 11
8393934.8200000003
 21
5709903.88999999966
 12
-0.378701750908
 22
-0.925518764726
 13
0.925277219262
 23
-0.379291533672
 74
3
 41
0.0
 41
0.25
 41
5.400884886236
 75
0
 11
8393932.6799999997
 21
5709898.66000000015
 12
-0.385571609997
 22
-0.922677914315
 13
0.924104723419
 23
-0.382139320347
 74
3
 41
0.0
 41
0.25
 41
5.689233957406
 75
0
 11
8393930.3900000006
 21
5709893.1799999997
 12
-0.413446232543
 22
-0.910528534861
 13
0.916709179604
 23
-0.39955510262
 74
3
 41
0.0
 41
0.25
 41
18.760936326381
 75
0
 11
8393922.52999999933
 21
5709875.87000000011
 12
-0.383540112536
 22
-0.923524218457
 13
0.917148281082
 23
-0.398546146022
 74
3
 41
0.0
 41
0.25
 41
27.491557273859
 75
0
 11
8393911.8900000006
 21
5709850.25
 12
-0.946163984987
 22
0.323687678965
 13
0.411202351635
 23
-0.911544088901
 74
3
 41
0.0
 41
0.25
 41
7.782434252499
 75
0
 11
8393904.28999999911
 21
5709852.84999999963
 12
0.378356063213
 22
0.925660137107
 13
-0.910387736573
 23
-0.413756171069
 74
3
 41
0.0
 41
0.25
 41
18.039650079927
 75
0
 11
8393911.21000000089
 21
5709869.78000000026
 12
0.378924330641
 22
0.925427658787
 13
-0.925543941561
 23
0.378640214769
 74
3
 41
0.0
 41
0.25
 41
17.114944571064
 75
0
 11
8393917.78999999911
 21
5709885.84999999963
 12
0.378698091585
 22
0.925520262031
 13
-0.925473967322
 23
0.378811213943
 74
3
 41
0.0
 41
0.25
 41
17.653443803527
 75
0
 11
8393924.5700000003
 21
5709902.41999999993
 12
0.378433708966
 22
0.925628396236
 13
-0.925574338573
 23
0.378565904136
 74
3
 41
0.0
 41
0.25
 41
17.348855076487
 75
0
 11
8393931.23000000045
 21
5709918.70999999996
 12
0.378701750785
 22
0.925518764776
 13
-0.925573590209
 23
0.378567733844
 74
3
 41
0.0
 41
0.25
 41
33.655309318588
 75
0
 11
8393944.0700000003
 21
5709950.08999999985
 12
0.37860127805
 22
0.925559869624
 13
-0.925539318563
 23
0.378651514975
 74
3
 41
0.0
 41
0.25
 41
36.754629440027
 75
0
 11
8393958.08000000007
 21
5709984.33999999985
 12
0.378698091496
 22
0.925520262068
 13
-0.925540067112
 23
0.378649685291
 74
3
 41
0.0
 41
0.25
 41
17.653443802821
 75
0
 11
8393964.8599999994
 21
5710000.91000000015
 12
0.37938642273
 22
0.925238316461
 13
-0.925379353265
 23
0.379042283328
 74
3
 41
0.0
 41
0.25
 41
17.831827894358
 75
0
 11
8393971.72000000067
 21
5710017.63999999966
 12
0.379462779982
 22
0.925207003112
 13
-0.925222660575
 23
0.379424601679
 74
3
 41
0.0
 41
0.25
 41
16.167947496408
 75
0
 11
8393977.94999999926
 21
5710032.83000000007
 12
0.379049493166
 22
0.925376400029
 13
-0.925291724645
 23
0.379256146032
 74
3
 41
0.0
 41
0.25
 41
17.504937341377
 75
0
 11
8393984.6799999997
 21
5710049.25999999978
 12
0.37940704164
 22
0.925229861577
 13
-0.925303148073
 23
0.379228274481
 74
3
 41
0.0
 41
0.25
 41
18.858765005159
 75
0
 11
8393991.9299999997
 21
5710066.94000000041
 12
0.379275754472
 22
0.925283687346
 13
-0.92525677679
 23
0.379341399011
 74
3
 41
0.0
 41
0.25
 41
18.522621020688
 75
0
 11
8393999.05000000074
 21
5710084.30999999959
 12
0.378924330714
 22
0.925427658757
 13
-0.925355689734
 23
0.379100049428
 74
3
 41
0.0
 41
0.25
 41
17.114944572631
 75
0
 11
8394005.63000000082
 21
5710100.37999999989
 12
0.379207481739
 22
0.925311669543
 13
-0.92536967498
 23
0.379065910663
 74
3
 41
0.0
 41
0.25
 41
17.365686191288
 75
0
 11
8394012.31000000052
 21
5710116.6799999997
 12
0.379492582257
 22
0.925194779499
 13
-0.925253235502
 23
0.3793500365
 74
3
 41
0.0
 41
0.25
 41
16.957187451436
 75
0
 11
8394018.83999999985
 21
5710132.59999999963
 12
0.379183699307
 22
0.925321415607
 13
-0.925258110442
 23
0.379338146066
 74
3
 41
0.0
 41
0.25
 41
17.419535930756
 75
0
 11
8394025.53999999911
 21
5710148.95000000019
 12
0.380066994672
 22
0.924958961014
 13
-0.925140293728
 23
0.379625390247
 74
3
 41
0.0
 41
0.25
 41
4.906985553523
 75
0
 11
8394027.5
 21
5710153.71999999974
 12
0.378778150298
 22
0.925487500109
 13
-0.925223454983
 23
0.379422664517
 74
3
 41
0.0
 41
0.25
 41
10.468675291413
 75
0
 11
8394031.56000000052
 21
5710163.63999999966
 12
0.379348206819
 22
0.925253985662
 13
-0.925370786782
 23
0.37906319654
 74
3
 41
0.0
 41
0.25
 41
16.621043240275
 75
0
 11
8394037.96000000089
 21
5710179.25
 12
0.379334008316
 22
0.92525980683
 13
-0.925256896273
 23
0.379341107579
 74
3
 41
0.0
 41
0.25
 41
8.633991219615
 75
0
 11
8394041.33000000007
 21
5710187.46999999974
 12
0.378780330596
 22
0.925486607766
 13
-0.925373248708
 23
0.379057186419
 74
3
 41
0.0
 41
0.25
 41
7.670157826779
 75
0
 11
8394044.33000000007
 21
5710194.79999999981
 12
0.379140266391
 22
0.925339212614
 13
-0.925412927689
 23
0.37896030566
 74
3
 41
0.0
 41
0.25
 41
16.630296206177
 75
0
 11
8394050.73000000045
 21
5710210.41999999993
 12
0.379390294216
 22
0.92523672898
 13
-0.925287979242
 23
0.379265283765
 74
3
 41
0.0
 41
0.25
 41
18.253372665478
 75
0
 11
8394057.75
 21
5710227.54000000004
 12
0.379215910226
 22
0.92530821537
 13
-0.925272476284
 23
0.379303103905
 74
3
 41
0.0
 41
0.25
 41
18.446472929177
 75
0
 11
8394064.83999999985
 21
5710244.83999999985
 12
0.379595104786
 22
0.925152720594
 13
-0.925230487408
 23
0.379405515472
 74
3
 41
0.0
 41
0.25
 41
16.741789193084
 75
0
 11
8394071.28999999911
 21
5710260.55999999959
 12
0.378947727502
 22
0.925418078396
 13
-0.925285456112
 23
0.379271439351
 74
3
 41
0.0
 41
0.25
 41
17.061094708954
 75
0
 11
8394077.84999999963
 21
5710276.58000000007
 12
0.379257948221
 22
0.925290985967
 13
-0.925354545181
 23
0.379102843187
 74
3
 41
0.0
 41
0.25
 41
76.979759160905
 75
0
 11
8394107.1400000006
 21
5710348.04000000004
 12
0.408496942998
 22
0.912759687739
 13
-0.919141610135
 23
0.393927278211
 74
3
 41
0.0
 41
0.25
 41
38.28150010059
 75
0
 11
8394122.88000000082
 21
5710383.20999999996
 12
0.408030519698
 22
0.912968288056
 13
-0.912864017687
 23
0.408263744671
 74
3
 41
0.0
 41
0.25
 41
7.592550605343
 75
0
 11
8394126.08000000008
 21
5710390.37000000011
 12
0.408476634697
 22
0.912768776255
 13
-0.912868559407
 23
0.408253589385
 74
3
 41
0.0
 41
0.25
 41
45.358483860146
 75
0
 11
8394144.71000000089
 21
5710432.0
 12
0.95611687751
 22
-0.29298552275
 13
-0.413533891257
 23
0.910488726334
 74
3
 41
0.0
 41
0.25
 41
8.692421371277
 75
0
 11
8394153.25999999978
 21
5710429.37999999989
 12
-0.406977423541
 22
-0.913438217247
 13
0.910148932042
 23
0.414281210657
 74
3
 41
0.0
 41
0.25
 41
5.278562199896
 75
0
 11
8394151.00999999978
 21
5710424.33000000007
 12
-0.407189128355
 22
-0.913343863914
 13
0.913391046714
 23
-0.407083278681
 74
3
 41
0.0
 41
0.25
 41
87.154101734423
 75
0
 11
8394115.41999999993
 21
5710344.5
 12
-0.379503033037
 22
-0.925190492772
 13
0.919371402181
 23
-0.39339067713
 74
3
 41
0.0
 41
0.25
 41
20.32954567063
 75
0
 11
8394107.6099999994
 21
5710325.45999999996
 12
-0.378632845746
 22
-0.925546956195
 13
0.925368826771
 23
-0.379067981292
 74
3
 41
0.0
 41
0.25
 41
8.307102313299
 75
0
 11
8394104.36999999918
 21
5710317.54000000004
 12
-0.37942944071
 22
-0.925220676121
 13
0.925383901875
 23
-0.379031178337
 74
3
 41
0.0
 41
0.25
 41
22.231123192154
 75
0
 11
8394095.83999999985
 21
5710296.74000000022
 12
-0.379213211127
 22
-0.925309321528
 13
0.925265005141
 23
-0.379321328508
 74
3
 41
0.0
 41
0.25
 41
27.254316025003
 75
0
 11
8394085.41000000015
 21
5710271.29000000004
 12
-0.379299638143
 22
-0.925273897019
 13
0.925291610283
 23
-0.379256425049
 74
3
 41
0.0
 41
0.25
 41
23.688857533681
 75
0
 11
8394076.33000000007
 21
5710249.13999999966
 12
-0.378953599409
 22
-0.925415673897
 13
0.925344801634
 23
-0.379126625403
 74
3
 41
0.0
 41
0.25
 41
7.033213575698
 75
0
 11
8394073.5700000003
 21
5710242.40000000037
 12
-0.379213895784
 22
-0.92530904094
 13
0.925362366571
 23
-0.379083751346
 74
3
 41
0.0
 41
0.25
 41
14.491020996342
 75
0
 11
8394067.98000000045
 21
5710228.75999999978
 12
-0.379205715101
 22
-0.925312393538
 13
0.925310717248
 23
-0.379209805446
 74
3
 41
0.0
 41
0.25
 41
23.536561331603
 75
0
 11
8394058.96000000089
 21
5710206.75
 12
-0.37955635658
 22
-0.925168618242
 13
0.9252405225
 23
-0.379381042651
 74
3
 41
0.0
 41
0.25
 41
4.808537338409
 75
0
 11
8394057.03999999911
 21
5710202.0700000003
 12
-0.379835544823
 22
-0.925054030254
 13
0.92511133478
 23
-0.379695955024
 74
3
 41
0.0
 41
0.25
 41
5.252381302478
 75
0
 11
8394054.94999999926
 21
5710196.98000000045
 12
-0.378425298742
 22
-0.925631834625
 13
0.925343201096
 23
-0.379130531856
 74
3
 41
0.0
 41
0.25
 41
5.378587745152
 75
0
 11
8394052.8200000003
 21
5710191.76999999955
 12
-0.379122536991
 22
-0.925346476702
 13
0.925489221324
 23
-0.378773944739
 74
3
 41
0.0
 41
0.25
 41
5.315482907325
 75
0
 11
8394050.71000000089
 21
5710186.62000000011
 12
-0.379521407498
 22
-0.925182955556
 13
0.925264737623
 23
-0.379321981056
 74
3
 41
0.0
 41
0.25
 41
18.589516978812
 75
0
 11
8394043.56000000052
 21
5710169.19000000041
 12
-0.378204707819
 22
-0.925721987955
 13
0.925452705924
 23
-0.378863153523
 74
3
 41
0.0
 41
0.25
 41
4.297801666959
 75
0
 11
8394041.83999999985
 21
5710164.98000000045
 12
-0.379353281008
 22
-0.925251905261
 13
0.925487124787
 23
-0.378779067338
 74
3
 41
0.0
 41
0.25
 41
6.234720502476
 75
0
 11
8394039.38000000082
 21
5710158.98000000045
 12
-0.379315739951
 22
-0.925267296204
 13
0.925259600923
 23
-0.379334510557
 74
3
 41
0.0
 41
0.25
 41
4.310844220888
 75
0
 11
8394037.65000000037
 21
5710154.75999999978
 12
-0.379470496036
 22
-0.925203838426
 13
0.925235570551
 23
-0.37939311932
 74
3
 41
0.0
 41
0.25
 41
4.862386917419
 75
0
 11
8394035.71000000089
 21
5710150.03000000026
 12
-0.378778150446
 22
-0.925487500048
 13
0.925345733989
 23
-0.37912434977
 74
3
 41
0.0
 41
0.25
 41
5.109337646059
 75
0
 11
8394033.6799999997
 21
5710145.0700000003
 12
-0.379456816446
 22
-0.925209448964
 13
0.925348536724
 23
-0.379117508937
 74
3
 41
0.0
 41
0.25
 41
12.979436873918
 75
0
 11
8394028.66000000015
 21
5710132.83000000007
 12
-0.378936270987
 22
-0.92542276962
 13
0.925316145897
 23
-0.379196558717
 74
3
 41
0.0
 41
0.25
 41
10.015578405752
 75
0
 11
8394024.76999999955
 21
5710123.33000000007
 12
-0.379608753806
 22
-0.925147120211
 13
0.925285006009
 23
-0.379272537438
 74
3
 41
0.0
 41
0.25
 41
8.127046018622
 75
0
 11
8394021.58999999985
 21
5710115.58000000007
 12
-0.379868672474
 22
-0.925040427048
 13
0.925093782758
 23
-0.379738716887
 74
3
 41
0.0
 41
0.25
 41
8.884735902466
 75
0
 11
8394018.11999999918
 21
5710107.12999999989
 12
-0.378632845644
 22
-0.925546956237
 13
0.925293897964
 23
-0.379250843624
 74
3
 41
0.0
 41
0.25
 41
3.55315658307
 75
0
 11
8394016.6799999997
 21
5710103.61000000034
 12
-0.378565227262
 22
-0.925574615419
 13
0.925560786445
 23
-0.378599036706
 74
3
 41
0.0
 41
0.25
 41
11.267169791141
 75
0
 11
8394012.3200000003
 21
5710092.95000000019
 12
-0.379895257719
 22
-0.925029509347
 13
0.925302301356
 23
-0.379230340433
 74
3
 41
0.0
 41
0.25
 41
6.225469095523
 75
0
 11
8394009.8599999994
 21
5710086.95999999996
 12
-0.380328423302
 22
-0.924851496419
 13
0.92494052824
 23
-0.380111850931
 74
3
 41
0.0
 41
0.25
 41
5.718525780545
 75
0
 11
8394007.58999999985
 21
5710081.44000000041
 12
-0.379013522053
 22
-0.925391133576
 13
0.925121548611
 23
-0.379671068553
 74
3
 41
0.0
 41
0.25
 41
17.137242450234
 75
0
 11
8394001.0
 21
5710065.34999999963
 12
-0.378369741537
 22
-0.925654546086
 13
0.925522895806
 23
-0.378691654698
 74
3
 41
0.0
 41
0.25
 41
5.670135133229
 75
0
  0
INSERT
  5
14A
100
AcDbEntity
  8
dzailki
  6
CONTINUOUS
100
AcDbBlockReference
 66
0
  2
L_0_02_1
 10
8394432.6799999997
 20
5709749.95999999996
 41
0.50
 42
0.50
 43
0.50
 50
9.70
  0
INSERT
  5
14B
100
AcDbEntity
  8
dzailki
  6
CONTINUOUS
100
AcDbBlockReference
 66
0
  2
L_0_02_2
 10
8394446.1400000006
 20
5709752.25999999978
 41
0.50
 42
0.50
 43
0.50
 50
189.70
  0
INSERT
  5
14C
100
AcDbEntity
  8
dzailki
  6
CONTINUOUS
100
AcDbBlockReference
 66
0
  2
L_0_02_1
 10
8394446.1400000006
 20
5709752.25999999978
 41
0.50
 42
0.50
 43
0.50
 50
9.69
  0
INSERT
  5
14D
100
AcDbEntity
  8
dzailki
  6
CONTINUOUS
100
AcDbBlockReference
 66
0
  2
L_0_02_2
 10
8394461.4299999997
 20
5709754.87000000011
 41
0.50
 42
0.50
 43
0.50
 50
189.69
  0
INSERT
  5
14E
100
AcDbEntity
  8
dzailki
  6
CONTINUOUS
100
AcDbBlockReference
 66
0
  2
L_0_02_1
 10
8394461.4299999997
 20
5709754.87000000011
 41
0.50
 42
0.50
 43
0.50
 50
9.70
  0
INSERT
  5
14F
100
AcDbEntity
  8
dzailki
  6
CONTINUOUS
100
AcDbBlockReference
 66
0
  2
L_0_02_2
 10
8394473.59999999963
 20
5709756.95000000019
 41
0.50
 42
0.50
 43
0.50
 50
189.70
  0
INSERT
  5
150
100
AcDbEntity
  8
dzailki
  6
CONTINUOUS
100
AcDbBlockReference
 66
0
  2
L_0_02_1
 10
8394473.59999999963
 20
5709756.95000000019
 41
0.50
 42
0.50
 43
0.50
 50
9.68
  0
INSERT
  5
151
100
AcDbEntity
  8
dzailki
  6
CONTINUOUS
100
AcDbBlockReference
 66
0
  2
L_0_02_2
 10
8394485.84999999963
 20
5709759.04000000004
 41
0.50
 42
0.50
 43
0.50
 50
189.68
  0
INSERT
  5
152
100
AcDbEntity
  8
dzailki
  6
CONTINUOUS
100
AcDbBlockReference
 66
0
  2
L_0_02_1
 10
8394485.84999999963
 20
5709759.04000000004
 41
0.50
 42
0.50
 43
0.50
 50
9.72
  0
INSERT
  5
153
100
AcDbEntity
  8
dzailki
  6
CONTINUOUS
100
AcDbBlockReference
 66
0
  2
L_0_02_2
 10
8394499.22000000067
 20
5709761.33000000007
 41
0.50
 42
0.50
 43
0.50
 50
189.72
  0
INSERT
  5
154
100
AcDbEntity
  8
dzailki
  6
CONTINUOUS
100
AcDbBlockReference
 66
0
  2
L_0_02_1
 10
8394499.22000000067
 20
5709761.33000000007
 41
0.50
 42
0.50
 43
0.50
 50
9.68
  0
INSERT
  5
155
100
AcDbEntity
  8
dzailki
  6
CONTINUOUS
100
AcDbBlockReference
 66
0
  2
L_0_02_2
 10
8394512.47000000067
 20
5709763.58999999985
 41
0.50
 42
0.50
 43
0.50
 50
189.68
  0
INSERT
  5
156
100
AcDbEntity
  8
dzailki
  6
CONTINUOUS
100
AcDbBlockReference
 66
0
  2
L_0_02_1
 10
8394512.47000000067
 20
5709763.58999999985
 41
0.50
 42
0.50
 43
0.50
 50
9.70
  0
INSERT
  5
157
100
AcDbEntity
  8
dzailki
  6
CONTINUOUS
100
AcDbBlockReference
 66
0
  2
L_0_02_2
 10
8394527.16000000015
 20
5709766.09999999963
 41
0.50
 42
0.50
 43
0.50
 50
189.70
  0
INSERT
  5
158
100
AcDbEntity
  8
dzailki
  6
CONTINUOUS
100
AcDbBlockReference
 66
0
  2
L_0_02_1
 10
8394527.16000000015
 20
5709766.09999999963
 41
0.50
 42
0.50
 43
0.50
 50
9.70
  0
INSERT
  5
159
100
AcDbEntity
  8
dzailki
  6
CONTINUOUS
100
AcDbBlockReference
 66
0
  2
L_0_02_2
 10
8394549.09999999963
 20
5709769.84999999963
 41
0.50
 42
0.50
 43
0.50
 50
189.70
  0
INSERT
  5
15A
100
AcDbEntity
  8
dzailki
  6
CONTINUOUS
100
AcDbBlockReference
 66
0
  2
L_0_02_1
 10
8394549.09999999963
 20
5709769.84999999963
 41
0.50
 42
0.50
 43
0.50
 50
9.69
  0
INSERT
  5
15B
100
AcDbEntity
  8
dzailki
  6
CONTINUOUS
100
AcDbBlockReference
 66
0
  2
L_0_02_2
 10
8394578.50999999978
 20
5709774.87000000011
 41
0.50
 42
0.50
 43
0.50
 50
189.69
  0
INSERT
  5
15C
100
AcDbEntity
  8
dzailki
  6
CONTINUOUS
100
AcDbBlockReference
 66
0
  2
L_0_02_1
 10
8394578.50999999978
 20
5709774.87000000011
 41
0.50
 42
0.50
 43
0.50
 50
9.70
  0
INSERT
  5
15D
100
AcDbEntity
  8
dzailki
  6
CONTINUOUS
100
AcDbBlockReference
 66
0
  2
L_0_02_2
 10
8394604.1400000006
 20
5709779.25
 41
0.50
 42
0.50
 43
0.50
 50
189.70
  0
INSERT
  5
15E
100
AcDbEntity
  8
dzailki
  6
CONTINUOUS
100
AcDbBlockReference
 66
0
  2
L_0_02_1
 10
8394604.1400000006
 20
5709779.25
 41
0.50
 42
0.50
 43
0.50
 50
9.67
  0
INSERT
  5
15F
100
AcDbEntity
  8
dzailki
  6
CONTINUOUS
100
AcDbBlockReference
 66
0
  2
L_0_02_2
 10
8394628.77999999933
 20
5709783.45000000019
 41
0.50
 42
0.50
 43
0.50
 50
189.67
  0
INSERT
  5
160
100
AcDbEntity
  8
dzailki
  6
CONTINUOUS
100
AcDbBlockReference
 66
0
  2
L_0_02_1
 10
8394628.77999999933
 20
5709783.45000000019
 41
0.50
 42
0.50
 43
0.50
 50
9.71
  0
INSERT
  5
161
100
AcDbEntity
  8
dzailki
  6
CONTINUOUS
100
AcDbBlockReference
 66
0
  2
L_0_02_2
 10
8394642.3900000006
 20
5709785.78000000026
 41
0.50
 42
0.50
 43
0.50
 50
189.71
  0
INSERT
  5
162
100
AcDbEntity
  8
dzailki
  6
CONTINUOUS
100
AcDbBlockReference
 66
0
  2
L_0_02_1
 10
8394642.3900000006
 20
5709785.78000000026
 41
0.50
 42
0.50
 43
0.50
 50
9.67
  0
INSERT
  5
163
100
AcDbEntity
  8
dzailki
  6
CONTINUOUS
100
AcDbBlockReference
 66
0
  2
L_0_02_2
 10
8394655.8900000006
 20
5709788.08000000007
 41
0.50
 42
0.50
 43
0.50
 50
189.67
  0
INSERT
  5
164
100
AcDbEntity
  8
dzailki
  6
CONTINUOUS
100
AcDbBlockReference
 66
0
  2
L_0_02_1
 10
8394655.8900000006
 20
5709788.08000000007
 41
0.50
 42
0.50
 43
0.50
 50
9.70
  0
INSERT
  5
165
100
AcDbEntity
  8
dzailki
  6
CONTINUOUS
100
AcDbBlockReference
 66
0
  2
L_0_02_2
 10
8394666.71000000089
 20
5709789.9299999997
 41
0.50
 42
0.50
 43
0.50
 50
189.70
  0
INSERT
  5
166
100
AcDbEntity
  8
dzailki
  6
CONTINUOUS
100
AcDbBlockReference
 66
0
  2
L_0_02_1
 10
8394666.71000000089
 20
5709789.9299999997
 41
0.50
 42
0.50
 43
0.50
 50
9.70
  0
INSERT
  5
167
100
AcDbEntity
  8
dzailki
  6
CONTINUOUS
100
AcDbBlockReference
 66
0
  2
L_0_02_2
 10
8394677.52999999933
 20
5709791.78000000026
 41
0.50
 42
0.50
 43
0.50
 50
189.70
  0
INSERT
  5
168
100
AcDbEntity
  8
dzailki
  6
CONTINUOUS
100
AcDbBlockReference
 66
0
  2
L_0_02_1
 10
8394677.52999999933
 20
5709791.78000000026
 41
0.50
 42
0.50
 43
0.50
 50
9.68
  0
INSERT
  5
169
100
AcDbEntity
  8
dzailki
  6
CONTINUOUS
100
AcDbBlockReference
 66
0
  2
L_0_02_2
 10
8394690.83999999985
 20
5709794.04999999981
 41
0.50
 42
0.50
 43
0.50
 50
189.68
  0
INSERT
  5
16A
100
AcDbEntity
  8
dzailki
  6
CONTINUOUS
100
AcDbBlockReference
 66
0
  2
L_0_02_1
 10
8394690.83999999985
 20
5709794.04999999981
 41
0.50
 42
0.50
 43
0.50
 50
9.71
  0
INSERT
  5
16B
100
AcDbEntity
  8
dzailki
  6
CONTINUOUS
100
AcDbBlockReference
 66
0
  2
L_0_02_2
 10
8394703.33999999985
 20
5709796.19000000041
 41
0.50
 42
0.50
 43
0.50
 50
189.71
  0
INSERT
  5
16C
100
AcDbEntity
  8
dzailki
  6
CONTINUOUS
100
AcDbBlockReference
 66
0
  2
L_0_02_1
 10
8394703.33999999985
 20
5709796.19000000041
 41
0.50
 42
0.50
 43
0.50
 50
9.67
  0
INSERT
  5
16D
100
AcDbEntity
  8
dzailki
  6
CONTINUOUS
100
AcDbBlockReference
 66
0
  2
L_0_02_2
 10
8394715.72000000067
 20
5709798.29999999981
 41
0.50
 42
0.50
 43
0.50
 50
189.67
  0
INSERT
  5
16E
100
AcDbEntity
  8
dzailki
  6
CONTINUOUS
100
AcDbBlockReference
 66
0
  2
L_0_02_1
 10
8394715.72000000067
 20
5709798.29999999981
 41
0.50
 42
0.50
 43
0.50
 50
9.72
  0
INSERT
  5
16F
100
AcDbEntity
  8
dzailki
  6
CONTINUOUS
100
AcDbBlockReference
 66
0
  2
L_0_02_2
 10
8394727.40000000037
 20
5709800.29999999981
 41
0.50
 42
0.50
 43
0.50
 50
189.72
  0
INSERT
  5
170
100
AcDbEntity
  8
dzailki
  6
CONTINUOUS
100
AcDbBlockReference
 66
0
  2
L_0_02_1
 10
8394727.40000000037
 20
5709800.29999999981
 41
0.50
 42
0.50
 43
0.50
 50
9.69
  0
INSERT
  5
171
100
AcDbEntity
  8
dzailki
  6
CONTINUOUS
100
AcDbBlockReference
 66
0
  2
L_0_02_2
 10
8394761.34999999963
 20
5709806.09999999963
 41
0.50
 42
0.50
 43
0.50
 50
189.69
  0
INSERT
  5
172
100
AcDbEntity
  8
dzailki
  6
CONTINUOUS
100
AcDbBlockReference
 66
0
  2
L_0_02_1
 10
8394761.34999999963
 20
5709806.09999999963
 41
0.50
 42
0.50
 43
0.50
 50
9.67
  0
INSERT
  5
173
100
AcDbEntity
  8
dzailki
  6
CONTINUOUS
100
AcDbBlockReference
 66
0
  2
L_0_02_2
 10
8394779.77999999933
 20
5709809.24000000022
 41
0.50
 42
0.50
 43
0.50
 50
189.67
  0
INSERT
  5
174
100
AcDbEntity
  8
dzailki
  6
CONTINUOUS
100
AcDbBlockReference
 66
0
  2
L_0_02_1
 10
8394779.77999999933
 20
5709809.24000000022
 41
0.50
 42
0.50
 43
0.50
 50
9.72
  0
INSERT
  5
175
100
AcDbEntity
  8
dzailki
  6
CONTINUOUS
100
AcDbBlockReference
 66
0
  2
L_0_02_2
 10
8394792.03999999911
 20
5709811.33999999985
 41
0.50
 42
0.50
 43
0.50
 50
189.72
  0
INSERT
  5
176
100
AcDbEntity
  8
dzailki
  6
CONTINUOUS
100
AcDbBlockReference
 66
0
  2
L_0_02_1
 10
8394792.03999999911
 20
5709811.33999999985
 41
0.50
 42
0.50
 43
0.50
 50
9.67
  0
INSERT
  5
177
100
AcDbEntity
  8
dzailki
  6
CONTINUOUS
100
AcDbBlockReference
 66
0
  2
L_0_02_2
 10
8394804.83000000007
 20
5709813.51999999955
 41
0.50
 42
0.50
 43
0.50
 50
189.67
  0
INSERT
  5
178
100
AcDbEntity
  8
dzailki
  6
CONTINUOUS
100
AcDbBlockReference
 66
0
  2
L_0_02_1
 10
8394804.83000000007
 20
5709813.51999999955
 41
0.50
 42
0.50
 43
0.50
 50
9.69
  0
INSERT
  5
179
100
AcDbEntity
  8
dzailki
  6
CONTINUOUS
100
AcDbBlockReference
 66
0
  2
L_0_02_2
 10
8394830.65000000037
 20
5709817.9299999997
 41
0.50
 42
0.50
 43
0.50
 50
189.69
  0
INSERT
  5
17A
100
AcDbEntity
  8
dzailki
  6
CONTINUOUS
100
AcDbBlockReference
 66
0
  2
L_0_02_1
 10
8394830.65000000037
 20
5709817.9299999997
 41
0.50
 42
0.50
 43
0.50
 50
9.71
  0
INSERT
  5
17B
100
AcDbEntity
  8
dzailki
  6
CONTINUOUS
100
AcDbBlockReference
 66
0
  2
L_0_02_2
 10
8394843.63000000082
 20
5709820.15000000037
 41
0.50
 42
0.50
 43
0.50
 50
189.71
  0
INSERT
  5
17C
100
AcDbEntity
  8
dzailki
  6
CONTINUOUS
100
AcDbBlockReference
 66
0
  2
L_0_02_1
 10
8394843.63000000082
 20
5709820.15000000037
 41
0.50
 42
0.50
 43
0.50
 50
9.68
  0
INSERT
  5
17D
100
AcDbEntity
  8
dzailki
  6
CONTINUOUS
100
AcDbBlockReference
 66
0
  2
L_0_02_2
 10
8394855.41000000015
 20
5709822.16000000015
 41
0.50
 42
0.50
 43
0.50
 50
189.68
  0
INSERT
  5
17E
100
AcDbEntity
  8
dzailki
  6
CONTINUOUS
100
AcDbBlockReference
 66
0
  2
L_0_02_1
 10
8394855.41000000015
 20
5709822.16000000015
 41
0.50
 42
0.50
 43
0.50
 50
9.69
  0
INSERT
  5
17F
100
AcDbEntity
  8
dzailki
  6
CONTINUOUS
100
AcDbBlockReference
 66
0
  2
L_0_02_2
 10
8394868.30000000074
 20
5709824.36000000034
 41
0.50
 42
0.50
 43
0.50
 50
189.69
  0
INSERT
  5
180
100
AcDbEntity
  8
dzailki
  6
CONTINUOUS
100
AcDbBlockReference
 66
0
  2
L_0_02_1
 10
8394868.30000000074
 20
5709824.36000000034
 41
0.50
 42
0.50
 43
0.50
 50
9.71
  0
INSERT
  5
181
100
AcDbEntity
  8
dzailki
  6
CONTINUOUS
100
AcDbBlockReference
 66
0
  2
L_0_02_2
 10
8394880.68999999948
 20
5709826.48000000045
 41
0.50
 42
0.50
 43
0.50
 50
189.71
  0
INSERT
  5
182
100
AcDbEntity
  8
dzailki
  6
CONTINUOUS
100
AcDbBlockReference
 66
0
  2
L_0_02_1
 10
8394880.68999999948
 20
5709826.48000000045
 41
0.50
 42
0.50
 43
0.50
 50
9.69
  0
INSERT
  5
183
100
AcDbEntity
  8
dzailki
  6
CONTINUOUS
100
AcDbBlockReference
 66
0
  2
L_0_02_2
 10
8394904.75
 20
5709830.58999999985
 41
0.50
 42
0.50
 43
0.50
 50
189.69
  0
INSERT
  5
184
100
AcDbEntity
  8
dzailki
  6
CONTINUOUS
100
AcDbBlockReference
 66
0
  2
L_0_02_1
 10
8394904.75
 20
5709830.58999999985
 41
0.50
 42
0.50
 43
0.50
 50
9.70
  0
INSERT
  5
185
100
AcDbEntity
  8
dzailki
  6
CONTINUOUS
100
AcDbBlockReference
 66
0
  2
L_0_02_2
 10
8394917.91000000015
 20
5709832.83999999985
 41
0.50
 42
0.50
 43
0.50
 50
189.70
  0
INSERT
  5
186
100
AcDbEntity
  8
dzailki
  6
CONTINUOUS
100
AcDbBlockReference
 66
0
  2
L_0_02_1
 10
8394917.91000000015
 20
5709832.83999999985
 41
0.50
 42
0.50
 43
0.50
 50
9.51
  0
INSERT
  5
187
100
AcDbEntity
  8
dzailki
  6
CONTINUOUS
100
AcDbBlockReference
 66
0
  2
L_0_02_2
 10
8394919.93999999948
 20
5709833.1799999997
 41
0.50
 42
0.50
 43
0.50
 50
189.51
  0
INSERT
  5
188
100
AcDbEntity
  8
dzailki
  6
CONTINUOUS
100
AcDbBlockReference
 66
0
  2
L_0_02_1
 10
8394919.93999999948
 20
5709833.1799999997
 41
0.50
 42
0.50
 43
0.50
 50
12.49
  0
INSERT
  5
189
100
AcDbEntity
  8
dzailki
  6
CONTINUOUS
100
AcDbBlockReference
 66
0
  2
L_0_02_2
 10
8394929.06000000052
 20
5709835.20000000019
 41
0.50
 42
0.50
 43
0.50
 50
192.49
  0
INSERT
  5
18A
100
AcDbEntity
  8
dzailki
  6
CONTINUOUS
100
AcDbBlockReference
 66
0
  2
L_0_02_1
 10
8394929.06000000052
 20
5709835.20000000019
 41
0.50
 42
0.50
 43
0.50
 50
12.49
  0
INSERT
  5
18B
100
AcDbEntity
  8
dzailki
  6
CONTINUOUS
100
AcDbBlockReference
 66
0
  2
L_0_02_2
 10
8394933.52999999933
 20
5709836.19000000041
 41
0.50
 42
0.50
 43
0.50
 50
192.49
  0
INSERT
  5
18C
100
AcDbEntity
  8
dzailki
  6
CONTINUOUS
100
AcDbBlockReference
 66
0
  2
L_0_02_1
 10
8394933.52999999933
 20
5709836.19000000041
 41
0.50
 42
0.50
 43
0.50
 50
33.67
  0
INSERT
  5
18D
100
AcDbEntity
  8
dzailki
  6
CONTINUOUS
100
AcDbBlockReference
 66
0
  2
L_0_02_2
 10
8394940.21000000089
 20
5709840.63999999966
 41
0.50
 42
0.50
 43
0.50
 50
213.67
  0
INSERT
  5
18E
100
AcDbEntity
  8
dzailki
  6
CONTINUOUS
100
AcDbBlockReference
 66
0
  2
L_0_02_1
 10
8394940.21000000089
 20
5709840.63999999966
 41
0.50
 42
0.50
 43
0.50
 50
33.69
  0
INSERT
  5
18F
100
AcDbEntity
  8
dzailki
  6
CONTINUOUS
100
AcDbBlockReference
 66
0
  2
L_0_02_2
 10
8394946.5700000003
 20
5709844.87999999989
 41
0.50
 42
0.50
 43
0.50
 50
213.69
  0
INSERT
  5
190
100
AcDbEntity
  8
dzailki
  6
CONTINUOUS
100
AcDbBlockReference
 66
0
  2
L_0_02_1
 10
8394946.5700000003
 20
5709844.87999999989
 41
0.50
 42
0.50
 43
0.50
 50
33.69
  0
INSERT
  5
191
100
AcDbEntity
  8
dzailki
  6
CONTINUOUS
100
AcDbBlockReference
 66
0
  2
L_0_02_2
 10
8394947.52999999933
 20
5709845.51999999955
 41
0.50
 42
0.50
 43
0.50
 50
213.69
  0
INSERT
  5
192
100
AcDbEntity
  8
dzailki
  6
CONTINUOUS
100
AcDbBlockReference
 66
0
  2
L_0_02_1
 10
8394947.52999999933
 20
5709845.51999999955
 41
0.50
 42
0.50
 43
0.50
 50
80.08
  0
INSERT
  5
193
100
AcDbEntity
  8
dzailki
  6
CONTINUOUS
100
AcDbBlockReference
 66
0
  2
L_0_02_2
 10
8394948.90000000037
 20
5709853.34999999963
 41
0.50
 42
0.50
 43
0.50
 50
260.08
  0
INSERT
  5
194
100
AcDbEntity
  8
dzailki
  6
CONTINUOUS
100
AcDbBlockReference
 66
0
  2
L_0_02_1
 10
8394948.90000000037
 20
5709853.34999999963
 41
0.50
 42
0.50
 43
0.50
 50
301.53
  0
INSERT
  5
195
100
AcDbEntity
  8
dzailki
  6
CONTINUOUS
100
AcDbBlockReference
 66
0
  2
L_0_02_2
 10
8394960.76999999955
 20
5709834.0
 41
0.50
 42
0.50
 43
0.50
 50
121.53
  0
INSERT
  5
196
100
AcDbEntity
  8
dzailki
  6
CONTINUOUS
100
AcDbBlockReference
 66
0
  2
L_0_02_1
 10
8394960.76999999955
 20
5709834.0
 41
0.50
 42
0.50
 43
0.50
 50
185.35
  0
INSERT
  5
197
100
AcDbEntity
  8
dzailki
  6
CONTINUOUS
100
AcDbBlockReference
 66
0
  2
L_0_02_2
 10
8394939.83999999985
 20
5709832.04000000004
 41
0.50
 42
0.50
 43
0.50
 50
5.35
  0
INSERT
  5
198
100
AcDbEntity
  8
dzailki
  6
CONTINUOUS
100
AcDbBlockReference
 66
0
  2
L_0_02_1
 10
8394939.83999999985
 20
5709832.04000000004
 41
0.50
 42
0.50
 43
0.50
 50
185.39
  0
INSERT
  5
199
100
AcDbEntity
  8
dzailki
  6
CONTINUOUS
100
AcDbBlockReference
 66
0
  2
L_0_02_2
 10
8394925.3200000003
 20
5709830.66999999993
 41
0.50
 42
0.50
 43
0.50
 50
5.39
  0
INSERT
  5
19A
100
AcDbEntity
  8
dzailki
  6
CONTINUOUS
100
AcDbBlockReference
 66
0
  2
L_0_02_1
 10
8394925.3200000003
 20
5709830.66999999993
 41
0.50
 42
0.50
 43
0.50
 50
185.38
  0
INSERT
  5
19B
100
AcDbEntity
  8
dzailki
  6
CONTINUOUS
100
AcDbBlockReference
 66
0
  2
L_0_02_2
 10
8394920.33000000007
 20
5709830.20000000019
 41
0.50
 42
0.50
 43
0.50
 50
5.38
  0
INSERT
  5
19C
100
AcDbEntity
  8
dzailki
  6
CONTINUOUS
100
AcDbBlockReference
 66
0
  2
L_0_02_1
 10
8394920.33000000007
 20
5709830.20000000019
 41
0.50
 42
0.50
 43
0.50
 50
189.64
  0
INSERT
  5
19D
100
AcDbEntity
  8
dzailki
  6
CONTINUOUS
100
AcDbBlockReference
 66
0
  2
L_0_02_2
 10
8394911.3200000003
 20
5709828.66999999993
 41
0.50
 42
0.50
 43
0.50
 50
9.64
  0
INSERT
  5
19E
100
AcDbEntity
  8
dzailki
  6
CONTINUOUS
100
AcDbBlockReference
 66
0
  2
L_0_02_1
 10
8394911.3200000003
 20
5709828.66999999993
 41
0.50
 42
0.50
 43
0.50
 50
189.69
  0
INSERT
  5
19F
100
AcDbEntity
  8
dzailki
  6
CONTINUOUS
100
AcDbBlockReference
 66
0
  2
L_0_02_2
 10
8394887.25999999978
 20
5709824.55999999959
 41
0.50
 42
0.50
 43
0.50
 50
9.69
  0
INSERT
  5
1A0
100
AcDbEntity
  8
dzailki
  6
CONTINUOUS
100
AcDbBlockReference
 66
0
  2
L_0_02_1
 10
8394887.25999999978
 20
5709824.55999999959
 41
0.50
 42
0.50
 43
0.50
 50
189.70
  0
INSERT
  5
1A1
100
AcDbEntity
  8
dzailki
  6
CONTINUOUS
100
AcDbBlockReference
 66
0
  2
L_0_02_2
 10
8394874.8599999994
 20
5709822.44000000041
 41
0.50
 42
0.50
 43
0.50
 50
9.70
  0
INSERT
  5
1A2
100
AcDbEntity
  8
dzailki
  6
CONTINUOUS
100
AcDbBlockReference
 66
0
  2
L_0_02_1
 10
8394874.8599999994
 20
5709822.44000000041
 41
0.50
 42
0.50
 43
0.50
 50
189.70
  0
INSERT
  5
1A3
100
AcDbEntity
  8
dzailki
  6
CONTINUOUS
100
AcDbBlockReference
 66
0
  2
L_0_02_2
 10
8394861.99000000022
 20
5709820.24000000022
 41
0.50
 42
0.50
 43
0.50
 50
9.70
  0
INSERT
  5
1A4
100
AcDbEntity
  8
dzailki
  6
CONTINUOUS
100
AcDbBlockReference
 66
0
  2
L_0_02_1
 10
8394861.99000000022
 20
5709820.24000000022
 41
0.50
 42
0.50
 43
0.50
 50
189.67
  0
INSERT
  5
1A5
100
AcDbEntity
  8
dzailki
  6
CONTINUOUS
100
AcDbBlockReference
 66
0
  2
L_0_02_2
 10
8394850.18999999948
 20
5709818.23000000045
 41
0.50
 42
0.50
 43
0.50
 50
9.67
  0
INSERT
  5
1A6
100
AcDbEntity
  8
dzailki
  6
CONTINUOUS
100
AcDbBlockReference
 66
0
  2
L_0_02_1
 10
8394850.18999999948
 20
5709818.23000000045
 41
0.50
 42
0.50
 43
0.50
 50
189.70
  0
INSERT
  5
1A7
100
AcDbEntity
  8
dzailki
  6
CONTINUOUS
100
AcDbBlockReference
 66
0
  2
L_0_02_2
 10
8394837.15000000037
 20
5709816.0
 41
0.50
 42
0.50
 43
0.50
 50
9.70
  0
INSERT
  5
1A8
100
AcDbEntity
  8
dzailki
  6
CONTINUOUS
100
AcDbBlockReference
 66
0
  2
L_0_02_1
 10
8394837.15000000037
 20
5709816.0
 41
0.50
 42
0.50
 43
0.50
 50
189.69
  0
INSERT
  5
1A9
100
AcDbEntity
  8
dzailki
  6
CONTINUOUS
100
AcDbBlockReference
 66
0
  2
L_0_02_2
 10
8394811.3900000006
 20
5709811.59999999963
 41
0.50
 42
0.50
 43
0.50
 50
9.69
  0
INSERT
  5
1AA
100
AcDbEntity
  8
dzailki
  6
CONTINUOUS
100
AcDbBlockReference
 66
0
  2
L_0_02_1
 10
8394811.3900000006
 20
5709811.59999999963
 41
0.50
 42
0.50
 43
0.50
 50
189.68
  0
INSERT
  5
1AB
100
AcDbEntity
  8
dzailki
  6
CONTINUOUS
100
AcDbBlockReference
 66
0
  2
L_0_02_2
 10
8394798.6099999994
 20
5709809.41999999993
 41
0.50
 42
0.50
 43
0.50
 50
9.68
  0
INSERT
  5
1AC
100
AcDbEntity
  8
dzailki
  6
CONTINUOUS
100
AcDbBlockReference
 66
0
  2
L_0_02_1
 10
8394798.6099999994
 20
5709809.41999999993
 41
0.50
 42
0.50
 43
0.50
 50
189.72
  0
INSERT
  5
1AD
100
AcDbEntity
  8
dzailki
  6
CONTINUOUS
100
AcDbBlockReference
 66
0
  2
L_0_02_2
 10
8394786.34999999963
 20
5709807.3200000003
 41
0.50
 42
0.50
 43
0.50
 50
9.72
  0
INSERT
  5
1AE
100
AcDbEntity
  8
dzailki
  6
CONTINUOUS
100
AcDbBlockReference
 66
0
  2
L_0_02_1
 10
8394786.34999999963
 20
5709807.3200000003
 41
0.50
 42
0.50
 43
0.50
 50
189.70
  0
INSERT
  5
1AF
100
AcDbEntity
  8
dzailki
  6
CONTINUOUS
100
AcDbBlockReference
 66
0
  2
L_0_02_2
 10
8394767.91999999993
 20
5709804.16999999993
 41
0.50
 42
0.50
 43
0.50
 50
9.70
  0
INSERT
  5
1B0
100
AcDbEntity
  8
dzailki
  6
CONTINUOUS
100
AcDbBlockReference
 66
0
  2
L_0_02_1
 10
8394767.91999999993
 20
5709804.16999999993
 41
0.50
 42
0.50
 43
0.50
 50
189.68
  0
INSERT
  5
1B1
100
AcDbEntity
  8
dzailki
  6
CONTINUOUS
100
AcDbBlockReference
 66
0
  2
L_0_02_2
 10
8394733.97000000067
 20
5709798.37999999989
 41
0.50
 42
0.50
 43
0.50
 50
9.68
  0
INSERT
  5
1B2
100
AcDbEntity
  8
dzailki
  6
CONTINUOUS
100
AcDbBlockReference
 66
0
  2
L_0_02_1
 10
8394733.97000000067
 20
5709798.37999999989
 41
0.50
 42
0.50
 43
0.50
 50
189.69
  0
INSERT
  5
1B3
100
AcDbEntity
  8
dzailki
  6
CONTINUOUS
100
AcDbBlockReference
 66
0
  2
L_0_02_2
 10
8394722.25999999978
 20
5709796.37999999989
 41
0.50
 42
0.50
 43
0.50
 50
9.69
  0
INSERT
  5
1B4
100
AcDbEntity
  8
dzailki
  6
CONTINUOUS
100
AcDbBlockReference
 66
0
  2
L_0_02_1
 10
8394722.25999999978
 20
5709796.37999999989
 41
0.50
 42
0.50
 43
0.50
 50
189.73
  0
INSERT
  5
1B5
100
AcDbEntity
  8
dzailki
  6
CONTINUOUS
100
AcDbBlockReference
 66
0
  2
L_0_02_2
 10
8394709.90000000037
 20
5709794.25999999978
 41
0.50
 42
0.50
 43
0.50
 50
9.73
  0
INSERT
  5
1B6
100
AcDbEntity
  8
dzailki
  6
CONTINUOUS
100
AcDbBlockReference
 66
0
  2
L_0_02_1
 10
8394709.90000000037
 20
5709794.25999999978
 41
0.50
 42
0.50
 43
0.50
 50
189.66
  0
INSERT
  5
1B7
100
AcDbEntity
  8
dzailki
  6
CONTINUOUS
100
AcDbBlockReference
 66
0
  2
L_0_02_2
 10
8394697.3900000006
 20
5709792.12999999989
 41
0.50
 42
0.50
 43
0.50
 50
9.66
  0
INSERT
  5
1B8
100
AcDbEntity
  8
dzailki
  6
CONTINUOUS
100
AcDbBlockReference
 66
0
  2
L_0_02_1
 10
8394697.3900000006
 20
5709792.12999999989
 41
0.50
 42
0.50
 43
0.50
 50
189.71
  0
INSERT
  5
1B9
100
AcDbEntity
  8
dzailki
  6
CONTINUOUS
100
AcDbBlockReference
 66
0
  2
L_0_02_2
 10
8394684.06000000052
 20
5709789.84999999963
 41
0.50
 42
0.50
 43
0.50
 50
9.71
  0
INSERT
  5
1BA
100
AcDbEntity
  8
dzailki
  6
CONTINUOUS
100
AcDbBlockReference
 66
0
  2
L_0_02_1
 10
8394684.06000000052
 20
5709789.84999999963
 41
0.50
 42
0.50
 43
0.50
 50
189.69
  0
INSERT
  5
1BB
100
AcDbEntity
  8
dzailki
  6
CONTINUOUS
100
AcDbBlockReference
 66
0
  2
L_0_02_2
 10
8394659.93999999948
 20
5709785.73000000045
 41
0.50
 42
0.50
 43
0.50
 50
9.69
  0
INSERT
  5
1BC
100
AcDbEntity
  8
dzailki
  6
CONTINUOUS
100
AcDbBlockReference
 66
0
  2
L_0_02_1
 10
8394659.93999999948
 20
5709785.73000000045
 41
0.50
 42
0.50
 43
0.50
 50
189.66
  0
INSERT
  5
1BD
100
AcDbEntity
  8
dzailki
  6
CONTINUOUS
100
AcDbBlockReference
 66
0
  2
L_0_02_2
 10
8394645.73000000045
 20
5709783.30999999959
 41
0.50
 42
0.50
 43
0.50
 50
9.66
  0
INSERT
  5
1BE
100
AcDbEntity
  8
dzailki
  6
CONTINUOUS
100
AcDbBlockReference
 66
0
  2
L_0_02_1
 10
8394645.73000000045
 20
5709783.30999999959
 41
0.50
 42
0.50
 43
0.50
 50
189.71
  0
INSERT
  5
1BF
100
AcDbEntity
  8
dzailki
  6
CONTINUOUS
100
AcDbBlockReference
 66
0
  2
L_0_02_2
 10
8394631.24000000022
 20
5709780.83000000007
 41
0.50
 42
0.50
 43
0.50
 50
9.71
  0
INSERT
  5
1C0
100
AcDbEntity
  8
dzailki
  6
CONTINUOUS
100
AcDbBlockReference
 66
0
  2
L_0_02_1
 10
8394631.24000000022
 20
5709780.83000000007
 41
0.50
 42
0.50
 43
0.50
 50
189.68
  0
INSERT
  5
1C1
100
AcDbEntity
  8
dzailki
  6
CONTINUOUS
100
AcDbBlockReference
 66
0
  2
L_0_02_2
 10
8394606.02999999933
 20
5709776.53000000026
 41
0.50
 42
0.50
 43
0.50
 50
9.68
  0
INSERT
  5
1C2
100
AcDbEntity
  8
dzailki
  6
CONTINUOUS
100
AcDbBlockReference
 66
0
  2
L_0_02_1
 10
8394606.02999999933
 20
5709776.53000000026
 41
0.50
 42
0.50
 43
0.50
 50
189.71
  0
INSERT
  5
1C3
100
AcDbEntity
  8
dzailki
  6
CONTINUOUS
100
AcDbBlockReference
 66
0
  2
L_0_02_2
 10
8394581.1400000006
 20
5709772.26999999955
 41
0.50
 42
0.50
 43
0.50
 50
9.71
  0
INSERT
  5
1C4
100
AcDbEntity
  8
dzailki
  6
CONTINUOUS
100
AcDbBlockReference
 66
0
  2
L_0_02_1
 10
8394581.1400000006
 20
5709772.26999999955
 41
0.50
 42
0.50
 43
0.50
 50
189.69
  0
INSERT
  5
1C5
100
AcDbEntity
  8
dzailki
  6
CONTINUOUS
100
AcDbBlockReference
 66
0
  2
L_0_02_2
 10
8394555.66999999992
 20
5709767.91999999993
 41
0.50
 42
0.50
 43
0.50
 50
9.69
  0
INSERT
  5
1C6
100
AcDbEntity
  8
dzailki
  6
CONTINUOUS
100
AcDbBlockReference
 66
0
  2
L_0_02_1
 10
8394555.66999999992
 20
5709767.91999999993
 41
0.50
 42
0.50
 43
0.50
 50
189.67
  0
INSERT
  5
1C7
100
AcDbEntity
  8
dzailki
  6
CONTINUOUS
100
AcDbBlockReference
 66
0
  2
L_0_02_2
 10
8394531.02999999933
 20
5709763.71999999974
 41
0.50
 42
0.50
 43
0.50
 50
9.67
  0
INSERT
  5
1C8
100
AcDbEntity
  8
dzailki
  6
CONTINUOUS
100
AcDbBlockReference
 66
0
  2
L_0_02_1
 10
8394531.02999999933
 20
5709763.71999999974
 41
0.50
 42
0.50
 43
0.50
 50
189.72
  0
INSERT
  5
1C9
100
AcDbEntity
  8
dzailki
  6
CONTINUOUS
100
AcDbBlockReference
 66
0
  2
L_0_02_2
 10
8394518.18999999948
 20
5709761.51999999955
 41
0.50
 42
0.50
 43
0.50
 50
9.72
  0
INSERT
  5
1CA
100
AcDbEntity
  8
dzailki
  6
CONTINUOUS
100
AcDbBlockReference
 66
0
  2
L_0_02_1
 10
8394518.18999999948
 20
5709761.51999999955
 41
0.50
 42
0.50
 43
0.50
 50
189.66
  0
INSERT
  5
1CB
100
AcDbEntity
  8
dzailki
  6
CONTINUOUS
100
AcDbBlockReference
 66
0
  2
L_0_02_2
 10
8394505.80000000074
 20
5709759.41000000015
 41
0.50
 42
0.50
 43
0.50
 50
9.66
  0
INSERT
  5
1CC
100
AcDbEntity
  8
dzailki
  6
CONTINUOUS
100
AcDbBlockReference
 66
0
  2
L_0_02_1
 10
8394505.80000000074
 20
5709759.41000000015
 41
0.50
 42
0.50
 43
0.50
 50
189.72
  0
INSERT
  5
1CD
100
AcDbEntity
  8
dzailki
  6
CONTINUOUS
100
AcDbBlockReference
 66
0
  2
L_0_02_2
 10
8394492.55000000074
 20
5709757.13999999966
 41
0.50
 42
0.50
 43
0.50
 50
9.72
  0
INSERT
  5
1CE
100
AcDbEntity
  8
dzailki
  6
CONTINUOUS
100
AcDbBlockReference
 66
0
  2
L_0_02_1
 10
8394492.55000000074
 20
5709757.13999999966
 41
0.50
 42
0.50
 43
0.50
 50
189.69
  0
INSERT
  5
1CF
100
AcDbEntity
  8
dzailki
  6
CONTINUOUS
100
AcDbBlockReference
 66
0
  2
L_0_02_2
 10
8394480.13000000082
 20
5709755.01999999955
 41
0.50
 42
0.50
 43
0.50
 50
9.69
  0
INSERT
  5
1D0
100
AcDbEntity
  8
dzailki
  6
CONTINUOUS
100
AcDbBlockReference
 66
0
  2
L_0_02_1
 10
8394480.13000000082
 20
5709755.01999999955
 41
0.50
 42
0.50
 43
0.50
 50
189.69
  0
INSERT
  5
1D1
100
AcDbEntity
  8
dzailki
  6
CONTINUOUS
100
AcDbBlockReference
 66
0
  2
L_0_02_2
 10
8394465.3200000003
 20
5709752.49000000022
 41
0.50
 42
0.50
 43
0.50
 50
9.69
  0
INSERT
  5
1D2
100
AcDbEntity
  8
dzailki
  6
CONTINUOUS
100
AcDbBlockReference
 66
0
  2
L_0_02_1
 10
8394465.3200000003
 20
5709752.49000000022
 41
0.50
 42
0.50
 43
0.50
 50
189.68
  0
INSERT
  5
1D3
100
AcDbEntity
  8
dzailki
  6
CONTINUOUS
100
AcDbBlockReference
 66
0
  2
L_0_02_2
 10
8394452.66000000015
 20
5709750.33000000007
 41
0.50
 42
0.50
 43
0.50
 50
9.68
  0
INSERT
  5
1D4
100
AcDbEntity
  8
dzailki
  6
CONTINUOUS
100
AcDbBlockReference
 66
0
  2
L_0_02_1
 10
8394452.66000000015
 20
5709750.33000000007
 41
0.50
 42
0.50
 43
0.50
 50
189.68
  0
INSERT
  5
1D5
100
AcDbEntity
  8
dzailki
  6
CONTINUOUS
100
AcDbBlockReference
 66
0
  2
L_0_02_2
 10
8394439.1799999997
 20
5709748.03000000026
 41
0.50
 42
0.50
 43
0.50
 50
9.68
  0
INSERT
  5
1D6
100
AcDbEntity
  8
dzailki
  6
CONTINUOUS
100
AcDbBlockReference
 66
0
  2
L_0_02_1
 10
8394439.1799999997
 20
5709748.03000000026
 41
0.50
 42
0.50
 43
0.50
 50
193.35
  0
INSERT
  5
1D7
100
AcDbEntity
  8
dzailki
  6
CONTINUOUS
100
AcDbBlockReference
 66
0
  2
L_0_02_2
 10
8394426.33000000008
 20
5709744.98000000045
 41
0.50
 42
0.50
 43
0.50
 50
13.35
  0
INSERT
  5
1D8
100
AcDbEntity
  8
dzailki
  6
CONTINUOUS
100
AcDbBlockReference
 66
0
  2
L_0_02_1
 10
8394426.33000000008
 20
5709744.98000000045
 41
0.50
 42
0.50
 43
0.50
 50
163.38
  0
INSERT
  5
1D9
100
AcDbEntity
  8
dzailki
  6
CONTINUOUS
100
AcDbBlockReference
 66
0
  2
L_0_02_2
 10
8394419.73000000045
 20
5709746.95000000019
 41
0.50
 42
0.50
 43
0.50
 50
343.38
  0
INSERT
  5
1DA
100
AcDbEntity
  8
dzailki
  6
CONTINUOUS
100
AcDbBlockReference
 66
0
  2
L_0_02_1
 10
8394419.73000000045
 20
5709746.95000000019
 41
0.50
 42
0.50
 43
0.50
 50
13.09
  0
INSERT
  5
1DB
100
AcDbEntity
  8
dzailki
  6
CONTINUOUS
100
AcDbBlockReference
 66
0
  2
L_0_02_2
 10
8394432.6799999997
 20
5709749.95999999996
 41
0.50
 42
0.50
 43
0.50
 50
193.09
  0
MLINE
  5
1DC
100
AcDbEntity
  8
dzailki
  6
L_0_02
370
18
100
AcDbMline
  2
L_0_02
340
7
 40
1.0
 70
1
 71
3
 72
73
 73
1
 10
8394432.6799999997
 20
5709749.95999999996
210
0.0
220
0.0
230
1.0
 11
8394432.6799999997
 21
5709749.95999999996
 12
0.98571271034
 22
0.168435307091
 13
-0.197502646332
 23
0.980302353711
 74
3
 41
0.0
 41
0.25
 41
13.405094288331
 75
0
 11
8394446.1400000006
 21
5709752.25999999978
 12
0.985741642232
 22
0.168265904951
 13
-0.168350606643
 23
0.985727179925
 74
3
 41
0.0
 41
0.25
 41
15.261163720831
 75
0
 11
8394461.4299999997
 21
5709754.87000000011
 12
0.985706915149
 22
0.168469218044
 13
-0.168367562393
 23
0.985724283932
 74
3
 41
0.0
 41
0.25
 41
12.096469130828
 75
0
 11
8394473.59999999963
 21
5709756.95000000019
 12
0.98575595491
 22
0.168182036377
 13
-0.168325628996
 23
0.985731445488
 74
3
 41
0.0
 41
0.25
 41
12.177010903648
 75
0
 11
8394485.84999999963
 21
5709759.04000000004
 12
0.985646798513
 22
0.168820581036
 13
-0.168501317546
 23
0.985701428418
 74
3
 41
0.0
 41
0.25
 41
13.314696827724
 75
0
 11
8394499.22000000067
 21
5709761.33000000007
 12
0.985763505379
 22
0.16813777524
 13
-0.168479188244
 23
0.985705211069
 74
3
 41
0.0
 41
0.25
 41
13.191357818278
 75
0
 11
8394512.47000000067
 21
5709763.58999999985
 12
0.985714696725
 22
0.168423682005
 13
-0.168280730392
 23
0.985739111418
 74
3
 41
0.0
 41
0.25
 41
14.652892336173
 75
0
 11
8394527.16000000015
 21
5709766.09999999963
 12
0.985705505124
 22
0.168477467835
 13
-0.168450574983
 23
0.985710101291
 74
3
 41
0.0
 41
0.25
 41
22.008169286289
 75
0
 11
8394549.09999999963
 21
5709769.84999999963
 12
0.98574320566
 22
0.168256745762
 13
-0.168367107854
 23
0.98572436157
 74
3
 41
0.0
 41
0.25
 41
29.585356542425
 75
0
 11
8394578.50999999978
 21
5709774.87000000011
 12
0.985709958722
 22
0.168451409245
 13
-0.168354078324
 23
0.985726586996
 74
3
 41
0.0
 41
0.25
 41
25.751563415322
 75
0
 11
8394604.1400000006
 21
5709779.25
 12
0.985781716032
 22
0.16803097434
 13
-0.168241195618
 23
0.985745859792
 74
3
 41
0.0
 41
0.25
 41
24.745391574031
 75
0
 11
8394628.77999999933
 21
5709783.45000000019
 12
0.985660135136
 22
0.168742697629
 13
-0.168386846957
 23
0.98572098982
 74
3
 41
0.0
 41
0.25
 41
13.558004925941
 75
0
 11
8394642.3900000006
 21
5709785.78000000026
 12
0.985795457604
 22
0.167950337208
 13
-0.168346531015
 23
0.985727875986
 74
3
 41
0.0
 41
0.25
 41
13.444524453195
 75
0
 11
8394655.8900000006
 21
5709788.08000000007
 12
0.985695849762
 22
0.168533948396
 13
-0.168242150173
 23
0.985745696874
 74
3
 41
0.0
 41
0.25
 41
10.727016899189
 75
0
 11
8394666.71000000089
 21
5709789.9299999997
 12
0.985695849743
 22
0.168533948506
 13
-0.168533948451
 23
0.985695849753
 74
3
 41
0.0
 41
0.25
 41
10.72701689751
 75
0
 11
8394677.52999999933
 21
5709791.78000000026
 12
0.985766377208
 22
0.16812093732
 13
-0.168327446607
 23
0.985731135107
 74
3
 41
0.0
 41
0.25
 41
13.2521850088
 75
0
 11
8394690.83999999985
 21
5709794.04999999981
 12
0.985659749672
 22
0.168744949191
 13
-0.168432951693
 23
0.985713112819
 74
3
 41
0.0
 41
0.25
 41
12.431861062263
 75
0
 11
8394703.33999999985
 21
5709796.19000000041
 12
0.985784713523
 22
0.168013388111
 13
-0.168379180244
 23
0.985722299464
 74
3
 41
0.0
 41
0.25
 41
12.308523003036
 75
0
 11
8394715.72000000067
 21
5709798.29999999981
 12
0.985654359398
 22
0.168776431408
 13
-0.168394922373
 23
0.985719610294
 74
3
 41
0.0
 41
0.25
 41
11.599995780296
 75
0
 11
8394727.40000000037
 21
5709800.29999999981
 12
0.985718798056
 22
0.168399676838
 13
-0.168588057202
 23
0.985686596728
 74
3
 41
0.0
 41
0.25
 41
34.191871318894
 75
0
 11
8394761.34999999963
 21
5709806.09999999963
 12
0.985794801601
 22
0.167954187611
 13
-0.168176936518
 23
0.985756824995
 74
3
 41
0.0
 41
0.25
 41
18.445574342415
 75
0
 11
8394779.77999999933
 21
5709809.24000000022
 12
0.985645197567
 22
0.168829927778
 13
-0.168392074308
 23
0.985720096838
 74
3
 41
0.0
 41
0.25
 41
12.188552970219
 75
0
 11
8394792.03999999911
 21
5709811.33999999985
 12
0.985783166773
 22
0.168022463105
 13
-0.168426209569
 23
0.985714264851
 74
3
 41
0.0
 41
0.25
 41
12.724455673495
 75
0
 11
8394804.83000000007
 21
5709813.51999999955
 12
0.985725610386
 22
0.168359796356
 13
-0.168191132192
 23
0.985754403009
 74
3
 41
0.0
 41
0.25
 41
25.943901962417
 75
0
 11
8394830.65000000037
 21
5709817.9299999997
 12
0.985687220673
 22
0.168584409128
 13
-0.168472103835
 23
0.985706421928
 74
3
 41
0.0
 41
0.25
 41
12.918477513159
 75
0
 11
8394843.63000000082
 21
5709820.15000000037
 12
0.985753350055
 22
0.168197303353
 13
-0.168390859487
 23
0.985720304367
 74
3
 41
0.0
 41
0.25
 41
11.70025104269
 75
0
 11
8394855.41000000015
 21
5709822.16000000015
 12
0.985745706942
 22
0.168242091183
 13
-0.168219697312
 23
0.985749528753
 74
3
 41
0.0
 41
0.25
 41
12.826394763702
 75
0
 11
8394868.30000000074
 21
5709824.36000000034
 12
0.985675200333
 22
0.168654675144
 13
-0.168448386853
 23
0.985710475224
 74
3
 41
0.0
 41
0.25
 41
12.320063642205
 75
0
 11
8394880.68999999948
 21
5709826.48000000045
 12
0.985721502183
 22
0.168383847602
 13
-0.168519262963
 23
0.98569836056
 74
3
 41
0.0
 41
0.25
 41
24.158516956591
 75
0
 11
8394904.75
 21
5709830.58999999985
 12
0.985696999714
 22
0.168527222594
 13
-0.168455535543
 23
0.985709253555
 74
3
 41
0.0
 41
0.25
 41
13.100958767217
 75
0
 11
8394917.91000000015
 21
5709832.83999999985
 12
0.986262300143
 22
0.165186789169
 13
-0.166857245281
 23
0.985981064573
 74
3
 41
0.0
 41
0.25
 41
1.808275976922
 75
0
 11
8394919.93999999948
 21
5709833.1799999997
 12
0.976337959168
 22
0.216250293615
 13
-0.190783084068
 23
0.981632219741
 74
3
 41
0.0
 41
0.25
 41
9.091027781833
 75
0
 11
8394929.06000000052
 21
5709835.20000000019
 12
0.976340992997
 22
0.216236595871
 13
-0.216243444748
 23
0.976339476106
 74
3
 41
0.0
 41
0.25
 41
4.328318467493
 75
0
 11
8394933.52999999933
 21
5709836.19000000041
 12
0.832241917249
 22
0.554412654232
 13
-0.392002809402
 23
0.919964019634
 74
3
 41
0.0
 41
0.25
 41
7.776512319449
 75
0
 11
8394940.21000000089
 21
5709840.63999999966
 12
0.8320502943
 22
0.554700196281
 13
-0.554556433534
 23
0.832146118195
 74
3
 41
0.0
 41
0.25
 41
7.393768703612
 75
0
 11
8394946.5700000003
 21
5709844.87999999989
 12
0.832050294214
 22
0.554700196412
 13
-0.554700196346
 23
0.832050294257
 74
3
 41
0.0
 41
0.25
 41
0.903776407157
 75
0
 11
8394947.52999999933
 21
5709845.51999999955
 12
0.172349815656
 22
0.985035806985
 13
-0.837554726804
 23
0.546353438361
 74
3
 41
0.0
 41
0.25
 41
7.698949616397
 75
0
 11
8394948.90000000037
 21
5709853.34999999963
 12
0.522892572297
 22
-0.85239859094
 13
-0.18739854276
 23
0.982283964122
 74
3
 41
0.0
 41
0.25
 41
22.45064756711
 75
0
 11
8394960.76999999955
 21
5709834.0
 12
-0.995643891324
 22
-0.09323755504
 13
0.894452445903
 23
-0.447163082127
 74
3
 41
0.0
 41
0.25
 41
20.771572252983
 75
0
 11
8394939.83999999985
 21
5709832.04000000004
 12
-0.995578292927
 22
-0.093935417456
 13
0.093586491996
 23
-0.99561115327
 74
3
 41
0.0
 41
0.25
 41
14.33448833478
 75
0
 11
8394925.3200000003
 21
5709830.66999999993
 12
-0.995593571825
 22
-0.09377334238
 13
0.093854380229
 23
-0.995585935674
 74
3
 41
0.0
 41
0.25
 41
4.762085394522
 75
0
 11
8394920.33000000007
 21
5709830.20000000019
 12
-0.985886564635
 22
-0.167414699688
 13
0.130684179712
 23
-0.99142404912
 74
3
 41
0.0
 41
0.25
 41
8.88898243771
 75
0
 11
8394911.3200000003
 21
5709828.66999999993
 12
-0.985721502177
 22
-0.168383847639
 13
0.167899293947
 23
-0.985804152503
 74
3
 41
0.0
 41
0.25
 41
24.158516956748
 75
0
 11
8394887.25999999978
 21
5709824.55999999959
 12
-0.985697802444
 22
-0.168522527444
 13
0.168453187958
 23
-0.98570965475
 74
3
 41
0.0
 41
0.25
 41
12.329920508722
 75
0
 11
8394874.8599999994
 21
5709822.44000000041
 12
-0.985702316474
 22
-0.168496122499
 13
0.168509324987
 23
-0.985700059548
 74
3
 41
0.0
 41
0.25
 41
12.806680281746
 75
0
 11
8394861.99000000022
 21
5709820.24000000022
 12
-0.98580057999
 22
-0.167920268257
 13
0.168208202554
 23
-0.985751490282
 74
3
 41
0.0
 41
0.25
 41
11.719966583775
 75
0
 11
8394850.18999999948
 21
5709818.23000000045
 12
-0.985690510697
 22
-0.168565171737
 13
0.168242728998
 23
-0.985745598083
 74
3
 41
0.0
 41
0.25
 41
12.979304591651
 75
0
 11
8394837.15000000037
 21
5709816.0
 12
-0.985724036258
 22
-0.16836901242
 13
0.168467092912
 23
-0.985707278357
 74
3
 41
0.0
 41
0.25
 41
25.883074828496
 75
0
 11
8394811.3900000006
 21
5709811.59999999963
 12
-0.985761382618
 22
-0.168150220158
 13
0.168259617325
 23
-0.985742715508
 74
3
 41
0.0
 41
0.25
 41
12.714597950927
 75
0
 11
8394798.6099999994
 21
5709809.41999999993
 12
-0.985645197567
 22
-0.168829927778
 13
0.168490083983
 23
-0.98570334868
 74
3
 41
0.0
 41
0.25
 41
12.188552970219
 75
0
 11
8394786.34999999963
 21
5709807.3200000003
 12
-0.985706112362
 22
-0.168473915049
 13
0.168651924164
 23
-0.985675671038
 74
3
 41
0.0
 41
0.25
 41
18.447256483007
 75
0
 11
8394767.91999999993
 21
5709804.16999999993
 12
-0.985766955654
 22
-0.168117545608
 13
0.168295733078
 23
-0.985736550112
 74
3
 41
0.0
 41
0.25
 41
34.190188732785
 75
0
 11
8394733.97000000067
 21
5709798.37999999989
 12
-0.985726205538
 22
-0.168356311778
 13
0.168236929927
 23
-0.985746587825
 74
3
 41
0.0
 41
0.25
 41
11.629566491288
 75
0
 11
8394722.25999999978
 21
5709796.37999999989
 12
-0.985607073989
 22
-0.169052346041
 13
0.168704339425
 23
-0.985666701202
 74
3
 41
0.0
 41
0.25
 41
12.290494407548
 75
0
 11
8394709.90000000037
 21
5709794.25999999978
 12
-0.985812848082
 22
-0.167848230723
 13
0.168450319803
 23
-0.9857101449
 74
3
 41
0.0
 41
0.25
 41
12.440035460704
 75
0
 11
8394697.3900000006
 21
5709792.12999999989
 12
-0.985685516655
 22
-0.168594371959
 13
0.168221313389
 23
-0.985749252965
 74
3
 41
0.0
 41
0.25
 41
13.273583105197
 75
0
 11
8394684.06000000052
 21
5709789.84999999963
 12
-0.985723193698
 22
-0.168373945151
 13
0.168484159609
 23
-0.985704361338
 74
3
 41
0.0
 41
0.25
 41
24.219344086909
 75
0
 11
8394659.93999999948
 21
5709785.73000000045
 12
-0.985806515955
 22
-0.167885416581
 13
0.168129686028
 23
-0.98576488509
 74
3
 41
0.0
 41
0.25
 41
14.164593299036
 75
0
 11
8394645.73000000045
 21
5709783.30999999959
 12
-0.985667532735
 22
-0.168699481067
 13
0.168292463172
 23
-0.985737108381
 74
3
 41
0.0
 41
0.25
 41
14.450697262514
 75
0
 11
8394631.24000000022
 21
5709780.83000000007
 12
-0.985763309727
 22
-0.168138922312
 13
0.168419208498
 23
-0.985715461078
 74
3
 41
0.0
 41
0.25
 41
25.324090405007
 75
0
 11
8394606.02999999933
 21
5709776.53000000026
 12
-0.985667441834
 22
-0.168700012178
 13
0.168419474067
 23
-0.985715415703
 74
3
 41
0.0
 41
0.25
 41
25.001924677992
 75
0
 11
8394581.1400000006
 21
5709772.26999999955
 12
-0.985727028239
 22
-0.168351494792
 13
0.168525756119
 23
-0.98569725044
 74
3
 41
0.0
 41
0.25
 41
25.588796412196
 75
0
 11
8394555.66999999992
 21
5709767.91999999993
 12
-0.985781716034
 22
-0.168030974327
 13
0.168191236783
 23
-0.985754385164
 74
3
 41
0.0
 41
0.25
 41
24.745391575867
 75
0
 11
8394531.02999999933
 21
5709763.71999999974
 12
-0.985636861054
 22
-0.168878589916
 13
0.168454797692
 23
-0.985709379652
 74
3
 41
0.0
 41
0.25
 41
12.777110193631
 75
0
 11
8394518.18999999948
 21
5709761.51999999955
 12
-0.985807164643
 22
-0.167881607508
 13
0.168380120243
 23
-0.985722138895
 74
3
 41
0.0
 41
0.25
 41
12.318380960414
 75
0
 11
8394505.80000000074
 21
5709759.41000000015
 12
-0.985639946765
 22
-0.168860579595
 13
0.16837111431
 23
-0.985723677237
 74
3
 41
0.0
 41
0.25
 41
13.193042810398
 75
0
 11
8394492.55000000074
 21
5709757.13999999966
 12
-0.985742847585
 22
-0.168258843559
 13
0.168559719429
 23
-0.985691443093
 74
3
 41
0.0
 41
0.25
 41
12.349634915291
 75
0
 11
8394480.13000000082
 21
5709755.01999999955
 12
-0.985720262447
 22
-0.168391104878
 13
0.168324974597
 23
-0.985731557234
 74
3
 41
0.0
 41
0.25
 41
14.774546582578
 75
0
 11
8394465.3200000003
 21
5709752.49000000022
 12
-0.985755322634
 22
-0.16818574226
 13
0.168288424482
 23
-0.985737797888
 74
3
 41
0.0
 41
0.25
 41
12.592943587995
 75
0
 11
8394452.66000000015
 21
5709750.33000000007
 12
-0.985754173445
 22
-0.168192477646
 13
0.168189109954
 23
-0.985754748045
 74
3
 41
0.0
 41
0.25
 41
13.424808957027
 75
0
 11
8394439.1799999997
 21
5709748.03000000026
 12
-0.972968458991
 22
-0.230938038897
 13
0.19966762615
 23
-0.979863683921
 74
3
 41
0.0
 41
0.25
 41
12.957005716259
 75
0
 11
8394426.33000000008
 21
5709744.98000000045
 12
-0.958224952477
 22
0.286015629733
 13
-0.028508384717
 23
-0.999593553401
 74
3
 41
0.0
 41
0.25
 41
6.637735476487
 75
0
 11
8394419.73000000045
 21
5709746.95000000019
 12
0.974035034245
 22
0.22639733228
 13
-0.999524349369
 23
0.030839504198
 74
3
 41
0.0
 41
0.25
 41
13.045209662858
 75
0
  0
INSERT
  5
1DD
100
AcDbEntity
  8
dzailki
  6
CONTINUOUS
100
AcDbBlockReference
 66
0
  2
L_0_02_1
 10
8395019.75999999978
 20
5709768.54000000004
 41
0.50
 42
0.50
 43
0.50
 50
320.95
  0
INSERT
  5
1DE
100
AcDbEntity
  8
dzailki
  6
CONTINUOUS
100
AcDbBlockReference
 66
0
  2
L_0_02_2
 10
8395033.09999999963
 20
5709757.71999999974
 41
0.50
 42
0.50
 43
0.50
 50
140.95
  0
INSERT
  5
1DF
100
AcDbEntity
  8
dzailki
  6
CONTINUOUS
100
AcDbBlockReference
 66
0
  2
L_0_02_1
 10
8395033.09999999963
 20
5709757.71999999974
 41
0.50
 42
0.50
 43
0.50
 50
320.96
  0
INSERT
  5
1E0
100
AcDbEntity
  8
dzailki
  6
CONTINUOUS
100
AcDbBlockReference
 66
0
  2
L_0_02_2
 10
8395041.24000000022
 20
5709751.12000000011
 41
0.50
 42
0.50
 43
0.50
 50
140.96
  0
INSERT
  5
1E1
100
AcDbEntity
  8
dzailki
  6
CONTINUOUS
100
AcDbBlockReference
 66
0
  2
L_0_02_1
 10
8395041.24000000022
 20
5709751.12000000011
 41
0.50
 42
0.50
 43
0.50
 50
320.94
  0
INSERT
  5
1E2
100
AcDbEntity
  8
dzailki
  6
CONTINUOUS
100
AcDbBlockReference
 66
0
  2
L_0_02_2
 10
8395054.5
 20
5709740.36000000034
 41
0.50
 42
0.50
 43
0.50
 50
140.94
  0
INSERT
  5
1E3
100
AcDbEntity
  8
dzailki
  6
CONTINUOUS
100
AcDbBlockReference
 66
0
  2
L_0_02_1
 10
8395054.5
 20
5709740.36000000034
 41
0.50
 42
0.50
 43
0.50
 50
320.97
  0
INSERT
  5
1E4
100
AcDbEntity
  8
dzailki
  6
CONTINUOUS
100
AcDbBlockReference
 66
0
  2
L_0_02_2
 10
8395066.06000000052
 20
5709730.99000000022
 41
0.50
 42
0.50
 43
0.50
 50
140.97
  0
INSERT
  5
1E5
100
AcDbEntity
  8
dzailki
  6
CONTINUOUS
100
AcDbBlockReference
 66
0
  2
L_0_02_1
 10
8395066.06000000052
 20
5709730.99000000022
 41
0.50
 42
0.50
 43
0.50
 50
320.94
  0
INSERT
  5
1E6
100
AcDbEntity
  8
dzailki
  6
CONTINUOUS
100
AcDbBlockReference
 66
0
  2
L_0_02_2
 10
8395077.41999999993
 20
5709721.76999999955
 41
0.50
 42
0.50
 43
0.50
 50
140.94
  0
INSERT
  5
1E7
100
AcDbEntity
  8
dzailki
  6
CONTINUOUS
100
AcDbBlockReference
 66
0
  2
L_0_02_1
 10
8395077.41999999993
 20
5709721.76999999955
 41
0.50
 42
0.50
 43
0.50
 50
320.97
  0
INSERT
  5
1E8
100
AcDbEntity
  8
dzailki
  6
CONTINUOUS
100
AcDbBlockReference
 66
0
  2
L_0_02_2
 10
8395093.68999999948
 20
5709708.58000000007
 41
0.50
 42
0.50
 43
0.50
 50
140.97
  0
INSERT
  5
1E9
100
AcDbEntity
  8
dzailki
  6
CONTINUOUS
100
AcDbBlockReference
 66
0
  2
L_0_02_1
 10
8395093.68999999948
 20
5709708.58000000007
 41
0.50
 42
0.50
 43
0.50
 50
320.95
  0
INSERT
  5
1EA
100
AcDbEntity
  8
dzailki
  6
CONTINUOUS
100
AcDbBlockReference
 66
0
  2
L_0_02_2
 10
8395123.78999999911
 20
5709684.16000000015
 41
0.50
 42
0.50
 43
0.50
 50
140.95
  0
INSERT
  5
1EB
100
AcDbEntity
  8
dzailki
  6
CONTINUOUS
100
AcDbBlockReference
 66
0
  2
L_0_02_1
 10
8395123.78999999911
 20
5709684.16000000015
 41
0.50
 42
0.50
 43
0.50
 50
320.96
  0
INSERT
  5
1EC
100
AcDbEntity
  8
dzailki
  6
CONTINUOUS
100
AcDbBlockReference
 66
0
  2
L_0_02_2
 10
8395134.6400000006
 20
5709675.36000000034
 41
0.50
 42
0.50
 43
0.50
 50
140.96
  0
INSERT
  5
1ED
100
AcDbEntity
  8
dzailki
  6
CONTINUOUS
100
AcDbBlockReference
 66
0
  2
L_0_02_1
 10
8395134.6400000006
 20
5709675.36000000034
 41
0.50
 42
0.50
 43
0.50
 50
320.97
  0
INSERT
  5
1EE
100
AcDbEntity
  8
dzailki
  6
CONTINUOUS
100
AcDbBlockReference
 66
0
  2
L_0_02_2
 10
8395144.15000000037
 20
5709667.65000000037
 41
0.50
 42
0.50
 43
0.50
 50
140.97
  0
INSERT
  5
1EF
100
AcDbEntity
  8
dzailki
  6
CONTINUOUS
100
AcDbBlockReference
 66
0
  2
L_0_02_1
 10
8395144.15000000037
 20
5709667.65000000037
 41
0.50
 42
0.50
 43
0.50
 50
320.96
  0
INSERT
  5
1F0
100
AcDbEntity
  8
dzailki
  6
CONTINUOUS
100
AcDbBlockReference
 66
0
  2
L_0_02_2
 10
8395155.19999999926
 20
5709658.69000000041
 41
0.50
 42
0.50
 43
0.50
 50
140.96
  0
INSERT
  5
1F1
100
AcDbEntity
  8
dzailki
  6
CONTINUOUS
100
AcDbBlockReference
 66
0
  2
L_0_02_1
 10
8395155.19999999926
 20
5709658.69000000041
 41
0.50
 42
0.50
 43
0.50
 50
320.94
  0
INSERT
  5
1F2
100
AcDbEntity
  8
dzailki
  6
CONTINUOUS
100
AcDbBlockReference
 66
0
  2
L_0_02_2
 10
8395166.43999999948
 20
5709649.5700000003
 41
0.50
 42
0.50
 43
0.50
 50
140.94
  0
INSERT
  5
1F3
100
AcDbEntity
  8
dzailki
  6
CONTINUOUS
100
AcDbBlockReference
 66
0
  2
L_0_02_1
 10
8395166.43999999948
 20
5709649.5700000003
 41
0.50
 42
0.50
 43
0.50
 50
320.94
  0
INSERT
  5
1F4
100
AcDbEntity
  8
dzailki
  6
CONTINUOUS
100
AcDbBlockReference
 66
0
  2
L_0_02_2
 10
8395188.25
 20
5709631.87000000011
 41
0.50
 42
0.50
 43
0.50
 50
140.94
  0
INSERT
  5
1F5
100
AcDbEntity
  8
dzailki
  6
CONTINUOUS
100
AcDbBlockReference
 66
0
  2
L_0_02_1
 10
8395188.25
 20
5709631.87000000011
 41
0.50
 42
0.50
 43
0.50
 50
320.98
  0
INSERT
  5
1F6
100
AcDbEntity
  8
dzailki
  6
CONTINUOUS
100
AcDbBlockReference
 66
0
  2
L_0_02_2
 10
8395201.16999999993
 20
5709621.40000000037
 41
0.50
 42
0.50
 43
0.50
 50
140.98
  0
INSERT
  5
1F7
100
AcDbEntity
  8
dzailki
  6
CONTINUOUS
100
AcDbBlockReference
 66
0
  2
L_0_02_1
 10
8395201.16999999993
 20
5709621.40000000037
 41
0.50
 42
0.50
 43
0.50
 50
320.94
  0
INSERT
  5
1F8
100
AcDbEntity
  8
dzailki
  6
CONTINUOUS
100
AcDbBlockReference
 66
0
  2
L_0_02_2
 10
8395215.6099999994
 20
5709609.6799999997
 41
0.50
 42
0.50
 43
0.50
 50
140.94
  0
INSERT
  5
1F9
100
AcDbEntity
  8
dzailki
  6
CONTINUOUS
100
AcDbBlockReference
 66
0
  2
L_0_02_1
 10
8395215.6099999994
 20
5709609.6799999997
 41
0.50
 42
0.50
 43
0.50
 50
320.95
  0
INSERT
  5
1FA
100
AcDbEntity
  8
dzailki
  6
CONTINUOUS
100
AcDbBlockReference
 66
0
  2
L_0_02_2
 10
8395219.48000000045
 20
5709606.54000000004
 41
0.50
 42
0.50
 43
0.50
 50
140.95
  0
INSERT
  5
1FB
100
AcDbEntity
  8
dzailki
  6
CONTINUOUS
100
AcDbBlockReference
 66
0
  2
L_0_02_1
 10
8395219.48000000045
 20
5709606.54000000004
 41
0.50
 42
0.50
 43
0.50
 50
328.19
  0
INSERT
  5
1FC
100
AcDbEntity
  8
dzailki
  6
CONTINUOUS
100
AcDbBlockReference
 66
0
  2
L_0_02_2
 10
8395245.83999999985
 20
5709590.19000000041
 41
0.50
 42
0.50
 43
0.50
 50
148.19
  0
INSERT
  5
1FD
100
AcDbEntity
  8
dzailki
  6
CONTINUOUS
100
AcDbBlockReference
 66
0
  2
L_0_02_1
 10
8395245.83999999985
 20
5709590.19000000041
 41
0.50
 42
0.50
 43
0.50
 50
328.18
  0
INSERT
  5
1FE
100
AcDbEntity
  8
dzailki
  6
CONTINUOUS
100
AcDbBlockReference
 66
0
  2
L_0_02_2
 10
8395257.91000000015
 20
5709582.70000000019
 41
0.50
 42
0.50
 43
0.50
 50
148.18
  0
INSERT
  5
1FF
100
AcDbEntity
  8
dzailki
  6
CONTINUOUS
100
AcDbBlockReference
 66
0
  2
L_0_02_1
 10
8395257.91000000015
 20
5709582.70000000019
 41
0.50
 42
0.50
 43
0.50
 50
238.41
  0
INSERT
  5
200
100
AcDbEntity
  8
dzailki
  6
CONTINUOUS
100
AcDbBlockReference
 66
0
  2
L_0_02_2
 10
8395255.28999999911
 20
5709578.44000000041
 41
0.50
 42
0.50
 43
0.50
 50
58.41
  0
INSERT
  5
201
100
AcDbEntity
  8
dzailki
  6
CONTINUOUS
100
AcDbBlockReference
 66
0
  2
L_0_02_1
 10
8395255.28999999911
 20
5709578.44000000041
 41
0.50
 42
0.50
 43
0.50
 50
148.18
  0
INSERT
  5
202
100
AcDbEntity
  8
dzailki
  6
CONTINUOUS
100
AcDbBlockReference
 66
0
  2
L_0_02_2
 10
8395227.99000000022
 20
5709595.37999999989
 41
0.50
 42
0.50
 43
0.50
 50
328.18
  0
INSERT
  5
203
100
AcDbEntity
  8
dzailki
  6
CONTINUOUS
100
AcDbBlockReference
 66
0
  2
L_0_02_1
 10
8395227.99000000022
 20
5709595.37999999989
 41
0.50
 42
0.50
 43
0.50
 50
148.18
  0
INSERT
  5
204
100
AcDbEntity
  8
dzailki
  6
CONTINUOUS
100
AcDbBlockReference
 66
0
  2
L_0_02_2
 10
8395216.58000000007
 20
5709602.45999999996
 41
0.50
 42
0.50
 43
0.50
 50
328.18
  0
INSERT
  5
205
100
AcDbEntity
  8
dzailki
  6
CONTINUOUS
100
AcDbBlockReference
 66
0
  2
L_0_02_1
 10
8395216.58000000007
 20
5709602.45999999996
 41
0.50
 42
0.50
 43
0.50
 50
140.95
  0
INSERT
  5
206
100
AcDbEntity
  8
dzailki
  6
CONTINUOUS
100
AcDbBlockReference
 66
0
  2
L_0_02_2
 10
8395203.1799999997
 20
5709613.33000000007
 41
0.50
 42
0.50
 43
0.50
 50
320.95
  0
INSERT
  5
207
100
AcDbEntity
  8
dzailki
  6
CONTINUOUS
100
AcDbBlockReference
 66
0
  2
L_0_02_1
 10
8395203.1799999997
 20
5709613.33000000007
 41
0.50
 42
0.50
 43
0.50
 50
140.96
  0
INSERT
  5
208
100
AcDbEntity
  8
dzailki
  6
CONTINUOUS
100
AcDbBlockReference
 66
0
  2
L_0_02_2
 10
8395188.78999999911
 20
5709625.0
 41
0.50
 42
0.50
 43
0.50
 50
320.96
  0
INSERT
  5
209
100
AcDbEntity
  8
dzailki
  6
CONTINUOUS
100
AcDbBlockReference
 66
0
  2
L_0_02_1
 10
8395188.78999999911
 20
5709625.0
 41
0.50
 42
0.50
 43
0.50
 50
140.94
  0
INSERT
  5
20A
100
AcDbEntity
  8
dzailki
  6
CONTINUOUS
100
AcDbBlockReference
 66
0
  2
L_0_02_2
 10
8395175.8900000006
 20
5709635.46999999974
 41
0.50
 42
0.50
 43
0.50
 50
320.94
  0
INSERT
  5
20B
100
AcDbEntity
  8
dzailki
  6
CONTINUOUS
100
AcDbBlockReference
 66
0
  2
L_0_02_1
 10
8395175.8900000006
 20
5709635.46999999974
 41
0.50
 42
0.50
 43
0.50
 50
140.97
  0
INSERT
  5
20C
100
AcDbEntity
  8
dzailki
  6
CONTINUOUS
100
AcDbBlockReference
 66
0
  2
L_0_02_2
 10
8395154.08999999985
 20
5709653.13999999966
 41
0.50
 42
0.50
 43
0.50
 50
320.97
  0
INSERT
  5
20D
100
AcDbEntity
  8
dzailki
  6
CONTINUOUS
100
AcDbBlockReference
 66
0
  2
L_0_02_1
 10
8395154.08999999985
 20
5709653.13999999966
 41
0.50
 42
0.50
 43
0.50
 50
140.93
  0
INSERT
  5
20E
100
AcDbEntity
  8
dzailki
  6
CONTINUOUS
100
AcDbBlockReference
 66
0
  2
L_0_02_2
 10
8395142.8200000003
 20
5709662.29000000004
 41
0.50
 42
0.50
 43
0.50
 50
320.93
  0
INSERT
  5
20F
100
AcDbEntity
  8
dzailki
  6
CONTINUOUS
100
AcDbBlockReference
 66
0
  2
L_0_02_1
 10
8395142.8200000003
 20
5709662.29000000004
 41
0.50
 42
0.50
 43
0.50
 50
140.99
  0
INSERT
  5
210
100
AcDbEntity
  8
dzailki
  6
CONTINUOUS
100
AcDbBlockReference
 66
0
  2
L_0_02_2
 10
8395131.75999999978
 20
5709671.25
 41
0.50
 42
0.50
 43
0.50
 50
320.99
  0
INSERT
  5
211
100
AcDbEntity
  8
dzailki
  6
CONTINUOUS
100
AcDbBlockReference
 66
0
  2
L_0_02_1
 10
8395131.75999999978
 20
5709671.25
 41
0.50
 42
0.50
 43
0.50
 50
140.94
  0
INSERT
  5
212
100
AcDbEntity
  8
dzailki
  6
CONTINUOUS
100
AcDbBlockReference
 66
0
  2
L_0_02_2
 10
8395122.21000000089
 20
5709679.0
 41
0.50
 42
0.50
 43
0.50
 50
320.94
  0
INSERT
  5
213
100
AcDbEntity
  8
dzailki
  6
CONTINUOUS
100
AcDbBlockReference
 66
0
  2
L_0_02_1
 10
8395122.21000000089
 20
5709679.0
 41
0.50
 42
0.50
 43
0.50
 50
140.96
  0
INSERT
  5
214
100
AcDbEntity
  8
dzailki
  6
CONTINUOUS
100
AcDbBlockReference
 66
0
  2
L_0_02_2
 10
8395111.3599999994
 20
5709687.79999999981
 41
0.50
 42
0.50
 43
0.50
 50
320.96
  0
INSERT
  5
215
100
AcDbEntity
  8
dzailki
  6
CONTINUOUS
100
AcDbBlockReference
 66
0
  2
L_0_02_1
 10
8395111.3599999994
 20
5709687.79999999981
 41
0.50
 42
0.50
 43
0.50
 50
140.95
  0
INSERT
  5
216
100
AcDbEntity
  8
dzailki
  6
CONTINUOUS
100
AcDbBlockReference
 66
0
  2
L_0_02_2
 10
8395081.25
 20
5709712.23000000045
 41
0.50
 42
0.50
 43
0.50
 50
320.95
  0
INSERT
  5
217
100
AcDbEntity
  8
dzailki
  6
CONTINUOUS
100
AcDbBlockReference
 66
0
  2
L_0_02_1
 10
8395081.25
 20
5709712.23000000045
 41
0.50
 42
0.50
 43
0.50
 50
140.96
  0
INSERT
  5
218
100
AcDbEntity
  8
dzailki
  6
CONTINUOUS
100
AcDbBlockReference
 66
0
  2
L_0_02_2
 10
8395064.97000000067
 20
5709725.4299999997
 41
0.50
 42
0.50
 43
0.50
 50
320.96
  0
INSERT
  5
219
100
AcDbEntity
  8
dzailki
  6
CONTINUOUS
100
AcDbBlockReference
 66
0
  2
L_0_02_1
 10
8395064.97000000067
 20
5709725.4299999997
 41
0.50
 42
0.50
 43
0.50
 50
140.97
  0
INSERT
  5
21A
100
AcDbEntity
  8
dzailki
  6
CONTINUOUS
100
AcDbBlockReference
 66
0
  2
L_0_02_2
 10
8395053.61999999918
 20
5709734.62999999989
 41
0.50
 42
0.50
 43
0.50
 50
320.97
  0
INSERT
  5
21B
100
AcDbEntity
  8
dzailki
  6
CONTINUOUS
100
AcDbBlockReference
 66
0
  2
L_0_02_1
 10
8395053.61999999918
 20
5709734.62999999989
 41
0.50
 42
0.50
 43
0.50
 50
140.92
  0
INSERT
  5
21C
100
AcDbEntity
  8
dzailki
  6
CONTINUOUS
100
AcDbBlockReference
 66
0
  2
L_0_02_2
 10
8395042.0700000003
 20
5709744.00999999978
 41
0.50
 42
0.50
 43
0.50
 50
320.92
  0
INSERT
  5
21D
100
AcDbEntity
  8
dzailki
  6
CONTINUOUS
100
AcDbBlockReference
 66
0
  2
L_0_02_1
 10
8395042.0700000003
 20
5709744.00999999978
 41
0.50
 42
0.50
 43
0.50
 50
140.95
  0
INSERT
  5
21E
100
AcDbEntity
  8
dzailki
  6
CONTINUOUS
100
AcDbBlockReference
 66
0
  2
L_0_02_2
 10
8395020.5700000003
 20
5709761.45000000019
 41
0.50
 42
0.50
 43
0.50
 50
320.95
  0
INSERT
  5
21F
100
AcDbEntity
  8
dzailki
  6
CONTINUOUS
100
AcDbBlockReference
 66
0
  2
L_0_02_1
 10
8395020.5700000003
 20
5709761.45000000019
 41
0.50
 42
0.50
 43
0.50
 50
140.98
  0
INSERT
  5
220
100
AcDbEntity
  8
dzailki
  6
CONTINUOUS
100
AcDbBlockReference
 66
0
  2
L_0_02_2
 10
8395007.33000000008
 20
5709772.1799999997
 41
0.50
 42
0.50
 43
0.50
 50
320.98
  0
INSERT
  5
221
100
AcDbEntity
  8
dzailki
  6
CONTINUOUS
100
AcDbBlockReference
 66
0
  2
L_0_02_1
 10
8395007.33000000008
 20
5709772.1799999997
 41
0.50
 42
0.50
 43
0.50
 50
140.95
  0
INSERT
  5
222
100
AcDbEntity
  8
dzailki
  6
CONTINUOUS
100
AcDbBlockReference
 66
0
  2
L_0_02_2
 10
8394996.41000000015
 20
5709781.04000000004
 41
0.50
 42
0.50
 43
0.50
 50
320.95
  0
INSERT
  5
223
100
AcDbEntity
  8
dzailki
  6
CONTINUOUS
100
AcDbBlockReference
 66
0
  2
L_0_02_1
 10
8394996.41000000015
 20
5709781.04000000004
 41
0.50
 42
0.50
 43
0.50
 50
140.95
  0
INSERT
  5
224
100
AcDbEntity
  8
dzailki
  6
CONTINUOUS
100
AcDbBlockReference
 66
0
  2
L_0_02_2
 10
8394990.1099999994
 20
5709786.15000000037
 41
0.50
 42
0.50
 43
0.50
 50
320.95
  0
INSERT
  5
225
100
AcDbEntity
  8
dzailki
  6
CONTINUOUS
100
AcDbBlockReference
 66
0
  2
L_0_02_1
 10
8394990.1099999994
 20
5709786.15000000037
 41
0.50
 42
0.50
 43
0.50
 50
121.40
  0
INSERT
  5
226
100
AcDbEntity
  8
dzailki
  6
CONTINUOUS
100
AcDbBlockReference
 66
0
  2
L_0_02_2
 10
8394988.23000000045
 20
5709789.23000000045
 41
0.50
 42
0.50
 43
0.50
 50
301.40
  0
INSERT
  5
227
100
AcDbEntity
  8
dzailki
  6
CONTINUOUS
100
AcDbBlockReference
 66
0
  2
L_0_02_1
 10
8394988.23000000045
 20
5709789.23000000045
 41
0.50
 42
0.50
 43
0.50
 50
121.58
  0
INSERT
  5
228
100
AcDbEntity
  8
dzailki
  6
CONTINUOUS
100
AcDbBlockReference
 66
0
  2
L_0_02_2
 10
8394983.8900000006
 20
5709796.29000000004
 41
0.50
 42
0.50
 43
0.50
 50
301.58
  0
INSERT
  5
229
100
AcDbEntity
  8
dzailki
  6
CONTINUOUS
100
AcDbBlockReference
 66
0
  2
L_0_02_1
 10
8394983.8900000006
 20
5709796.29000000004
 41
0.50
 42
0.50
 43
0.50
 50
121.52
  0
INSERT
  5
22A
100
AcDbEntity
  8
dzailki
  6
CONTINUOUS
100
AcDbBlockReference
 66
0
  2
L_0_02_2
 10
8394975.55000000074
 20
5709809.88999999966
 41
0.50
 42
0.50
 43
0.50
 50
301.52
  0
INSERT
  5
22B
100
AcDbEntity
  8
dzailki
  6
CONTINUOUS
100
AcDbBlockReference
 66
0
  2
L_0_02_1
 10
8394975.55000000074
 20
5709809.88999999966
 41
0.50
 42
0.50
 43
0.50
 50
121.51
  0
INSERT
  5
22C
100
AcDbEntity
  8
dzailki
  6
CONTINUOUS
100
AcDbBlockReference
 66
0
  2
L_0_02_2
 10
8394970.97000000067
 20
5709817.36000000034
 41
0.50
 42
0.50
 43
0.50
 50
301.51
  0
INSERT
  5
22D
100
AcDbEntity
  8
dzailki
  6
CONTINUOUS
100
AcDbBlockReference
 66
0
  2
L_0_02_1
 10
8394970.97000000067
 20
5709817.36000000034
 41
0.50
 42
0.50
 43
0.50
 50
121.52
  0
INSERT
  5
22E
100
AcDbEntity
  8
dzailki
  6
CONTINUOUS
100
AcDbBlockReference
 66
0
  2
L_0_02_2
 10
8394966.83000000007
 20
5709824.11000000034
 41
0.50
 42
0.50
 43
0.50
 50
301.52
  0
INSERT
  5
22F
100
AcDbEntity
  8
dzailki
  6
CONTINUOUS
100
AcDbBlockReference
 66
0
  2
L_0_02_1
 10
8394966.83000000007
 20
5709824.11000000034
 41
0.50
 42
0.50
 43
0.50
 50
121.50
  0
INSERT
  5
230
100
AcDbEntity
  8
dzailki
  6
CONTINUOUS
100
AcDbBlockReference
 66
0
  2
L_0_02_2
 10
8394960.76999999955
 20
5709834.0
 41
0.50
 42
0.50
 43
0.50
 50
301.50
  0
INSERT
  5
231
100
AcDbEntity
  8
dzailki
  6
CONTINUOUS
100
AcDbBlockReference
 66
0
  2
L_0_02_1
 10
8394960.76999999955
 20
5709834.0
 41
0.50
 42
0.50
 43
0.50
 50
121.53
  0
INSERT
  5
232
100
AcDbEntity
  8
dzailki
  6
CONTINUOUS
100
AcDbBlockReference
 66
0
  2
L_0_02_2
 10
8394948.90000000037
 20
5709853.34999999963
 41
0.50
 42
0.50
 43
0.50
 50
301.53
  0
INSERT
  5
233
100
AcDbEntity
  8
dzailki
  6
CONTINUOUS
100
AcDbBlockReference
 66
0
  2
L_0_02_1
 10
8394948.90000000037
 20
5709853.34999999963
 41
0.50
 42
0.50
 43
0.50
 50
121.50
  0
INSERT
  5
234
100
AcDbEntity
  8
dzailki
  6
CONTINUOUS
100
AcDbBlockReference
 66
0
  2
L_0_02_2
 10
8394940.4299999997
 20
5709867.16999999993
 41
0.50
 42
0.50
 43
0.50
 50
301.50
  0
INSERT
  5
235
100
AcDbEntity
  8
dzailki
  6
CONTINUOUS
100
AcDbBlockReference
 66
0
  2
L_0_02_1
 10
8394940.4299999997
 20
5709867.16999999993
 41
0.50
 42
0.50
 43
0.50
 50
121.54
  0
INSERT
  5
236
100
AcDbEntity
  8
dzailki
  6
CONTINUOUS
100
AcDbBlockReference
 66
0
  2
L_0_02_2
 10
8394932.27999999933
 20
5709880.45000000019
 41
0.50
 42
0.50
 43
0.50
 50
301.54
  0
INSERT
  5
237
100
AcDbEntity
  8
dzailki
  6
CONTINUOUS
100
AcDbBlockReference
 66
0
  2
L_0_02_1
 10
8394932.27999999933
 20
5709880.45000000019
 41
0.50
 42
0.50
 43
0.50
 50
121.55
  0
INSERT
  5
238
100
AcDbEntity
  8
dzailki
  6
CONTINUOUS
100
AcDbBlockReference
 66
0
  2
L_0_02_2
 10
8394927.16000000015
 20
5709888.79000000004
 41
0.50
 42
0.50
 43
0.50
 50
301.55
  0
INSERT
  5
239
100
AcDbEntity
  8
dzailki
  6
CONTINUOUS
100
AcDbBlockReference
 66
0
  2
L_0_02_1
 10
8394927.16000000015
 20
5709888.79000000004
 41
0.50
 42
0.50
 43
0.50
 50
116.57
  0
INSERT
  5
23A
100
AcDbEntity
  8
dzailki
  6
CONTINUOUS
100
AcDbBlockReference
 66
0
  2
L_0_02_2
 10
8394927.15000000037
 20
5709888.80999999959
 41
0.50
 42
0.50
 43
0.50
 50
296.57
  0
INSERT
  5
23B
100
AcDbEntity
  8
dzailki
  6
CONTINUOUS
100
AcDbBlockReference
 66
0
  2
L_0_02_1
 10
8394927.15000000037
 20
5709888.80999999959
 41
0.50
 42
0.50
 43
0.50
 50
121.08
  0
INSERT
  5
23C
100
AcDbEntity
  8
dzailki
  6
CONTINUOUS
100
AcDbBlockReference
 66
0
  2
L_0_02_2
 10
8394923.50999999978
 20
5709894.84999999963
 41
0.50
 42
0.50
 43
0.50
 50
301.08
  0
INSERT
  5
23D
100
AcDbEntity
  8
dzailki
  6
CONTINUOUS
100
AcDbBlockReference
 66
0
  2
L_0_02_1
 10
8394923.50999999978
 20
5709894.84999999963
 41
0.50
 42
0.50
 43
0.50
 50
121.39
  0
INSERT
  5
23E
100
AcDbEntity
  8
dzailki
  6
CONTINUOUS
100
AcDbBlockReference
 66
0
  2
L_0_02_2
 10
8394919.33000000007
 20
5709901.70000000019
 41
0.50
 42
0.50
 43
0.50
 50
301.39
  0
INSERT
  5
23F
100
AcDbEntity
  8
dzailki
  6
CONTINUOUS
100
AcDbBlockReference
 66
0
  2
L_0_02_1
 10
8394919.33000000007
 20
5709901.70000000019
 41
0.50
 42
0.50
 43
0.50
 50
121.69
  0
INSERT
  5
240
100
AcDbEntity
  8
dzailki
  6
CONTINUOUS
100
AcDbBlockReference
 66
0
  2
L_0_02_2
 10
8394913.5700000003
 20
5709911.03000000026
 41
0.50
 42
0.50
 43
0.50
 50
301.69
  0
INSERT
  5
241
100
AcDbEntity
  8
dzailki
  6
CONTINUOUS
100
AcDbBlockReference
 66
0
  2
L_0_02_1
 10
8394913.5700000003
 20
5709911.03000000026
 41
0.50
 42
0.50
 43
0.50
 50
121.73
  0
INSERT
  5
242
100
AcDbEntity
  8
dzailki
  6
CONTINUOUS
100
AcDbBlockReference
 66
0
  2
L_0_02_2
 10
8394909.5700000003
 20
5709917.5
 41
0.50
 42
0.50
 43
0.50
 50
301.73
  0
INSERT
  5
243
100
AcDbEntity
  8
dzailki
  6
CONTINUOUS
100
AcDbBlockReference
 66
0
  2
L_0_02_1
 10
8394909.5700000003
 20
5709917.5
 41
0.50
 42
0.50
 43
0.50
 50
121.53
  0
INSERT
  5
244
100
AcDbEntity
  8
dzailki
  6
CONTINUOUS
100
AcDbBlockReference
 66
0
  2
L_0_02_2
 10
8394904.91999999993
 20
5709925.08000000007
 41
0.50
 42
0.50
 43
0.50
 50
301.53
  0
INSERT
  5
245
100
AcDbEntity
  8
dzailki
  6
CONTINUOUS
100
AcDbBlockReference
 66
0
  2
L_0_02_1
 10
8394904.91999999993
 20
5709925.08000000007
 41
0.50
 42
0.50
 43
0.50
 50
121.55
  0
INSERT
  5
246
100
AcDbEntity
  8
dzailki
  6
CONTINUOUS
100
AcDbBlockReference
 66
0
  2
L_0_02_2
 10
8394900.44999999926
 20
5709932.36000000034
 41
0.50
 42
0.50
 43
0.50
 50
301.55
  0
INSERT
  5
247
100
AcDbEntity
  8
dzailki
  6
CONTINUOUS
100
AcDbBlockReference
 66
0
  2
L_0_02_1
 10
8394900.44999999926
 20
5709932.36000000034
 41
0.50
 42
0.50
 43
0.50
 50
121.48
  0
INSERT
  5
248
100
AcDbEntity
  8
dzailki
  6
CONTINUOUS
100
AcDbBlockReference
 66
0
  2
L_0_02_2
 10
8394896.1400000006
 20
5709939.40000000037
 41
0.50
 42
0.50
 43
0.50
 50
301.48
  0
INSERT
  5
249
100
AcDbEntity
  8
dzailki
  6
CONTINUOUS
100
AcDbBlockReference
 66
0
  2
L_0_02_1
 10
8394896.1400000006
 20
5709939.40000000037
 41
0.50
 42
0.50
 43
0.50
 50
121.51
  0
INSERT
  5
24A
100
AcDbEntity
  8
dzailki
  6
CONTINUOUS
100
AcDbBlockReference
 66
0
  2
L_0_02_2
 10
8394891.44999999926
 20
5709947.04999999981
 41
0.50
 42
0.50
 43
0.50
 50
301.51
  0
INSERT
  5
24B
100
AcDbEntity
  8
dzailki
  6
CONTINUOUS
100
AcDbBlockReference
 66
0
  2
L_0_02_1
 10
8394891.44999999926
 20
5709947.04999999981
 41
0.50
 42
0.50
 43
0.50
 50
121.54
  0
INSERT
  5
24C
100
AcDbEntity
  8
dzailki
  6
CONTINUOUS
100
AcDbBlockReference
 66
0
  2
L_0_02_2
 10
8394887.26999999955
 20
5709953.86000000034
 41
0.50
 42
0.50
 43
0.50
 50
301.54
  0
INSERT
  5
24D
100
AcDbEntity
  8
dzailki
  6
CONTINUOUS
100
AcDbBlockReference
 66
0
  2
L_0_02_1
 10
8394887.26999999955
 20
5709953.86000000034
 41
0.50
 42
0.50
 43
0.50
 50
121.52
  0
INSERT
  5
24E
100
AcDbEntity
  8
dzailki
  6
CONTINUOUS
100
AcDbBlockReference
 66
0
  2
L_0_02_2
 10
8394883.05000000074
 20
5709960.74000000022
 41
0.50
 42
0.50
 43
0.50
 50
301.52
  0
INSERT
  5
24F
100
AcDbEntity
  8
dzailki
  6
CONTINUOUS
100
AcDbBlockReference
 66
0
  2
L_0_02_1
 10
8394883.05000000074
 20
5709960.74000000022
 41
0.50
 42
0.50
 43
0.50
 50
121.51
  0
INSERT
  5
250
100
AcDbEntity
  8
dzailki
  6
CONTINUOUS
100
AcDbBlockReference
 66
0
  2
L_0_02_2
 10
8394878.63000000082
 20
5709967.95000000019
 41
0.50
 42
0.50
 43
0.50
 50
301.51
  0
INSERT
  5
251
100
AcDbEntity
  8
dzailki
  6
CONTINUOUS
100
AcDbBlockReference
 66
0
  2
L_0_02_1
 10
8394878.63000000082
 20
5709967.95000000019
 41
0.50
 42
0.50
 43
0.50
 50
121.51
  0
INSERT
  5
252
100
AcDbEntity
  8
dzailki
  6
CONTINUOUS
100
AcDbBlockReference
 66
0
  2
L_0_02_2
 10
8394869.3599999994
 20
5709983.0700000003
 41
0.50
 42
0.50
 43
0.50
 50
301.51
  0
INSERT
  5
253
100
AcDbEntity
  8
dzailki
  6
CONTINUOUS
100
AcDbBlockReference
 66
0
  2
L_0_02_1
 10
8394869.3599999994
 20
5709983.0700000003
 41
0.50
 42
0.50
 43
0.50
 50
121.52
  0
INSERT
  5
254
100
AcDbEntity
  8
dzailki
  6
CONTINUOUS
100
AcDbBlockReference
 66
0
  2
L_0_02_2
 10
8394859.21000000089
 20
5709999.62000000011
 41
0.50
 42
0.50
 43
0.50
 50
301.52
  0
INSERT
  5
255
100
AcDbEntity
  8
dzailki
  6
CONTINUOUS
100
AcDbBlockReference
 66
0
  2
L_0_02_1
 10
8394859.21000000089
 20
5709999.62000000011
 41
0.50
 42
0.50
 43
0.50
 50
121.54
  0
INSERT
  5
256
100
AcDbEntity
  8
dzailki
  6
CONTINUOUS
100
AcDbBlockReference
 66
0
  2
L_0_02_2
 10
8394853.98000000045
 20
5710008.13999999966
 41
0.50
 42
0.50
 43
0.50
 50
301.54
  0
INSERT
  5
257
100
AcDbEntity
  8
dzailki
  6
CONTINUOUS
100
AcDbBlockReference
 66
0
  2
L_0_02_1
 10
8394853.98000000045
 20
5710008.13999999966
 41
0.50
 42
0.50
 43
0.50
 50
121.45
  0
INSERT
  5
258
100
AcDbEntity
  8
dzailki
  6
CONTINUOUS
100
AcDbBlockReference
 66
0
  2
L_0_02_2
 10
8394850.93999999948
 20
5710013.11000000034
 41
0.50
 42
0.50
 43
0.50
 50
301.45
  0
INSERT
  5
259
100
AcDbEntity
  8
dzailki
  6
CONTINUOUS
100
AcDbBlockReference
 66
0
  2
L_0_02_1
 10
8394850.93999999948
 20
5710013.11000000034
 41
0.50
 42
0.50
 43
0.50
 50
121.57
  0
INSERT
  5
25A
100
AcDbEntity
  8
dzailki
  6
CONTINUOUS
100
AcDbBlockReference
 66
0
  2
L_0_02_2
 10
8394847.68999999948
 20
5710018.40000000037
 41
0.50
 42
0.50
 43
0.50
 50
301.57
  0
INSERT
  5
25B
100
AcDbEntity
  8
dzailki
  6
CONTINUOUS
100
AcDbBlockReference
 66
0
  2
L_0_02_1
 10
8394847.68999999948
 20
5710018.40000000037
 41
0.50
 42
0.50
 43
0.50
 50
121.45
  0
INSERT
  5
25C
100
AcDbEntity
  8
dzailki
  6
CONTINUOUS
100
AcDbBlockReference
 66
0
  2
L_0_02_2
 10
8394844.75999999978
 20
5710023.19000000041
 41
0.50
 42
0.50
 43
0.50
 50
301.45
  0
INSERT
  5
25D
100
AcDbEntity
  8
dzailki
  6
CONTINUOUS
100
AcDbBlockReference
 66
0
  2
L_0_02_1
 10
8394844.75999999978
 20
5710023.19000000041
 41
0.50
 42
0.50
 43
0.50
 50
136.35
  0
INSERT
  5
25E
100
AcDbEntity
  8
dzailki
  6
CONTINUOUS
100
AcDbBlockReference
 66
0
  2
L_0_02_2
 10
8394839.1099999994
 20
5710028.58000000007
 41
0.50
 42
0.50
 43
0.50
 50
316.35
  0
INSERT
  5
25F
100
AcDbEntity
  8
dzailki
  6
CONTINUOUS
100
AcDbBlockReference
 66
0
  2
L_0_02_1
 10
8394839.1099999994
 20
5710028.58000000007
 41
0.50
 42
0.50
 43
0.50
 50
348.23
  0
INSERT
  5
260
100
AcDbEntity
  8
dzailki
  6
CONTINUOUS
100
AcDbBlockReference
 66
0
  2
L_0_02_2
 10
8394848.51999999955
 20
5710026.62000000011
 41
0.50
 42
0.50
 43
0.50
 50
168.23
  0
INSERT
  5
261
100
AcDbEntity
  8
dzailki
  6
CONTINUOUS
100
AcDbBlockReference
 66
0
  2
L_0_02_1
 10
8394848.51999999955
 20
5710026.62000000011
 41
0.50
 42
0.50
 43
0.50
 50
301.53
  0
INSERT
  5
262
100
AcDbEntity
  8
dzailki
  6
CONTINUOUS
100
AcDbBlockReference
 66
0
  2
L_0_02_2
 10
8394851.90000000037
 20
5710021.11000000034
 41
0.50
 42
0.50
 43
0.50
 50
121.53
  0
INSERT
  5
263
100
AcDbEntity
  8
dzailki
  6
CONTINUOUS
100
AcDbBlockReference
 66
0
  2
L_0_02_1
 10
8394851.90000000037
 20
5710021.11000000034
 41
0.50
 42
0.50
 43
0.50
 50
301.49
  0
INSERT
  5
264
100
AcDbEntity
  8
dzailki
  6
CONTINUOUS
100
AcDbBlockReference
 66
0
  2
L_0_02_2
 10
8394854.83999999985
 20
5710016.30999999959
 41
0.50
 42
0.50
 43
0.50
 50
121.49
  0
INSERT
  5
265
100
AcDbEntity
  8
dzailki
  6
CONTINUOUS
100
AcDbBlockReference
 66
0
  2
L_0_02_1
 10
8394854.83999999985
 20
5710016.30999999959
 41
0.50
 42
0.50
 43
0.50
 50
301.57
  0
INSERT
  5
266
100
AcDbEntity
  8
dzailki
  6
CONTINUOUS
100
AcDbBlockReference
 66
0
  2
L_0_02_2
 10
8394858.08999999985
 20
5710011.01999999955
 41
0.50
 42
0.50
 43
0.50
 50
121.57
  0
INSERT
  5
267
100
AcDbEntity
  8
dzailki
  6
CONTINUOUS
100
AcDbBlockReference
 66
0
  2
L_0_02_1
 10
8394858.08999999985
 20
5710011.01999999955
 41
0.50
 42
0.50
 43
0.50
 50
301.50
  0
INSERT
  5
268
100
AcDbEntity
  8
dzailki
  6
CONTINUOUS
100
AcDbBlockReference
 66
0
  2
L_0_02_2
 10
8394861.13000000082
 20
5710006.05999999959
 41
0.50
 42
0.50
 43
0.50
 50
121.50
  0
INSERT
  5
269
100
AcDbEntity
  8
dzailki
  6
CONTINUOUS
100
AcDbBlockReference
 66
0
  2
L_0_02_1
 10
8394861.13000000082
 20
5710006.05999999959
 41
0.50
 42
0.50
 43
0.50
 50
301.51
  0
INSERT
  5
26A
100
AcDbEntity
  8
dzailki
  6
CONTINUOUS
100
AcDbBlockReference
 66
0
  2
L_0_02_2
 10
8394866.33999999985
 20
5709997.55999999959
 41
0.50
 42
0.50
 43
0.50
 50
121.51
  0
INSERT
  5
26B
100
AcDbEntity
  8
dzailki
  6
CONTINUOUS
100
AcDbBlockReference
 66
0
  2
L_0_02_1
 10
8394866.33999999985
 20
5709997.55999999959
 41
0.50
 42
0.50
 43
0.50
 50
301.53
  0
INSERT
  5
26C
100
AcDbEntity
  8
dzailki
  6
CONTINUOUS
100
AcDbBlockReference
 66
0
  2
L_0_02_2
 10
8394876.5
 20
5709981.0
 41
0.50
 42
0.50
 43
0.50
 50
121.53
  0
INSERT
  5
26D
100
AcDbEntity
  8
dzailki
  6
CONTINUOUS
100
AcDbBlockReference
 66
0
  2
L_0_02_1
 10
8394876.5
 20
5709981.0
 41
0.50
 42
0.50
 43
0.50
 50
301.50
  0
INSERT
  5
26E
100
AcDbEntity
  8
dzailki
  6
CONTINUOUS
100
AcDbBlockReference
 66
0
  2
L_0_02_2
 10
8394885.75999999978
 20
5709965.88999999966
 41
0.50
 42
0.50
 43
0.50
 50
121.50
  0
INSERT
  5
26F
100
AcDbEntity
  8
dzailki
  6
CONTINUOUS
100
AcDbBlockReference
 66
0
  2
L_0_02_1
 10
8394885.75999999978
 20
5709965.88999999966
 41
0.50
 42
0.50
 43
0.50
 50
301.49
  0
INSERT
  5
270
100
AcDbEntity
  8
dzailki
  6
CONTINUOUS
100
AcDbBlockReference
 66
0
  2
L_0_02_2
 10
8394890.16999999993
 20
5709958.69000000041
 41
0.50
 42
0.50
 43
0.50
 50
121.49
  0
INSERT
  5
271
100
AcDbEntity
  8
dzailki
  6
CONTINUOUS
100
AcDbBlockReference
 66
0
  2
L_0_02_1
 10
8394890.16999999993
 20
5709958.69000000041
 41
0.50
 42
0.50
 43
0.50
 50
301.56
  0
INSERT
  5
272
100
AcDbEntity
  8
dzailki
  6
CONTINUOUS
100
AcDbBlockReference
 66
0
  2
L_0_02_2
 10
8394894.3900000006
 20
5709951.8200000003
 41
0.50
 42
0.50
 43
0.50
 50
121.56
  0
INSERT
  5
273
100
AcDbEntity
  8
dzailki
  6
CONTINUOUS
100
AcDbBlockReference
 66
0
  2
L_0_02_1
 10
8394894.3900000006
 20
5709951.8200000003
 41
0.50
 42
0.50
 43
0.50
 50
301.50
  0
INSERT
  5
274
100
AcDbEntity
  8
dzailki
  6
CONTINUOUS
100
AcDbBlockReference
 66
0
  2
L_0_02_2
 10
8394898.5700000003
 20
5709945.0
 41
0.50
 42
0.50
 43
0.50
 50
121.50
  0
INSERT
  5
275
100
AcDbEntity
  8
dzailki
  6
CONTINUOUS
100
AcDbBlockReference
 66
0
  2
L_0_02_1
 10
8394898.5700000003
 20
5709945.0
 41
0.50
 42
0.50
 43
0.50
 50
301.49
  0
INSERT
  5
276
100
AcDbEntity
  8
dzailki
  6
CONTINUOUS
100
AcDbBlockReference
 66
0
  2
L_0_02_2
 10
8394903.25
 20
5709937.36000000034
 41
0.50
 42
0.50
 43
0.50
 50
121.49
  0
INSERT
  5
277
100
AcDbEntity
  8
dzailki
  6
CONTINUOUS
100
AcDbBlockReference
 66
0
  2
L_0_02_1
 10
8394903.25
 20
5709937.36000000034
 41
0.50
 42
0.50
 43
0.50
 50
301.56
  0
INSERT
  5
278
100
AcDbEntity
  8
dzailki
  6
CONTINUOUS
100
AcDbBlockReference
 66
0
  2
L_0_02_2
 10
8394907.58000000008
 20
5709930.30999999959
 41
0.50
 42
0.50
 43
0.50
 50
121.56
  0
INSERT
  5
279
100
AcDbEntity
  8
dzailki
  6
CONTINUOUS
100
AcDbBlockReference
 66
0
  2
L_0_02_1
 10
8394907.58000000008
 20
5709930.30999999959
 41
0.50
 42
0.50
 43
0.50
 50
301.49
  0
INSERT
  5
27A
100
AcDbEntity
  8
dzailki
  6
CONTINUOUS
100
AcDbBlockReference
 66
0
  2
L_0_02_2
 10
8394912.03999999911
 20
5709923.03000000026
 41
0.50
 42
0.50
 43
0.50
 50
121.49
  0
INSERT
  5
27B
100
AcDbEntity
  8
dzailki
  6
CONTINUOUS
100
AcDbBlockReference
 66
0
  2
L_0_02_1
 10
8394912.03999999911
 20
5709923.03000000026
 41
0.50
 42
0.50
 43
0.50
 50
301.51
  0
INSERT
  5
27C
100
AcDbEntity
  8
dzailki
  6
CONTINUOUS
100
AcDbBlockReference
 66
0
  2
L_0_02_2
 10
8394916.69999999926
 20
5709915.4299999997
 41
0.50
 42
0.50
 43
0.50
 50
121.51
  0
INSERT
  5
27D
100
AcDbEntity
  8
dzailki
  6
CONTINUOUS
100
AcDbBlockReference
 66
0
  2
L_0_02_1
 10
8394916.69999999926
 20
5709915.4299999997
 41
0.50
 42
0.50
 43
0.50
 50
301.51
  0
INSERT
  5
27E
100
AcDbEntity
  8
dzailki
  6
CONTINUOUS
100
AcDbBlockReference
 66
0
  2
L_0_02_2
 10
8394920.74000000022
 20
5709908.83999999985
 41
0.50
 42
0.50
 43
0.50
 50
121.51
  0
INSERT
  5
27F
100
AcDbEntity
  8
dzailki
  6
CONTINUOUS
100
AcDbBlockReference
 66
0
  2
L_0_02_1
 10
8394920.74000000022
 20
5709908.83999999985
 41
0.50
 42
0.50
 43
0.50
 50
301.55
  0
INSERT
  5
280
100
AcDbEntity
  8
dzailki
  6
CONTINUOUS
100
AcDbBlockReference
 66
0
  2
L_0_02_2
 10
8394925.99000000022
 20
5709900.29000000004
 41
0.50
 42
0.50
 43
0.50
 50
121.55
  0
INSERT
  5
281
100
AcDbEntity
  8
dzailki
  6
CONTINUOUS
100
AcDbBlockReference
 66
0
  2
L_0_02_1
 10
8394925.99000000022
 20
5709900.29000000004
 41
0.50
 42
0.50
 43
0.50
 50
301.48
  0
INSERT
  5
282
100
AcDbEntity
  8
dzailki
  6
CONTINUOUS
100
AcDbBlockReference
 66
0
  2
L_0_02_2
 10
8394929.8900000006
 20
5709893.91999999993
 41
0.50
 42
0.50
 43
0.50
 50
121.48
  0
INSERT
  5
283
100
AcDbEntity
  8
dzailki
  6
CONTINUOUS
100
AcDbBlockReference
 66
0
  2
L_0_02_1
 10
8394929.8900000006
 20
5709893.91999999993
 41
0.50
 42
0.50
 43
0.50
 50
301.53
  0
INSERT
  5
284
100
AcDbEntity
  8
dzailki
  6
CONTINUOUS
100
AcDbBlockReference
 66
0
  2
L_0_02_2
 10
8394934.3200000003
 20
5709886.70000000019
 41
0.50
 42
0.50
 43
0.50
 50
121.53
  0
INSERT
  5
285
100
AcDbEntity
  8
dzailki
  6
CONTINUOUS
100
AcDbBlockReference
 66
0
  2
L_0_02_1
 10
8394934.3200000003
 20
5709886.70000000019
 41
0.50
 42
0.50
 43
0.50
 50
301.49
  0
INSERT
  5
286
100
AcDbEntity
  8
dzailki
  6
CONTINUOUS
100
AcDbBlockReference
 66
0
  2
L_0_02_2
 10
8394939.41000000015
 20
5709878.38999999966
 41
0.50
 42
0.50
 43
0.50
 50
121.49
  0
INSERT
  5
287
100
AcDbEntity
  8
dzailki
  6
CONTINUOUS
100
AcDbBlockReference
 66
0
  2
L_0_02_1
 10
8394939.41000000015
 20
5709878.38999999966
 41
0.50
 42
0.50
 43
0.50
 50
301.52
  0
INSERT
  5
288
100
AcDbEntity
  8
dzailki
  6
CONTINUOUS
100
AcDbBlockReference
 66
0
  2
L_0_02_2
 10
8394947.56000000052
 20
5709865.09999999963
 41
0.50
 42
0.50
 43
0.50
 50
121.52
  0
INSERT
  5
289
100
AcDbEntity
  8
dzailki
  6
CONTINUOUS
100
AcDbBlockReference
 66
0
  2
L_0_02_1
 10
8394947.56000000052
 20
5709865.09999999963
 41
0.50
 42
0.50
 43
0.50
 50
301.53
  0
INSERT
  5
28A
100
AcDbEntity
  8
dzailki
  6
CONTINUOUS
100
AcDbBlockReference
 66
0
  2
L_0_02_2
 10
8394954.50999999978
 20
5709853.76999999955
 41
0.50
 42
0.50
 43
0.50
 50
121.53
  0
INSERT
  5
28B
100
AcDbEntity
  8
dzailki
  6
CONTINUOUS
100
AcDbBlockReference
 66
0
  2
L_0_02_1
 10
8394954.50999999978
 20
5709853.76999999955
 41
0.50
 42
0.50
 43
0.50
 50
301.57
  0
INSERT
  5
28C
100
AcDbEntity
  8
dzailki
  6
CONTINUOUS
100
AcDbBlockReference
 66
0
  2
L_0_02_2
 10
8394955.6099999994
 20
5709851.98000000045
 41
0.50
 42
0.50
 43
0.50
 50
121.57
  0
INSERT
  5
28D
100
AcDbEntity
  8
dzailki
  6
CONTINUOUS
100
AcDbBlockReference
 66
0
  2
L_0_02_1
 10
8394955.6099999994
 20
5709851.98000000045
 41
0.50
 42
0.50
 43
0.50
 50
301.56
  0
INSERT
  5
28E
100
AcDbEntity
  8
dzailki
  6
CONTINUOUS
100
AcDbBlockReference
 66
0
  2
L_0_02_2
 10
8394956.03999999911
 20
5709851.28000000026
 41
0.50
 42
0.50
 43
0.50
 50
121.56
  0
INSERT
  5
28F
100
AcDbEntity
  8
dzailki
  6
CONTINUOUS
100
AcDbBlockReference
 66
0
  2
L_0_02_1
 10
8394956.03999999911
 20
5709851.28000000026
 41
0.50
 42
0.50
 43
0.50
 50
301.49
  0
INSERT
  5
290
100
AcDbEntity
  8
dzailki
  6
CONTINUOUS
100
AcDbBlockReference
 66
0
  2
L_0_02_2
 10
8394962.86999999918
 20
5709840.12999999989
 41
0.50
 42
0.50
 43
0.50
 50
121.49
  0
INSERT
  5
291
100
AcDbEntity
  8
dzailki
  6
CONTINUOUS
100
AcDbBlockReference
 66
0
  2
L_0_02_1
 10
8394962.86999999918
 20
5709840.12999999989
 41
0.50
 42
0.50
 43
0.50
 50
301.56
  0
INSERT
  5
292
100
AcDbEntity
  8
dzailki
  6
CONTINUOUS
100
AcDbBlockReference
 66
0
  2
L_0_02_2
 10
8394965.99000000022
 20
5709835.04999999981
 41
0.50
 42
0.50
 43
0.50
 50
121.56
  0
INSERT
  5
293
100
AcDbEntity
  8
dzailki
  6
CONTINUOUS
100
AcDbBlockReference
 66
0
  2
L_0_02_1
 10
8394965.99000000022
 20
5709835.04999999981
 41
0.50
 42
0.50
 43
0.50
 50
301.57
  0
INSERT
  5
294
100
AcDbEntity
  8
dzailki
  6
CONTINUOUS
100
AcDbBlockReference
 66
0
  2
L_0_02_2
 10
8394967.6799999997
 20
5709832.29999999981
 41
0.50
 42
0.50
 43
0.50
 50
121.57
  0
INSERT
  5
295
100
AcDbEntity
  8
dzailki
  6
CONTINUOUS
100
AcDbBlockReference
 66
0
  2
L_0_02_1
 10
8394967.6799999997
 20
5709832.29999999981
 41
0.50
 42
0.50
 43
0.50
 50
301.56
  0
INSERT
  5
296
100
AcDbEntity
  8
dzailki
  6
CONTINUOUS
100
AcDbBlockReference
 66
0
  2
L_0_02_2
 10
8394969.40000000037
 20
5709829.5
 41
0.50
 42
0.50
 43
0.50
 50
121.56
  0
INSERT
  5
297
100
AcDbEntity
  8
dzailki
  6
CONTINUOUS
100
AcDbBlockReference
 66
0
  2
L_0_02_1
 10
8394969.40000000037
 20
5709829.5
 41
0.50
 42
0.50
 43
0.50
 50
301.50
  0
INSERT
  5
298
100
AcDbEntity
  8
dzailki
  6
CONTINUOUS
100
AcDbBlockReference
 66
0
  2
L_0_02_2
 10
8394973.99000000022
 20
5709822.00999999978
 41
0.50
 42
0.50
 43
0.50
 50
121.50
  0
INSERT
  5
299
100
AcDbEntity
  8
dzailki
  6
CONTINUOUS
100
AcDbBlockReference
 66
0
  2
L_0_02_1
 10
8394973.99000000022
 20
5709822.00999999978
 41
0.50
 42
0.50
 43
0.50
 50
301.47
  0
INSERT
  5
29A
100
AcDbEntity
  8
dzailki
  6
CONTINUOUS
100
AcDbBlockReference
 66
0
  2
L_0_02_2
 10
8394978.1099999994
 20
5709815.28000000026
 41
0.50
 42
0.50
 43
0.50
 50
121.47
  0
INSERT
  5
29B
100
AcDbEntity
  8
dzailki
  6
CONTINUOUS
100
AcDbBlockReference
 66
0
  2
L_0_02_1
 10
8394978.1099999994
 20
5709815.28000000026
 41
0.50
 42
0.50
 43
0.50
 50
301.57
  0
INSERT
  5
29C
100
AcDbEntity
  8
dzailki
  6
CONTINUOUS
100
AcDbBlockReference
 66
0
  2
L_0_02_2
 10
8394982.69999999926
 20
5709807.80999999959
 41
0.50
 42
0.50
 43
0.50
 50
121.57
  0
INSERT
  5
29D
100
AcDbEntity
  8
dzailki
  6
CONTINUOUS
100
AcDbBlockReference
 66
0
  2
L_0_02_1
 10
8394982.69999999926
 20
5709807.80999999959
 41
0.50
 42
0.50
 43
0.50
 50
301.48
  0
INSERT
  5
29E
100
AcDbEntity
  8
dzailki
  6
CONTINUOUS
100
AcDbBlockReference
 66
0
  2
L_0_02_2
 10
8394987.66000000015
 20
5709799.70999999996
 41
0.50
 42
0.50
 43
0.50
 50
121.48
  0
INSERT
  5
29F
100
AcDbEntity
  8
dzailki
  6
CONTINUOUS
100
AcDbBlockReference
 66
0
  2
L_0_02_1
 10
8394987.66000000015
 20
5709799.70999999996
 41
0.50
 42
0.50
 43
0.50
 50
301.53
  0
INSERT
  5
2A0
100
AcDbEntity
  8
dzailki
  6
CONTINUOUS
100
AcDbBlockReference
 66
0
  2
L_0_02_2
 10
8394991.03999999911
 20
5709794.20000000019
 41
0.50
 42
0.50
 43
0.50
 50
121.53
  0
INSERT
  5
2A1
100
AcDbEntity
  8
dzailki
  6
CONTINUOUS
100
AcDbBlockReference
 66
0
  2
L_0_02_1
 10
8394991.03999999911
 20
5709794.20000000019
 41
0.50
 42
0.50
 43
0.50
 50
301.50
  0
INSERT
  5
2A2
100
AcDbEntity
  8
dzailki
  6
CONTINUOUS
100
AcDbBlockReference
 66
0
  2
L_0_02_2
 10
8394993.91999999993
 20
5709789.5
 41
0.50
 42
0.50
 43
0.50
 50
121.50
  0
INSERT
  5
2A3
100
AcDbEntity
  8
dzailki
  6
CONTINUOUS
100
AcDbBlockReference
 66
0
  2
L_0_02_1
 10
8394993.91999999993
 20
5709789.5
 41
0.50
 42
0.50
 43
0.50
 50
320.97
  0
INSERT
  5
2A4
100
AcDbEntity
  8
dzailki
  6
CONTINUOUS
100
AcDbBlockReference
 66
0
  2
L_0_02_2
 10
8394997.66999999993
 20
5709786.45999999996
 41
0.50
 42
0.50
 43
0.50
 50
140.97
  0
INSERT
  5
2A5
100
AcDbEntity
  8
dzailki
  6
CONTINUOUS
100
AcDbBlockReference
 66
0
  2
L_0_02_1
 10
8394997.66999999993
 20
5709786.45999999996
 41
0.50
 42
0.50
 43
0.50
 50
320.97
  0
INSERT
  5
2A6
100
AcDbEntity
  8
dzailki
  6
CONTINUOUS
100
AcDbBlockReference
 66
0
  2
L_0_02_2
 10
8395008.81000000052
 20
5709777.4299999997
 41
0.50
 42
0.50
 43
0.50
 50
140.97
  0
INSERT
  5
2A7
100
AcDbEntity
  8
dzailki
  6
CONTINUOUS
100
AcDbBlockReference
 66
0
  2
L_0_02_1
 10
8395008.81000000052
 20
5709777.4299999997
 41
0.50
 42
0.50
 43
0.50
 50
320.93
  0
INSERT
  5
2A8
100
AcDbEntity
  8
dzailki
  6
CONTINUOUS
100
AcDbBlockReference
 66
0
  2
L_0_02_2
 10
8395019.75999999978
 20
5709768.54000000004
 41
0.50
 42
0.50
 43
0.50
 50
140.93
  0
MLINE
  5
2A9
100
AcDbEntity
  8
dzailki
  6
L_0_02
370
18
100
AcDbMline
  2
L_0_02
340
7
 40
1.0
 70
1
 71
3
 72
102
 73
1
 10
8395019.75999999978
 20
5709768.54000000004
210
0.0
220
0.0
230
1.0
 11
8395019.75999999978
 21
5709768.54000000004
 12
0.776647970985
 22
-0.629934861049
 13
0.630116933601
 23
0.776500257559
 74
3
 41
0.0
 41
0.25
 41
16.926379129563
 75
0
 11
8395033.09999999963
 21
5709757.71999999974
 12
0.776755748759
 22
-0.629801958372
 13
0.629868412015
 23
0.776701862715
 74
3
 41
0.0
 41
0.25
 41
10.229484720385
 75
0
 11
8395041.24000000022
 21
5709751.12000000011
 12
0.7765079241
 22
-0.630107485918
 13
0.629954734332
 23
0.776631851454
 74
3
 41
0.0
 41
0.25
 41
16.826451621729
 75
0
 11
8395054.5
 21
5709740.36000000034
 12
0.776853476763
 22
-0.629681408048
 13
0.629894470679
 23
0.776680729649
 74
3
 41
0.0
 41
0.25
 41
14.630540985265
 75
0
 11
8395066.06000000052
 21
5709730.99000000022
 12
0.776448400547
 22
-0.630180832213
 13
0.629931152691
 23
0.776650978799
 74
3
 41
0.0
 41
0.25
 41
14.380721103173
 75
0
 11
8395077.41999999993
 21
5709721.76999999955
 12
0.776799935023
 22
-0.629747458072
 13
0.629964169663
 23
0.776624198014
 74
3
 41
0.0
 41
0.25
 41
20.694903914119
 75
0
 11
8395093.68999999948
 21
5709708.58000000007
 12
0.776571513011
 22
-0.630029114549
 13
0.629888296665
 23
0.776685736785
 74
3
 41
0.0
 41
0.25
 41
38.510113518589
 75
0
 11
8395123.78999999911
 21
5709684.16000000015
 12
0.776661096982
 22
-0.629918677636
 13
0.629973897685
 23
0.77661630696
 74
3
 41
0.0
 41
0.25
 41
13.720057266492
 75
0
 11
8395134.6400000006
 21
5709675.36000000034
 12
0.776788146573
 22
-0.629761998968
 13
0.629840341506
 23
0.776724625728
 74
3
 41
0.0
 41
0.25
 41
11.992720285752
 75
0
 11
8395144.15000000037
 21
5709667.65000000037
 12
0.776737160527
 22
-0.629824883167
 13
0.629793441584
 23
0.776762654186
 74
3
 41
0.0
 41
0.25
 41
13.976176576109
 75
0
 11
8395155.19999999926
 21
5709658.69000000041
 12
0.776536474912
 22
-0.630072299924
 13
0.629948599537
 23
0.776636827572
 74
3
 41
0.0
 41
0.25
 41
14.22452935356
 75
0
 11
8395166.43999999948
 21
5709649.5700000003
 12
0.776473241914
 22
-0.630150223828
 13
0.630111262669
 23
0.776504859391
 74
3
 41
0.0
 41
0.25
 41
27.838540368438
 75
0
 11
8395188.25
 21
5709631.87000000011
 12
0.776922684854
 22
-0.629596014726
 13
0.629873159365
 23
0.776698012816
 74
3
 41
0.0
 41
0.25
 41
16.379711362276
 75
0
 11
8395201.16999999993
 21
5709621.40000000037
 12
0.776442842085
 22
-0.630187680754
 13
0.629891893432
 23
0.77668281981
 74
3
 41
0.0
 41
0.25
 41
18.34763425817
 75
0
 11
8395215.6099999994
 21
5709609.6799999997
 12
0.776543462621
 22
-0.630063687781
 13
0.630125686276
 23
0.776493154828
 74
3
 41
0.0
 41
0.25
 41
4.733623180575
 75
0
 11
8395219.48000000045
 21
5709606.54000000004
 12
0.849804499311
 22
-0.527098010764
 13
0.579739246575
 23
0.814802065523
 74
3
 41
0.0
 41
0.25
 41
30.768899077117
 75
0
 11
8395245.83999999985
 21
5709590.19000000041
 12
0.849694545804
 22
-0.527275240108
 13
0.527186628302
 23
0.849749527178
 74
3
 41
0.0
 41
0.25
 41
13.955104716634
 75
0
 11
8395257.91000000015
 21
5709582.70000000019
 12
-0.523874285427
 22
-0.851795593478
 13
0.973207030669
 23
0.229930588343
 74
3
 41
0.0
 41
0.25
 41
4.751199856391
 75
0
 11
8395255.28999999911
 21
5709578.44000000041
 12
-0.849707485055
 22
0.527254388168
 13
0.229942529735
 23
-0.97320420931
 74
3
 41
0.0
 41
0.25
 41
31.878703676328
 75
0
 11
8395227.99000000022
 21
5709595.37999999989
 12
-0.849709196013
 22
0.527251630829
 13
-0.527253009499
 23
-0.849708340535
 74
3
 41
0.0
 41
0.25
 41
13.178123472938
 75
0
 11
8395216.58000000007
 21
5709602.45999999996
 12
-0.7766101356
 22
0.629981505509
 13
-0.57976978286
 23
-0.81478033781
 74
3
 41
0.0
 41
0.25
 41
17.004474782282
 75
0
 11
8395203.1799999997
 21
5709613.33000000007
 12
-0.776691517784
 22
0.629881168319
 13
-0.629931338228
 23
-0.776650828312
 74
3
 41
0.0
 41
0.25
 41
18.277304175606
 75
0
 11
8395188.78999999911
 21
5709625.0
 12
-0.776445289535
 22
0.630184665284
 13
-0.63003292883
 23
-0.776568418486
 74
3
 41
0.0
 41
0.25
 41
16.364177679202
 75
0
 11
8395175.8900000006
 21
5709635.46999999974
 12
-0.776854683119
 22
0.629679919734
 13
-0.629932325767
 23
-0.776650027331
 74
3
 41
0.0
 41
0.25
 41
27.811876274224
 75
0
 11
8395154.08999999985
 21
5709653.13999999966
 12
-0.776345728946
 22
0.630307313259
 13
-0.629993667892
 23
-0.776600269389
 74
3
 41
0.0
 41
0.25
 41
14.266728281426
 75
0
 11
8395142.8200000003
 21
5709662.29000000004
 12
-0.77701577001
 22
0.629481130103
 13
-0.629894310774
 23
-0.776680859333
 74
3
 41
0.0
 41
0.25
 41
13.983945342415
 75
0
 11
8395131.75999999978
 21
5709671.25
 12
-0.776486922348
 22
0.630133366377
 13
-0.629807303749
 23
-0.776751414639
 74
3
 41
0.0
 41
0.25
 41
12.048983696983
 75
0
 11
8395122.21000000089
 21
5709679.0
 12
-0.776661096982
 22
0.629918677636
 13
-0.630026028026
 23
-0.776574017084
 74
3
 41
0.0
 41
0.25
 41
13.720057266492
 75
0
 11
8395111.3599999994
 21
5709687.79999999981
 12
-0.776547701245
 22
0.630058463709
 13
-0.629988573224
 23
-0.776604402258
 74
3
 41
0.0
 41
0.25
 41
38.524179552829
 75
0
 11
8395081.25
 21
5709712.23000000045
 12
-0.776755748724
 22
0.629801958415
 13
-0.629930219651
 23
-0.776651735574
 74
3
 41
0.0
 41
0.25
 41
20.708969439324
 75
0
 11
8395064.97000000067
 21
5709725.4299999997
 12
-0.776846236022
 22
0.629690341023
 13
-0.629746151345
 23
-0.776800994378
 74
3
 41
0.0
 41
0.25
 41
14.360355917542
 75
0
 11
8395053.61999999918
 21
5709734.62999999989
 12
-0.776257885086
 22
0.630415494608
 13
-0.630052986492
 23
-0.776552145199
 74
3
 41
0.0
 41
0.25
 41
14.629075911228
 75
0
 11
8395042.0700000003
 21
5709744.00999999978
 12
-0.776622005151
 22
0.62996687303
 13
-0.630191210117
 23
-0.77643997752
 74
3
 41
0.0
 41
0.25
 41
27.433995376648
 75
0
 11
8395020.5700000003
 21
5709761.45000000019
 12
-0.77690313485
 22
0.629620138703
 13
-0.629793521553
 23
-0.776762589348
 74
3
 41
0.0
 41
0.25
 41
16.792021593565
 75
0
 11
8395007.33000000008
 21
5709772.1799999997
 12
-0.776548856782
 22
0.630057039505
 13
-0.629838614014
 23
-0.776726026535
 74
3
 41
0.0
 41
0.25
 41
13.812218886232
 75
0
 11
8394996.41000000015
 21
5709781.04000000004
 12
-0.776641641434
 22
0.629942664685
 13
-0.629999853803
 23
-0.776595251214
 74
3
 41
0.0
 41
0.25
 41
7.861849358365
 75
0
 11
8394990.1099999994
 21
5709786.15000000037
 12
-0.521001549579
 22
0.853555730656
 13
-0.752681763022
 23
-0.65838451046
 74
3
 41
0.0
 41
0.25
 41
3.35843456315
 75
0
 11
8394988.23000000045
 21
5709789.23000000045
 12
-0.523693418157
 22
0.851906804632
 13
-0.852732329842
 23
-0.522348134526
 74
3
 41
0.0
 41
0.25
 41
8.037291475079
 75
0
 11
8394983.8900000006
 21
5709796.29000000004
 12
-0.522767821722
 22
0.852475104958
 13
-0.85219108046
 23
-0.523230697096
 74
3
 41
0.0
 41
0.25
 41
15.703545060186
 75
0
 11
8394975.55000000074
 21
5709809.88999999966
 12
-0.522695860004
 22
0.852519230243
 13
-0.85249716836
 23
-0.522731841328
 74
3
 41
0.0
 41
0.25
 41
8.512265689347
 75
0
 11
8394970.97000000067
 21
5709817.36000000034
 12
-0.522828553619
 22
0.852437859038
 13
-0.852478547223
 23
-0.522762208394
 74
3
 41
0.0
 41
0.25
 41
7.668465760798
 75
0
 11
8394966.83000000007
 21
5709824.11000000034
 12
-0.522460970523
 22
0.852663200965
 13
-0.852550549812
 23
-0.522644774215
 74
3
 41
0.0
 41
0.25
 41
11.348952538901
 75
0
 11
8394960.76999999955
 21
5709834.0
 12
-0.522892572297
 22
0.85239859094
 13
-0.852530923265
 23
-0.522676788155
 74
3
 41
0.0
 41
0.25
 41
22.45064756711
 75
0
 11
8394948.90000000037
 21
5709853.34999999963
 12
-0.522547591069
 22
0.852610119027
 13
-0.852504372434
 23
-0.522720092383
 74
3
 41
0.0
 41
0.25
 41
15.959049941918
 75
0
 11
8394940.4299999997
 21
5709867.16999999993
 12
-0.523058603826
 22
0.85229671885
 13
-0.85245345723
 23
-0.522803120932
 74
3
 41
0.0
 41
0.25
 41
15.331428047936
 75
0
 11
8394932.27999999933
 21
5709880.45000000019
 12
-0.523184919511
 22
0.852219185419
 13
-0.852257954475
 23
-0.523121763105
 74
3
 41
0.0
 41
0.25
 41
9.536214793735
 75
0
 11
8394927.16000000015
 21
5709888.79000000004
 12
-0.4472135955
 22
0.894427191
 13
-0.874148901265
 23
-0.485658005615
 74
0
 75
0
 11
8394927.15000000037
 21
5709888.80999999959
 12
-0.516163052806
 22
0.856490340236
 13
-0.876137293586
 23
-0.482061658698
 74
3
 41
0.0
 41
0.25
 41
6.80203516758
 75
0
 11
8394923.50999999978
 21
5709894.84999999963
 12
-0.52089542753
 22
0.853620497398
 13
-0.855058692776
 23
-0.518531225587
 74
3
 41
0.0
 41
0.25
 41
7.774643294575
 75
0
 11
8394919.33000000007
 21
5709901.70000000019
 12
-0.525318119932
 22
0.850905913055
 13
-0.852266074084
 23
-0.523108534594
 74
3
 41
0.0
 41
0.25
 41
10.714784539553
 75
0
 11
8394913.5700000003
 21
5709911.03000000026
 12
-0.525856684678
 22
0.850573187433
 13
-0.850739592861
 23
-0.525587428634
 74
3
 41
0.0
 41
0.25
 41
7.35663526118
 75
0
 11
8394909.5700000003
 21
5709917.5
 12
-0.522904817666
 22
0.85239107906
 13
-0.851483412415
 23
-0.524381538941
 74
3
 41
0.0
 41
0.25
 41
8.642631781683
 75
0
 11
8394904.91999999993
 21
5709925.08000000007
 12
-0.523248119818
 22
0.852180382963
 13
-0.852285748297
 23
-0.523076479351
 74
3
 41
0.0
 41
0.25
 41
8.29279228413
 75
0
 11
8394900.44999999926
 21
5709932.36000000034
 12
-0.522135876623
 22
0.852862313825
 13
-0.85252152978
 23
-0.522692109431
 74
3
 41
0.0
 41
0.25
 41
8.004556316905
 75
0
 11
8394896.1400000006
 21
5709939.40000000037
 12
-0.52266658442
 22
0.852537178972
 13
-0.852699787687
 23
-0.522401255816
 74
3
 41
0.0
 41
0.25
 41
8.723215700296
 75
0
 11
8394891.44999999926
 21
5709947.04999999981
 12
-0.523119527799
 22
0.852259326517
 13
-0.85239828283
 23
-0.522893074565
 74
3
 41
0.0
 41
0.25
 41
7.74052564007
 75
0
 11
8394887.26999999955
 21
5709953.86000000034
 12
-0.522852561532
 22
0.852423133719
 13
-0.85234124057
 23
-0.522986051079
 74
3
 41
0.0
 41
0.25
 41
7.821108968934
 75
0
 11
8394883.05000000074
 21
5709960.74000000022
 12
-0.522645238753
 22
0.852550265034
 13
-0.852486705679
 23
-0.522748904007
 74
3
 41
0.0
 41
0.25
 41
8.20697936611
 75
0
 11
8394878.63000000082
 21
5709967.95000000019
 12
-0.522681048184
 22
0.852528311477
 13
-0.852539288443
 23
-0.522663143583
 74
3
 41
0.0
 41
0.25
 41
17.485481387028
 75
0
 11
8394869.3599999994
 21
5709983.0700000003
 12
-0.52280360121
 22
0.852453162679
 13
-0.85249073928
 23
-0.522742326047
 74
3
 41
0.0
 41
0.25
 41
19.164556393685
 75
0
 11
8394859.21000000089
 21
5709999.62000000011
 12
-0.523148333634
 22
0.852241644732
 13
-0.852347421134
 23
-0.522975978116
 74
3
 41
0.0
 41
0.25
 41
9.747164597878
 75
0
 11
8394853.98000000045
 21
5710008.13999999966
 12
-0.521797111107
 22
0.853069618988
 13
-0.852655899524
 23
-0.522472886384
 74
3
 41
0.0
 41
0.25
 41
5.576019225213
 75
0
 11
8394850.93999999948
 21
5710013.11000000034
 12
-0.52346822217
 22
0.852045198554
 13
-0.852557818217
 23
-0.522632917636
 74
3
 41
0.0
 41
0.25
 41
5.958590822433
 75
0
 11
8394847.68999999948
 21
5710018.40000000037
 12
-0.52181014943
 22
0.8530616437
 13
-0.852553824211
 23
-0.522639432902
 74
3
 41
0.0
 41
0.25
 41
5.365069011028
 75
0
 11
8394844.75999999978
 21
5710023.19000000041
 12
-0.723559029968
 22
0.690262508146
 13
-0.778227480958
 23
-0.627982474184
 74
3
 41
0.0
 41
0.25
 41
7.558623438263
 75
0
 11
8394839.1099999994
 21
5710028.58000000007
 12
0.97898907419
 22
-0.203912708326
 13
-0.885325670976
 23
0.464971457523
 74
3
 41
0.0
 41
0.25
 41
9.361956096584
 75
0
 11
8394848.51999999955
 21
5710026.62000000011
 12
0.52288850616
 22
-0.852401085244
 13
0.575288310033
 23
0.817950707769
 74
3
 41
0.0
 41
0.25
 41
6.214093130755
 75
0
 11
8394851.90000000037
 21
5710021.11000000034
 12
0.522312078965
 22
-0.852754414921
 13
0.852577798798
 23
0.522600322423
 74
3
 41
0.0
 41
0.25
 41
5.378818704141
 75
0
 11
8394854.83999999985
 21
5710016.30999999959
 12
0.52346822217
 22
-0.852045198554
 13
0.852400002752
 23
0.52289027081
 74
3
 41
0.0
 41
0.25
 41
5.958590822433
 75
0
 11
8394858.08999999985
 21
5710011.01999999955
 12
0.522562058053
 22
-0.852601252335
 13
0.85232334587
 23
0.523015214009
 74
3
 41
0.0
 41
0.25
 41
5.567490868538
 75
0
 11
8394861.13000000082
 21
5710006.05999999959
 12
0.522585578343
 22
-0.852586836227
 13
0.852594044362
 23
0.522573818248
 74
3
 41
0.0
 41
0.25
 41
9.719658970592
 75
0
 11
8394866.33999999985
 21
5709997.55999999959
 12
0.52294823362
 22
-0.852364443741
 13
0.852475659269
 23
0.522766917808
 74
3
 41
0.0
 41
0.25
 41
19.178309241657
 75
0
 11
8394876.5
 21
5709981.0
 12
0.52252236147
 22
-0.852625581228
 13
0.852495039078
 23
0.522735313852
 74
3
 41
0.0
 41
0.25
 41
17.471729599731
 75
0
 11
8394885.75999999978
 21
5709965.88999999966
 12
0.522312079144
 22
-0.852754414812
 13
0.852690004502
 23
0.522417224278
 74
3
 41
0.0
 41
0.25
 41
8.193228055109
 75
0
 11
8394890.16999999993
 21
5709958.69000000041
 12
0.523405241627
 22
-0.852083888498
 13
0.852419326892
 23
0.522858767872
 74
3
 41
0.0
 41
0.25
 41
7.812586434091
 75
0
 11
8394894.3900000006
 21
5709951.8200000003
 12
0.522562057886
 22
-0.852601252438
 13
0.852342674733
 23
0.522983713732
 74
3
 41
0.0
 41
0.25
 41
7.749049943685
 75
0
 11
8394898.5700000003
 21
5709945.0
 12
0.522352660723
 22
-0.852729557266
 13
0.85266541128
 23
0.522457363243
 74
3
 41
0.0
 41
0.25
 41
8.709464269257
 75
0
 11
8394903.25
 21
5709937.36000000034
 12
0.523355423204
 22
-0.852114488202
 13
0.852422170186
 23
0.522854132407
 74
3
 41
0.0
 41
0.25
 41
8.023536124968
 75
0
 11
8394907.58000000008
 21
5709930.30999999959
 12
0.522397251799
 22
-0.852702240711
 13
0.852408499088
 23
0.522876420086
 74
3
 41
0.0
 41
0.25
 41
8.287564054319
 75
0
 11
8394912.03999999911
 21
5709923.03000000026
 12
0.522719869885
 22
-0.852504508861
 13
0.852603390045
 23
0.522558570194
 74
3
 41
0.0
 41
0.25
 41
8.664908861558
 75
0
 11
8394916.69999999926
 21
5709915.4299999997
 12
0.522653063902
 22
-0.852545467875
 13
0.852524989022
 23
0.522686467295
 74
3
 41
0.0
 41
0.25
 41
7.479793011838
 75
0
 11
8394920.74000000022
 21
5709908.83999999985
 12
0.523263033345
 22
-0.852171225714
 13
0.852358401358
 23
0.522958082101
 74
3
 41
0.0
 41
0.25
 41
9.783194904756
 75
0
 11
8394925.99000000022
 21
5709900.29000000004
 12
0.522153859668
 22
-0.852851304058
 13
0.852511445275
 23
0.52270855711
 74
3
 41
0.0
 41
0.25
 41
7.219062859846
 75
0
 11
8394929.8900000006
 21
5709893.91999999993
 12
0.522977237258
 22
-0.852346648559
 13
0.852599075703
 23
0.522565609383
 74
3
 41
0.0
 41
0.25
 41
8.220731963272
 75
0
 11
8394934.3200000003
 21
5709886.70000000019
 12
0.522321406799
 22
-0.852748701552
 13
0.852547738119
 23
0.522649360689
 74
3
 41
0.0
 41
0.25
 41
9.494957670875
 75
0
 11
8394939.41000000015
 21
5709878.38999999966
 12
0.522772620251
 22
-0.852472162311
 13
0.85261046178
 23
0.522547031819
 74
3
 41
0.0
 41
0.25
 41
15.339951892391
 75
0
 11
8394947.56000000052
 21
5709865.09999999963
 12
0.522879577125
 22
-0.852406562519
 13
0.852439364093
 23
0.522826099717
 74
3
 41
0.0
 41
0.25
 41
13.041779414034
 75
0
 11
8394954.50999999978
 21
5709853.76999999955
 12
0.5235661993
 22
-0.851984996905
 13
0.852195848864
 23
0.52322293067
 74
3
 41
0.0
 41
0.25
 41
1.850975962732
 75
0
 11
8394955.6099999994
 21
5709851.98000000045
 12
0.52341810551
 22
-0.852075986532
 13
0.852030494936
 23
0.523492154382
 74
3
 41
0.0
 41
0.25
 41
0.571522975944
 75
0
 11
8394956.03999999911
 21
5709851.28000000026
 12
0.522346837566
 22
-0.852733124304
 13
0.852404723708
 23
0.522882574771
 74
3
 41
0.0
 41
0.25
 41
12.825603236919
 75
0
 11
8394962.86999999918
 21
5709840.12999999989
 12
0.523348512942
 22
-0.852118732338
 13
0.852426075453
 23
0.5228477655
 74
3
 41
0.0
 41
0.25
 41
5.711610521266
 75
0
 11
8394965.99000000022
 21
5709835.04999999981
 12
0.523578762435
 22
-0.851977276415
 13
0.852048012154
 23
0.523463642467
 74
3
 41
0.0
 41
0.25
 41
2.977785618383
 75
0
 11
8394967.6799999997
 21
5709832.29999999981
 12
0.523418106048
 22
-0.852075986201
 13
0.852026635095
 23
0.523498436568
 74
3
 41
0.0
 41
0.25
 41
3.036091903959
 75
0
 11
8394969.40000000037
 21
5709829.5
 12
0.522508669201
 22
-0.852633972235
 13
0.852355100511
 23
0.522963462044
 74
3
 41
0.0
 41
0.25
 41
8.534543243788
 75
0
 11
8394973.99000000022
 21
5709822.00999999978
 12
0.522116236332
 22
-0.852874337613
 13
0.852754177498
 23
0.522312466594
 74
3
 41
0.0
 41
0.25
 41
7.640963184981
 75
0
 11
8394978.1099999994
 21
5709815.28000000026
 12
0.523524571314
 22
-0.852010576948
 13
0.852442748122
 23
0.522820582202
 74
3
 41
0.0
 41
0.25
 41
8.517496792623
 75
0
 11
8394982.69999999926
 21
5709807.80999999959
 12
0.522216372619
 22
-0.852813027673
 13
0.852412053272
 23
0.522870625907
 74
3
 41
0.0
 41
0.25
 41
9.24797873249
 75
0
 11
8394987.66000000015
 21
5709799.70999999996
 12
0.522888505951
 22
-0.852401085373
 13
0.852607122755
 23
0.522552479878
 74
3
 41
0.0
 41
0.25
 41
6.214093129781
 75
0
 11
8394991.03999999911
 21
5709794.20000000019
 12
0.522476973967
 22
-0.852653394806
 13
0.852527264921
 23
0.522682755183
 74
3
 41
0.0
 41
0.25
 41
5.2622046412
 75
0
 11
8394993.91999999993
 21
5709789.5
 12
0.776810523073
 22
-0.629734397379
 13
0.752023789621
 23
0.659135964612
 74
3
 41
0.0
 41
0.25
 41
4.577432029581
 75
0
 11
8394997.66999999993
 21
5709786.45999999996
 12
0.776838722274
 22
-0.629699610589
 13
0.629717004142
 23
0.776824622868
 74
3
 41
0.0
 41
0.25
 41
14.090170850377
 75
0
 11
8395008.81000000052
 21
5709777.4299999997
 12
0.776352501449
 22
-0.630298971515
 13
0.629999337959
 23
0.776595669683
 74
3
 41
0.0
 41
0.25
 41
13.854417746852
 75
0
  0
INSERT
  5
2AA
100
AcDbEntity
  8
dzailki
  6
CONTINUOUS
100
AcDbBlockReference
 66
0
  2
L_0_02_1
 10
8394064.31000000052
 20
5709934.23000000045
 41
0.50
 42
0.50
 43
0.50
 50
73.99
  0
INSERT
  5
2AB
100
AcDbEntity
  8
dzailki
  6
CONTINUOUS
100
AcDbBlockReference
 66
0
  2
L_0_02_2
 10
8394067.25999999978
 20
5709944.50999999978
 41
0.50
 42
0.50
 43
0.50
 50
253.99
  0
INSERT
  5
2AC
100
AcDbEntity
  8
dzailki
  6
CONTINUOUS
100
AcDbBlockReference
 66
0
  2
L_0_02_1
 10
8394067.25999999978
 20
5709944.50999999978
 41
0.50
 42
0.50
 43
0.50
 50
344.00
  0
INSERT
  5
2AD
100
AcDbEntity
  8
dzailki
  6
CONTINUOUS
100
AcDbBlockReference
 66
0
  2
L_0_02_2
 10
8394628.77999999933
 20
5709783.45000000019
 41
0.50
 42
0.50
 43
0.50
 50
164.00
  0
INSERT
  5
2AE
100
AcDbEntity
  8
dzailki
  6
CONTINUOUS
100
AcDbBlockReference
 66
0
  2
L_0_02_1
 10
8394628.77999999933
 20
5709783.45000000019
 41
0.50
 42
0.50
 43
0.50
 50
189.67
  0
INSERT
  5
2AF
100
AcDbEntity
  8
dzailki
  6
CONTINUOUS
100
AcDbBlockReference
 66
0
  2
L_0_02_2
 10
8394604.1400000006
 20
5709779.25
 41
0.50
 42
0.50
 43
0.50
 50
9.67
  0
INSERT
  5
2B0
100
AcDbEntity
  8
dzailki
  6
CONTINUOUS
100
AcDbBlockReference
 66
0
  2
L_0_02_1
 10
8394604.1400000006
 20
5709779.25
 41
0.50
 42
0.50
 43
0.50
 50
163.98
  0
INSERT
  5
2B1
100
AcDbEntity
  8
dzailki
  6
CONTINUOUS
100
AcDbBlockReference
 66
0
  2
L_0_02_2
 10
8394064.31000000052
 20
5709934.23000000045
 41
0.50
 42
0.50
 43
0.50
 50
343.98
  0
MLINE
  5
2B2
100
AcDbEntity
  8
dzailki
  6
L_0_02
370
18
100
AcDbMline
  2
L_0_02
340
7
 40
1.0
 70
1
 71
3
 72
4
 73
1
 10
8394064.31000000052
 20
5709934.23000000045
210
0.0
220
0.0
230
1.0
 11
8394064.31000000052
 21
5709934.23000000045
 12
0.275832389184
 22
0.961205749607
 13
-0.874746128612
 23
-0.484581479711
 74
3
 41
0.0
 41
0.25
 41
10.4449006532
 75
0
 11
8394067.25999999978
 21
5709944.50999999978
 12
0.961240497213
 22
-0.27571127383
 13
-0.48468725764
 23
0.874687522651
 74
3
 41
0.0
 41
0.25
 41
583.911821757778
 75
0
 11
8394628.77999999933
 21
5709783.45000000019
 12
-0.985781716032
 22
-0.16803097434
 13
0.998474171133
 23
-0.055220735053
 74
3
 41
0.0
 41
0.25
 41
24.745391574031
 75
0
 11
8394604.1400000006
 21
5709779.25
 12
-0.961173786566
 22
0.275943747925
 13
-0.055341478331
 23
-0.998467486089
 74
3
 41
0.0
 41
0.25
 41
561.38620725539
 75
0
  0
INSERT
  5
2B3
100
AcDbEntity
  8
dzailki
  6
CONTINUOUS
100
AcDbBlockReference
 66
0
  2
L_0_02_1
 10
8394631.24000000022
 20
5709780.83000000007
 41
0.50
 42
0.50
 43
0.50
 50
343.75
  0
INSERT
  5
2B4
100
AcDbEntity
  8
dzailki
  6
CONTINUOUS
100
AcDbBlockReference
 66
0
  2
L_0_02_2
 10
8394778.73000000045
 20
5709737.83000000007
 41
0.50
 42
0.50
 43
0.50
 50
163.75
  0
INSERT
  5
2B5
100
AcDbEntity
  8
dzailki
  6
CONTINUOUS
100
AcDbBlockReference
 66
0
  2
L_0_02_1
 10
8394778.73000000045
 20
5709737.83000000007
 41
0.50
 42
0.50
 43
0.50
 50
343.65
  0
INSERT
  5
2B6
100
AcDbEntity
  8
dzailki
  6
CONTINUOUS
100
AcDbBlockReference
 66
0
  2
L_0_02_2
 10
8395203.1799999997
 20
5709613.33000000007
 41
0.50
 42
0.50
 43
0.50
 50
163.65
  0
INSERT
  5
2B7
100
AcDbEntity
  8
dzailki
  6
CONTINUOUS
100
AcDbBlockReference
 66
0
  2
L_0_02_1
 10
8395203.1799999997
 20
5709613.33000000007
 41
0.50
 42
0.50
 43
0.50
 50
320.95
  0
INSERT
  5
2B8
100
AcDbEntity
  8
dzailki
  6
CONTINUOUS
100
AcDbBlockReference
 66
0
  2
L_0_02_2
 10
8395216.58000000007
 20
5709602.45999999996
 41
0.50
 42
0.50
 43
0.50
 50
140.95
  0
INSERT
  5
2B9
100
AcDbEntity
  8
dzailki
  6
CONTINUOUS
100
AcDbBlockReference
 66
0
  2
L_0_02_1
 10
8395216.58000000007
 20
5709602.45999999996
 41
0.50
 42
0.50
 43
0.50
 50
328.18
  0
INSERT
  5
2BA
100
AcDbEntity
  8
dzailki
  6
CONTINUOUS
100
AcDbBlockReference
 66
0
  2
L_0_02_2
 10
8395227.99000000022
 20
5709595.37999999989
 41
0.50
 42
0.50
 43
0.50
 50
148.18
  0
INSERT
  5
2BB
100
AcDbEntity
  8
dzailki
  6
CONTINUOUS
100
AcDbBlockReference
 66
0
  2
L_0_02_1
 10
8395227.99000000022
 20
5709595.37999999989
 41
0.50
 42
0.50
 43
0.50
 50
163.78
  0
INSERT
  5
2BC
100
AcDbEntity
  8
dzailki
  6
CONTINUOUS
100
AcDbBlockReference
 66
0
  2
L_0_02_2
 10
8394774.88000000082
 20
5709727.19000000041
 41
0.50
 42
0.50
 43
0.50
 50
343.78
  0
INSERT
  5
2BD
100
AcDbEntity
  8
dzailki
  6
CONTINUOUS
100
AcDbBlockReference
 66
0
  2
L_0_02_1
 10
8394774.88000000082
 20
5709727.19000000041
 41
0.50
 42
0.50
 43
0.50
 50
163.71
  0
INSERT
  5
2BE
100
AcDbEntity
  8
dzailki
  6
CONTINUOUS
100
AcDbBlockReference
 66
0
  2
L_0_02_2
 10
8394606.02999999933
 20
5709776.53000000026
 41
0.50
 42
0.50
 43
0.50
 50
343.71
  0
INSERT
  5
2BF
100
AcDbEntity
  8
dzailki
  6
CONTINUOUS
100
AcDbBlockReference
 66
0
  2
L_0_02_1
 10
8394606.02999999933
 20
5709776.53000000026
 41
0.50
 42
0.50
 43
0.50
 50
9.68
  0
INSERT
  5
2C0
100
AcDbEntity
  8
dzailki
  6
CONTINUOUS
100
AcDbBlockReference
 66
0
  2
L_0_02_2
 10
8394631.24000000022
 20
5709780.83000000007
 41
0.50
 42
0.50
 43
0.50
 50
189.68
  0
MLINE
  5
2C1
100
AcDbEntity
  8
dzailki
  6
L_0_02
370
18
100
AcDbMline
  2
L_0_02
340
7
 40
1.0
 70
1
 71
3
 72
7
 73
1
 10
8394631.24000000022
 20
5709780.83000000007
210
0.0
220
0.0
230
1.0
 11
8394631.24000000022
 21
5709780.83000000007
 12
0.960031341946
 22
-0.279892519517
 13
0.057338906194
 23
0.99835477153
 74
3
 41
0.0
 41
0.25
 41
153.380400963045
 75
0
 11
8394778.73000000045
 21
5709737.83000000007
 12
0.95957223818
 22
-0.281462465906
 13
0.280677586581
 23
0.959802111058
 74
3
 41
0.0
 41
0.25
 41
442.082513500158
 75
0
 11
8395203.1799999997
 21
5709613.33000000007
 12
0.7766101356
 22
-0.629981505509
 13
0.464813200116
 23
0.885408769438
 74
3
 41
0.0
 41
0.25
 41
17.004474782282
 75
0
 11
8395216.58000000007
 21
5709602.45999999996
 12
0.849709196013
 22
-0.527251630829
 13
0.57976978286
 23
0.81478033781
 74
3
 41
0.0
 41
0.25
 41
13.178123472938
 75
0
 11
8395227.99000000022
 21
5709595.37999999989
 12
-0.960197466725
 22
0.279322080929
 13
0.913404509177
 23
-0.407053071007
 74
3
 41
0.0
 41
0.25
 41
471.642517634681
 75
0
 11
8394774.88000000082
 21
5709727.19000000041
 12
-0.959859171446
 22
0.280482389805
 13
-0.279902286476
 23
-0.960028494382
 74
3
 41
0.0
 41
0.25
 41
175.661222213048
 75
0
 11
8394606.02999999933
 21
5709776.53000000026
 12
0.985763309727
 22
0.168138922312
 13
-0.998337107511
 23
0.057645639619
 74
3
 41
0.0
 41
0.25
 41
25.324090405007
 75
0
  0
INSERT
  5
2C2
100
AcDbEntity
  8
dzailki
  6
CONTINUOUS
100
AcDbBlockReference
 66
0
  2
L_0_02_1
 10
8394026.86999999918
 20
5709977.37999999989
 41
0.50
 42
0.50
 43
0.50
 50
343.67
  0
INSERT
  5
2C3
100
AcDbEntity
  8
dzailki
  6
CONTINUOUS
100
AcDbBlockReference
 66
0
  2
L_0_02_2
 10
8394666.71000000089
 20
5709789.9299999997
 41
0.50
 42
0.50
 43
0.50
 50
163.67
  0
INSERT
  5
2C4
100
AcDbEntity
  8
dzailki
  6
CONTINUOUS
100
AcDbBlockReference
 66
0
  2
L_0_02_1
 10
8394666.71000000089
 20
5709789.9299999997
 41
0.50
 42
0.50
 43
0.50
 50
189.70
  0
INSERT
  5
2C5
100
AcDbEntity
  8
dzailki
  6
CONTINUOUS
100
AcDbBlockReference
 66
0
  2
L_0_02_2
 10
8394655.8900000006
 20
5709788.08000000007
 41
0.50
 42
0.50
 43
0.50
 50
9.70
  0
INSERT
  5
2C6
100
AcDbEntity
  8
dzailki
  6
CONTINUOUS
100
AcDbBlockReference
 66
0
  2
L_0_02_1
 10
8394655.8900000006
 20
5709788.08000000007
 41
0.50
 42
0.50
 43
0.50
 50
163.81
  0
INSERT
  5
2C7
100
AcDbEntity
  8
dzailki
  6
CONTINUOUS
100
AcDbBlockReference
 66
0
  2
L_0_02_2
 10
8394029.5
 20
5709969.91000000015
 41
0.50
 42
0.50
 43
0.50
 50
343.81
  0
INSERT
  5
2C8
100
AcDbEntity
  8
dzailki
  6
CONTINUOUS
100
AcDbBlockReference
 66
0
  2
L_0_02_1
 10
8394029.5
 20
5709969.91000000015
 41
0.50
 42
0.50
 43
0.50
 50
164.40
  0
INSERT
  5
2C9
100
AcDbEntity
  8
dzailki
  6
CONTINUOUS
100
AcDbBlockReference
 66
0
  2
L_0_02_2
 10
8394025.13000000082
 20
5709971.12999999989
 41
0.50
 42
0.50
 43
0.50
 50
344.40
  0
INSERT
  5
2CA
100
AcDbEntity
  8
dzailki
  6
CONTINUOUS
100
AcDbBlockReference
 66
0
  2
L_0_02_1
 10
8394025.13000000082
 20
5709971.12999999989
 41
0.50
 42
0.50
 43
0.50
 50
74.44
  0
INSERT
  5
2CB
100
AcDbEntity
  8
dzailki
  6
CONTINUOUS
100
AcDbBlockReference
 66
0
  2
L_0_02_2
 10
8394026.86999999918
 20
5709977.37999999989
 41
0.50
 42
0.50
 43
0.50
 50
254.44
  0
MLINE
  5
2CC
100
AcDbEntity
  8
dzailki
  6
L_0_02
370
18
100
AcDbMline
  2
L_0_02
340
7
 40
1.0
 70
1
 71
3
 72
5
 73
1
 10
8394026.86999999918
 20
5709977.37999999989
210
0.0
220
0.0
230
1.0
 11
8394026.86999999918
 21
5709977.37999999989
 12
0.959664691687
 22
-0.281147078108
 13
-0.48568039686
 23
0.874136460804
 74
3
 41
0.0
 41
0.25
 41
666.482876122261
 75
0
 11
8394666.71000000089
 21
5709789.9299999997
 12
-0.985695849762
 22
-0.168533948396
 13
0.998328686083
 23
-0.057791301625
 74
3
 41
0.0
 41
0.25
 41
10.727016899189
 75
0
 11
8394655.8900000006
 21
5709788.08000000007
 12
-0.960356555066
 22
0.278774617104
 13
-0.056557680497
 23
-0.998399333321
 74
3
 41
0.0
 41
0.25
 41
651.997331156498
 75
0
 11
8394029.5
 21
5709969.91000000015
 12
-0.963169755147
 22
0.268894073512
 13
-0.273837957913
 23
-0.961775843326
 74
3
 41
0.0
 41
0.25
 41
4.287102598818
 75
0
 11
8394025.13000000082
 21
5709971.12999999989
 12
0.268200306061
 22
0.96336316923
 13
-0.871023842947
 23
-0.491240740389
 74
3
 41
0.0
 41
0.25
 41
6.237688339794
 75
0
  0
INSERT
  5
2CD
100
AcDbEntity
  8
dzailki
  6
CONTINUOUS
100
AcDbBlockReference
 66
0
  2
L_0_02_1
 10
8393947.18999999948
 20
5709934.05999999959
 41
0.50
 42
0.50
 43
0.50
 50
67.71
  0
INSERT
  5
2CE
100
AcDbEntity
  8
dzailki
  6
CONTINUOUS
100
AcDbBlockReference
 66
0
  2
L_0_02_2
 10
8393959.06000000052
 20
5709963.01999999955
 41
0.50
 42
0.50
 43
0.50
 50
247.71
  0
INSERT
  5
2CF
100
AcDbEntity
  8
dzailki
  6
CONTINUOUS
100
AcDbBlockReference
 66
0
  2
L_0_02_1
 10
8393959.06000000052
 20
5709963.01999999955
 41
0.50
 42
0.50
 43
0.50
 50
343.09
  0
INSERT
  5
2D0
100
AcDbEntity
  8
dzailki
  6
CONTINUOUS
100
AcDbBlockReference
 66
0
  2
L_0_02_2
 10
8394019.23000000045
 20
5709944.73000000045
 41
0.50
 42
0.50
 43
0.50
 50
163.09
  0
INSERT
  5
2D1
100
AcDbEntity
  8
dzailki
  6
CONTINUOUS
100
AcDbBlockReference
 66
0
  2
L_0_02_1
 10
8394019.23000000045
 20
5709944.73000000045
 41
0.50
 42
0.50
 43
0.50
 50
344.67
  0
INSERT
  5
2D2
100
AcDbEntity
  8
dzailki
  6
CONTINUOUS
100
AcDbBlockReference
 66
0
  2
L_0_02_2
 10
8394049.43999999948
 20
5709936.45000000019
 41
0.50
 42
0.50
 43
0.50
 50
164.67
  0
INSERT
  5
2D3
100
AcDbEntity
  8
dzailki
  6
CONTINUOUS
100
AcDbBlockReference
 66
0
  2
L_0_02_1
 10
8394049.43999999948
 20
5709936.45000000019
 41
0.50
 42
0.50
 43
0.50
 50
249.08
  0
INSERT
  5
2D4
100
AcDbEntity
  8
dzailki
  6
CONTINUOUS
100
AcDbBlockReference
 66
0
  2
L_0_02_2
 10
8394046.36999999918
 20
5709928.41999999993
 41
0.50
 42
0.50
 43
0.50
 50
69.08
  0
INSERT
  5
2D5
100
AcDbEntity
  8
dzailki
  6
CONTINUOUS
100
AcDbBlockReference
 66
0
  2
L_0_02_1
 10
8394046.36999999918
 20
5709928.41999999993
 41
0.50
 42
0.50
 43
0.50
 50
343.90
  0
INSERT
  5
2D6
100
AcDbEntity
  8
dzailki
  6
CONTINUOUS
100
AcDbBlockReference
 66
0
  2
L_0_02_2
 10
8394098.91000000015
 20
5709913.25999999978
 41
0.50
 42
0.50
 43
0.50
 50
163.90
  0
INSERT
  5
2D7
100
AcDbEntity
  8
dzailki
  6
CONTINUOUS
100
AcDbBlockReference
 66
0
  2
L_0_02_1
 10
8394098.91000000015
 20
5709913.25999999978
 41
0.50
 42
0.50
 43
0.50
 50
253.85
  0
INSERT
  5
2D8
100
AcDbEntity
  8
dzailki
  6
CONTINUOUS
100
AcDbBlockReference
 66
0
  2
L_0_02_2
 10
8394092.72000000067
 20
5709891.87999999989
 41
0.50
 42
0.50
 43
0.50
 50
73.85
  0
INSERT
  5
2D9
100
AcDbEntity
  8
dzailki
  6
CONTINUOUS
100
AcDbBlockReference
 66
0
  2
L_0_02_1
 10
8394092.72000000067
 20
5709891.87999999989
 41
0.50
 42
0.50
 43
0.50
 50
163.85
  0
INSERT
  5
2DA
100
AcDbEntity
  8
dzailki
  6
CONTINUOUS
100
AcDbBlockReference
 66
0
  2
L_0_02_2
 10
8394007.71000000089
 20
5709916.49000000022
 41
0.50
 42
0.50
 43
0.50
 50
343.85
  0
INSERT
  5
2DB
100
AcDbEntity
  8
dzailki
  6
CONTINUOUS
100
AcDbBlockReference
 66
0
  2
L_0_02_1
 10
8394007.71000000089
 20
5709916.49000000022
 41
0.50
 42
0.50
 43
0.50
 50
163.81
  0
INSERT
  5
2DC
100
AcDbEntity
  8
dzailki
  6
CONTINUOUS
100
AcDbBlockReference
 66
0
  2
L_0_02_2
 10
8393947.18999999948
 20
5709934.05999999959
 41
0.50
 42
0.50
 43
0.50
 50
343.81
  0
MLINE
  5
2DD
100
AcDbEntity
  8
dzailki
  6
L_0_02
370
18
100
AcDbMline
  2
L_0_02
340
7
 40
1.0
 70
1
 71
3
 72
8
 73
1
 10
8393947.18999999948
 20
5709934.05999999959
210
0.0
220
0.0
230
1.0
 11
8393947.18999999948
 21
5709934.05999999959
 12
0.379254809262
 22
0.925292272556
 13
-0.900608959385
 23
-0.434630305288
 74
3
 41
0.0
 41
0.25
 41
31.04821879952
 75
0
 11
8393959.06000000052
 21
5709963.01999999955
 12
0.956773962767
 22
-0.290832570686
 13
-0.428971877272
 23
0.903317844676
 74
3
 41
0.0
 41
0.25
 41
62.638417057184
 75
0
 11
8394019.23000000045
 21
5709944.73000000045
 12
0.964431534398
 22
-0.264332774092
 13
0.277609076962
 23
0.96069412426
 74
3
 41
0.0
 41
0.25
 41
31.074152022773
 75
0
 11
8394049.43999999948
 21
5709936.45000000019
 12
-0.357107617517
 22
-0.934063247062
 13
0.891994780473
 23
0.452045696373
 74
3
 41
0.0
 41
0.25
 41
8.346848260032
 75
0
 11
8394046.36999999918
 21
5709928.41999999993
 12
0.960802985129
 22
-0.277232075646
 13
0.895003451862
 23
0.446059212611
 74
3
 41
0.0
 41
0.25
 41
54.433427106449
 75
0
 11
8394098.91000000015
 21
5709913.25999999978
 12
-0.278101711965
 22
-0.960551632033
 13
0.875641672643
 23
0.482961345379
 74
3
 41
0.0
 41
0.25
 41
22.008043489686
 75
0
 11
8394092.72000000067
 21
5709891.87999999989
 12
-0.960558704791
 22
0.278077281794
 13
0.482576104307
 23
-0.875854042379
 74
3
 41
0.0
 41
0.25
 41
88.250577399125
 75
0
 11
8394007.71000000089
 21
5709916.49000000022
 12
-0.960347597326
 22
0.278805473959
 13
-0.278441397884
 23
-0.960453220071
 74
3
 41
0.0
 41
0.25
 41
62.768848768833
 75
0
  0
INSERT
  5
2DE
100
AcDbEntity
  8
dzailki
  6
CONTINUOUS
100
AcDbBlockReference
 66
0
  2
L_0_02_1
 10
8395195.94999999926
 20
5709323.00999999978
 41
0.50
 42
0.50
 43
0.50
 50
257.03
  0
INSERT
  5
2DF
100
AcDbEntity
  8
dzailki
  6
CONTINUOUS
100
AcDbBlockReference
 66
0
  2
L_0_02_2
 10
8395193.68999999948
 20
5709313.20000000019
 41
0.50
 42
0.50
 43
0.50
 50
77.03
  0
INSERT
  5
2E0
100
AcDbEntity
  8
dzailki
  6
CONTINUOUS
100
AcDbBlockReference
 66
0
  2
L_0_02_1
 10
8395193.68999999948
 20
5709313.20000000019
 41
0.50
 42
0.50
 43
0.50
 50
257.00
  0
INSERT
  5
2E1
100
AcDbEntity
  8
dzailki
  6
CONTINUOUS
100
AcDbBlockReference
 66
0
  2
L_0_02_2
 10
8395182.68999999948
 20
5709265.54000000004
 41
0.50
 42
0.50
 43
0.50
 50
77.00
  0
INSERT
  5
2E2
100
AcDbEntity
  8
dzailki
  6
CONTINUOUS
100
AcDbBlockReference
 66
0
  2
L_0_02_1
 10
8395182.68999999948
 20
5709265.54000000004
 41
0.50
 42
0.50
 43
0.50
 50
257.02
  0
INSERT
  5
2E3
100
AcDbEntity
  8
dzailki
  6
CONTINUOUS
100
AcDbBlockReference
 66
0
  2
L_0_02_2
 10
8395177.98000000045
 20
5709245.09999999963
 41
0.50
 42
0.50
 43
0.50
 50
77.02
  0
INSERT
  5
2E4
100
AcDbEntity
  8
dzailki
  6
CONTINUOUS
100
AcDbBlockReference
 66
0
  2
L_0_02_1
 10
8395177.98000000045
 20
5709245.09999999963
 41
0.50
 42
0.50
 43
0.50
 50
257.01
  0
INSERT
  5
2E5
100
AcDbEntity
  8
dzailki
  6
CONTINUOUS
100
AcDbBlockReference
 66
0
  2
L_0_02_2
 10
8395157.55000000074
 20
5709156.53000000026
 41
0.50
 42
0.50
 43
0.50
 50
77.01
  0
INSERT
  5
2E6
100
AcDbEntity
  8
dzailki
  6
CONTINUOUS
100
AcDbBlockReference
 66
0
  2
L_0_02_1
 10
8395157.55000000074
 20
5709156.53000000026
 41
0.50
 42
0.50
 43
0.50
 50
257.01
  0
INSERT
  5
2E7
100
AcDbEntity
  8
dzailki
  6
CONTINUOUS
100
AcDbBlockReference
 66
0
  2
L_0_02_2
 10
8395146.91000000015
 20
5709110.38999999966
 41
0.50
 42
0.50
 43
0.50
 50
77.01
  0
INSERT
  5
2E8
100
AcDbEntity
  8
dzailki
  6
CONTINUOUS
100
AcDbBlockReference
 66
0
  2
L_0_02_1
 10
8395146.91000000015
 20
5709110.38999999966
 41
0.50
 42
0.50
 43
0.50
 50
152.48
  0
INSERT
  5
2E9
100
AcDbEntity
  8
dzailki
  6
CONTINUOUS
100
AcDbBlockReference
 66
0
  2
L_0_02_2
 10
8395133.16999999992
 20
5709117.54999999981
 41
0.50
 42
0.50
 43
0.50
 50
332.48
  0
INSERT
  5
2EA
100
AcDbEntity
  8
dzailki
  6
CONTINUOUS
100
AcDbBlockReference
 66
0
  2
L_0_02_1
 10
8395133.16999999992
 20
5709117.54999999981
 41
0.50
 42
0.50
 43
0.50
 50
77.07
  0
INSERT
  5
2EB
100
AcDbEntity
  8
dzailki
  6
CONTINUOUS
100
AcDbBlockReference
 66
0
  2
L_0_02_2
 10
8395134.91999999992
 20
5709125.16999999993
 41
0.50
 42
0.50
 43
0.50
 50
257.07
  0
INSERT
  5
2EC
100
AcDbEntity
  8
dzailki
  6
CONTINUOUS
100
AcDbBlockReference
 66
0
  2
L_0_02_1
 10
8395134.91999999992
 20
5709125.16999999993
 41
0.50
 42
0.50
 43
0.50
 50
77.01
  0
INSERT
  5
2ED
100
AcDbEntity
  8
dzailki
  6
CONTINUOUS
100
AcDbBlockReference
 66
0
  2
L_0_02_2
 10
8395155.31000000052
 20
5709213.55999999959
 41
0.50
 42
0.50
 43
0.50
 50
257.01
  0
INSERT
  5
2EE
100
AcDbEntity
  8
dzailki
  6
CONTINUOUS
100
AcDbBlockReference
 66
0
  2
L_0_02_1
 10
8395155.31000000052
 20
5709213.55999999959
 41
0.50
 42
0.50
 43
0.50
 50
77.02
  0
INSERT
  5
2EF
100
AcDbEntity
  8
dzailki
  6
CONTINUOUS
100
AcDbBlockReference
 66
0
  2
L_0_02_2
 10
8395160.02999999933
 20
5709234.04000000004
 41
0.50
 42
0.50
 43
0.50
 50
257.02
  0
INSERT
  5
2F0
100
AcDbEntity
  8
dzailki
  6
CONTINUOUS
100
AcDbBlockReference
 66
0
  2
L_0_02_1
 10
8395160.02999999933
 20
5709234.04000000004
 41
0.50
 42
0.50
 43
0.50
 50
77.00
  0
INSERT
  5
2F1
100
AcDbEntity
  8
dzailki
  6
CONTINUOUS
100
AcDbBlockReference
 66
0
  2
L_0_02_2
 10
8395170.75
 20
5709280.49000000022
 41
0.50
 42
0.50
 43
0.50
 50
257.00
  0
INSERT
  5
2F2
100
AcDbEntity
  8
dzailki
  6
CONTINUOUS
100
AcDbBlockReference
 66
0
  2
L_0_02_1
 10
8395170.75
 20
5709280.49000000022
 41
0.50
 42
0.50
 43
0.50
 50
77.01
  0
INSERT
  5
2F3
100
AcDbEntity
  8
dzailki
  6
CONTINUOUS
100
AcDbBlockReference
 66
0
  2
L_0_02_2
 10
8395172.90000000037
 20
5709289.80999999959
 41
0.50
 42
0.50
 43
0.50
 50
257.01
  0
INSERT
  5
2F4
100
AcDbEntity
  8
dzailki
  6
CONTINUOUS
100
AcDbBlockReference
 66
0
  2
L_0_02_1
 10
8395172.90000000037
 20
5709289.80999999959
 41
0.50
 42
0.50
 43
0.50
 50
77.01
  0
INSERT
  5
2F5
100
AcDbEntity
  8
dzailki
  6
CONTINUOUS
100
AcDbBlockReference
 66
0
  2
L_0_02_2
 10
8395205.48000000045
 20
5709431.05999999959
 41
0.50
 42
0.50
 43
0.50
 50
257.01
  0
INSERT
  5
2F6
100
AcDbEntity
  8
dzailki
  6
CONTINUOUS
100
AcDbBlockReference
 66
0
  2
L_0_02_1
 10
8395205.48000000045
 20
5709431.05999999959
 41
0.50
 42
0.50
 43
0.50
 50
87.24
  0
INSERT
  5
2F7
100
AcDbEntity
  8
dzailki
  6
CONTINUOUS
100
AcDbBlockReference
 66
0
  2
L_0_02_2
 10
8395206.1099999994
 20
5709444.15000000037
 41
0.50
 42
0.50
 43
0.50
 50
267.24
  0
INSERT
  5
2F8
100
AcDbEntity
  8
dzailki
  6
CONTINUOUS
100
AcDbBlockReference
 66
0
  2
L_0_02_1
 10
8395206.1099999994
 20
5709444.15000000037
 41
0.50
 42
0.50
 43
0.50
 50
78.76
  0
INSERT
  5
2F9
100
AcDbEntity
  8
dzailki
  6
CONTINUOUS
100
AcDbBlockReference
 66
0
  2
L_0_02_2
 10
8395209.38000000082
 20
5709460.61000000034
 41
0.50
 42
0.50
 43
0.50
 50
258.76
  0
INSERT
  5
2FA
100
AcDbEntity
  8
dzailki
  6
CONTINUOUS
100
AcDbBlockReference
 66
0
  2
L_0_02_1
 10
8395209.38000000082
 20
5709460.61000000034
 41
0.50
 42
0.50
 43
0.50
 50
64.67
  0
INSERT
  5
2FB
100
AcDbEntity
  8
dzailki
  6
CONTINUOUS
100
AcDbBlockReference
 66
0
  2
L_0_02_2
 10
8395215.06000000052
 20
5709472.61000000034
 41
0.50
 42
0.50
 43
0.50
 50
244.67
  0
INSERT
  5
2FC
100
AcDbEntity
  8
dzailki
  6
CONTINUOUS
100
AcDbBlockReference
 66
0
  2
L_0_02_1
 10
8395215.06000000052
 20
5709472.61000000034
 41
0.50
 42
0.50
 43
0.50
 50
75.10
  0
INSERT
  5
2FD
100
AcDbEntity
  8
dzailki
  6
CONTINUOUS
100
AcDbBlockReference
 66
0
  2
L_0_02_2
 10
8395221.43999999948
 20
5709496.58999999985
 41
0.50
 42
0.50
 43
0.50
 50
255.10
  0
INSERT
  5
2FE
100
AcDbEntity
  8
dzailki
  6
CONTINUOUS
100
AcDbBlockReference
 66
0
  2
L_0_02_1
 10
8395221.43999999948
 20
5709496.58999999985
 41
0.50
 42
0.50
 43
0.50
 50
73.40
  0
INSERT
  5
2FF
100
AcDbEntity
  8
dzailki
  6
CONTINUOUS
100
AcDbBlockReference
 66
0
  2
L_0_02_2
 10
8395222.19999999926
 20
5709499.13999999966
 41
0.50
 42
0.50
 43
0.50
 50
253.40
  0
INSERT
  5
300
100
AcDbEntity
  8
dzailki
  6
CONTINUOUS
100
AcDbBlockReference
 66
0
  2
L_0_02_1
 10
8395222.19999999926
 20
5709499.13999999966
 41
0.50
 42
0.50
 43
0.50
 50
73.34
  0
INSERT
  5
301
100
AcDbEntity
  8
dzailki
  6
CONTINUOUS
100
AcDbBlockReference
 66
0
  2
L_0_02_2
 10
8395223.1099999994
 20
5709502.1799999997
 41
0.50
 42
0.50
 43
0.50
 50
253.34
  0
INSERT
  5
302
100
AcDbEntity
  8
dzailki
  6
CONTINUOUS
100
AcDbBlockReference
 66
0
  2
L_0_02_1
 10
8395223.1099999994
 20
5709502.1799999997
 41
0.50
 42
0.50
 43
0.50
 50
73.39
  0
INSERT
  5
303
100
AcDbEntity
  8
dzailki
  6
CONTINUOUS
100
AcDbBlockReference
 66
0
  2
L_0_02_2
 10
8395223.8200000003
 20
5709504.55999999959
 41
0.50
 42
0.50
 43
0.50
 50
253.39
  0
INSERT
  5
304
100
AcDbEntity
  8
dzailki
  6
CONTINUOUS
100
AcDbBlockReference
 66
0
  2
L_0_02_1
 10
8395223.8200000003
 20
5709504.55999999959
 41
0.50
 42
0.50
 43
0.50
 50
73.36
  0
INSERT
  5
305
100
AcDbEntity
  8
dzailki
  6
CONTINUOUS
100
AcDbBlockReference
 66
0
  2
L_0_02_2
 10
8395225.24000000022
 20
5709509.30999999959
 41
0.50
 42
0.50
 43
0.50
 50
253.36
  0
INSERT
  5
306
100
AcDbEntity
  8
dzailki
  6
CONTINUOUS
100
AcDbBlockReference
 66
0
  2
L_0_02_1
 10
8395225.24000000022
 20
5709509.30999999959
 41
0.50
 42
0.50
 43
0.50
 50
73.35
  0
INSERT
  5
307
100
AcDbEntity
  8
dzailki
  6
CONTINUOUS
100
AcDbBlockReference
 66
0
  2
L_0_02_2
 10
8395226.96000000089
 20
5709515.05999999959
 41
0.50
 42
0.50
 43
0.50
 50
253.35
  0
INSERT
  5
308
100
AcDbEntity
  8
dzailki
  6
CONTINUOUS
100
AcDbBlockReference
 66
0
  2
L_0_02_1
 10
8395226.96000000089
 20
5709515.05999999959
 41
0.50
 42
0.50
 43
0.50
 50
73.41
  0
INSERT
  5
309
100
AcDbEntity
  8
dzailki
  6
CONTINUOUS
100
AcDbBlockReference
 66
0
  2
L_0_02_2
 10
8395228.66999999992
 20
5709520.79999999981
 41
0.50
 42
0.50
 43
0.50
 50
253.41
  0
INSERT
  5
30A
100
AcDbEntity
  8
dzailki
  6
CONTINUOUS
100
AcDbBlockReference
 66
0
  2
L_0_02_1
 10
8395228.66999999992
 20
5709520.79999999981
 41
0.50
 42
0.50
 43
0.50
 50
68.85
  0
INSERT
  5
30B
100
AcDbEntity
  8
dzailki
  6
CONTINUOUS
100
AcDbBlockReference
 66
0
  2
L_0_02_2
 10
8395230.83999999985
 20
5709526.41000000015
 41
0.50
 42
0.50
 43
0.50
 50
248.85
  0
INSERT
  5
30C
100
AcDbEntity
  8
dzailki
  6
CONTINUOUS
100
AcDbBlockReference
 66
0
  2
L_0_02_1
 10
8395230.83999999985
 20
5709526.41000000015
 41
0.50
 42
0.50
 43
0.50
 50
68.77
  0
INSERT
  5
30D
100
AcDbEntity
  8
dzailki
  6
CONTINUOUS
100
AcDbBlockReference
 66
0
  2
L_0_02_2
 10
8395232.98000000045
 20
5709531.91999999993
 41
0.50
 42
0.50
 43
0.50
 50
248.77
  0
INSERT
  5
30E
100
AcDbEntity
  8
dzailki
  6
CONTINUOUS
100
AcDbBlockReference
 66
0
  2
L_0_02_1
 10
8395232.98000000045
 20
5709531.91999999993
 41
0.50
 42
0.50
 43
0.50
 50
68.75
  0
INSERT
  5
30F
100
AcDbEntity
  8
dzailki
  6
CONTINUOUS
100
AcDbBlockReference
 66
0
  2
L_0_02_2
 10
8395235.33999999985
 20
5709537.99000000022
 41
0.50
 42
0.50
 43
0.50
 50
248.75
  0
INSERT
  5
310
100
AcDbEntity
  8
dzailki
  6
CONTINUOUS
100
AcDbBlockReference
 66
0
  2
L_0_02_1
 10
8395235.33999999985
 20
5709537.99000000022
 41
0.50
 42
0.50
 43
0.50
 50
68.55
  0
INSERT
  5
311
100
AcDbEntity
  8
dzailki
  6
CONTINUOUS
100
AcDbBlockReference
 66
0
  2
L_0_02_2
 10
8395237.68999999948
 20
5709543.96999999974
 41
0.50
 42
0.50
 43
0.50
 50
248.55
  0
INSERT
  5
312
100
AcDbEntity
  8
dzailki
  6
CONTINUOUS
100
AcDbBlockReference
 66
0
  2
L_0_02_1
 10
8395237.68999999948
 20
5709543.96999999974
 41
0.50
 42
0.50
 43
0.50
 50
63.79
  0
INSERT
  5
313
100
AcDbEntity
  8
dzailki
  6
CONTINUOUS
100
AcDbBlockReference
 66
0
  2
L_0_02_2
 10
8395240.56000000052
 20
5709549.79999999981
 41
0.50
 42
0.50
 43
0.50
 50
243.79
  0
INSERT
  5
314
100
AcDbEntity
  8
dzailki
  6
CONTINUOUS
100
AcDbBlockReference
 66
0
  2
L_0_02_1
 10
8395240.56000000052
 20
5709549.79999999981
 41
0.50
 42
0.50
 43
0.50
 50
63.84
  0
INSERT
  5
315
100
AcDbEntity
  8
dzailki
  6
CONTINUOUS
100
AcDbBlockReference
 66
0
  2
L_0_02_2
 10
8395243.59999999963
 20
5709555.99000000022
 41
0.50
 42
0.50
 43
0.50
 50
243.84
  0
INSERT
  5
316
100
AcDbEntity
  8
dzailki
  6
CONTINUOUS
100
AcDbBlockReference
 66
0
  2
L_0_02_1
 10
8395243.59999999963
 20
5709555.99000000022
 41
0.50
 42
0.50
 43
0.50
 50
63.79
  0
INSERT
  5
317
100
AcDbEntity
  8
dzailki
  6
CONTINUOUS
100
AcDbBlockReference
 66
0
  2
L_0_02_2
 10
8395248.43999999948
 20
5709565.8200000003
 41
0.50
 42
0.50
 43
0.50
 50
243.79
  0
INSERT
  5
318
100
AcDbEntity
  8
dzailki
  6
CONTINUOUS
100
AcDbBlockReference
 66
0
  2
L_0_02_1
 10
8395248.43999999948
 20
5709565.8200000003
 41
0.50
 42
0.50
 43
0.50
 50
63.80
  0
INSERT
  5
319
100
AcDbEntity
  8
dzailki
  6
CONTINUOUS
100
AcDbBlockReference
 66
0
  2
L_0_02_2
 10
8395249.3599999994
 20
5709567.69000000041
 41
0.50
 42
0.50
 43
0.50
 50
243.80
  0
INSERT
  5
31A
100
AcDbEntity
  8
dzailki
  6
CONTINUOUS
100
AcDbBlockReference
 66
0
  2
L_0_02_1
 10
8395249.3599999994
 20
5709567.69000000041
 41
0.50
 42
0.50
 43
0.50
 50
62.30
  0
INSERT
  5
31B
100
AcDbEntity
  8
dzailki
  6
CONTINUOUS
100
AcDbBlockReference
 66
0
  2
L_0_02_2
 10
8395253.34999999963
 20
5709575.29000000004
 41
0.50
 42
0.50
 43
0.50
 50
242.30
  0
INSERT
  5
31C
100
AcDbEntity
  8
dzailki
  6
CONTINUOUS
100
AcDbBlockReference
 66
0
  2
L_0_02_1
 10
8395253.34999999963
 20
5709575.29000000004
 41
0.50
 42
0.50
 43
0.50
 50
58.37
  0
INSERT
  5
31D
100
AcDbEntity
  8
dzailki
  6
CONTINUOUS
100
AcDbBlockReference
 66
0
  2
L_0_02_2
 10
8395255.28999999911
 20
5709578.44000000041
 41
0.50
 42
0.50
 43
0.50
 50
238.37
  0
INSERT
  5
31E
100
AcDbEntity
  8
dzailki
  6
CONTINUOUS
100
AcDbBlockReference
 66
0
  2
L_0_02_1
 10
8395255.28999999911
 20
5709578.44000000041
 41
0.50
 42
0.50
 43
0.50
 50
58.41
  0
INSERT
  5
31F
100
AcDbEntity
  8
dzailki
  6
CONTINUOUS
100
AcDbBlockReference
 66
0
  2
L_0_02_2
 10
8395257.91000000015
 20
5709582.70000000019
 41
0.50
 42
0.50
 43
0.50
 50
238.41
  0
INSERT
  5
320
100
AcDbEntity
  8
dzailki
  6
CONTINUOUS
100
AcDbBlockReference
 66
0
  2
L_0_02_1
 10
8395257.91000000015
 20
5709582.70000000019
 41
0.50
 42
0.50
 43
0.50
 50
58.19
  0
INSERT
  5
321
100
AcDbEntity
  8
dzailki
  6
CONTINUOUS
100
AcDbBlockReference
 66
0
  2
L_0_02_2
 10
8395260.0
 20
5709586.0700000003
 41
0.50
 42
0.50
 43
0.50
 50
238.19
  0
INSERT
  5
322
100
AcDbEntity
  8
dzailki
  6
CONTINUOUS
100
AcDbBlockReference
 66
0
  2
L_0_02_1
 10
8395260.0
 20
5709586.0700000003
 41
0.50
 42
0.50
 43
0.50
 50
58.32
  0
INSERT
  5
323
100
AcDbEntity
  8
dzailki
  6
CONTINUOUS
100
AcDbBlockReference
 66
0
  2
L_0_02_2
 10
8395264.40000000037
 20
5709593.20000000019
 41
0.50
 42
0.50
 43
0.50
 50
238.32
  0
INSERT
  5
324
100
AcDbEntity
  8
dzailki
  6
CONTINUOUS
100
AcDbBlockReference
 66
0
  2
L_0_02_1
 10
8395264.40000000037
 20
5709593.20000000019
 41
0.50
 42
0.50
 43
0.50
 50
55.22
  0
INSERT
  5
325
100
AcDbEntity
  8
dzailki
  6
CONTINUOUS
100
AcDbBlockReference
 66
0
  2
L_0_02_2
 10
8395265.65000000037
 20
5709595.0
 41
0.50
 42
0.50
 43
0.50
 50
235.22
  0
INSERT
  5
326
100
AcDbEntity
  8
dzailki
  6
CONTINUOUS
100
AcDbBlockReference
 66
0
  2
L_0_02_1
 10
8395265.65000000037
 20
5709595.0
 41
0.50
 42
0.50
 43
0.50
 50
55.34
  0
INSERT
  5
327
100
AcDbEntity
  8
dzailki
  6
CONTINUOUS
100
AcDbBlockReference
 66
0
  2
L_0_02_2
 10
8395270.03999999911
 20
5709601.34999999963
 41
0.50
 42
0.50
 43
0.50
 50
235.34
  0
INSERT
  5
328
100
AcDbEntity
  8
dzailki
  6
CONTINUOUS
100
AcDbBlockReference
 66
0
  2
L_0_02_1
 10
8395270.03999999911
 20
5709601.34999999963
 41
0.50
 42
0.50
 43
0.50
 50
55.29
  0
INSERT
  5
329
100
AcDbEntity
  8
dzailki
  6
CONTINUOUS
100
AcDbBlockReference
 66
0
  2
L_0_02_2
 10
8395273.93999999948
 20
5709606.98000000045
 41
0.50
 42
0.50
 43
0.50
 50
235.29
  0
INSERT
  5
32A
100
AcDbEntity
  8
dzailki
  6
CONTINUOUS
100
AcDbBlockReference
 66
0
  2
L_0_02_1
 10
8395273.93999999948
 20
5709606.98000000045
 41
0.50
 42
0.50
 43
0.50
 50
55.32
  0
INSERT
  5
32B
100
AcDbEntity
  8
dzailki
  6
CONTINUOUS
100
AcDbBlockReference
 66
0
  2
L_0_02_2
 10
8395280.53999999911
 20
5709616.51999999955
 41
0.50
 42
0.50
 43
0.50
 50
235.32
  0
INSERT
  5
32C
100
AcDbEntity
  8
dzailki
  6
CONTINUOUS
100
AcDbBlockReference
 66
0
  2
L_0_02_1
 10
8395280.53999999911
 20
5709616.51999999955
 41
0.50
 42
0.50
 43
0.50
 50
55.24
  0
INSERT
  5
32D
100
AcDbEntity
  8
dzailki
  6
CONTINUOUS
100
AcDbBlockReference
 66
0
  2
L_0_02_2
 10
8395283.83000000007
 20
5709621.25999999978
 41
0.50
 42
0.50
 43
0.50
 50
235.24
  0
INSERT
  5
32E
100
AcDbEntity
  8
dzailki
  6
CONTINUOUS
100
AcDbBlockReference
 66
0
  2
L_0_02_1
 10
8395283.83000000007
 20
5709621.25999999978
 41
0.50
 42
0.50
 43
0.50
 50
55.35
  0
INSERT
  5
32F
100
AcDbEntity
  8
dzailki
  6
CONTINUOUS
100
AcDbBlockReference
 66
0
  2
L_0_02_2
 10
8395287.11999999918
 20
5709626.01999999955
 41
0.50
 42
0.50
 43
0.50
 50
235.35
  0
INSERT
  5
330
100
AcDbEntity
  8
dzailki
  6
CONTINUOUS
100
AcDbBlockReference
 66
0
  2
L_0_02_1
 10
8395287.11999999918
 20
5709626.01999999955
 41
0.50
 42
0.50
 43
0.50
 50
55.33
  0
INSERT
  5
331
100
AcDbEntity
  8
dzailki
  6
CONTINUOUS
100
AcDbBlockReference
 66
0
  2
L_0_02_2
 10
8395289.78999999911
 20
5709629.87999999989
 41
0.50
 42
0.50
 43
0.50
 50
235.33
  0
INSERT
  5
332
100
AcDbEntity
  8
dzailki
  6
CONTINUOUS
100
AcDbBlockReference
 66
0
  2
L_0_02_1
 10
8395289.78999999911
 20
5709629.87999999989
 41
0.50
 42
0.50
 43
0.50
 50
55.25
  0
INSERT
  5
333
100
AcDbEntity
  8
dzailki
  6
CONTINUOUS
100
AcDbBlockReference
 66
0
  2
L_0_02_2
 10
8395293.02999999933
 20
5709634.54999999981
 41
0.50
 42
0.50
 43
0.50
 50
235.25
  0
INSERT
  5
334
100
AcDbEntity
  8
dzailki
  6
CONTINUOUS
100
AcDbBlockReference
 66
0
  2
L_0_02_1
 10
8395293.02999999933
 20
5709634.54999999981
 41
0.50
 42
0.50
 43
0.50
 50
55.33
  0
INSERT
  5
335
100
AcDbEntity
  8
dzailki
  6
CONTINUOUS
100
AcDbBlockReference
 66
0
  2
L_0_02_2
 10
8395301.93999999948
 20
5709647.4299999997
 41
0.50
 42
0.50
 43
0.50
 50
235.33
  0
INSERT
  5
336
100
AcDbEntity
  8
dzailki
  6
CONTINUOUS
100
AcDbBlockReference
 66
0
  2
L_0_02_1
 10
8395301.93999999948
 20
5709647.4299999997
 41
0.50
 42
0.50
 43
0.50
 50
55.27
  0
INSERT
  5
337
100
AcDbEntity
  8
dzailki
  6
CONTINUOUS
100
AcDbBlockReference
 66
0
  2
L_0_02_2
 10
8395306.73000000045
 20
5709654.33999999985
 41
0.50
 42
0.50
 43
0.50
 50
235.27
  0
INSERT
  5
338
100
AcDbEntity
  8
dzailki
  6
CONTINUOUS
100
AcDbBlockReference
 66
0
  2
L_0_02_1
 10
8395306.73000000045
 20
5709654.33999999985
 41
0.50
 42
0.50
 43
0.50
 50
55.32
  0
INSERT
  5
339
100
AcDbEntity
  8
dzailki
  6
CONTINUOUS
100
AcDbBlockReference
 66
0
  2
L_0_02_2
 10
8395310.21000000089
 20
5709659.37000000011
 41
0.50
 42
0.50
 43
0.50
 50
235.32
  0
INSERT
  5
33A
100
AcDbEntity
  8
dzailki
  6
CONTINUOUS
100
AcDbBlockReference
 66
0
  2
L_0_02_1
 10
8395310.21000000089
 20
5709659.37000000011
 41
0.50
 42
0.50
 43
0.50
 50
55.32
  0
INSERT
  5
33B
100
AcDbEntity
  8
dzailki
  6
CONTINUOUS
100
AcDbBlockReference
 66
0
  2
L_0_02_2
 10
8395313.68999999948
 20
5709664.40000000037
 41
0.50
 42
0.50
 43
0.50
 50
235.32
  0
INSERT
  5
33C
100
AcDbEntity
  8
dzailki
  6
CONTINUOUS
100
AcDbBlockReference
 66
0
  2
L_0_02_1
 10
8395313.68999999948
 20
5709664.40000000037
 41
0.50
 42
0.50
 43
0.50
 50
55.36
  0
INSERT
  5
33D
100
AcDbEntity
  8
dzailki
  6
CONTINUOUS
100
AcDbBlockReference
 66
0
  2
L_0_02_2
 10
8395316.6400000006
 20
5709668.66999999993
 41
0.50
 42
0.50
 43
0.50
 50
235.36
  0
INSERT
  5
33E
100
AcDbEntity
  8
dzailki
  6
CONTINUOUS
100
AcDbBlockReference
 66
0
  2
L_0_02_1
 10
8395316.6400000006
 20
5709668.66999999993
 41
0.50
 42
0.50
 43
0.50
 50
55.21
  0
INSERT
  5
33F
100
AcDbEntity
  8
dzailki
  6
CONTINUOUS
100
AcDbBlockReference
 66
0
  2
L_0_02_2
 10
8395319.34999999963
 20
5709672.5700000003
 41
0.50
 42
0.50
 43
0.50
 50
235.21
  0
INSERT
  5
340
100
AcDbEntity
  8
dzailki
  6
CONTINUOUS
100
AcDbBlockReference
 66
0
  2
L_0_02_1
 10
8395319.34999999963
 20
5709672.5700000003
 41
0.50
 42
0.50
 43
0.50
 50
55.31
  0
INSERT
  5
341
100
AcDbEntity
  8
dzailki
  6
CONTINUOUS
100
AcDbBlockReference
 66
0
  2
L_0_02_2
 10
8395324.05000000074
 20
5709679.36000000034
 41
0.50
 42
0.50
 43
0.50
 50
235.31
  0
INSERT
  5
342
100
AcDbEntity
  8
dzailki
  6
CONTINUOUS
100
AcDbBlockReference
 66
0
  2
L_0_02_1
 10
8395324.05000000074
 20
5709679.36000000034
 41
0.50
 42
0.50
 43
0.50
 50
55.36
  0
INSERT
  5
343
100
AcDbEntity
  8
dzailki
  6
CONTINUOUS
100
AcDbBlockReference
 66
0
  2
L_0_02_2
 10
8395327.56000000052
 20
5709684.44000000041
 41
0.50
 42
0.50
 43
0.50
 50
235.36
  0
INSERT
  5
344
100
AcDbEntity
  8
dzailki
  6
CONTINUOUS
100
AcDbBlockReference
 66
0
  2
L_0_02_1
 10
8395327.56000000052
 20
5709684.44000000041
 41
0.50
 42
0.50
 43
0.50
 50
55.25
  0
INSERT
  5
345
100
AcDbEntity
  8
dzailki
  6
CONTINUOUS
100
AcDbBlockReference
 66
0
  2
L_0_02_2
 10
8395330.6400000006
 20
5709688.87999999989
 41
0.50
 42
0.50
 43
0.50
 50
235.25
  0
INSERT
  5
346
100
AcDbEntity
  8
dzailki
  6
CONTINUOUS
100
AcDbBlockReference
 66
0
  2
L_0_02_1
 10
8395330.6400000006
 20
5709688.87999999989
 41
0.50
 42
0.50
 43
0.50
 50
55.36
  0
INSERT
  5
347
100
AcDbEntity
  8
dzailki
  6
CONTINUOUS
100
AcDbBlockReference
 66
0
  2
L_0_02_2
 10
8395334.06000000052
 20
5709693.83000000007
 41
0.50
 42
0.50
 43
0.50
 50
235.36
  0
INSERT
  5
348
100
AcDbEntity
  8
dzailki
  6
CONTINUOUS
100
AcDbBlockReference
 66
0
  2
L_0_02_1
 10
8395334.06000000052
 20
5709693.83000000007
 41
0.50
 42
0.50
 43
0.50
 50
55.25
  0
INSERT
  5
349
100
AcDbEntity
  8
dzailki
  6
CONTINUOUS
100
AcDbBlockReference
 66
0
  2
L_0_02_2
 10
8395337.48000000045
 20
5709698.75999999978
 41
0.50
 42
0.50
 43
0.50
 50
235.25
  0
INSERT
  5
34A
100
AcDbEntity
  8
dzailki
  6
CONTINUOUS
100
AcDbBlockReference
 66
0
  2
L_0_02_1
 10
8395337.48000000045
 20
5709698.75999999978
 41
0.50
 42
0.50
 43
0.50
 50
55.30
  0
INSERT
  5
34B
100
AcDbEntity
  8
dzailki
  6
CONTINUOUS
100
AcDbBlockReference
 66
0
  2
L_0_02_2
 10
8395340.53999999911
 20
5709703.1799999997
 41
0.50
 42
0.50
 43
0.50
 50
235.30
  0
INSERT
  5
34C
100
AcDbEntity
  8
dzailki
  6
CONTINUOUS
100
AcDbBlockReference
 66
0
  2
L_0_02_1
 10
8395340.53999999911
 20
5709703.1799999997
 41
0.50
 42
0.50
 43
0.50
 50
55.35
  0
INSERT
  5
34D
100
AcDbEntity
  8
dzailki
  6
CONTINUOUS
100
AcDbBlockReference
 66
0
  2
L_0_02_2
 10
8395344.21000000089
 20
5709708.49000000022
 41
0.50
 42
0.50
 43
0.50
 50
235.35
  0
INSERT
  5
34E
100
AcDbEntity
  8
dzailki
  6
CONTINUOUS
100
AcDbBlockReference
 66
0
  2
L_0_02_1
 10
8395344.21000000089
 20
5709708.49000000022
 41
0.50
 42
0.50
 43
0.50
 50
55.33
  0
INSERT
  5
34F
100
AcDbEntity
  8
dzailki
  6
CONTINUOUS
100
AcDbBlockReference
 66
0
  2
L_0_02_2
 10
8395346.97000000067
 20
5709712.48000000045
 41
0.50
 42
0.50
 43
0.50
 50
235.33
  0
INSERT
  5
350
100
AcDbEntity
  8
dzailki
  6
CONTINUOUS
100
AcDbBlockReference
 66
0
  2
L_0_02_1
 10
8395346.97000000067
 20
5709712.48000000045
 41
0.50
 42
0.50
 43
0.50
 50
55.31
  0
INSERT
  5
351
100
AcDbEntity
  8
dzailki
  6
CONTINUOUS
100
AcDbBlockReference
 66
0
  2
L_0_02_2
 10
8395350.5
 20
5709717.58000000007
 41
0.50
 42
0.50
 43
0.50
 50
235.31
  0
INSERT
  5
352
100
AcDbEntity
  8
dzailki
  6
CONTINUOUS
100
AcDbBlockReference
 66
0
  2
L_0_02_1
 10
8395350.5
 20
5709717.58000000007
 41
0.50
 42
0.50
 43
0.50
 50
55.29
  0
INSERT
  5
353
100
AcDbEntity
  8
dzailki
  6
CONTINUOUS
100
AcDbBlockReference
 66
0
  2
L_0_02_2
 10
8395356.01999999955
 20
5709725.54999999981
 41
0.50
 42
0.50
 43
0.50
 50
235.29
  0
INSERT
  5
354
100
AcDbEntity
  8
dzailki
  6
CONTINUOUS
100
AcDbBlockReference
 66
0
  2
L_0_02_1
 10
8395356.01999999955
 20
5709725.54999999981
 41
0.50
 42
0.50
 43
0.50
 50
55.31
  0
INSERT
  5
355
100
AcDbEntity
  8
dzailki
  6
CONTINUOUS
100
AcDbBlockReference
 66
0
  2
L_0_02_2
 10
8395361.52999999933
 20
5709733.50999999978
 41
0.50
 42
0.50
 43
0.50
 50
235.31
  0
INSERT
  5
356
100
AcDbEntity
  8
dzailki
  6
CONTINUOUS
100
AcDbBlockReference
 66
0
  2
L_0_02_1
 10
8395361.52999999933
 20
5709733.50999999978
 41
0.50
 42
0.50
 43
0.50
 50
55.31
  0
INSERT
  5
357
100
AcDbEntity
  8
dzailki
  6
CONTINUOUS
100
AcDbBlockReference
 66
0
  2
L_0_02_2
 10
8395368.1400000006
 20
5709743.05999999959
 41
0.50
 42
0.50
 43
0.50
 50
235.31
  0
INSERT
  5
358
100
AcDbEntity
  8
dzailki
  6
CONTINUOUS
100
AcDbBlockReference
 66
0
  2
L_0_02_1
 10
8395368.1400000006
 20
5709743.05999999959
 41
0.50
 42
0.50
 43
0.50
 50
55.31
  0
INSERT
  5
359
100
AcDbEntity
  8
dzailki
  6
CONTINUOUS
100
AcDbBlockReference
 66
0
  2
L_0_02_2
 10
8395374.75
 20
5709752.61000000034
 41
0.50
 42
0.50
 43
0.50
 50
235.31
  0
INSERT
  5
35A
100
AcDbEntity
  8
dzailki
  6
CONTINUOUS
100
AcDbBlockReference
 66
0
  2
L_0_02_1
 10
8395374.75
 20
5709752.61000000034
 41
0.50
 42
0.50
 43
0.50
 50
55.28
  0
INSERT
  5
35B
100
AcDbEntity
  8
dzailki
  6
CONTINUOUS
100
AcDbBlockReference
 66
0
  2
L_0_02_2
 10
8395378.33999999985
 20
5709757.79000000004
 41
0.50
 42
0.50
 43
0.50
 50
235.28
  0
INSERT
  5
35C
100
AcDbEntity
  8
dzailki
  6
CONTINUOUS
100
AcDbBlockReference
 66
0
  2
L_0_02_1
 10
8395378.33999999985
 20
5709757.79000000004
 41
0.50
 42
0.50
 43
0.50
 50
55.27
  0
INSERT
  5
35D
100
AcDbEntity
  8
dzailki
  6
CONTINUOUS
100
AcDbBlockReference
 66
0
  2
L_0_02_2
 10
8395381.8200000003
 20
5709762.80999999959
 41
0.50
 42
0.50
 43
0.50
 50
235.27
  0
INSERT
  5
35E
100
AcDbEntity
  8
dzailki
  6
CONTINUOUS
100
AcDbBlockReference
 66
0
  2
L_0_02_1
 10
8395381.8200000003
 20
5709762.80999999959
 41
0.50
 42
0.50
 43
0.50
 50
55.36
  0
INSERT
  5
35F
100
AcDbEntity
  8
dzailki
  6
CONTINUOUS
100
AcDbBlockReference
 66
0
  2
L_0_02_2
 10
8395384.94999999926
 20
5709767.33999999985
 41
0.50
 42
0.50
 43
0.50
 50
235.36
  0
INSERT
  5
360
100
AcDbEntity
  8
dzailki
  6
CONTINUOUS
100
AcDbBlockReference
 66
0
  2
L_0_02_1
 10
8395384.94999999926
 20
5709767.33999999985
 41
0.50
 42
0.50
 43
0.50
 50
55.33
  0
INSERT
  5
361
100
AcDbEntity
  8
dzailki
  6
CONTINUOUS
100
AcDbBlockReference
 66
0
  2
L_0_02_2
 10
8395389.27999999933
 20
5709773.59999999963
 41
0.50
 42
0.50
 43
0.50
 50
235.33
  0
INSERT
  5
362
100
AcDbEntity
  8
dzailki
  6
CONTINUOUS
100
AcDbBlockReference
 66
0
  2
L_0_02_1
 10
8395389.27999999933
 20
5709773.59999999963
 41
0.50
 42
0.50
 43
0.50
 50
55.30
  0
INSERT
  5
363
100
AcDbEntity
  8
dzailki
  6
CONTINUOUS
100
AcDbBlockReference
 66
0
  2
L_0_02_2
 10
8395392.0700000003
 20
5709777.62999999989
 41
0.50
 42
0.50
 43
0.50
 50
235.30
  0
INSERT
  5
364
100
AcDbEntity
  8
dzailki
  6
CONTINUOUS
100
AcDbBlockReference
 66
0
  2
L_0_02_1
 10
8395392.0700000003
 20
5709777.62999999989
 41
0.50
 42
0.50
 43
0.50
 50
55.31
  0
INSERT
  5
365
100
AcDbEntity
  8
dzailki
  6
CONTINUOUS
100
AcDbBlockReference
 66
0
  2
L_0_02_2
 10
8395396.23000000045
 20
5709783.63999999966
 41
0.50
 42
0.50
 43
0.50
 50
235.31
  0
INSERT
  5
366
100
AcDbEntity
  8
dzailki
  6
CONTINUOUS
100
AcDbBlockReference
 66
0
  2
L_0_02_1
 10
8395396.23000000045
 20
5709783.63999999966
 41
0.50
 42
0.50
 43
0.50
 50
55.30
  0
INSERT
  5
367
100
AcDbEntity
  8
dzailki
  6
CONTINUOUS
100
AcDbBlockReference
 66
0
  2
L_0_02_2
 10
8395399.53999999911
 20
5709788.41999999993
 41
0.50
 42
0.50
 43
0.50
 50
235.30
  0
INSERT
  5
368
100
AcDbEntity
  8
dzailki
  6
CONTINUOUS
100
AcDbBlockReference
 66
0
  2
L_0_02_1
 10
8395399.53999999911
 20
5709788.41999999993
 41
0.50
 42
0.50
 43
0.50
 50
55.32
  0
INSERT
  5
369
100
AcDbEntity
  8
dzailki
  6
CONTINUOUS
100
AcDbBlockReference
 66
0
  2
L_0_02_2
 10
8395403.47000000067
 20
5709794.09999999963
 41
0.50
 42
0.50
 43
0.50
 50
235.32
  0
INSERT
  5
36A
100
AcDbEntity
  8
dzailki
  6
CONTINUOUS
100
AcDbBlockReference
 66
0
  2
L_0_02_1
 10
8395403.47000000067
 20
5709794.09999999963
 41
0.50
 42
0.50
 43
0.50
 50
55.30
  0
INSERT
  5
36B
100
AcDbEntity
  8
dzailki
  6
CONTINUOUS
100
AcDbBlockReference
 66
0
  2
L_0_02_2
 10
8395406.8900000006
 20
5709799.04000000004
 41
0.50
 42
0.50
 43
0.50
 50
235.30
  0
INSERT
  5
36C
100
AcDbEntity
  8
dzailki
  6
CONTINUOUS
100
AcDbBlockReference
 66
0
  2
L_0_02_1
 10
8395406.8900000006
 20
5709799.04000000004
 41
0.50
 42
0.50
 43
0.50
 50
55.24
  0
INSERT
  5
36D
100
AcDbEntity
  8
dzailki
  6
CONTINUOUS
100
AcDbBlockReference
 66
0
  2
L_0_02_2
 10
8395410.19999999926
 20
5709803.80999999959
 41
0.50
 42
0.50
 43
0.50
 50
235.24
  0
INSERT
  5
36E
100
AcDbEntity
  8
dzailki
  6
CONTINUOUS
100
AcDbBlockReference
 66
0
  2
L_0_02_1
 10
8395410.19999999926
 20
5709803.80999999959
 41
0.50
 42
0.50
 43
0.50
 50
55.32
  0
INSERT
  5
36F
100
AcDbEntity
  8
dzailki
  6
CONTINUOUS
100
AcDbBlockReference
 66
0
  2
L_0_02_2
 10
8395413.5
 20
5709808.58000000007
 41
0.50
 42
0.50
 43
0.50
 50
235.32
  0
INSERT
  5
370
100
AcDbEntity
  8
dzailki
  6
CONTINUOUS
100
AcDbBlockReference
 66
0
  2
L_0_02_1
 10
8395413.5
 20
5709808.58000000007
 41
0.50
 42
0.50
 43
0.50
 50
55.35
  0
INSERT
  5
371
100
AcDbEntity
  8
dzailki
  6
CONTINUOUS
100
AcDbBlockReference
 66
0
  2
L_0_02_2
 10
8395416.51999999955
 20
5709812.95000000019
 41
0.50
 42
0.50
 43
0.50
 50
235.35
  0
INSERT
  5
372
100
AcDbEntity
  8
dzailki
  6
CONTINUOUS
100
AcDbBlockReference
 66
0
  2
L_0_02_1
 10
8395416.51999999955
 20
5709812.95000000019
 41
0.50
 42
0.50
 43
0.50
 50
55.29
  0
INSERT
  5
373
100
AcDbEntity
  8
dzailki
  6
CONTINUOUS
100
AcDbBlockReference
 66
0
  2
L_0_02_2
 10
8395422.78999999911
 20
5709822.0
 41
0.50
 42
0.50
 43
0.50
 50
235.29
  0
INSERT
  5
374
100
AcDbEntity
  8
dzailki
  6
CONTINUOUS
100
AcDbBlockReference
 66
0
  2
L_0_02_1
 10
8395422.78999999911
 20
5709822.0
 41
0.50
 42
0.50
 43
0.50
 50
55.33
  0
INSERT
  5
375
100
AcDbEntity
  8
dzailki
  6
CONTINUOUS
100
AcDbBlockReference
 66
0
  2
L_0_02_2
 10
8395424.44999999926
 20
5709824.40000000037
 41
0.50
 42
0.50
 43
0.50
 50
235.33
  0
INSERT
  5
376
100
AcDbEntity
  8
dzailki
  6
CONTINUOUS
100
AcDbBlockReference
 66
0
  2
L_0_02_1
 10
8395424.44999999926
 20
5709824.40000000037
 41
0.50
 42
0.50
 43
0.50
 50
55.93
  0
INSERT
  5
377
100
AcDbEntity
  8
dzailki
  6
CONTINUOUS
100
AcDbBlockReference
 66
0
  2
L_0_02_2
 10
8395429.3599999994
 20
5709831.66000000015
 41
0.50
 42
0.50
 43
0.50
 50
235.93
  0
INSERT
  5
378
100
AcDbEntity
  8
dzailki
  6
CONTINUOUS
100
AcDbBlockReference
 66
0
  2
L_0_02_1
 10
8395429.3599999994
 20
5709831.66000000015
 41
0.50
 42
0.50
 43
0.50
 50
55.94
  0
INSERT
  5
379
100
AcDbEntity
  8
dzailki
  6
CONTINUOUS
100
AcDbBlockReference
 66
0
  2
L_0_02_2
 10
8395433.72000000067
 20
5709838.11000000034
 41
0.50
 42
0.50
 43
0.50
 50
235.94
  0
INSERT
  5
37A
100
AcDbEntity
  8
dzailki
  6
CONTINUOUS
100
AcDbBlockReference
 66
0
  2
L_0_02_1
 10
8395433.72000000067
 20
5709838.11000000034
 41
0.50
 42
0.50
 43
0.50
 50
55.81
  0
INSERT
  5
37B
100
AcDbEntity
  8
dzailki
  6
CONTINUOUS
100
AcDbBlockReference
 66
0
  2
L_0_02_2
 10
8395436.41000000015
 20
5709842.0700000003
 41
0.50
 42
0.50
 43
0.50
 50
235.81
  0
INSERT
  5
37C
100
AcDbEntity
  8
dzailki
  6
CONTINUOUS
100
AcDbBlockReference
 66
0
  2
L_0_02_1
 10
8395436.41000000015
 20
5709842.0700000003
 41
0.50
 42
0.50
 43
0.50
 50
55.98
  0
INSERT
  5
37D
100
AcDbEntity
  8
dzailki
  6
CONTINUOUS
100
AcDbBlockReference
 66
0
  2
L_0_02_2
 10
8395439.08999999985
 20
5709846.04000000004
 41
0.50
 42
0.50
 43
0.50
 50
235.98
  0
INSERT
  5
37E
100
AcDbEntity
  8
dzailki
  6
CONTINUOUS
100
AcDbBlockReference
 66
0
  2
L_0_02_1
 10
8395439.08999999985
 20
5709846.04000000004
 41
0.50
 42
0.50
 43
0.50
 50
55.81
  0
INSERT
  5
37F
100
AcDbEntity
  8
dzailki
  6
CONTINUOUS
100
AcDbBlockReference
 66
0
  2
L_0_02_2
 10
8395441.77999999933
 20
5709850.0
 41
0.50
 42
0.50
 43
0.50
 50
235.81
  0
INSERT
  5
380
100
AcDbEntity
  8
dzailki
  6
CONTINUOUS
100
AcDbBlockReference
 66
0
  2
L_0_02_1
 10
8395441.77999999933
 20
5709850.0
 41
0.50
 42
0.50
 43
0.50
 50
56.98
  0
INSERT
  5
381
100
AcDbEntity
  8
dzailki
  6
CONTINUOUS
100
AcDbBlockReference
 66
0
  2
L_0_02_2
 10
8395441.91000000015
 20
5709850.20000000019
 41
0.50
 42
0.50
 43
0.50
 50
236.98
  0
INSERT
  5
382
100
AcDbEntity
  8
dzailki
  6
CONTINUOUS
100
AcDbBlockReference
 66
0
  2
L_0_02_1
 10
8395441.91000000015
 20
5709850.20000000019
 41
0.50
 42
0.50
 43
0.50
 50
57.79
  0
INSERT
  5
383
100
AcDbEntity
  8
dzailki
  6
CONTINUOUS
100
AcDbBlockReference
 66
0
  2
L_0_02_2
 10
8395444.31000000052
 20
5709854.00999999978
 41
0.50
 42
0.50
 43
0.50
 50
237.79
  0
INSERT
  5
384
100
AcDbEntity
  8
dzailki
  6
CONTINUOUS
100
AcDbBlockReference
 66
0
  2
L_0_02_1
 10
8395444.31000000052
 20
5709854.00999999978
 41
0.50
 42
0.50
 43
0.50
 50
57.72
  0
INSERT
  5
385
100
AcDbEntity
  8
dzailki
  6
CONTINUOUS
100
AcDbBlockReference
 66
0
  2
L_0_02_2
 10
8395452.3900000006
 20
5709866.79999999981
 41
0.50
 42
0.50
 43
0.50
 50
237.72
  0
INSERT
  5
386
100
AcDbEntity
  8
dzailki
  6
CONTINUOUS
100
AcDbBlockReference
 66
0
  2
L_0_02_1
 10
8395452.3900000006
 20
5709866.79999999981
 41
0.50
 42
0.50
 43
0.50
 50
62.10
  0
INSERT
  5
387
100
AcDbEntity
  8
dzailki
  6
CONTINUOUS
100
AcDbBlockReference
 66
0
  2
L_0_02_2
 10
8395461.30000000074
 20
5709883.62999999989
 41
0.50
 42
0.50
 43
0.50
 50
242.10
  0
INSERT
  5
388
100
AcDbEntity
  8
dzailki
  6
CONTINUOUS
100
AcDbBlockReference
 66
0
  2
L_0_02_1
 10
8395461.30000000074
 20
5709883.62999999989
 41
0.50
 42
0.50
 43
0.50
 50
67.97
  0
INSERT
  5
389
100
AcDbEntity
  8
dzailki
  6
CONTINUOUS
100
AcDbBlockReference
 66
0
  2
L_0_02_2
 10
8395471.36999999918
 20
5709908.51999999955
 41
0.50
 42
0.50
 43
0.50
 50
247.97
  0
INSERT
  5
38A
100
AcDbEntity
  8
dzailki
  6
CONTINUOUS
100
AcDbBlockReference
 66
0
  2
L_0_02_1
 10
8395471.36999999918
 20
5709908.51999999955
 41
0.50
 42
0.50
 43
0.50
 50
70.33
  0
INSERT
  5
38B
100
AcDbEntity
  8
dzailki
  6
CONTINUOUS
100
AcDbBlockReference
 66
0
  2
L_0_02_2
 10
8395475.97000000067
 20
5709921.38999999966
 41
0.50
 42
0.50
 43
0.50
 50
250.33
  0
INSERT
  5
38C
100
AcDbEntity
  8
dzailki
  6
CONTINUOUS
100
AcDbBlockReference
 66
0
  2
L_0_02_1
 10
8395475.97000000067
 20
5709921.38999999966
 41
0.50
 42
0.50
 43
0.50
 50
66.61
  0
INSERT
  5
38D
100
AcDbEntity
  8
dzailki
  6
CONTINUOUS
100
AcDbBlockReference
 66
0
  2
L_0_02_2
 10
8395478.75999999978
 20
5709927.83999999985
 41
0.50
 42
0.50
 43
0.50
 50
246.61
  0
INSERT
  5
38E
100
AcDbEntity
  8
dzailki
  6
CONTINUOUS
100
AcDbBlockReference
 66
0
  2
L_0_02_1
 10
8395478.75999999978
 20
5709927.83999999985
 41
0.50
 42
0.50
 43
0.50
 50
340.67
  0
INSERT
  5
38F
100
AcDbEntity
  8
dzailki
  6
CONTINUOUS
100
AcDbBlockReference
 66
0
  2
L_0_02_2
 10
8395492.43999999948
 20
5709923.04000000004
 41
0.50
 42
0.50
 43
0.50
 50
160.67
  0
INSERT
  5
390
100
AcDbEntity
  8
dzailki
  6
CONTINUOUS
100
AcDbBlockReference
 66
0
  2
L_0_02_1
 10
8395492.43999999948
 20
5709923.04000000004
 41
0.50
 42
0.50
 43
0.50
 50
250.66
  0
INSERT
  5
391
100
AcDbEntity
  8
dzailki
  6
CONTINUOUS
100
AcDbBlockReference
 66
0
  2
L_0_02_2
 10
8395489.77999999933
 20
5709915.45999999996
 41
0.50
 42
0.50
 43
0.50
 50
70.66
  0
INSERT
  5
392
100
AcDbEntity
  8
dzailki
  6
CONTINUOUS
100
AcDbBlockReference
 66
0
  2
L_0_02_1
 10
8395489.77999999933
 20
5709915.45999999996
 41
0.50
 42
0.50
 43
0.50
 50
250.33
  0
INSERT
  5
393
100
AcDbEntity
  8
dzailki
  6
CONTINUOUS
100
AcDbBlockReference
 66
0
  2
L_0_02_2
 10
8395485.3900000006
 20
5709903.1799999997
 41
0.50
 42
0.50
 43
0.50
 50
70.33
  0
INSERT
  5
394
100
AcDbEntity
  8
dzailki
  6
CONTINUOUS
100
AcDbBlockReference
 66
0
  2
L_0_02_1
 10
8395485.3900000006
 20
5709903.1799999997
 41
0.50
 42
0.50
 43
0.50
 50
247.98
  0
INSERT
  5
395
100
AcDbEntity
  8
dzailki
  6
CONTINUOUS
100
AcDbBlockReference
 66
0
  2
L_0_02_2
 10
8395474.91999999992
 20
5709877.29000000004
 41
0.50
 42
0.50
 43
0.50
 50
67.98
  0
INSERT
  5
396
100
AcDbEntity
  8
dzailki
  6
CONTINUOUS
100
AcDbBlockReference
 66
0
  2
L_0_02_1
 10
8395474.91999999992
 20
5709877.29000000004
 41
0.50
 42
0.50
 43
0.50
 50
242.10
  0
INSERT
  5
397
100
AcDbEntity
  8
dzailki
  6
CONTINUOUS
100
AcDbBlockReference
 66
0
  2
L_0_02_2
 10
8395465.38000000082
 20
5709859.26999999955
 41
0.50
 42
0.50
 43
0.50
 50
62.10
  0
INSERT
  5
398
100
AcDbEntity
  8
dzailki
  6
CONTINUOUS
100
AcDbBlockReference
 66
0
  2
L_0_02_1
 10
8395465.38000000082
 20
5709859.26999999955
 41
0.50
 42
0.50
 43
0.50
 50
237.70
  0
INSERT
  5
399
100
AcDbEntity
  8
dzailki
  6
CONTINUOUS
100
AcDbBlockReference
 66
0
  2
L_0_02_2
 10
8395454.33000000007
 20
5709841.79000000004
 41
0.50
 42
0.50
 43
0.50
 50
57.70
  0
INSERT
  5
39A
100
AcDbEntity
  8
dzailki
  6
CONTINUOUS
100
AcDbBlockReference
 66
0
  2
L_0_02_1
 10
8395454.33000000007
 20
5709841.79000000004
 41
0.50
 42
0.50
 43
0.50
 50
235.91
  0
INSERT
  5
39B
100
AcDbEntity
  8
dzailki
  6
CONTINUOUS
100
AcDbBlockReference
 66
0
  2
L_0_02_2
 10
8395436.83000000007
 20
5709815.9299999997
 41
0.50
 42
0.50
 43
0.50
 50
55.91
  0
INSERT
  5
39C
100
AcDbEntity
  8
dzailki
  6
CONTINUOUS
100
AcDbBlockReference
 66
0
  2
L_0_02_1
 10
8395436.83000000007
 20
5709815.9299999997
 41
0.50
 42
0.50
 43
0.50
 50
235.31
  0
INSERT
  5
39D
100
AcDbEntity
  8
dzailki
  6
CONTINUOUS
100
AcDbBlockReference
 66
0
  2
L_0_02_2
 10
8395276.93999999948
 20
5709584.95999999996
 41
0.50
 42
0.50
 43
0.50
 50
55.31
  0
INSERT
  5
39E
100
AcDbEntity
  8
dzailki
  6
CONTINUOUS
100
AcDbBlockReference
 66
0
  2
L_0_02_1
 10
8395276.93999999948
 20
5709584.95999999996
 41
0.50
 42
0.50
 43
0.50
 50
238.31
  0
INSERT
  5
39F
100
AcDbEntity
  8
dzailki
  6
CONTINUOUS
100
AcDbBlockReference
 66
0
  2
L_0_02_2
 10
8395266.44999999926
 20
5709567.96999999974
 41
0.50
 42
0.50
 43
0.50
 50
58.31
  0
INSERT
  5
3A0
100
AcDbEntity
  8
dzailki
  6
CONTINUOUS
100
AcDbBlockReference
 66
0
  2
L_0_02_1
 10
8395266.44999999926
 20
5709567.96999999974
 41
0.50
 42
0.50
 43
0.50
 50
242.28
  0
INSERT
  5
3A1
100
AcDbEntity
  8
dzailki
  6
CONTINUOUS
100
AcDbBlockReference
 66
0
  2
L_0_02_2
 10
8395262.73000000045
 20
5709560.88999999966
 41
0.50
 42
0.50
 43
0.50
 50
62.28
  0
INSERT
  5
3A2
100
AcDbEntity
  8
dzailki
  6
CONTINUOUS
100
AcDbBlockReference
 66
0
  2
L_0_02_1
 10
8395262.73000000045
 20
5709560.88999999966
 41
0.50
 42
0.50
 43
0.50
 50
243.81
  0
INSERT
  5
3A3
100
AcDbEntity
  8
dzailki
  6
CONTINUOUS
100
AcDbBlockReference
 66
0
  2
L_0_02_2
 10
8395251.3200000003
 20
5709537.69000000041
 41
0.50
 42
0.50
 43
0.50
 50
63.81
  0
INSERT
  5
3A4
100
AcDbEntity
  8
dzailki
  6
CONTINUOUS
100
AcDbBlockReference
 66
0
  2
L_0_02_1
 10
8395251.3200000003
 20
5709537.69000000041
 41
0.50
 42
0.50
 43
0.50
 50
248.76
  0
INSERT
  5
3A5
100
AcDbEntity
  8
dzailki
  6
CONTINUOUS
100
AcDbBlockReference
 66
0
  2
L_0_02_2
 10
8395242.90000000037
 20
5709516.03000000026
 41
0.50
 42
0.50
 43
0.50
 50
68.76
  0
INSERT
  5
3A6
100
AcDbEntity
  8
dzailki
  6
CONTINUOUS
100
AcDbBlockReference
 66
0
  2
L_0_02_1
 10
8395242.90000000037
 20
5709516.03000000026
 41
0.50
 42
0.50
 43
0.50
 50
253.38
  0
INSERT
  5
3A7
100
AcDbEntity
  8
dzailki
  6
CONTINUOUS
100
AcDbBlockReference
 66
0
  2
L_0_02_2
 10
8395235.88000000082
 20
5709492.50999999978
 41
0.50
 42
0.50
 43
0.50
 50
73.38
  0
INSERT
  5
3A8
100
AcDbEntity
  8
dzailki
  6
CONTINUOUS
100
AcDbBlockReference
 66
0
  2
L_0_02_1
 10
8395235.88000000082
 20
5709492.50999999978
 41
0.50
 42
0.50
 43
0.50
 50
255.10
  0
INSERT
  5
3A9
100
AcDbEntity
  8
dzailki
  6
CONTINUOUS
100
AcDbBlockReference
 66
0
  2
L_0_02_2
 10
8395229.61999999918
 20
5709468.99000000022
 41
0.50
 42
0.50
 43
0.50
 50
75.10
  0
INSERT
  5
3AA
100
AcDbEntity
  8
dzailki
  6
CONTINUOUS
100
AcDbBlockReference
 66
0
  2
L_0_02_1
 10
8395229.61999999918
 20
5709468.99000000022
 41
0.50
 42
0.50
 43
0.50
 50
257.01
  0
INSERT
  5
3AB
100
AcDbEntity
  8
dzailki
  6
CONTINUOUS
100
AcDbBlockReference
 66
0
  2
L_0_02_2
 10
8395195.94999999926
 20
5709323.00999999978
 41
0.50
 42
0.50
 43
0.50
 50
77.01
  0
MLINE
  5
3AC
100
AcDbEntity
  8
dzailki
  6
L_0_02
370
18
100
AcDbMline
  2
L_0_02
340
7
 40
1.0
 70
1
 71
3
 72
103
 73
1
 10
8395195.94999999926
 20
5709323.00999999978
210
0.0
220
0.0
230
1.0
 11
8395195.94999999926
 21
5709323.00999999978
 12
-0.2244967515
 22
-0.974474837318
 13
0.974445958846
 23
-0.224622067679
 74
3
 41
0.0
 41
0.25
 41
9.81696081203
 75
0
 11
8395193.68999999948
 21
5709313.20000000019
 12
-0.224889369328
 22
-0.974384303837
 13
0.974429590352
 23
-0.224693064974
 74
3
 41
0.0
 41
0.25
 41
48.662938983608
 75
0
 11
8395182.68999999948
 21
5709265.54000000004
 12
-0.224546129994
 22
-0.974463460323
 13
0.974423897193
 23
-0.224717753147
 74
3
 41
0.0
 41
0.25
 41
20.725645401456
 75
0
 11
8395177.98000000045
 21
5709245.09999999963
 12
-0.224763086908
 22
-0.974413441391
 13
0.974438456895
 23
-0.224654609843
 74
3
 41
0.0
 41
0.25
 41
90.645708368853
 75
0
 11
8395157.55000000074
 21
5709156.53000000026
 12
-0.224705264618
 22
-0.974426777163
 13
0.974420109706
 23
-0.224734175862
 74
3
 41
0.0
 41
0.25
 41
47.100915514567
 75
0
 11
8395146.91000000015
 21
5709110.38999999966
 12
-0.886814903075
 22
0.462124796656
 13
0.418581680371
 23
-0.908179154604
 74
3
 41
0.0
 41
0.25
 41
15.243650312572
 75
0
 11
8395133.16999999992
 21
5709117.54999999981
 12
0.223831839034
 22
0.974627779121
 13
-0.907991485334
 23
-0.418988618653
 74
3
 41
0.0
 41
0.25
 41
7.568369395322
 75
0
 11
8395134.91999999992
 21
5709125.16999999993
 12
0.22477899371
 22
0.974409772112
 13
-0.974518890686
 23
0.224305442857
 74
3
 41
0.0
 41
0.25
 41
90.461323438505
 75
0
 11
8395155.31000000052
 21
5709213.55999999959
 12
0.224581497159
 22
0.974455309973
 13
-0.974432546046
 23
0.224680246588
 74
3
 41
0.0
 41
0.25
 41
20.766869414997
 75
0
 11
8395160.02999999933
 21
5709234.04000000004
 12
0.224874827059
 22
0.9743876601
 13
-0.974421496074
 23
0.224728164654
 74
3
 41
0.0
 41
0.25
 41
47.420964958051
 75
0
 11
8395170.75
 21
5709280.49000000022
 12
0.224783149098
 22
0.974408813528
 13
-0.974398237892
 23
0.224828988327
 74
3
 41
0.0
 41
0.25
 41
9.314773912111
 75
0
 11
8395172.90000000037
 21
5709289.80999999959
 12
0.224753702267
 22
0.974415606052
 13
-0.974412209901
 23
0.224768425708
 74
3
 41
0.0
 41
0.25
 41
144.708679974691
 75
0
 11
8395205.48000000045
 21
5709431.05999999959
 12
0.048072698075
 22
0.998843839496
 13
-0.990576728059
 23
0.136958920221
 74
3
 41
0.0
 41
0.25
 41
12.855151659526
 75
0
 11
8395206.1099999994
 21
5709444.15000000037
 12
0.194855440455
 22
0.980831972014
 13
-0.992554972299
 23
0.12179748341
 74
3
 41
0.0
 41
0.25
 41
16.531671549879
 75
0
 11
8395209.38000000082
 21
5709460.61000000034
 12
0.427827302259
 22
0.903860497777
 13
-0.949518508782
 23
0.313711015873
 74
3
 41
0.0
 41
0.25
 41
13.026385050028
 75
0
 11
8395215.06000000052
 21
5709472.61000000034
 12
0.25711078967
 22
0.966381933728
 13
-0.939008903082
 23
0.343892832045
 74
3
 41
0.0
 41
0.25
 41
24.564205608148
 75
0
 11
8395221.43999999948
 21
5709496.58999999985
 12
0.285623473475
 22
0.958341917793
 13
-0.962467516043
 23
0.271396905955
 74
3
 41
0.0
 41
0.25
 41
2.410845729972
 75
0
 11
8395222.19999999926
 21
5709499.13999999966
 12
0.286769610421
 22
0.957999577525
 13
-0.958170919032
 23
0.286196593135
 74
3
 41
0.0
 41
0.25
 41
2.923279061239
 75
0
 11
8395223.1099999994
 21
5709502.1799999997
 12
0.285869988834
 22
0.958268412024
 13
-0.95813410036
 23
0.28631983118
 74
3
 41
0.0
 41
0.25
 41
2.233646512839
 75
0
 11
8395223.8200000003
 21
5709504.55999999959
 12
0.286422494684
 22
0.958103415367
 13
-0.958185953519
 23
0.286146253652
 74
3
 41
0.0
 41
0.25
 41
4.707711165426
 75
0
 11
8395225.24000000022
 21
5709509.30999999959
 12
0.286583490021
 22
0.958055271499
 13
-0.958079346815
 23
0.286502993364
 74
3
 41
0.0
 41
0.25
 41
5.751741414149
 75
0
 11
8395226.96000000089
 21
5709515.05999999959
 12
0.285509215504
 22
0.958375963734
 13
-0.958215768165
 23
0.286046397704
 74
3
 41
0.0
 41
0.25
 41
5.73929879028
 75
0
 11
8395228.66999999992
 21
5709520.79999999981
 12
0.360760890924
 22
0.932658340219
 13
-0.946265495696
 23
0.323390803294
 74
3
 41
0.0
 41
0.25
 41
5.765064422218
 75
0
 11
8395230.83999999985
 21
5709526.41000000015
 12
0.362038025466
 22
0.932163326953
 13
-0.932411052249
 23
0.361399542948
 74
3
 41
0.0
 41
0.25
 41
5.660981306017
 75
0
 11
8395232.98000000045
 21
5709531.91999999993
 12
0.362372161913
 22
0.932033484522
 13
-0.93209842071
 23
0.362205099507
 74
3
 41
0.0
 41
0.25
 41
6.262641553226
 75
0
 11
8395235.33999999985
 21
5709537.99000000022
 12
0.365748676664
 22
0.93071365388
 13
-0.931375099313
 23
0.364061017386
 74
3
 41
0.0
 41
0.25
 41
6.175177039775
 75
0
 11
8395237.68999999948
 21
5709543.96999999974
 12
0.441664968446
 22
0.89718005754
 13
-0.91473475713
 23
0.404054852834
 74
3
 41
0.0
 41
0.25
 41
6.248138195426
 75
0
 11
8395240.56000000052
 21
5709549.79999999981
 12
0.440821899897
 22
0.897594592548
 13
-0.897387424049
 23
0.441243482852
 74
3
 41
0.0
 41
0.25
 41
6.646209103532
 75
0
 11
8395243.59999999963
 21
5709555.99000000022
 12
0.441729231748
 22
0.897148419059
 13
-0.897371620479
 23
0.441275622213
 74
3
 41
0.0
 41
0.25
 41
10.706938441007
 75
0
 11
8395248.43999999948
 21
5709565.8200000003
 12
0.44144633274
 22
0.897287654718
 13
-0.897218048039
 23
0.441587787732
 74
3
 41
0.0
 41
0.25
 41
1.834058540512
 75
0
 11
8395249.3599999994
 21
5709567.69000000041
 12
0.464833899028
 22
0.885397902818
 13
-0.891419482526
 23
0.453179110478
 74
3
 41
0.0
 41
0.25
 41
8.333711318312
 75
0
 11
8395253.34999999963
 21
5709575.29000000004
 12
0.524399024757
 22
0.85147264362
 13
-0.868945812362
 23
0.494907238963
 74
3
 41
0.0
 41
0.25
 41
3.449472935477
 75
0
 11
8395255.28999999911
 21
5709578.44000000041
 12
0.523874285427
 22
0.851795593478
 13
-0.851634158964
 23
0.524136679965
 74
3
 41
0.0
 41
0.25
 41
4.751199856391
 75
0
 11
8395257.91000000015
 21
5709582.70000000019
 12
0.527048957965
 22
0.84983492274
 13
-0.850816738827
 23
0.525462536184
 74
3
 41
0.0
 41
0.25
 41
3.715476011796
 75
0
 11
8395260.0
 21
5709586.0700000003
 12
0.525162503263
 22
0.85100196543
 13
-0.850418967167
 23
0.526106054215
 74
3
 41
0.0
 41
0.25
 41
8.128359027977
 75
0
 11
8395264.40000000037
 21
5709593.20000000019
 12
0.570395809535
 22
0.821369965646
 13
-0.836491770409
 23
0.547979486877
 74
3
 41
0.0
 41
0.25
 41
1.941460699928
 75
0
 11
8395265.65000000037
 21
5709595.0
 12
0.568670979201
 22
0.822565083999
 13
-0.821967977249
 23
0.56953370785
 74
3
 41
0.0
 41
0.25
 41
7.46975388106
 75
0
 11
8395270.03999999911
 21
5709601.34999999963
 12
0.569437732061
 22
0.822034469658
 13
-0.822299866198
 23
0.569054417477
 74
3
 41
0.0
 41
0.25
 41
6.598861220096
 75
0
 11
8395273.93999999948
 21
5709606.98000000045
 12
0.568940994465
 22
0.822378346515
 13
-0.822206445599
 23
0.569189389233
 74
3
 41
0.0
 41
0.25
 41
11.350499988277
 75
0
 11
8395280.53999999911
 21
5709616.51999999955
 12
0.570200917517
 22
0.821505273058
 13
-0.821942051198
 23
0.569571123279
 74
3
 41
0.0
 41
0.25
 41
5.519896013664
 75
0
 11
8395283.83000000007
 21
5709621.25999999978
 12
0.56858074408
 22
0.822627459705
 13
-0.822066765523
 23
0.569391107257
 74
3
 41
0.0
 41
0.25
 41
5.536337355529
 75
0
 11
8395287.11999999918
 21
5709626.01999999955
 12
0.568877554378
 22
0.822422232266
 13
-0.822524859374
 23
0.568729158486
 74
3
 41
0.0
 41
0.25
 41
4.443452886968
 75
0
 11
8395289.78999999911
 21
5709629.87999999989
 12
0.570033074542
 22
0.821621746261
 13
-0.822022192303
 23
0.569455455116
 74
3
 41
0.0
 41
0.25
 41
5.433880716619
 75
0
 11
8395293.02999999933
 21
5709634.54999999981
 12
0.568911119244
 22
0.822399014105
 13
-0.822010571601
 23
0.569472229504
 74
3
 41
0.0
 41
0.25
 41
15.411497374127
 75
0
 11
8395301.93999999948
 21
5709647.4299999997
 12
0.569704650646
 22
0.821849506316
 13
-0.822124355952
 23
0.569307951245
 74
3
 41
0.0
 41
0.25
 41
8.157865365914
 75
0
 11
8395306.73000000045
 21
5709654.33999999985
 12
0.568954902723
 22
0.822368724276
 13
-0.822109200765
 23
0.569329835874
 74
3
 41
0.0
 41
0.25
 41
5.866477745053
 75
0
 11
8395310.21000000089
 21
5709659.37000000011
 12
0.568954902517
 22
0.822368724418
 13
-0.822368724347
 23
0.56895490262
 74
3
 41
0.0
 41
0.25
 41
5.866477743994
 75
0
 11
8395313.68999999948
 21
5709664.40000000037
 12
0.56840815668
 22
0.822746721306
 13
-0.822557768289
 23
0.568681561005
 74
3
 41
0.0
 41
0.25
 41
4.93993256245
 75
0
 11
8395316.6400000006
 21
5709668.66999999993
 12
0.570632548516
 22
0.821205512996
 13
-0.821976869593
 23
0.569520873941
 74
3
 41
0.0
 41
0.25
 41
4.499115706914
 75
0
 11
8395319.34999999963
 21
5709672.5700000003
 12
0.569147007794
 22
0.822235783409
 13
-0.821720983905
 23
0.569890010975
 74
3
 41
0.0
 41
0.25
 41
8.007971906649
 75
0
 11
8395324.05000000074
 21
5709679.36000000034
 12
0.568451801207
 22
0.822716567054
 13
-0.822476248685
 23
0.568799455299
 74
3
 41
0.0
 41
0.25
 41
5.924665982803
 75
0
 11
8395327.56000000052
 21
5709684.44000000041
 12
0.569979571907
 22
0.821658863282
 13
-0.822188070026
 23
0.569215932232
 74
3
 41
0.0
 41
0.25
 41
5.153702434056
 75
0
 11
8395330.6400000006
 21
5709688.87999999989
 12
0.568431869932
 22
0.822730338109
 13
-0.82219496487
 23
0.569205973038
 74
3
 41
0.0
 41
0.25
 41
5.76655216892
 75
0
 11
8395334.06000000052
 21
5709693.83000000007
 12
0.569989708627
 22
0.82165183141
 13
-0.822191453722
 23
0.569211044716
 74
3
 41
0.0
 41
0.25
 41
5.750108332068
 75
0
 11
8395337.48000000045
 21
5709698.75999999978
 12
0.569209978668
 22
0.822192191756
 13
-0.821922104046
 23
0.569599907725
 74
3
 41
0.0
 41
0.25
 41
5.125872021462
 75
0
 11
8395340.53999999911
 21
5709703.1799999997
 12
0.568565326793
 22
0.822638115558
 13
-0.822415216821
 23
0.568887696423
 74
3
 41
0.0
 41
0.25
 41
6.204843144389
 75
0
 11
8395344.21000000089
 21
5709708.49000000022
 12
0.568888389637
 22
0.822414737305
 13
-0.822526442293
 23
0.568726869182
 74
3
 41
0.0
 41
0.25
 41
4.601566757301
 75
0
 11
8395346.97000000067
 21
5709712.48000000045
 12
0.569126138548
 22
0.822250228593
 13
-0.822332491541
 23
0.569007270038
 74
3
 41
0.0
 41
0.25
 41
5.952491434211
 75
0
 11
8395350.5
 21
5709717.58000000007
 12
0.569370877072
 22
0.822080777261
 13
-0.822165512034
 23
0.569248514115
 74
3
 41
0.0
 41
0.25
 41
9.44491103574
 75
0
 11
8395356.01999999955
 21
5709725.54999999981
 12
0.569156264125
 22
0.822229376152
 13
-0.822155083709
 23
0.569263575447
 74
3
 41
0.0
 41
0.25
 41
9.430996849341
 75
0
 11
8395361.52999999933
 21
5709733.50999999978
 12
0.569120431625
 22
0.82225417865
 13
-0.822241777596
 23
0.56913834801
 74
3
 41
0.0
 41
0.25
 41
11.364413459714
 75
0
 11
8395368.1400000006
 21
5709743.05999999959
 12
0.569120431479
 22
0.822254178751
 13
-0.8222541787
 23
0.569120431552
 74
3
 41
0.0
 41
0.25
 41
11.36441345942
 75
0
 11
8395374.75
 21
5709752.61000000034
 12
0.569622447118
 22
0.821906483573
 13
-0.822080369482
 23
0.56937146584
 74
3
 41
0.0
 41
0.25
 41
6.052420169732
 75
0
 11
8395378.33999999985
 21
5709757.79000000004
 12
0.569720653105
 22
0.821838413209
 13
-0.821872449858
 23
0.569671551129
 74
3
 41
0.0
 41
0.25
 41
5.858256707001
 75
0
 11
8395381.8200000003
 21
5709762.80999999959
 12
0.568454220932
 22
0.822714895152
 13
-0.822276897993
 23
0.569087605758
 74
3
 41
0.0
 41
0.25
 41
5.256160186176
 75
0
 11
8395384.94999999926
 21
5709767.33999999985
 12
0.568868345963
 22
0.822428601741
 13
-0.822571774508
 23
0.568661301464
 74
3
 41
0.0
 41
0.25
 41
7.361602984776
 75
0
 11
8395389.27999999933
 21
5709773.59999999963
 12
0.569209978939
 22
0.822192191569
 13
-0.822310414396
 23
0.569039174728
 74
3
 41
0.0
 41
0.25
 41
4.651530374027
 75
0
 11
8395392.0700000003
 21
5709777.62999999989
 12
0.569138834373
 22
0.822241440946
 13
-0.822216817027
 23
0.569174407189
 74
3
 41
0.0
 41
0.25
 41
7.059288610977
 75
0
 11
8395396.23000000045
 21
5709783.63999999966
 12
0.569299412051
 22
0.822130269141
 13
-0.822185858964
 23
0.569219125926
 74
3
 41
0.0
 41
0.25
 41
5.564163739835
 75
0
 11
8395399.53999999911
 21
5709788.41999999993
 12
0.568984101243
 22
0.822348522545
 13
-0.822239410958
 23
0.569141767109
 74
3
 41
0.0
 41
0.25
 41
6.657047126588
 75
0
 11
8395403.47000000067
 21
5709794.09999999963
 12
0.56920997879
 22
0.822192191672
 13
-0.822270364865
 23
0.569097045384
 74
3
 41
0.0
 41
0.25
 41
5.758327554614
 75
0
 11
8395406.8900000006
 21
5709799.04000000004
 12
0.570105274655
 22
0.821571649834
 13
-0.821882042661
 23
0.569657711219
 74
3
 41
0.0
 41
0.25
 41
5.555945227683
 75
0
 11
8395410.19999999926
 21
5709803.80999999959
 12
0.568940994499
 22
0.822378346492
 13
-0.821975204305
 23
0.569523277407
 74
3
 41
0.0
 41
0.25
 41
5.550249995434
 75
0
 11
8395413.5
 21
5709808.58000000007
 12
0.568524539576
 22
0.822666304099
 13
-0.822522351652
 23
0.568732785262
 74
3
 41
0.0
 41
0.25
 41
5.06199585827
 75
0
 11
8395416.51999999955
 21
5709812.95000000019
 12
0.569493329241
 22
0.821995953731
 13
-0.822331271581
 23
0.569009033126
 74
3
 41
0.0
 41
0.25
 41
10.759786555198
 75
0
 11
8395422.78999999911
 21
5709822.0
 12
0.568853535164
 22
0.822438846074
 13
-0.822217462133
 23
0.569173475281
 74
3
 41
0.0
 41
0.25
 41
2.668150099341
 75
0
 11
8395424.44999999926
 21
5709824.40000000037
 12
0.560217273939
 22
0.828345704389
 13
-0.825403570542
 23
0.564543130094
 74
3
 41
0.0
 41
0.25
 41
8.514456628806
 75
0
 11
8395429.3599999994
 21
5709831.66000000015
 12
0.560024238018
 22
0.828476223456
 13
-0.828410969545
 23
0.56012075978
 74
3
 41
0.0
 41
0.25
 41
7.535377319915
 75
0
 11
8395433.72000000067
 21
5709838.11000000034
 12
0.56191000498
 22
0.827198371797
 13
-0.827837834585
 23
0.560967485358
 74
3
 41
0.0
 41
0.25
 41
4.537243465388
 75
0
 11
8395436.41000000015
 21
5709842.0700000003
 12
0.55950871052
 22
0.828824470472
 13
-0.828012291625
 23
0.560709947226
 74
3
 41
0.0
 41
0.25
 41
4.539916491582
 75
0
 11
8395439.08999999985
 21
5709846.04000000004
 12
0.56191000498
 22
0.827198371797
 13
-0.828012291625
 23
0.560709947226
 74
3
 41
0.0
 41
0.25
 41
4.537243465388
 75
0
 11
8395441.77999999933
 21
5709850.0
 12
0.544988352654
 22
0.838443614963
 13
-0.832863970041
 23
0.553477738854
 74
0
 75
0
 11
8395441.91000000015
 21
5709850.20000000019
 12
0.53298996162
 22
0.84612156385
 13
-0.842303953905
 23
0.539002828598
 74
3
 41
0.0
 41
0.25
 41
4.252899066009
 75
0
 11
8395444.31000000052
 21
5709854.00999999978
 12
0.534092465754
 22
0.845426068929
 13
-0.845773996035
 23
0.533541327013
 74
3
 41
0.0
 41
0.25
 41
14.878466544966
 75
0
 11
8395452.3900000006
 21
5709866.79999999981
 12
0.467887720424
 22
0.883787916345
 13
-0.865240439874
 23
0.50135713938
 74
3
 41
0.0
 41
0.25
 41
18.79303022119
 75
0
 11
8395461.30000000074
 21
5709883.62999999989
 12
0.375047985534
 22
0.927005398338
 13
-0.906585854301
 23
0.422021431662
 74
3
 41
0.0
 41
0.25
 41
26.59989757805
 75
0
 11
8395471.36999999918
 21
5709908.51999999955
 12
0.336568137544
 22
0.941659114962
 13
-0.934530331499
 23
0.355883491481
 74
3
 41
0.0
 41
0.25
 41
13.417366242864
 75
0
 11
8395475.97000000067
 21
5709921.38999999966
 12
0.397008348071
 22
0.917814998549
 13
-0.930228063147
 23
0.366981948512
 74
3
 41
0.0
 41
0.25
 41
6.777560031577
 75
0
 11
8395478.75999999978
 21
5709927.83999999985
 12
0.943599982135
 22
-0.331087713024
 13
-0.400939933783
 23
0.91610434422
 74
3
 41
0.0
 41
0.25
 41
14.247668777775
 75
0
 11
8395492.43999999948
 21
5709923.04000000004
 12
-0.331126603252
 22
-0.94358633554
 13
0.901349238306
 23
0.433093004568
 74
3
 41
0.0
 41
0.25
 41
7.783181188167
 75
0
 11
8395489.77999999933
 21
5709915.45999999996
 12
-0.336627836475
 22
-0.941637775214
 13
0.942616068627
 23
-0.333878641374
 74
3
 41
0.0
 41
0.25
 41
12.791108081574
 75
0
 11
8395485.3900000006
 21
5709903.1799999997
 12
-0.374907045445
 22
-0.927062407433
 13
0.934546102456
 23
-0.355842075061
 74
3
 41
0.0
 41
0.25
 41
27.676922494193
 75
0
 11
8395474.91999999992
 21
5709877.29000000004
 12
-0.467887720375
 22
-0.88378791637
 13
0.906617932363
 23
-0.421952514766
 74
3
 41
0.0
 41
0.25
 41
20.139507105381
 75
0
 11
8395465.38000000082
 21
5709859.26999999955
 12
-0.534338623499
 22
-0.845270510214
 13
0.865167435395
 23
-0.50148310912
 74
3
 41
0.0
 41
0.25
 41
20.429770308191
 75
0
 11
8395454.33000000007
 21
5709841.79000000004
 12
-0.560451527396
 22
-0.828187228494
 13
0.836830730643
 23
-0.54746171396
 74
3
 41
0.0
 41
0.25
 41
30.974823458546
 75
0
 11
8395436.83000000007
 21
5709815.9299999997
 12
-0.569180360722
 22
-0.822212695699
 13
0.825211503541
 23
-0.56482384371
 74
3
 41
0.0
 41
0.25
 41
280.662714201529
 75
0
 11
8395276.93999999948
 21
5709584.95999999996
 12
-0.525354263891
 22
-0.850883598039
 13
0.836835099479
 23
-0.547455035852
 74
3
 41
0.0
 41
0.25
 41
19.717478559204
 75
0
 11
8395266.44999999926
 21
5709567.96999999974
 12
-0.465127927652
 22
-0.885243475502
 13
0.868585693392
 23
-0.495538992649
 74
3
 41
0.0
 41
0.25
 41
7.747799696928
 75
0
 11
8395262.73000000045
 21
5709560.88999999966
 12
-0.44132476131
 22
-0.897347455033
 13
0.891374923412
 23
-0.453266749179
 74
3
 41
0.0
 41
0.25
 41
25.603976482716
 75
0
 11
8395251.3200000003
 21
5709537.69000000041
 12
-0.36232166391
 22
-0.932053116438
 13
0.915552830302
 23
-0.402197731129
 74
3
 41
0.0
 41
0.25
 41
22.989018912278
 75
0
 11
8395242.90000000037
 21
5709516.03000000026
 12
-0.286002026715
 22
-0.958229012666
 13
0.945911097122
 23
-0.324425948935
 74
3
 41
0.0
 41
0.25
 41
24.295280605781
 75
0
 11
8395235.88000000082
 21
5709492.50999999978
 12
-0.257202314727
 22
-0.966357578383
 13
0.962401029958
 23
-0.271632578193
 74
3
 41
0.0
 41
0.25
 41
24.088816733759
 75
0
 11
8395229.61999999918
 21
5709468.99000000022
 12
-0.224747380144
 22
-0.974417064259
 13
0.97052299513
 23
-0.241008539112
 74
3
 41
0.0
 41
0.25
 41
149.562647330342
 75
0
  0
TEXT
  5
3AD
100
AcDbEntity
  8
dzailki
370
25
100
AcDbText
 39
0.25
 10
8394280.08500000089
 20
5709886.40500000026
 40
1.25
  1
14-905
 50
0.00
 41
0.66
  7
STANDARD
 72
1
 11
8394281.96000000089
 21
5709887.03000000026
100
AcDbText
 73
2
  0
TEXT
  5
3AE
100
AcDbEntity
  8
dzailki
370
25
100
AcDbText
 39
0.25
 10
8394068.9450000003
 20
5709926.46499999985
 40
1.25
  1
14-907
 50
0.00
 41
0.66
  7
STANDARD
 72
1
 11
8394070.8200000003
 21
5709927.08999999985
100
AcDbText
 73
2
  0
TEXT
  5
3AF
100
AcDbEntity
  8
dzailki
370
25
100
AcDbText
 39
0.25
 10
8394878.79499999993
 20
5709690.52500000037
 40
1.25
  1
14-938
 50
0.00
 41
0.66
  7
STANDARD
 72
1
 11
8394880.66999999993
 21
5709691.15000000037
100
AcDbText
 73
2
  0
TEXT
  5
3B0
100
AcDbEntity
  8
dzailki
370
25
100
AcDbText
 39
0.25
 10
8393992.60249999911
 20
5709964.65500000026
 40
1.25
  1
14-1053
 50
0.00
 41
0.66
  7
STANDARD
 72
1
 11
8393994.78999999911
 21
5709965.28000000026
100
AcDbText
 73
2
  0
TEXT
  5
3B1
100
AcDbEntity
  8
dzailki
370
25
100
AcDbText
 39
0.25
 10
8394412.9450000003
 20
5709804.96499999985
 40
1.25
  1
14-909
 50
0.00
 41
0.66
  7
STANDARD
 72
1
 11
8394414.8200000003
 21
5709805.58999999985
100
AcDbText
 73
2
  0
TEXT
  5
3B2
100
AcDbEntity
  8
dzailki
370
25
100
AcDbText
 39
0.25
 10
8394955.5150000006
 20
5709657.61500000022
 40
1.25
  1
14-939
 50
0.00
 41
0.66
  7
STANDARD
 72
1
 11
8394957.3900000006
 21
5709658.24000000022
100
AcDbText
 73
2
  0
TEXT
  5
3B3
100
AcDbEntity
  8
dzailki
370
25
100
AcDbText
 39
0.25
 10
8394427.02500000037
 20
5709850.58499999996
 40
1.25
  1
14-904
 50
0.00
 41
0.66
  7
STANDARD
 72
1
 11
8394428.90000000037
 21
5709851.20999999996
100
AcDbText
 73
2
  0
TEXT
  5
3B4
100
AcDbEntity
  8
dzailki
370
25
100
AcDbText
 39
0.25
 10
8393990.21250000037
 20
5709987.35500000045
 40
1.25
  1
14-1052
 50
0.00
 41
0.66
  7
STANDARD
 72
1
 11
8393992.40000000037
 21
5709987.98000000045
100
AcDbText
 73
2
  0
TEXT
  5
3B5
100
AcDbEntity
  8
dzailki
370
25
100
AcDbText
 39
0.25
 10
8393993.96499999985
 20
5710062.81500000041
 40
1.25
  1
14-851
 50
0.00
 41
0.66
  7
STANDARD
 72
1
 11
8393995.83999999985
 21
5710063.44000000041
100
AcDbText
 73
2
  0
TEXT
  5
3B6
100
AcDbEntity
  8
dzailki
370
25
100
AcDbText
 39
0.25
 10
8394742.92500000074
 20
5709801.26499999966
 40
1.25
  1
14-918
 50
0.00
 41
0.66
  7
STANDARD
 72
1
 11
8394744.80000000074
 21
5709801.88999999966
100
AcDbText
 73
2
  0
TEXT
  5
3B7
100
AcDbEntity
  8
dzailki
370
25
100
AcDbText
 39
0.25
 10
8395011.65249999985
 20
5709769.56500000041
 40
1.25
  1
14-1057
 50
0.00
 41
0.66
  7
STANDARD
 72
1
 11
8395013.83999999985
 21
5709770.19000000041
100
AcDbText
 73
2
  0
TEXT
  5
3B8
100
AcDbEntity
  8
dzailki
370
25
100
AcDbText
 39
0.25
 10
8394325.6950000003
 20
5709864.36500000022
 40
1.25
  1
14-906
 50
0.00
 41
0.66
  7
STANDARD
 72
1
 11
8394327.5700000003
 21
5709864.99000000022
100
AcDbText
 73
2
  0
TEXT
  5
3B9
100
AcDbEntity
  8
dzailki
370
25
100
AcDbText
 39
0.25
 10
8394833.41499999911
 20
5709716.39499999955
 40
1.25
  1
14-937
 50
0.00
 41
0.66
  7
STANDARD
 72
1
 11
8394835.28999999911
 21
5709717.01999999955
100
AcDbText
 73
2
  0
TEXT
  5
3BA
100
AcDbEntity
  8
dzailki
370
25
100
AcDbText
 39
0.25
 10
8394382.02500000037
 20
5709870.48500000034
 40
1.25
  1
14-903
 50
0.00
 41
0.66
  7
STANDARD
 72
1
 11
8394383.90000000037
 21
5709871.11000000034
100
AcDbText
 73
2
  0
TEXT
  5
3BB
100
AcDbEntity
  8
dzailki
370
25
100
AcDbText
 39
0.25
 10
8394022.78500000015
 20
5709923.07500000019
 40
1.25
  1
14-908
 50
0.00
 41
0.66
  7
STANDARD
 72
1
 11
8394024.66000000015
 21
5709923.70000000019
100
AcDbText
 73
2
  0
TEXT
  5
3BC
100
AcDbEntity
  8
dzailki
370
25
100
AcDbText
 39
0.25
 10
8395202.6950000003
 20
5709394.86500000022
 40
1.25
  1
18-534
 50
0.00
 41
0.66
  7
STANDARD
 72
1
 11
8395204.5700000003
 21
5709395.49000000022
100
AcDbText
 73
2
  0
ENDSEC
  0
SECTION
  2
OBJECTS
  0
DICTIONARY
  5
3BD
330
0
100
AcDbDictionary
280
0
281
1
  3
ACAD_GROUP
350
3BE
  3
ACAD_LAYOUT
350
3BF
  3
ACAD_MLINESTYLE
350
3C0
  3
ACAD_PLOTSETTINGS
350
3C1
  3
ACAD_PLOTSTYLENAME
350
3C2
  0
DICTIONARY
  5
3BE
102
{ACAD_REACTORS
330
3BD
102
}
330
3BD
100
AcDbDictionary
280
0
281
1
  0
DICTIONARY
  5
3BF
102
{ACAD_REACTORS
330
3BD
102
}
330
3BD
100
AcDbDictionary
280
0
281
1
  3
Layout
350
1A
  3
Model
350
18
  0
DICTIONARY
  5
3C0
102
{ACAD_REACTORS
330
3BD
102
}
330
3BD
100
AcDbDictionary
280
0
281
1
  3
Standard
350
3C3
  3
L_0_02
350
7
  0
DICTIONARY
  5
3C1
102
{ACAD_REACTORS
330
3BD
102
}
330
3BD
100
AcDbDictionary
280
0
281
1
  0
ACDBDICTIONARYWDFLT
  5
3C2
102
{ACAD_REACTORS
330
3BD
102
}
330
3BD
100
AcDbDictionary
281
1
  3
Normal
350
B
100
AcDbDictionaryWithDefault
340
B
  0
LAYOUT
  5
1A
100
AcDbPlotSettings
  1

  2

  4

  6

 40
0.0
 41
0.0
 42
0.0
 43
0.0
 44
0.0
 45
0.0
 46
0.0
 47
0.0
 48
0.0
 49
0.0
140
0.0
141
0.0
142
1.0
143
1.0
 70
688
 72
1
 73
0
 74
5
  7

 75
0
147
1.0
148
0.0
149
0.0
100
AcDbLayout
  1
Layout
 70
1
 71
1
 10
0.0
 20
0.0
 11
420.0
 21
297.0
 12
0.0
 22
0.0
 32
0.0
 14
100000000000000000000.0
 24
100000000000000000000.0
 34
100000000000000000000.0
 15
-100000000000000000000.0
 25
-100000000000000000000.0
 35
-100000000000000000000.0
146
0.0
 13
0.0
 23
0.0
 33
0.0
 16
1.0
 26
0.0
 36
0.0
 17
0.0
 27
1.0
 37
0.0
 76
0
330
19
  0
LAYOUT
  5
18
100
AcDbPlotSettings
  1

  2

  4

  6

 40
0.0
 41
0.0
 42
0.0
 43
0.0
 44
0.0
 45
0.0
 46
0.0
 47
0.0
 48
0.0
 49
0.0
140
0.0
141
0.0
142
1.0
143
1.0
 70
1712
 72
1
 73
0
 74
0
  7

 75
0
147
1.0
148
0.0
149
0.0
100
AcDbLayout
  1
Model
 70
1
 71
0
 10
0.0
 20
0.0
 11
12.0
 21
9.0
 12
0.0
 22
0.0
 32
0.0
 14
0.0
 24
0.0
 34
0.0
 15
0.0
 25
0.0
 35
0.0
146
0.0
 13
0.0
 23
0.0
 33
0.0
 16
1.0
 26
0.0
 36
0.0
 17
0.0
 27
1.0
 37
0.0
 76
0
330
17
  0
MLINESTYLE
  5
3C3
102
{ACAD_REACTORS
330
3C0
102
}
330
3C0
100
AcDbMlineStyle
  2
Standard
 70
0
  3

 62
256
 51
90.0
 52
90.0
  2
Standard
 71
2
 49
0.5
 62
256
  6
ByLayer
 49
-0.5
 62
256
  6
ByLayer
  0
MLINESTYLE
  5
7
100
AcDbMlineStyle
  2
L_0_02
 70
0
  3

 51
90.0
 52
90.0
 71
1
 49
0.0
 62
256
  6
CONTINUOUS
  0
ACDBPLACEHOLDER
  5
B
  0
ENDSEC
  0
EOF
