  0
SECTION
  2
HEADER
  9
$ACADVER
  1
AC1027
  9
$ACADMAINTVER
 70
     8
  9
$DWGCODEPAGE
  3
ANSI_1250
  9
$REQUIREDVERSIONS
160
                 0
  9
$INSBASE
 10
0.0
 20
0.0
 30
0.0
  9
$EXTMIN
 10
7560395.99
 20
5720487.5
 30
0.0
  9
$EXTMAX
 10
7561931.36
 20
5721595.4
 30
0.0
  9
$LIMMIN
 10
7560395.99
 20
5720500.450000001
  9
$LIMMAX
 10
7561931.36
 20
5721595.4
  9
$ORTHOMODE
 70
     0
  9
$REGENMODE
 70
     1
  9
$FILLMODE
 70
     1
  9
$QTEXTMODE
 70
     0
  9
$MIRRTEXT
 70
     0
  9
$LTSCALE
 40
1.0
  9
$ATTMODE
 70
     1
  9
$TEXTSIZE
 40
0.2
  9
$TRACEWID
 40
0.05
  9
$TEXTSTYLE
  7
STANDARD
  9
$CLAYER
  8
0
  9
$CELTYPE
  6
CONTINUOUS
  9
$CECOLOR
 62
   256
  9
$CELTSCALE
 40
1.0
  9
$DISPSILH
 70
     0
  9
$DIMSCALE
 40
1.0
  9
$DIMASZ
 40
2.5
  9
$DIMEXO
 40
0.625
  9
$DIMDLI
 40
0.38
  9
$DIMRND
 40
0.0
  9
$DIMDLE
 40
0.0
  9
$DIMEXE
 40
1.25
  9
$DIMTP
 40
0.0
  9
$DIMTM
 40
0.0
  9
$DIMTXT
 40
2.5
  9
$DIMCEN
 40
0.09
  9
$DIMTSZ
 40
0.0
  9
$DIMTOL
 70
     0
  9
$DIMLIM
 70
     0
  9
$DIMTIH
 70
     1
  9
$DIMTOH
 70
     1
  9
$DIMSE1
 70
     0
  9
$DIMSE2
 70
     0
  9
$DIMTAD
 70
     0
  9
$DIMZIN
 70
     0
  9
$DIMBLK
  1

  9
$DIMASO
 70
     1
  9
$DIMSHO
 70
     1
  9
$DIMPOST
  1

  9
$DIMAPOST
  1

  9
$DIMALT
 70
     0
  9
$DIMALTD
 70
     2
  9
$DIMALTF
 40
25.4
  9
$DIMLFAC
 40
1.0
  9
$DIMTOFL
 70
     0
  9
$DIMTVP
 40
0.0
  9
$DIMTIX
 70
     0
  9
$DIMSOXD
 70
     0
  9
$DIMSAH
 70
     0
  9
$DIMBLK1
  1

  9
$DIMBLK2
  1

  9
$DIMSTYLE
  2
Standard
  9
$DIMCLRD
 70
     0
  9
$DIMCLRE
 70
     0
  9
$DIMCLRT
 70
     0
  9
$DIMTFAC
 40
1.0
  9
$DIMGAP
 40
0.625
  9
$DIMJUST
 70
     0
  9
$DIMSD1
 70
     0
  9
$DIMSD2
 70
     0
  9
$DIMTOLJ
 70
     1
  9
$DIMTZIN
 70
     0
  9
$DIMALTZ
 70
     0
  9
$DIMALTTZ
 70
     0
  9
$DIMUPT
 70
     0
  9
$DIMDEC
 70
     4
  9
$DIMTDEC
 70
     4
  9
$DIMALTU
 70
     2
  9
$DIMALTTD
 70
     2
  9
$DIMTXSTY
  7
STANDARD
  9
$DIMAUNIT
 70
     0
  9
$DIMADEC
 70
     0
  9
$DIMALTRND
 40
0.0
  9
$DIMAZIN
 70
     0
  9
$DIMDSEP
 70
    46
  9
$DIMATFIT
 70
     3
  9
$DIMFRAC
 70
     0
  9
$DIMLDRBLK
  1

  9
$DIMLUNIT
 70
     2
  9
$DIMLWD
 70
    -2
  9
$DIMLWE
 70
    -2
  9
$DIMTMOVE
 70
     0
  9
$DIMFXL
 40
1.0
  9
$DIMFXLON
 70
     0
  9
$DIMJOGANG
 40
0.7853981633974483
  9
$DIMTFILL
 70
     0
  9
$DIMTFILLCLR
 70
     0
  9
$DIMARCSYM
 70
     0
  9
$DIMLTYPE
  6

  9
$DIMLTEX1
  6

  9
$DIMLTEX2
  6

  9
$DIMTXTDIRECTION
 70
     0
  9
$LUNITS
 70
     2
  9
$LUPREC
 70
     4
  9
$SKETCHINC
 40
0.1
  9
$FILLETRAD
 40
0.0
  9
$AUNITS
 70
     0
  9
$AUPREC
 70
     0
  9
$MENU
  1

  9
$ELEVATION
 40
0.0
  9
$PELEVATION
 40
0.0
  9
$THICKNESS
 40
0.0
  9
$LIMCHECK
 70
     0
  9
$CHAMFERA
 40
0.0
  9
$CHAMFERB
 40
0.0
  9
$CHAMFERC
 40
0.0
  9
$CHAMFERD
 40
0.0
  9
$SKPOLY
 70
     0
  9
$TDCREATE
 40
2305814.324458160
  9
$TDUCREATE
 40
44992.282791493
  9
$TDUPDATE
 40
2460011.327959236
  9
$TDUUPDATE
 40
2460011.286292569
  9
$TDINDWG
 40
0.001863773
  9
$TDUSRTIMER
 40
0.001863414
  9
$USRTIMER
 70
     1
  9
$ANGBASE
 50
0.0
  9
$ANGDIR
 70
     0
  9
$PDMODE
 70
     0
  9
$PDSIZE
 40
0.0
  9
$PLINEWID
 40
0.0
  9
$SPLFRAME
 70
     0
  9
$SPLINETYPE
 70
     6
  9
$SPLINESEGS
 70
     8
  9
$HANDSEED
  5
100018D
  9
$SURFTAB1
 70
     6
  9
$SURFTAB2
 70
     6
  9
$SURFTYPE
 70
     6
  9
$SURFU
 70
     6
  9
$SURFV
 70
     6
  9
$UCSBASE
  2

  9
$UCSNAME
  2

  9
$UCSORG
 10
0.0
 20
0.0
 30
0.0
  9
$UCSXDIR
 10
1.0
 20
0.0
 30
0.0
  9
$UCSYDIR
 10
0.0
 20
1.0
 30
0.0
  9
$UCSORTHOREF
  2

  9
$UCSORTHOVIEW
 70
     0
  9
$UCSORGTOP
 10
0.0
 20
0.0
 30
0.0
  9
$UCSORGBOTTOM
 10
0.0
 20
0.0
 30
0.0
  9
$UCSORGLEFT
 10
0.0
 20
0.0
 30
0.0
  9
$UCSORGRIGHT
 10
0.0
 20
0.0
 30
0.0
  9
$UCSORGFRONT
 10
0.0
 20
0.0
 30
0.0
  9
$UCSORGBACK
 10
0.0
 20
0.0
 30
0.0
  9
$PUCSBASE
  2

  9
$PUCSNAME
  2

  9
$PUCSORG
 10
0.0
 20
0.0
 30
0.0
  9
$PUCSXDIR
 10
1.0
 20
0.0
 30
0.0
  9
$PUCSYDIR
 10
0.0
 20
1.0
 30
0.0
  9
$PUCSORTHOREF
  2

  9
$PUCSORTHOVIEW
 70
     0
  9
$PUCSORGTOP
 10
0.0
 20
0.0
 30
0.0
  9
$PUCSORGBOTTOM
 10
0.0
 20
0.0
 30
0.0
  9
$PUCSORGLEFT
 10
0.0
 20
0.0
 30
0.0
  9
$PUCSORGRIGHT
 10
0.0
 20
0.0
 30
0.0
  9
$PUCSORGFRONT
 10
0.0
 20
0.0
 30
0.0
  9
$PUCSORGBACK
 10
0.0
 20
0.0
 30
0.0
  9
$USERI1
 70
     0
  9
$USERI2
 70
     0
  9
$USERI3
 70
     0
  9
$USERI4
 70
     0
  9
$USERI5
 70
     0
  9
$USERR1
 40
0.0
  9
$USERR2
 40
0.0
  9
$USERR3
 40
0.0
  9
$USERR4
 40
0.0
  9
$USERR5
 40
0.0
  9
$WORLDVIEW
 70
     1
  9
$SHADEDGE
 70
     3
  9
$SHADEDIF
 70
    70
  9
$TILEMODE
 70
     1
  9
$MAXACTVP
 70
    64
  9
$PINSBASE
 10
0.0
 20
0.0
 30
0.0
  9
$PLIMCHECK
 70
     0
  9
$PEXTMIN
 10
1.000000000000000E+20
 20
1.000000000000000E+20
 30
1.000000000000000E+20
  9
$PEXTMAX
 10
-1.000000000000000E+20
 20
-1.000000000000000E+20
 30
-1.000000000000000E+20
  9
$PLIMMIN
 10
0.0
 20
0.0
  9
$PLIMMAX
 10
210.0
 20
297.0
  9
$UNITMODE
 70
     0
  9
$VISRETAIN
 70
     1
  9
$PLINEGEN
 70
     0
  9
$PSLTSCALE
 70
     1
  9
$TREEDEPTH
 70
  3020
  9
$CMLSTYLE
  2
Standard
  9
$CMLJUST
 70
     0
  9
$CMLSCALE
 40
1.0
  9
$PROXYGRAPHICS
 70
     1
  9
$MEASUREMENT
 70
     0
  9
$CELWEIGHT
370
    -1
  9
$ENDCAPS
280
     0
  9
$JOINSTYLE
280
     0
  9
$LWDISPLAY
290
     1
  9
$INSUNITS
 70
     6
  9
$HYPERLINKBASE
  1

  9
$STYLESHEET
  1

  9
$XEDIT
290
     0
  9
$CEPSNTYPE
380
     0
  9
$PSTYLEMODE
290
     1
  9
$FINGERPRINTGUID
  2
{4C7E4DDB-1A0E-4DCE-BD79-CB9CEB496CD2}
  9
$VERSIONGUID
  2
{7215CBA2-04C9-46E7-8FEB-45A24EFF5250}
  9
$EXTNAMES
290
     1
  9
$PSVPSCALE
 40
0.0
  9
$OLESTARTUP
290
     0
  9
$SORTENTS
280
   127
  9
$INDEXCTL
280
     0
  9
$HIDETEXT
280
     1
  9
$XCLIPFRAME
280
     2
  9
$HALOGAP
280
     0
  9
$OBSCOLOR
 70
   257
  9
$OBSLTYPE
280
     0
  9
$INTERSECTIONDISPLAY
280
     0
  9
$INTERSECTIONCOLOR
 70
   257
  9
$DIMASSOC
280
     2
  9
$PROJECTNAME
  1

  9
$CAMERADISPLAY
290
     0
  9
$LENSLENGTH
 40
50.0
  9
$CAMERAHEIGHT
 40
0.0
  9
$STEPSPERSEC
 40
2.0
  9
$STEPSIZE
 40
6.0
  9
$3DDWFPREC
 40
2.0
  9
$PSOLWIDTH
 40
0.25
  9
$PSOLHEIGHT
 40
4.0
  9
$LOFTANG1
 40
1.570796326794896
  9
$LOFTANG2
 40
1.570796326794896
  9
$LOFTMAG1
 40
0.0
  9
$LOFTMAG2
 40
0.0
  9
$LOFTPARAM
 70
     7
  9
$LOFTNORMALS
280
     1
  9
$LATITUDE
 40
0.0
  9
$LONGITUDE
 40
0.0
  9
$NORTHDIRECTION
 40
0.0
  9
$TIMEZONE
 70
 -8000
  9
$LIGHTGLYPHDISPLAY
280
     1
  9
$TILEMODELIGHTSYNCH
280
     1
  9
$CMATERIAL
347
1000000
  9
$SOLIDHIST
280
     1
  9
$SHOWHIST
280
     1
  9
$DWFFRAME
280
     2
  9
$DGNFRAME
280
     0
  9
$REALWORLDSCALE
290
     1
  9
$INTERFERECOLOR
 62
     1
  9
$CSHADOW
280
     0
  9
$SHADOWPLANELOCATION
 40
0.0
  0
ENDSEC
  0
SECTION
  2
CLASSES
  0
CLASS
  1
ACDBDICTIONARYWDFLT
  2
AcDbDictionaryWithDefault
  3
ObjectDBX Classes
 90
    32768
 91
        1
280
     0
281
     0
  0
CLASS
  1
MATERIAL
  2
AcDbMaterial
  3
ObjectDBX Classes
 90
        0
 91
        3
280
     0
281
     0
  0
CLASS
  1
VISUALSTYLE
  2
AcDbVisualStyle
  3
ObjectDBX Classes
 90
     4095
 91
       24
280
     0
281
     0
  0
CLASS
  1
TABLESTYLE
  2
AcDbTableStyle
  3
ObjectDBX Classes
 90
     2047
 91
        1
280
     0
281
     0
  0
CLASS
  1
MLEADERSTYLE
  2
AcDbMLeaderStyle
  3
ACDB_MLEADERSTYLE_CLASS
 90
     4095
 91
        1
280
     0
281
     0
  0
CLASS
  1
SCALE
  2
AcDbScale
  3
ObjectDBX Classes
 90
     1153
 91
       17
280
     0
281
     0
  0
CLASS
  1
SORTENTSTABLE
  2
AcDbSortentsTable
  3
ObjectDBX Classes
 90
        0
 91
        1
280
     0
281
     0
  0
CLASS
  1
DICTIONARYVAR
  2
AcDbDictionaryVar
  3
ObjectDBX Classes
 90
        0
 91
        4
280
     0
281
     0
  0
ENDSEC
  0
SECTION
  2
TABLES
  0
TABLE
  2
VPORT
  5
1
330
0
100
AcDbSymbolTable
 70
     1
  0
VPORT
  5
2
330
1
100
AcDbSymbolTableRecord
100
AcDbViewportTableRecord
  2
*ACTIVE
 70
     0
 10
0.0
 20
0.0
 11
1.0
 21
1.0
 12
7560904.762613191
 22
5721180.890349472
 13
0.0
 23
0.0
 14
1.0
 24
1.0
 15
0.0
 25
0.0
 16
0.0
 26
0.0
 36
1.0
 17
0.0
 27
0.0
 37
0.0
 40
684.3437500000012
 41
2.370212765957446
 42
50.0
 43
0.0
 44
0.0
 50
0.0
 51
0.0
 71
     0
 72
   100
 73
     1
 74
     1
 75
     0
 76
     0
 77
     0
 78
     0
281
     0
 65
     1
110
0.0
120
0.0
130
0.0
111
1.0
121
0.0
131
0.0
112
0.0
122
1.0
132
0.0
 79
     0
146
0.0
348
1000008
 60
     3
 61
     5
292
     1
282
     1
141
0.0
142
0.0
 63
   256
  0
ENDTAB
  0
TABLE
  2
LTYPE
  5
3
330
0
100
AcDbSymbolTable
 70
    11
  0
LTYPE
  5
4
330
3
100
AcDbSymbolTableRecord
100
AcDbLinetypeTableRecord
  2
ByBlock
 70
     0
  3

 72
    65
 73
     0
 40
0.0
  0
LTYPE
  5
5
330
3
100
AcDbSymbolTableRecord
100
AcDbLinetypeTableRecord
  2
ByLayer
 70
     0
  3

 72
    65
 73
     0
 40
0.0
  0
LTYPE
  5
6
330
3
100
AcDbSymbolTableRecord
100
AcDbLinetypeTableRecord
  2
CONTINUOUS
 70
     0
  3
Solid line
 72
    65
 73
     0
 40
0.0
  0
LTYPE
  5
8
330
3
100
AcDbSymbolTableRecord
100
AcDbLinetypeTableRecord
  2
L_0_02
 70
     0
  3
Dzialka_ewidencyjna (MLineStyle)
 72
    65
 73
     0
 40
0.0
  0
LTYPE
  5
9
330
3
100
AcDbSymbolTableRecord
100
AcDbLinetypeTableRecord
  2
L_0_03
 70
     0
  3
Uzytek_gruntowy
 72
    65
 73
     2
 40
5.0
 49
2.5
 74
     0
 49
-2.5
 74
     0
  0
LTYPE
  5
A
330
3
100
AcDbSymbolTableRecord
100
AcDbLinetypeTableRecord
  2
L_0_04
 70
     0
  3
Budynek_projektowany
 72
    65
 73
     2
 40
7.5
 49
5.0
 74
     0
 49
-2.5
 74
     0
  0
LTYPE
  5
B
330
3
100
AcDbSymbolTableRecord
100
AcDbLinetypeTableRecord
  2
L_0_06
 70
     0
  3
Granica_konturu_klasyfikacyjnego_Krawedz_chodnika
 72
    65
 73
     2
 40
10.0
 49
7.5
 74
     0
 49
-2.5
 74
     0
  0
LTYPE
  5
C
330
3
100
AcDbSymbolTableRecord
100
AcDbLinetypeTableRecord
  2
L_0_15_SHX
 70
     0
  3
Ogrodzenie_trwale
 72
    65
 73
    12
 40
37.5
 49
0.0
 74
     0
 49
-1.875
 74
     0
 49
-3.75
 74
     0
 49
-3.75
 74
     0
 49
-3.75
 74
     0
 49
-3.75
 74
     0
 49
-3.75
 74
     4
 75
     1
340
D
 46
0.25
 50
0.0
 44
0.0
 45
0.0
 49
-3.75
 74
     0
 49
-3.75
 74
     0
 49
-3.75
 74
     0
 49
-3.75
 74
     0
 49
-1.875
 74
     0
  0
LTYPE
  5
F
330
3
100
AcDbSymbolTableRecord
100
AcDbLinetypeTableRecord
  2
L_0_15
 70
     0
  3
Ogrodzenie_trwale (MLineStyle)
 72
    65
 73
     0
 40
0.0
  0
LTYPE
  5
10
330
3
100
AcDbSymbolTableRecord
100
AcDbLinetypeTableRecord
  2
L_0_44
 70
     0
  3
Uzytek_gruntowy_1_1000__1_2000
 72
    65
 73
     2
 40
3.5
 49
1.75
 74
     0
 49
-1.75
 74
     0
  0
LTYPE
  5
11
330
3
100
AcDbSymbolTableRecord
100
AcDbLinetypeTableRecord
  2
L_0_51
 70
     0
  3
L_0_51
 72
    65
 73
     2
 40
7.0
 49
5.25
 74
     0
 49
-1.75
 74
     0
  0
LTYPE
  5
13
330
3
100
AcDbSymbolTableRecord
100
AcDbLinetypeTableRecord
  2
L_0_E4_00
 70
     0
  3
Budynek_w_budowie_dla_MZ2015_1_2000___1_5000
 72
    65
 73
     3
 40
6.25
 49
0.0
 74
     0
 49
3.75
 74
     0
 49
-2.5
 74
     0
  0
LTYPE
  5
14
330
3
100
AcDbSymbolTableRecord
100
AcDbLinetypeTableRecord
  2
L_0_E4
 70
     0
  3
Budynek_w_budowie_dla_MZ2015_1_2000___1_5000 (MLineStyle)
 72
    65
 73
     0
 40
0.0
  0
ENDTAB
  0
TABLE
  2
LAYER
  5
15
330
0
100
AcDbSymbolTable
 70
     6
  0
LAYER
  5
16
330
15
100
AcDbSymbolTableRecord
100
AcDbLayerTableRecord
  2
0
 70
     0
 62
    18
420
        0
  6
CONTINUOUS
370
    18
390
17
347
1000002
348
0
  0
LAYER
  5
18
330
15
100
AcDbSymbolTableRecord
100
AcDbLayerTableRecord
  2
czolowki
 70
     0
 62
    18
420
        0
  6
CONTINUOUS
370
    18
390
17
347
1000002
348
0
  0
LAYER
  5
19
330
15
100
AcDbSymbolTableRecord
100
AcDbLayerTableRecord
  2
DZIALKA_936
 70
     0
 62
    18
420
        0
  6
CONTINUOUS
370
    18
390
17
347
1000002
348
0
  0
LAYER
  5
1A
330
15
100
AcDbSymbolTableRecord
100
AcDbLayerTableRecord
  2
dzialki_ewns
 70
     0
 62
    18
420
        0
  6
CONTINUOUS
370
    18
390
17
347
1000002
348
0
  0
LAYER
  5
1B
330
15
100
AcDbSymbolTableRecord
100
AcDbLayerTableRecord
  2
wlasciciele
 70
     0
 62
   176
420
      139
  6
CONTINUOUS
370
    18
390
17
347
1000002
348
0
  0
LAYER
  5
1C
330
15
100
AcDbSymbolTableRecord
100
AcDbLayerTableRecord
  2
siatka
 70
     0
 62
   -18
420
        0
  6
CONTINUOUS
370
    18
390
17
347
1000002
348
0
  0
ENDTAB
  0
TABLE
  2
STYLE
  5
1D
330
0
100
AcDbSymbolTable
 70
     4
  0
STYLE
  5
1E
330
1D
100
AcDbSymbolTableRecord
100
AcDbTextStyleTableRecord
  2
STANDARD
 70
     0
 40
0.0
 41
1.0
 50
0.0
 71
     0
 42
0.2
  3
simplex.shx
  4

  0
STYLE
  5
1F
330
1D
100
AcDbSymbolTableRecord
100
AcDbTextStyleTableRecord
  2
STANDARD_ITALIC
 70
     0
 40
0.0
 41
1.0
 50
15.0
 71
     0
 42
0.2
  3
simplex.shx
  4

  0
STYLE
  5
D
330
1D
100
AcDbSymbolTableRecord
100
AcDbTextStyleTableRecord
  2

 70
     1
 40
0.0
 41
0.25
 50
0.0
 71
     0
 42
0.2
  3
SWATY-936-granice.shx
  4

  0
STYLE
  5
20
330
1D
100
AcDbSymbolTableRecord
100
AcDbTextStyleTableRecord
  2
Arial
 70
     0
 40
0.0
 41
1.0
 50
0.0
 71
     0
 42
0.2
  3
Arial.ttf
  4

  0
ENDTAB
  0
TABLE
  2
VIEW
  5
21
330
0
100
AcDbSymbolTable
 70
     0
  0
ENDTAB
  0
TABLE
  2
UCS
  5
22
330
0
100
AcDbSymbolTable
 70
     0
  0
ENDTAB
  0
TABLE
  2
APPID
  5
23
330
0
100
AcDbSymbolTable
 70
     1
  0
APPID
  5
24
330
23
100
AcDbSymbolTableRecord
100
AcDbRegAppTableRecord
  2
ACAD
 70
     0
  0
ENDTAB
  0
TABLE
  2
DIMSTYLE
  5
25
330
0
100
AcDbSymbolTable
 70
     1
100
AcDbDimStyleTable
 71
     0
  0
DIMSTYLE
105
26
330
25
100
AcDbSymbolTableRecord
100
AcDbDimStyleTableRecord
  2
Standard
 70
     0
340
1E
  0
ENDTAB
  0
TABLE
  2
BLOCK_RECORD
  5
27
330
0
100
AcDbSymbolTable
 70
     3
  0
BLOCK_RECORD
  5
28
102
{ACAD_XDICTIONARY
360
1000034
102
}
330
27
100
AcDbSymbolTableRecord
100
AcDbBlockTableRecord
  2
*MODEL_SPACE
340
29
 70
     0
280
     1
281
     0
  0
BLOCK_RECORD
  5
2A
330
27
100
AcDbSymbolTableRecord
100
AcDbBlockTableRecord
  2
*PAPER_SPACE
340
2B
 70
     0
280
     1
281
     0
  0
BLOCK_RECORD
  5
2C
330
27
100
AcDbSymbolTableRecord
100
AcDbBlockTableRecord
  2
pikieta
340
0
 70
     0
280
     1
281
     0
  0
BLOCK_RECORD
  5
2E
330
27
100
AcDbSymbolTableRecord
100
AcDbBlockTableRecord
  2
L_0_02_1
340
0
 70
     0
280
     1
281
     0
  0
BLOCK_RECORD
  5
30
330
27
100
AcDbSymbolTableRecord
100
AcDbBlockTableRecord
  2
L_0_02_2
340
0
 70
     0
280
     1
281
     0
  0
ENDTAB
  0
ENDSEC
  0
SECTION
  2
BLOCKS
  0
BLOCK
  5
32
330
28
100
AcDbEntity
  8
0
100
AcDbBlockBegin
  2
*MODEL_SPACE
 70
     0
 10
0.0
 20
0.0
 30
0.0
  3
*MODEL_SPACE
  1

  0
ENDBLK
  5
33
330
28
100
AcDbEntity
  8
0
100
AcDbBlockEnd
  0
BLOCK
  5
34
330
2A
100
AcDbEntity
 67
     1
  8
0
100
AcDbBlockBegin
  2
*PAPER_SPACE
 70
     0
 10
0.0
 20
0.0
 30
0.0
  3
*PAPER_SPACE
  1

  0
ENDBLK
  5
35
330
2A
100
AcDbEntity
 67
     1
  8
0
100
AcDbBlockEnd
  0
BLOCK
  5
2D
330
2C
100
AcDbEntity
  8
0
 62
     0
370
    13
100
AcDbBlockBegin
  2
pikieta
 70
     0
 10
0.0
 20
0.0
 30
0.0
  3
pikieta
  1

  0
POINT
  5
36
330
2C
100
AcDbEntity
  8
0
 62
     0
100
AcDbPoint
 10
0.0
 20
0.0
 30
0.0
  0
ENDBLK
  5
37
330
2C
100
AcDbEntity
  8
0
100
AcDbBlockEnd
  0
BLOCK
  5
2F
330
2E
100
AcDbEntity
  8
0
 62
     0
370
    13
100
AcDbBlockBegin
  2
L_0_02_1
 70
     0
 10
0.0
 20
0.0
 30
0.0
  3
L_0_02_1
  1

  0
POINT
  5
38
330
2E
100
AcDbEntity
  8
0
 62
     0
100
AcDbPoint
 10
0.0
 20
0.0
 30
0.0
  0
ENDBLK
  5
39
330
2E
100
AcDbEntity
  8
0
100
AcDbBlockEnd
  0
BLOCK
  5
31
330
30
100
AcDbEntity
  8
0
 62
     0
370
    13
100
AcDbBlockBegin
  2
L_0_02_2
 70
     0
 10
0.0
 20
0.0
 30
0.0
  3
L_0_02_2
  1

  0
POINT
  5
3A
330
30
100
AcDbEntity
  8
0
 62
     0
100
AcDbPoint
 10
0.0
 20
0.0
 30
0.0
  0
ENDBLK
  5
3B
330
30
100
AcDbEntity
  8
0
100
AcDbBlockEnd
  0
ENDSEC
  0
SECTION
  2
ENTITIES
  0
TEXT
  5
2B6
330
28
100
AcDbEntity
  8
czolowki
100
AcDbText
 10
7560884.720524601
 20
5721114.283360233
 30
0.0
 40
6.25
  1
-12.50-
 50
73.99999999999997
 41
0.7800000000000001
  7
Arial
 72
     1
 11
7560881.686539976
 21
5721126.377318921
 31
0.0
100
AcDbText
 73
     3
  0
TEXT
  5
2B7
330
28
100
AcDbEntity
  8
czolowki
100
AcDbText
 10
7560896.344775198
 20
5721153.880488116
 30
0.0
 40
6.25
  1
-70.30-
 50
72.99999999999998
 41
0.7800000000000001
  7
Arial
 72
     1
 11
7560893.522321346
 21
5721166.02555517
 31
0.0
100
AcDbText
 73
     3
  0
TEXT
  5
2B8
330
28
100
AcDbEntity
  8
czolowki
100
AcDbText
 10
7560909.868847887
 20
5721198.318275423
 30
0.0
 40
6.25
  1
-22.61-
 50
72.99999999999998
 41
0.7800000000000001
  7
Arial
 72
     1
 11
7560907.046394036
 21
5721210.463342477
 31
0.0
100
AcDbText
 73
     3
  0
TEXT
  5
2B9
330
28
100
AcDbEntity
  8
czolowki
100
AcDbText
 10
7560941.424306957
 20
5721196.451802248
 30
0.0
 40
6.25
  1
-105.61-
 50
333.0
 41
0.7800000000000001
  7
Arial
 72
     1
 11
7560955.562366308
 21
5721196.262640187
 31
0.0
100
AcDbText
 73
     3
  0
TEXT
  5
2BA
330
28
100
AcDbEntity
  8
czolowki
100
AcDbText
 10
7561095.423794435
 20
5721117.90037738
 30
0.0
 40
6.25
  1
-240.15-
 50
333.0
 41
0.7800000000000001
  7
Arial
 72
     1
 11
7561109.561853787
 21
5721117.711215319
 31
0.0
100
AcDbText
 73
     3
  0
TEXT
  5
2BB
330
28
100
AcDbEntity
  8
czolowki
100
AcDbText
 10
7561222.033998458
 20
5721053.679873778
 30
0.0
 40
6.25
  1
-39.99-
 50
333.0
 41
0.7800000000000001
  7
Arial
 72
     1
 11
7561234.484668621
 21
5721054.350479453
 31
0.0
100
AcDbText
 73
     3
  0
TEXT
  5
2BC
330
28
100
AcDbEntity
  8
czolowki
100
AcDbText
 10
7561232.711982279
 20
5720985.385602796
 30
0.0
 40
6.25
  1
-105.80-
 50
73.99999999999997
 41
0.7800000000000001
  7
Arial
 72
     1
 11
7561230.199999998
 21
5720999.299999999
 31
0.0
100
AcDbText
 73
     3
  0
TEXT
  5
2BD
330
28
100
AcDbEntity
  8
czolowki
100
AcDbText
 10
7561089.161940648
 20
5721016.489162059
 30
0.0
 40
6.25
  1
-280.29-
 50
333.0
 41
0.7800000000000001
  7
Arial
 72
     1
 11
7561103.3
 21
5721016.299999998
 31
0.0
100
AcDbText
 73
     3
  0
TEXT
  5
2BE
330
28
100
AcDbEntity
  8
czolowki
100
AcDbText
 10
7560915.461940648
 20
5721103.68916206
 30
0.0
 40
6.25
  1
-106.09-
 50
333.0
 41
0.7800000000000001
  7
Arial
 72
     1
 11
7560929.599999999
 21
5721103.499999999
 31
0.0
100
AcDbText
 73
     3
  0
TEXT
  5
2BF
330
28
100
AcDbEntity
  8
DZIALKA_936
100
AcDbText
 10
7561064.5
 20
5721075.466939517
 30
0.0
 40
6.25
  1
29-936
 41
0.7800000000000001
  7
Arial
 11
7561064.5
 21
5721073.616666664
 31
0.0
100
AcDbText
 73
     1
  0
TEXT
  5
2C0
330
28
100
AcDbEntity
  8
dzialki_ewns
100
AcDbText
 10
7561009.299999999
 20
5721010.266939516
 30
0.0
 40
6.25
  1
29-937
 41
0.7800000000000001
  7
Arial
 11
7561009.299999999
 21
5721008.416666665
 31
0.0
100
AcDbText
 73
     1
  0
TEXT
  5
2C1
330
28
100
AcDbEntity
  8
dzialki_ewns
100
AcDbText
 10
7561243.499999999
 20
5721000.066939516
 30
0.0
 40
6.25
  1
29-944
 41
0.7800000000000001
  7
Arial
 11
7561243.499999999
 21
5720998.216666665
 31
0.0
100
AcDbText
 73
     1
  0
TEXT
  5
2C2
330
28
100
AcDbEntity
  8
dzialki_ewns
100
AcDbText
 10
7561087.299999999
 20
5721141.866939516
 30
0.0
 40
6.25
  1
29-934/3
 41
0.7800000000000001
  7
Arial
 11
7561087.299999999
 21
5721140.016666664
 31
0.0
100
AcDbText
 73
     1
  0
TEXT
  5
2C3
330
28
100
AcDbEntity
  8
dzialki_ewns
100
AcDbText
 10
7561000.599999998
 20
5721188.366939515
 30
0.0
 40
6.25
  1
29-933
 41
0.7800000000000001
  7
Arial
 11
7561000.599999998
 21
5721186.516666665
 31
0.0
100
AcDbText
 73
     1
  0
TEXT
  5
2C4
330
28
100
AcDbEntity
  8
dzialki_ewns
100
AcDbText
 10
7560917.199999998
 20
5721235.666939516
 30
0.0
 40
6.25
  1
29-932/3
 41
0.7800000000000001
  7
Arial
 11
7560917.199999998
 21
5721233.816666664
 31
0.0
100
AcDbText
 73
     1
  0
TEXT
  5
2C5
330
28
100
AcDbEntity
  8
dzialki_ewns
100
AcDbText
 10
7560878.199999998
 20
5721234.266939516
 30
0.0
 40
6.25
  1
29-910
 41
0.7800000000000001
  7
Arial
 11
7560878.199999998
 21
5721232.416666665
 31
0.0
100
AcDbText
 73
     1
  0
TEXT
  5
2C6
330
28
100
AcDbEntity
  8
dzialki_ewns
100
AcDbText
 10
7560852.099999999
 20
5721174.666939515
 30
0.0
 40
6.25
  1
29-911
 41
0.7800000000000001
  7
Arial
 11
7560852.099999999
 21
5721172.816666665
 31
0.0
100
AcDbText
 73
     1
  0
TEXT
  5
2C7
330
28
100
AcDbEntity
  8
dzialki_ewns
100
AcDbText
 10
7560847.799999999
 20
5721119.866939516
 30
0.0
 40
6.25
  1
29-912/2
 41
0.7800000000000001
  7
Arial
 11
7560847.799999999
 21
5721118.016666664
 31
0.0
100
AcDbText
 73
     1
  0
TEXT
  5
2C8
330
28
100
AcDbEntity
  8
wlasciciele
100
AcDbText
 10
7560738.388110539
 20
5721141.2507364
 30
0.0
 40
6.25
  1
Danuta Michalina Kajzer - wł. 1/1
 50
351.9
 41
0.7800000000000001
  7
Arial
 11
7560738.127404814
 21
5721139.418922503
 31
0.0
100
AcDbText
 73
     1
  0
TEXT
  5
2C9
330
28
100
AcDbEntity
  8
wlasciciele
100
AcDbText
 10
7560737.067161491
 20
5721131.969264608
 30
0.0
 40
6.25
  1
LU1Y/00016694/7
 50
351.9
 41
0.7800000000000001
  7
Arial
 11
7560736.806455765
 21
5721130.137450712
 31
0.0
100
AcDbText
 73
     1
  0
TEXT
  5
2CA
330
28
100
AcDbEntity
  8
wlasciciele
100
AcDbText
 10
7561138.834085731
 20
5721127.049270712
 30
0.0
 40
6.25
  1
Marek Rodak - wł. 1/1
 50
331.7
 41
0.7800000000000001
  7
Arial
 11
7561137.95689319
 21
5721125.420147368
 31
0.0
100
AcDbText
 73
     1
  0
TEXT
  5
2CB
330
28
100
AcDbEntity
  8
wlasciciele
100
AcDbText
 10
7561134.389508771
 20
5721118.794795521
 30
0.0
 40
6.25
  1
LU1Y/00008775/0
 50
331.7
 41
0.7800000000000001
  7
Arial
 11
7561133.512316229
 21
5721117.165672178
 31
0.0
100
AcDbText
 73
     1
  0
TEXT
  5
2CC
330
28
100
AcDbEntity
  8
wlasciciele
100
AcDbText
 10
7561105.414454543
 20
5721073.526276178
 30
0.0
 40
6.25
  1
wł. małż. 1/1
 50
333.8
 41
0.7800000000000001
  7
Arial
 11
7561104.59754825
 21
5721071.866103376
 31
0.0
100
AcDbText
 73
     1
  0
TEXT
  5
2CD
330
28
100
AcDbEntity
  8
wlasciciele
100
AcDbText
 10
7561101.275337173
 20
5721065.114478963
 30
0.0
 40
6.25
  1
Leszek Tatarczak
 50
333.8
 41
0.7800000000000001
  7
Arial
 11
7561100.458430879
 21
5721063.454306159
 31
0.0
100
AcDbText
 73
     1
  0
TEXT
  5
2CE
330
28
100
AcDbEntity
  8
wlasciciele
100
AcDbText
 10
7561097.1362198
 20
5721056.702681746
 30
0.0
 40
6.25
  1
Beata Tatarczak
 50
333.8
 41
0.7800000000000001
  7
Arial
 11
7561096.319313508
 21
5721055.042508944
 31
0.0
100
AcDbText
 73
     1
  0
TEXT
  5
2CF
330
28
100
AcDbEntity
  8
wlasciciele
100
AcDbText
 10
7561092.99710243
 20
5721048.29088453
 30
0.0
 40
6.25
  1
LU1Y/00032850/7
 50
333.8
 41
0.7800000000000001
  7
Arial
 11
7561092.180196137
 21
5721046.630711728
 31
0.0
100
AcDbText
 73
     1
  0
TEXT
  5
2D0
330
28
100
AcDbEntity
  8
wlasciciele
100
AcDbText
 10
7561059.479064392
 20
5721008.54045251
 30
0.0
 40
6.25
  1
Mirosław Ćwiklak - wł. 6/20
 50
332.5
 41
0.7800000000000001
  7
Arial
 11
7561058.624703469
 21
5721006.899240446
 31
0.0
100
AcDbText
 73
     1
  0
TEXT
  5
2D1
330
28
100
AcDbEntity
  8
wlasciciele
100
AcDbText
 10
7561055.150171145
 20
5721000.224725949
 30
0.0
 40
6.25
  1
Sylwester Ćwiklak - wł. 7/20
 50
332.5
 41
0.7800000000000001
  7
Arial
 11
7561054.295810222
 21
5720998.583513885
 31
0.0
100
AcDbText
 73
     1
  0
TEXT
  5
2D2
330
28
100
AcDbEntity
  8
wlasciciele
100
AcDbText
 10
7561050.821277894
 20
5720991.908999387
 30
0.0
 40
6.25
  1
Bogdan Sadura - wł. 7/20
 50
332.5
 41
0.7800000000000001
  7
Arial
 11
7561049.966916971
 21
5720990.267787323
 31
0.0
100
AcDbText
 73
     1
  0
TEXT
  5
2D3
330
28
100
AcDbEntity
  8
wlasciciele
100
AcDbText
 10
7561046.492384647
 20
5720983.593272825
 30
0.0
 40
6.25
  1
AN 4704/95
 50
332.5
 41
0.7800000000000001
  7
Arial
 11
7561045.638023724
 21
5720981.95206076
 31
0.0
100
AcDbText
 73
     1
  0
TEXT
  5
2D4
330
28
100
AcDbEntity
  8
wlasciciele
100
AcDbText
 10
7561243.999999999
 20
5720987.916939516
 30
0.0
 40
6.25
  1
Gmina Ryki - wł. 1/1
 41
0.7800000000000001
  7
Arial
 11
7561243.999999999
 21
5720986.066666664
 31
0.0
100
AcDbText
 73
     1
  0
TEXT
  5
2D5
330
28
100
AcDbEntity
  8
wlasciciele
100
AcDbText
 10
7561243.999999999
 20
5720978.541939515
 30
0.0
 40
6.25
  1
Burmistrz Ryk - wyk. zad. zarz. dróg. pub. 1/1
 41
0.7800000000000001
  7
Arial
 11
7561243.999999999
 21
5720976.691666664
 31
0.0
100
AcDbText
 73
     1
  0
TEXT
  5
2D6
330
28
100
AcDbEntity
  8
wlasciciele
100
AcDbText
 10
7561243.999999999
 20
5720969.166939515
 30
0.0
 40
6.25
  1
LU1Y/00012018/7
 41
0.7800000000000001
  7
Arial
 11
7561243.999999999
 21
5720967.316666665
 31
0.0
100
AcDbText
 73
     1
  0
TEXT
  5
2D7
330
28
100
AcDbEntity
  8
wlasciciele
100
AcDbText
 10
7560799.530073649
 20
5721263.102610208
 30
0.0
 40
6.25
  1
Anita Pełka - wł. 1/1
 50
345.2
 41
0.7800000000000001
  7
Arial
 11
7560799.057429298
 21
5721261.313723141
 31
0.0
100
AcDbText
 73
     1
  0
TEXT
  5
2D8
330
28
100
AcDbEntity
  8
wlasciciele
100
AcDbText
 10
7560797.135269665
 20
5721254.038640941
 30
0.0
 40
6.25
  1
AN 127/01
 50
345.2
 41
0.7800000000000001
  7
Arial
 11
7560796.662625315
 21
5721252.249753873
 31
0.0
100
AcDbText
 73
     1
  0
TEXT
  5
2D9
330
28
100
AcDbEntity
  8
wlasciciele
100
AcDbText
 10
7560794.740465687
 20
5721244.974671673
 30
0.0
 40
6.25
  1
LU1Y/00078735/9
 50
345.2
 41
0.7800000000000001
  7
Arial
 11
7560794.267821336
 21
5721243.185784605
 31
0.0
100
AcDbText
 73
     1
  0
TEXT
  5
2DA
330
28
100
AcDbEntity
  8
wlasciciele
100
AcDbText
 10
7560779.772032544
 20
5721191.604029383
 30
0.0
 40
6.25
  1
Lidia Królik- wł. 1/1
 50
346.9
 41
0.7800000000000001
  7
Arial
 11
7560779.352665783
 21
5721189.801908093
 31
0.0
100
AcDbText
 73
     1
  0
TEXT
  5
2DB
330
28
100
AcDbEntity
  8
wlasciciele
100
AcDbText
 10
7560777.647176536
 20
5721182.473004691
 30
0.0
 40
6.25
  1
LU1Y/00012675/0
 50
346.9
 41
0.7800000000000001
  7
Arial
 11
7560777.227809775
 21
5721180.670883399
 31
0.0
100
AcDbText
 73
     1
  0
TEXT
  5
2DC
330
28
100
AcDbEntity
  8
wlasciciele
100
AcDbText
 10
7561031.499999999
 20
5721221.091939517
 30
0.0
 40
6.25
  1
Skarb Państwa - wł. 1/1
 41
0.7800000000000001
  7
Arial
 11
7561031.499999999
 21
5721219.241666665
 31
0.0
100
AcDbText
 73
     1
  0
TEXT
  5
2DD
330
28
100
AcDbEntity
  8
wlasciciele
100
AcDbText
 10
7561031.499999999
 20
5721211.716939516
 30
0.0
 40
6.25
  1
Państwowe Gospodarstwo Wodne Wody Polskie
 41
0.7800000000000001
  7
Arial
 11
7561031.499999999
 21
5721209.866666665
 31
0.0
100
AcDbText
 73
     1
  0
TEXT
  5
2DE
330
28
100
AcDbEntity
  8
wlasciciele
100
AcDbText
 10
7561031.499999999
 20
5721202.341939516
 30
0.0
 40
6.25
  1
Regionalny Zarząd Gospodarki Wodnej w Lublinie
 41
0.7800000000000001
  7
Arial
 11
7561031.499999999
 21
5721200.491666666
 31
0.0
100
AcDbText
 73
     1
  0
TEXT
  5
2DF
330
28
100
AcDbEntity
  8
wlasciciele
100
AcDbText
 10
7561031.499999999
 20
5721192.966939517
 30
0.0
 40
6.25
  1
- grunty pokr. wodami pow. 1/1
 41
0.7800000000000001
  7
Arial
 11
7561031.499999999
 21
5721191.116666665
 31
0.0
100
AcDbText
 73
     1
  0
TEXT
  5
2E0
330
28
100
AcDbEntity
  8
wlasciciele
100
AcDbText
 10
7560931.021277894
 20
5721225.808999387
 30
0.0
 40
6.25
  1
Marek Rodak - wł. 1/1
 50
332.5
 41
0.7800000000000001
  7
Arial
 11
7560930.166916969
 21
5721224.167787323
 31
0.0
100
AcDbText
 73
     1
  0
TEXT
  5
2E1
330
28
100
AcDbEntity
  8
wlasciciele
100
AcDbText
 10
7560926.692384644
 20
5721217.493272824
 30
0.0
 40
6.25
  1
LU1Y/00008775/0
 50
332.5
 41
0.7800000000000001
  7
Arial
 11
7560925.83802372
 21
5721215.852060761
 31
0.0
100
AcDbText
 73
     1
  0
LINE
  5
1000036
330
28
100
AcDbEntity
  8
siatka
  6
Continuous
 62
    18
420
        0
370
    13
100
AcDbLine
 10
7560487.5
 20
5720500.0
 30
0.0
 11
7560512.499999999
 21
5720500.0
 31
0.0
  0
LINE
  5
1000037
330
28
100
AcDbEntity
  8
siatka
  6
Continuous
 62
    18
420
        0
370
    13
100
AcDbLine
 10
7560500.000000001
 20
5720487.5
 30
0.0
 11
7560500.000000001
 21
5720512.499999999
 31
0.0
  0
LINE
  5
1000038
330
28
100
AcDbEntity
  8
siatka
  6
Continuous
 62
    18
420
        0
370
    13
100
AcDbLine
 10
7560737.5
 20
5720500.0
 30
0.0
 11
7560762.5
 21
5720500.0
 31
0.0
  0
LINE
  5
1000039
330
28
100
AcDbEntity
  8
siatka
  6
Continuous
 62
    18
420
        0
370
    13
100
AcDbLine
 10
7560750.0
 20
5720487.5
 30
0.0
 11
7560750.0
 21
5720512.499999999
 31
0.0
  0
LINE
  5
100003A
330
28
100
AcDbEntity
  8
siatka
  6
Continuous
 62
    18
420
        0
370
    13
100
AcDbLine
 10
7560987.5
 20
5720500.0
 30
0.0
 11
7561012.5
 21
5720500.0
 31
0.0
  0
LINE
  5
100003B
330
28
100
AcDbEntity
  8
siatka
  6
Continuous
 62
    18
420
        0
370
    13
100
AcDbLine
 10
7560999.999999999
 20
5720487.5
 30
0.0
 11
7560999.999999999
 21
5720512.499999999
 31
0.0
  0
LINE
  5
100003C
330
28
100
AcDbEntity
  8
siatka
  6
Continuous
 62
    18
420
        0
370
    13
100
AcDbLine
 10
7561237.5
 20
5720500.0
 30
0.0
 11
7561262.5
 21
5720500.0
 31
0.0
  0
LINE
  5
100003D
330
28
100
AcDbEntity
  8
siatka
  6
Continuous
 62
    18
420
        0
370
    13
100
AcDbLine
 10
7561250.0
 20
5720487.5
 30
0.0
 11
7561250.0
 21
5720512.499999999
 31
0.0
  0
LINE
  5
100003E
330
28
100
AcDbEntity
  8
siatka
  6
Continuous
 62
    18
420
        0
370
    13
100
AcDbLine
 10
7561487.500000001
 20
5720500.0
 30
0.0
 11
7561512.5
 21
5720500.0
 31
0.0
  0
LINE
  5
100003F
330
28
100
AcDbEntity
  8
siatka
  6
Continuous
 62
    18
420
        0
370
    13
100
AcDbLine
 10
7561500.000000001
 20
5720487.5
 30
0.0
 11
7561500.000000001
 21
5720512.499999999
 31
0.0
  0
LINE
  5
1000040
330
28
100
AcDbEntity
  8
siatka
  6
Continuous
 62
    18
420
        0
370
    13
100
AcDbLine
 10
7561737.5
 20
5720500.0
 30
0.0
 11
7561762.5
 21
5720500.0
 31
0.0
  0
LINE
  5
1000041
330
28
100
AcDbEntity
  8
siatka
  6
Continuous
 62
    18
420
        0
370
    13
100
AcDbLine
 10
7561750.0
 20
5720487.5
 30
0.0
 11
7561750.0
 21
5720512.499999999
 31
0.0
  0
LINE
  5
1000042
330
28
100
AcDbEntity
  8
siatka
  6
Continuous
 62
    18
420
        0
370
    13
100
AcDbLine
 10
7560487.5
 20
5720750.0
 30
0.0
 11
7560512.499999999
 21
5720750.0
 31
0.0
  0
LINE
  5
1000043
330
28
100
AcDbEntity
  8
siatka
  6
Continuous
 62
    18
420
        0
370
    13
100
AcDbLine
 10
7560500.000000001
 20
5720737.5
 30
0.0
 11
7560500.000000001
 21
5720762.500000001
 31
0.0
  0
LINE
  5
1000044
330
28
100
AcDbEntity
  8
siatka
  6
Continuous
 62
    18
420
        0
370
    13
100
AcDbLine
 10
7560737.5
 20
5720750.0
 30
0.0
 11
7560762.5
 21
5720750.0
 31
0.0
  0
LINE
  5
1000045
330
28
100
AcDbEntity
  8
siatka
  6
Continuous
 62
    18
420
        0
370
    13
100
AcDbLine
 10
7560750.0
 20
5720737.5
 30
0.0
 11
7560750.0
 21
5720762.500000001
 31
0.0
  0
LINE
  5
1000046
330
28
100
AcDbEntity
  8
siatka
  6
Continuous
 62
    18
420
        0
370
    13
100
AcDbLine
 10
7560987.5
 20
5720750.0
 30
0.0
 11
7561012.5
 21
5720750.0
 31
0.0
  0
LINE
  5
1000047
330
28
100
AcDbEntity
  8
siatka
  6
Continuous
 62
    18
420
        0
370
    13
100
AcDbLine
 10
7560999.999999999
 20
5720737.5
 30
0.0
 11
7560999.999999999
 21
5720762.500000001
 31
0.0
  0
LINE
  5
1000048
330
28
100
AcDbEntity
  8
siatka
  6
Continuous
 62
    18
420
        0
370
    13
100
AcDbLine
 10
7561237.5
 20
5720750.0
 30
0.0
 11
7561262.5
 21
5720750.0
 31
0.0
  0
LINE
  5
1000049
330
28
100
AcDbEntity
  8
siatka
  6
Continuous
 62
    18
420
        0
370
    13
100
AcDbLine
 10
7561250.0
 20
5720737.5
 30
0.0
 11
7561250.0
 21
5720762.500000001
 31
0.0
  0
LINE
  5
100004A
330
28
100
AcDbEntity
  8
siatka
  6
Continuous
 62
    18
420
        0
370
    13
100
AcDbLine
 10
7561487.500000001
 20
5720750.0
 30
0.0
 11
7561512.5
 21
5720750.0
 31
0.0
  0
LINE
  5
100004B
330
28
100
AcDbEntity
  8
siatka
  6
Continuous
 62
    18
420
        0
370
    13
100
AcDbLine
 10
7561500.000000001
 20
5720737.5
 30
0.0
 11
7561500.000000001
 21
5720762.500000001
 31
0.0
  0
LINE
  5
100004C
330
28
100
AcDbEntity
  8
siatka
  6
Continuous
 62
    18
420
        0
370
    13
100
AcDbLine
 10
7561737.5
 20
5720750.0
 30
0.0
 11
7561762.5
 21
5720750.0
 31
0.0
  0
LINE
  5
100004D
330
28
100
AcDbEntity
  8
siatka
  6
Continuous
 62
    18
420
        0
370
    13
100
AcDbLine
 10
7561750.0
 20
5720737.5
 30
0.0
 11
7561750.0
 21
5720762.500000001
 31
0.0
  0
LINE
  5
100004E
330
28
100
AcDbEntity
  8
siatka
  6
Continuous
 62
    18
420
        0
370
    13
100
AcDbLine
 10
7560487.5
 20
5721000.0
 30
0.0
 11
7560512.499999999
 21
5721000.0
 31
0.0
  0
LINE
  5
100004F
330
28
100
AcDbEntity
  8
siatka
  6
Continuous
 62
    18
420
        0
370
    13
100
AcDbLine
 10
7560500.000000001
 20
5720987.499999999
 30
0.0
 11
7560500.000000001
 21
5721012.5
 31
0.0
  0
LINE
  5
1000050
330
28
100
AcDbEntity
  8
siatka
  6
Continuous
 62
    18
420
        0
370
    13
100
AcDbLine
 10
7560737.5
 20
5721000.0
 30
0.0
 11
7560762.5
 21
5721000.0
 31
0.0
  0
LINE
  5
1000051
330
28
100
AcDbEntity
  8
siatka
  6
Continuous
 62
    18
420
        0
370
    13
100
AcDbLine
 10
7560750.0
 20
5720987.499999999
 30
0.0
 11
7560750.0
 21
5721012.5
 31
0.0
  0
LINE
  5
1000052
330
28
100
AcDbEntity
  8
siatka
  6
Continuous
 62
    18
420
        0
370
    13
100
AcDbLine
 10
7560987.5
 20
5721000.0
 30
0.0
 11
7561012.5
 21
5721000.0
 31
0.0
  0
LINE
  5
1000053
330
28
100
AcDbEntity
  8
siatka
  6
Continuous
 62
    18
420
        0
370
    13
100
AcDbLine
 10
7560999.999999999
 20
5720987.499999999
 30
0.0
 11
7560999.999999999
 21
5721012.5
 31
0.0
  0
LINE
  5
1000054
330
28
100
AcDbEntity
  8
siatka
  6
Continuous
 62
    18
420
        0
370
    13
100
AcDbLine
 10
7561237.5
 20
5721000.0
 30
0.0
 11
7561262.5
 21
5721000.0
 31
0.0
  0
LINE
  5
1000055
330
28
100
AcDbEntity
  8
siatka
  6
Continuous
 62
    18
420
        0
370
    13
100
AcDbLine
 10
7561250.0
 20
5720987.499999999
 30
0.0
 11
7561250.0
 21
5721012.5
 31
0.0
  0
LINE
  5
1000056
330
28
100
AcDbEntity
  8
siatka
  6
Continuous
 62
    18
420
        0
370
    13
100
AcDbLine
 10
7561487.500000001
 20
5721000.0
 30
0.0
 11
7561512.5
 21
5721000.0
 31
0.0
  0
LINE
  5
1000057
330
28
100
AcDbEntity
  8
siatka
  6
Continuous
 62
    18
420
        0
370
    13
100
AcDbLine
 10
7561500.000000001
 20
5720987.499999999
 30
0.0
 11
7561500.000000001
 21
5721012.5
 31
0.0
  0
LINE
  5
1000058
330
28
100
AcDbEntity
  8
siatka
  6
Continuous
 62
    18
420
        0
370
    13
100
AcDbLine
 10
7561737.5
 20
5721000.0
 30
0.0
 11
7561762.5
 21
5721000.0
 31
0.0
  0
LINE
  5
1000059
330
28
100
AcDbEntity
  8
siatka
  6
Continuous
 62
    18
420
        0
370
    13
100
AcDbLine
 10
7561750.0
 20
5720987.499999999
 30
0.0
 11
7561750.0
 21
5721012.5
 31
0.0
  0
LINE
  5
100005A
330
28
100
AcDbEntity
  8
siatka
  6
Continuous
 62
    18
420
        0
370
    13
100
AcDbLine
 10
7560487.5
 20
5721250.0
 30
0.0
 11
7560512.499999999
 21
5721250.0
 31
0.0
  0
LINE
  5
100005B
330
28
100
AcDbEntity
  8
siatka
  6
Continuous
 62
    18
420
        0
370
    13
100
AcDbLine
 10
7560500.000000001
 20
5721237.499999999
 30
0.0
 11
7560500.000000001
 21
5721262.5
 31
0.0
  0
LINE
  5
100005C
330
28
100
AcDbEntity
  8
siatka
  6
Continuous
 62
    18
420
        0
370
    13
100
AcDbLine
 10
7560737.5
 20
5721250.0
 30
0.0
 11
7560762.5
 21
5721250.0
 31
0.0
  0
LINE
  5
100005D
330
28
100
AcDbEntity
  8
siatka
  6
Continuous
 62
    18
420
        0
370
    13
100
AcDbLine
 10
7560750.0
 20
5721237.499999999
 30
0.0
 11
7560750.0
 21
5721262.5
 31
0.0
  0
LINE
  5
100005E
330
28
100
AcDbEntity
  8
siatka
  6
Continuous
 62
    18
420
        0
370
    13
100
AcDbLine
 10
7560987.5
 20
5721250.0
 30
0.0
 11
7561012.5
 21
5721250.0
 31
0.0
  0
LINE
  5
100005F
330
28
100
AcDbEntity
  8
siatka
  6
Continuous
 62
    18
420
        0
370
    13
100
AcDbLine
 10
7560999.999999999
 20
5721237.499999999
 30
0.0
 11
7560999.999999999
 21
5721262.5
 31
0.0
  0
LINE
  5
1000060
330
28
100
AcDbEntity
  8
siatka
  6
Continuous
 62
    18
420
        0
370
    13
100
AcDbLine
 10
7561237.5
 20
5721250.0
 30
0.0
 11
7561262.5
 21
5721250.0
 31
0.0
  0
LINE
  5
1000061
330
28
100
AcDbEntity
  8
siatka
  6
Continuous
 62
    18
420
        0
370
    13
100
AcDbLine
 10
7561250.0
 20
5721237.499999999
 30
0.0
 11
7561250.0
 21
5721262.5
 31
0.0
  0
LINE
  5
1000062
330
28
100
AcDbEntity
  8
siatka
  6
Continuous
 62
    18
420
        0
370
    13
100
AcDbLine
 10
7561487.500000001
 20
5721250.0
 30
0.0
 11
7561512.5
 21
5721250.0
 31
0.0
  0
LINE
  5
1000063
330
28
100
AcDbEntity
  8
siatka
  6
Continuous
 62
    18
420
        0
370
    13
100
AcDbLine
 10
7561500.000000001
 20
5721237.499999999
 30
0.0
 11
7561500.000000001
 21
5721262.5
 31
0.0
  0
LINE
  5
1000064
330
28
100
AcDbEntity
  8
siatka
  6
Continuous
 62
    18
420
        0
370
    13
100
AcDbLine
 10
7561737.5
 20
5721250.0
 30
0.0
 11
7561762.5
 21
5721250.0
 31
0.0
  0
LINE
  5
1000065
330
28
100
AcDbEntity
  8
siatka
  6
Continuous
 62
    18
420
        0
370
    13
100
AcDbLine
 10
7561750.0
 20
5721237.499999999
 30
0.0
 11
7561750.0
 21
5721262.5
 31
0.0
  0
LINE
  5
1000066
330
28
100
AcDbEntity
  8
siatka
  6
Continuous
 62
    18
420
        0
370
    13
100
AcDbLine
 10
7560487.5
 20
5721499.999999999
 30
0.0
 11
7560512.499999999
 21
5721499.999999999
 31
0.0
  0
LINE
  5
1000067
330
28
100
AcDbEntity
  8
siatka
  6
Continuous
 62
    18
420
        0
370
    13
100
AcDbLine
 10
7560500.000000001
 20
5721487.500000001
 30
0.0
 11
7560500.000000001
 21
5721512.5
 31
0.0
  0
LINE
  5
1000068
330
28
100
AcDbEntity
  8
siatka
  6
Continuous
 62
    18
420
        0
370
    13
100
AcDbLine
 10
7560737.5
 20
5721499.999999999
 30
0.0
 11
7560762.5
 21
5721499.999999999
 31
0.0
  0
LINE
  5
1000069
330
28
100
AcDbEntity
  8
siatka
  6
Continuous
 62
    18
420
        0
370
    13
100
AcDbLine
 10
7560750.0
 20
5721487.500000001
 30
0.0
 11
7560750.0
 21
5721512.5
 31
0.0
  0
LINE
  5
100006A
330
28
100
AcDbEntity
  8
siatka
  6
Continuous
 62
    18
420
        0
370
    13
100
AcDbLine
 10
7560987.5
 20
5721499.999999999
 30
0.0
 11
7561012.5
 21
5721499.999999999
 31
0.0
  0
LINE
  5
100006B
330
28
100
AcDbEntity
  8
siatka
  6
Continuous
 62
    18
420
        0
370
    13
100
AcDbLine
 10
7560999.999999999
 20
5721487.500000001
 30
0.0
 11
7560999.999999999
 21
5721512.5
 31
0.0
  0
LINE
  5
100006C
330
28
100
AcDbEntity
  8
siatka
  6
Continuous
 62
    18
420
        0
370
    13
100
AcDbLine
 10
7561237.5
 20
5721499.999999999
 30
0.0
 11
7561262.5
 21
5721499.999999999
 31
0.0
  0
LINE
  5
100006D
330
28
100
AcDbEntity
  8
siatka
  6
Continuous
 62
    18
420
        0
370
    13
100
AcDbLine
 10
7561250.0
 20
5721487.500000001
 30
0.0
 11
7561250.0
 21
5721512.5
 31
0.0
  0
LINE
  5
100006E
330
28
100
AcDbEntity
  8
siatka
  6
Continuous
 62
    18
420
        0
370
    13
100
AcDbLine
 10
7561487.500000001
 20
5721499.999999999
 30
0.0
 11
7561512.5
 21
5721499.999999999
 31
0.0
  0
LINE
  5
100006F
330
28
100
AcDbEntity
  8
siatka
  6
Continuous
 62
    18
420
        0
370
    13
100
AcDbLine
 10
7561500.000000001
 20
5721487.500000001
 30
0.0
 11
7561500.000000001
 21
5721512.5
 31
0.0
  0
LINE
  5
1000070
330
28
100
AcDbEntity
  8
siatka
  6
Continuous
 62
    18
420
        0
370
    13
100
AcDbLine
 10
7561737.5
 20
5721499.999999999
 30
0.0
 11
7561762.5
 21
5721499.999999999
 31
0.0
  0
LINE
  5
1000071
330
28
100
AcDbEntity
  8
siatka
  6
Continuous
 62
    18
420
        0
370
    13
100
AcDbLine
 10
7561750.0
 20
5721487.500000001
 30
0.0
 11
7561750.0
 21
5721512.5
 31
0.0
  0
LINE
  5
1000078
330
28
100
AcDbEntity
  8
DZIALKA_936
  6
Continuous
370
    18
100
AcDbLine
 10
7560878.799925712
 20
5721120.703731231
 30
0.0
 11
7560882.17
 21
5721132.74
 31
0.0
  0
LINE
  5
1000079
330
28
100
AcDbEntity
  8
DZIALKA_936
  6
Continuous
370
    18
100
AcDbLine
 10
7560882.17
 20
5721132.74
 30
0.0
 11
7560902.483880801
 21
5721200.0420396
 31
0.0
  0
LINE
  5
100007A
330
28
100
AcDbEntity
  8
DZIALKA_936
  6
Continuous
370
    18
100
AcDbLine
 10
7560902.483880801
 20
5721200.0420396
 30
0.0
 11
7560909.218145383
 21
5721221.61557461
 31
0.0
  0
LINE
  5
100007B
330
28
100
AcDbEntity
  8
DZIALKA_936
  6
Continuous
370
    18
100
AcDbLine
 10
7560909.218145383
 20
5721221.61557461
 30
0.0
 11
7561003.041563485
 21
5721173.137222073
 31
0.0
  0
LINE
  5
100007C
330
28
100
AcDbEntity
  8
DZIALKA_936
  6
Continuous
370
    18
100
AcDbLine
 10
7561003.041563485
 20
5721173.137222073
 30
0.0
 11
7561217.217120336
 21
5721064.512724876
 31
0.0
  0
LINE
  5
100007D
330
28
100
AcDbEntity
  8
DZIALKA_936
  6
Continuous
370
    18
100
AcDbLine
 10
7561217.217120336
 20
5721064.512724876
 30
0.0
 11
7561252.887193155
 21
5721046.415750339
 31
0.0
  0
LINE
  5
100007E
330
28
100
AcDbEntity
  8
DZIALKA_936
  6
Continuous
370
    18
100
AcDbLine
 10
7561252.887193155
 20
5721046.415750339
 30
0.0
 11
7561222.904476004
 21
5720944.956490488
 31
0.0
  0
LINE
  5
100007F
330
28
100
AcDbEntity
  8
DZIALKA_936
  6
Continuous
370
    18
100
AcDbLine
 10
7561222.904476004
 20
5720944.956490488
 30
0.0
 11
7560973.472479437
 21
5721072.807040041
 31
0.0
  0
LINE
  5
1000080
330
28
100
AcDbEntity
  8
DZIALKA_936
  6
Continuous
370
    18
100
AcDbLine
 10
7560973.472479437
 20
5721072.807040041
 30
0.0
 11
7560878.799925712
 21
5721120.703731231
 31
0.0
  0
LINE
  5
1000081
330
28
100
AcDbEntity
  8
dzialki_ewns
  6
Continuous
370
    18
100
AcDbLine
 10
7560931.11
 20
5721295.160000001
 30
0.0
 11
7560909.218145383
 21
5721221.61557461
 31
0.0
  0
LINE
  5
1000082
330
28
100
AcDbEntity
  8
dzialki_ewns
  6
Continuous
370
    18
100
AcDbLine
 10
7560996.891793652
 20
5721176.314794538
 30
0.0
 11
7561008.389999999
 21
5721211.31
 31
0.0
  0
LINE
  5
1000083
330
28
100
AcDbEntity
  8
dzialki_ewns
  6
Continuous
370
    18
100
AcDbLine
 10
7561008.389999999
 20
5721211.31
 30
0.0
 11
7561018.45
 21
5721243.16
 31
0.0
  0
LINE
  5
1000084
330
28
100
AcDbEntity
  8
dzialki_ewns
  6
Continuous
370
    18
100
AcDbLine
 10
7560993.292396564
 20
5721178.174595049
 30
0.0
 11
7561004.582681063
 21
5721212.53672464
 31
0.0
  0
LINE
  5
1000085
330
28
100
AcDbEntity
  8
dzialki_ewns
  6
Continuous
370
    18
100
AcDbLine
 10
7561004.582681063
 20
5721212.53672464
 30
0.0
 11
7561014.635861047
 21
5721244.364717044
 31
0.0
  0
LINE
  5
1000086
330
28
100
AcDbEntity
  8
dzialki_ewns
  6
Continuous
370
    18
100
AcDbLine
 10
7561004.582681063
 20
5721212.53672464
 30
0.0
 11
7560920.164072691
 21
5721258.387787305
 31
0.0
  0
LINE
  5
1000087
330
28
100
AcDbEntity
  8
dzialki_ewns
  6
Continuous
370
    18
100
AcDbLine
 10
7561014.635861047
 20
5721244.364717044
 30
0.0
 11
7560929.313769791
 21
5721289.125668009
 31
0.0
  0
LINE
  5
1000088
330
28
100
AcDbEntity
  8
dzialki_ewns
  6
Continuous
370
    18
100
AcDbLine
 10
7561014.635861047
 20
5721244.364717044
 30
0.0
 11
7561017.699999998
 21
5721254.399999999
 31
0.0
  0
LINE
  5
1000089
330
28
100
AcDbEntity
  8
dzialki_ewns
  6
Continuous
370
    18
100
AcDbLine
 10
7561018.45
 20
5721243.16
 30
0.0
 11
7561021.479999994
 21
5721253.049999996
 31
0.0
  0
LINE
  5
100008A
330
28
100
AcDbEntity
  8
dzialki_ewns
  6
Continuous
370
    18
100
AcDbLine
 10
7560902.483880801
 20
5721200.0420396
 30
0.0
 11
7560514.499999999
 21
5721295.899999999
 31
0.0
  0
LINE
  5
100008B
330
28
100
AcDbEntity
  8
dzialki_ewns
  6
Continuous
370
    18
100
AcDbLine
 10
7560923.105933268
 20
5721268.270798564
 30
0.0
 11
7560520.899999999
 21
5721328.499999999
 31
0.0
  0
LINE
  5
100008C
330
28
100
AcDbEntity
  8
dzialki_ewns
  6
Continuous
370
    18
100
AcDbLine
 10
7561222.904476004
 20
5720944.956490488
 30
0.0
 11
7561204.97539166
 21
5720884.526419971
 31
0.0
  0
LINE
  5
100008D
330
28
100
AcDbEntity
  8
dzialki_ewns
  6
Continuous
370
    18
100
AcDbLine
 10
7561204.97539166
 20
5720884.526419971
 30
0.0
 11
7561222.904476004
 21
5720944.956490488
 31
0.0
  0
LINE
  5
100008E
330
28
100
AcDbEntity
  8
dzialki_ewns
  6
Continuous
370
    18
100
AcDbLine
 10
7561222.904476004
 20
5720944.956490488
 30
0.0
 11
7561252.887193155
 21
5721046.415750339
 31
0.0
  0
LINE
  5
100008F
330
28
100
AcDbEntity
  8
dzialki_ewns
  6
Continuous
370
    18
100
AcDbLine
 10
7561252.887193155
 20
5721046.415750339
 30
0.0
 11
7561263.170000001
 21
5721081.650000001
 31
0.0
  0
LINE
  5
1000090
330
28
100
AcDbEntity
  8
dzialki_ewns
  6
Continuous
370
    18
100
AcDbLine
 10
7561263.170000001
 20
5721081.650000001
 30
0.0
 11
7561271.849999999
 21
5721110.900000001
 31
0.0
  0
LINE
  5
1000091
330
28
100
AcDbEntity
  8
dzialki_ewns
  6
Continuous
370
    18
100
AcDbLine
 10
7561209.001986797
 20
5720883.790402129
 30
0.0
 11
7561226.728562417
 21
5720943.801213415
 31
0.0
  0
LINE
  5
1000092
330
28
100
AcDbEntity
  8
dzialki_ewns
  6
Continuous
370
    18
100
AcDbLine
 10
7561226.728562417
 20
5720943.801213415
 30
0.0
 11
7561256.727912201
 21
5721045.292844924
 31
0.0
  0
LINE
  5
1000093
330
28
100
AcDbEntity
  8
dzialki_ewns
  6
Continuous
370
    18
100
AcDbLine
 10
7561256.727912201
 20
5721045.292844924
 30
0.0
 11
7561267.007310789
 21
5721080.520783857
 31
0.0
  0
LINE
  5
1000094
330
28
100
AcDbEntity
  8
dzialki_ewns
  6
Continuous
370
    18
100
AcDbLine
 10
7561267.007310789
 20
5721080.520783857
 30
0.0
 11
7561275.684597497
 21
5721109.762075
 31
0.0
  0
LINE
  5
1000118
330
28
100
AcDbEntity
  8
dzialki_ewns
  6
Continuous
370
    18
100
AcDbLine
 10
7561018.45
 20
5721243.16
 30
0.0
 11
7561271.849999999
 21
5721110.900000001
 31
0.0
  0
LINE
  5
1000119
330
28
100
AcDbEntity
  8
dzialki_ewns
  6
Continuous
370
    18
100
AcDbLine
 10
7561271.849999999
 20
5721110.900000001
 30
0.0
 11
7561263.170000001
 21
5721081.650000001
 31
0.0
  0
LINE
  5
100011A
330
28
100
AcDbEntity
  8
dzialki_ewns
  6
Continuous
370
    18
100
AcDbLine
 10
7561263.170000001
 20
5721081.650000001
 30
0.0
 11
7561230.809999999
 21
5721098.12
 31
0.0
  0
LINE
  5
100011B
330
28
100
AcDbEntity
  8
dzialki_ewns
  6
Continuous
370
    18
100
AcDbLine
 10
7561230.809999999
 20
5721098.12
 30
0.0
 11
7561008.389999999
 21
5721211.31
 31
0.0
  0
LINE
  5
100011C
330
28
100
AcDbEntity
  8
dzialki_ewns
  6
Continuous
370
    18
100
AcDbLine
 10
7561008.389999999
 20
5721211.31
 30
0.0
 11
7561018.45
 21
5721243.16
 31
0.0
  0
LINE
  5
100011D
330
28
100
AcDbEntity
  8
dzialki_ewns
  6
Continuous
370
    18
100
AcDbLine
 10
7561008.389999999
 20
5721211.31
 30
0.0
 11
7561230.809999999
 21
5721098.12
 31
0.0
  0
LINE
  5
100011E
330
28
100
AcDbEntity
  8
dzialki_ewns
  6
Continuous
370
    18
100
AcDbLine
 10
7561230.809999999
 20
5721098.12
 30
0.0
 11
7561263.170000001
 21
5721081.650000001
 31
0.0
  0
LINE
  5
100011F
330
28
100
AcDbEntity
  8
dzialki_ewns
  6
Continuous
370
    18
100
AcDbLine
 10
7561263.170000001
 20
5721081.650000001
 30
0.0
 11
7561252.887193155
 21
5721046.415750339
 31
0.0
  0
LINE
  5
1000120
330
28
100
AcDbEntity
  8
dzialki_ewns
  6
Continuous
370
    18
100
AcDbLine
 10
7561252.887193155
 20
5721046.415750339
 30
0.0
 11
7561217.217120336
 21
5721064.512724876
 31
0.0
  0
LINE
  5
1000121
330
28
100
AcDbEntity
  8
dzialki_ewns
  6
Continuous
370
    18
100
AcDbLine
 10
7561217.217120336
 20
5721064.512724876
 30
0.0
 11
7561003.041563485
 21
5721173.137222073
 31
0.0
  0
LINE
  5
1000122
330
28
100
AcDbEntity
  8
dzialki_ewns
  6
Continuous
370
    18
100
AcDbLine
 10
7561003.041563485
 20
5721173.137222073
 30
0.0
 11
7560996.891793652
 21
5721176.314794538
 31
0.0
  0
LINE
  5
1000123
330
28
100
AcDbEntity
  8
dzialki_ewns
  6
Continuous
370
    18
100
AcDbLine
 10
7560996.891793652
 20
5721176.314794538
 30
0.0
 11
7561008.389999999
 21
5721211.31
 31
0.0
  0
LINE
  5
100013B
330
28
100
AcDbEntity
  8
dzialki_ewns
  6
Continuous
370
    18
100
AcDbLine
 10
7560544.79
 20
5721176.84
 30
0.0
 11
7560541.67
 21
5721153.58
 31
0.0
  0
LINE
  5
100013F
330
28
100
AcDbEntity
  8
dzialki_ewns
  6
Continuous
370
    18
100
AcDbLine
 10
7560544.79
 20
5721176.84
 30
0.0
 11
7560882.17
 21
5721132.74
 31
0.0
  0
LINE
  5
1000140
330
28
100
AcDbEntity
  8
dzialki_ewns
  6
Continuous
370
    18
100
AcDbLine
 10
7560882.17
 20
5721132.74
 30
0.0
 11
7560875.47
 21
5721108.849999999
 31
0.0
  0
LINE
  5
1000141
330
28
100
AcDbEntity
  8
dzialki_ewns
  6
Continuous
370
    18
100
AcDbLine
 10
7560875.47
 20
5721108.849999999
 30
0.0
 11
7560541.67
 21
5721153.58
 31
0.0
  0
LINE
  5
1000142
330
28
100
AcDbEntity
  8
dzialki_ewns
  6
Continuous
370
    18
100
AcDbLine
 10
7560541.67
 20
5721153.58
 30
0.0
 11
7560544.79
 21
5721176.84
 31
0.0
  0
LINE
  5
100014C
330
28
100
AcDbEntity
  8
dzialki_ewns
  6
Continuous
370
    18
100
AcDbLine
 10
7560875.47
 20
5721108.849999999
 30
0.0
 11
7560868.209999999
 21
5721085.64
 31
0.0
  0
LINE
  5
100014F
330
28
100
AcDbEntity
  8
dzialki_ewns
  6
Continuous
370
    18
100
AcDbLine
 10
7560541.67
 20
5721153.58
 30
0.0
 11
7560875.47
 21
5721108.849999999
 31
0.0
  0
LINE
  5
1000184
330
28
100
AcDbEntity
  8
wlasciciele
  6
Continuous
 62
    18
420
        0
370
    13
100
AcDbLine
 10
7561392.679510342
 20
5720986.587499999
 30
0.0
 11
7561243.999999999
 21
5720986.587499999
 31
0.0
  0
LINE
  5
1000185
330
28
100
AcDbEntity
  8
wlasciciele
  6
Continuous
 62
    18
420
        0
370
    13
100
AcDbLine
 10
7561243.999999999
 20
5720986.587499999
 30
0.0
 11
7561239.599999999
 21
5720996.899999999
 31
0.0
  0
LINE
  5
1000186
330
28
100
AcDbEntity
  8
wlasciciele
  6
Continuous
 62
    18
420
        0
370
    13
100
AcDbLine
 10
7561190.074893017
 20
5721219.762499998
 30
0.0
 11
7561031.499999999
 21
5721219.762499998
 31
0.0
  0
LINE
  5
1000187
330
28
100
AcDbEntity
  8
wlasciciele
  6
Continuous
 62
    18
420
        0
370
    13
100
AcDbLine
 10
7561031.499999999
 20
5721219.762499998
 30
0.0
 11
7561003.399999998
 21
5721203.899999999
 31
0.0
  0
ENDSEC
  0
SECTION
  2
OBJECTS
  0
DICTIONARY
  5
2EC
330
0
100
AcDbDictionary
281
     1
  3
ACAD_COLOR
350
100001C
  3
ACAD_GROUP
350
2ED
  3
ACAD_LAYOUT
350
2EE
  3
ACAD_MATERIAL
350
FFFFFF
  3
ACAD_MLEADERSTYLE
350
100001F
  3
ACAD_MLINESTYLE
350
2EF
  3
ACAD_PLOTSETTINGS
350
2F0
  3
ACAD_PLOTSTYLENAME
350
2F1
  3
ACAD_SCALELIST
350
1000021
  3
ACAD_TABLESTYLE
350
100001D
  3
ACAD_VISUALSTYLE
350
1000003
  3
AcDbVariableDictionary
350
1000188
  0
DICTIONARY
  5
1000034
330
28
100
AcDbDictionary
280
     1
281
     1
  3
ACAD_SORTENTS
360
1000035
  0
DICTIONARY
  5
100001C
102
{ACAD_REACTORS
330
2EC
102
}
330
2EC
100
AcDbDictionary
281
     1
  0
DICTIONARY
  5
2ED
102
{ACAD_REACTORS
330
2EC
102
}
330
2EC
100
AcDbDictionary
281
     1
  0
DICTIONARY
  5
2EE
102
{ACAD_REACTORS
330
2EC
102
}
330
2EC
100
AcDbDictionary
281
     1
  3
Layout
350
2B
  3
Model
350
29
  0
DICTIONARY
  5
FFFFFF
102
{ACAD_REACTORS
330
2EC
102
}
330
2EC
100
AcDbDictionary
281
     1
  3
ByBlock
350
1000001
  3
ByLayer
350
1000000
  3
Global
350
1000002
  0
DICTIONARY
  5
100001F
102
{ACAD_REACTORS
330
2EC
102
}
330
2EC
100
AcDbDictionary
281
     1
  3
Standard
350
1000020
  0
DICTIONARY
  5
2EF
102
{ACAD_REACTORS
330
2EC
102
}
330
2EC
100
AcDbDictionary
281
     1
  3
L_0_02
350
7
  3
L_0_15
350
E
  3
L_0_E4
350
12
  3
Standard
350
2F2
  0
DICTIONARY
  5
2F0
102
{ACAD_REACTORS
330
2EC
102
}
330
2EC
100
AcDbDictionary
281
     1
  0
ACDBDICTIONARYWDFLT
  5
2F1
102
{ACAD_REACTORS
330
2EC
102
}
330
2EC
100
AcDbDictionary
281
     1
  3
Normal
350
17
100
AcDbDictionaryWithDefault
340
17
  0
DICTIONARY
  5
1000021
102
{ACAD_REACTORS
330
2EC
102
}
330
2EC
100
AcDbDictionary
281
     1
  3
A0
350
1000022
  3
A1
350
1000023
  3
A2
350
1000024
  3
A3
350
1000025
  3
A4
350
1000026
  3
A5
350
1000027
  3
A6
350
1000028
  3
A7
350
1000029
  3
A8
350
100002A
  3
A9
350
100002B
  3
B0
350
100002C
  3
B1
350
100002D
  3
B2
350
100002E
  3
B3
350
100002F
  3
B4
350
1000030
  3
B5
350
1000031
  3
B6
350
1000032
  0
DICTIONARY
  5
100001D
102
{ACAD_REACTORS
330
2EC
102
}
330
2EC
100
AcDbDictionary
281
     1
  3
Standard
350
100001E
  0
DICTIONARY
  5
1000003
102
{ACAD_REACTORS
330
2EC
102
}
330
2EC
100
AcDbDictionary
281
     1
  3
2dWireframe
350
1000008
  3
Basic
350
100000B
  3
Brighten
350
100000F
  3
ColorChange
350
1000013
  3
Conceptual
350
100000D
  3
Dim
350
100000E
  3
EdgeColorOff
350
1000016
  3
Facepattern
350
1000012
  3
Flat
350
1000004
  3
FlatWithEdges
350
1000005
  3
Gouraud
350
1000006
  3
GouraudWithEdges
350
1000007
  3
Hidden
350
100000A
  3
JitterOff
350
1000014
  3
Linepattern
350
1000011
  3
OverhangOff
350
1000015
  3
Realistic
350
100000C
  3
Shaded
350
100001B
  3
Shaded with edges
350
100001A
  3
Shades of Gray
350
1000017
  3
Sketchy
350
1000018
  3
Thicken
350
1000010
  3
Wireframe
350
1000009
  3
X-Ray
350
1000019
  0
DICTIONARY
  5
1000188
102
{ACAD_REACTORS
330
2EC
102
}
330
2EC
100
AcDbDictionary
281
     1
  3
CANNOSCALE
350
100018C
  3
CMLEADERSTYLE
350
100018A
  3
CTABLESTYLE
350
1000189
  3
MSLTSCALE
350
100018B
  0
SORTENTSTABLE
  5
1000035
102
{ACAD_REACTORS
330
1000034
102
}
330
1000034
100
AcDbSortentsTable
330
28
331
2B6
  5
1000158
331
2B7
  5
1000159
331
2B8
  5
100015A
331
2B9
  5
100015B
331
2BA
  5
100015C
331
2BB
  5
100015D
331
2BC
  5
100015E
331
2BD
  5
100015F
331
2BE
  5
1000160
331
2BF
  5
1000161
331
2C0
  5
1000162
331
2C1
  5
1000163
331
2C2
  5
1000164
331
2C3
  5
1000165
331
2C4
  5
1000166
331
2C5
  5
1000167
331
2C6
  5
1000168
331
2C7
  5
1000169
331
2C8
  5
100016A
331
2C9
  5
100016B
331
2CA
  5
100016C
331
2CB
  5
100016D
331
2CC
  5
100016E
331
2CD
  5
100016F
331
2CE
  5
1000170
331
2CF
  5
1000171
331
2D0
  5
1000172
331
2D1
  5
1000173
331
2D2
  5
1000174
331
2D3
  5
1000175
331
2D4
  5
1000176
331
2D5
  5
1000177
331
2D6
  5
1000178
331
2D7
  5
1000179
331
2D8
  5
100017A
331
2D9
  5
100017B
331
2DA
  5
100017C
331
2DB
  5
100017D
331
2DC
  5
100017E
331
2DD
  5
100017F
331
2DE
  5
1000180
331
2DF
  5
1000181
331
2E0
  5
1000182
331
2E1
  5
1000183
331
1000036
  5
2B6
331
1000037
  5
2B7
331
1000038
  5
2B8
331
1000039
  5
2B9
331
100003A
  5
2BA
331
100003B
  5
2BB
331
100003C
  5
2BC
331
100003D
  5
2BD
331
100003E
  5
2BE
331
100003F
  5
2BF
331
1000040
  5
2C0
331
1000041
  5
2C1
331
1000042
  5
2C2
331
1000043
  5
2C3
331
1000044
  5
2C4
331
1000045
  5
2C5
331
1000046
  5
2C6
331
1000047
  5
2C7
331
1000048
  5
2C8
331
1000049
  5
2C9
331
100004A
  5
2CA
331
100004B
  5
2CB
331
100004C
  5
2CC
331
100004D
  5
2CD
331
100004E
  5
2CE
331
100004F
  5
2CF
331
1000050
  5
2D0
331
1000051
  5
2D1
331
1000052
  5
2D2
331
1000053
  5
2D3
331
1000054
  5
2D4
331
1000055
  5
2D5
331
1000056
  5
2D6
331
1000057
  5
2D7
331
1000058
  5
2D8
331
1000059
  5
2D9
331
100005A
  5
2DA
331
100005B
  5
2DB
331
100005C
  5
2DC
331
100005D
  5
2DD
331
100005E
  5
2DE
331
100005F
  5
2DF
331
1000060
  5
2E0
331
1000061
  5
2E1
331
1000062
  5
1000036
331
1000063
  5
1000037
331
1000064
  5
1000038
331
1000065
  5
1000039
331
1000066
  5
100003A
331
1000067
  5
100003B
331
1000068
  5
100003C
331
1000069
  5
100003D
331
100006A
  5
100003E
331
100006B
  5
100003F
331
100006C
  5
1000040
331
100006D
  5
1000041
331
100006E
  5
1000042
331
100006F
  5
1000043
331
1000070
  5
1000044
331
1000071
  5
1000045
331
1000072
  5
1000046
331
1000073
  5
1000047
331
1000074
  5
1000048
331
1000075
  5
1000049
331
1000076
  5
100004A
331
1000077
  5
100004B
331
1000078
  5
100004C
331
1000079
  5
100004D
331
100007A
  5
100004E
331
100007B
  5
100004F
331
100007C
  5
1000050
331
100007D
  5
1000051
331
100007E
  5
1000052
331
100007F
  5
1000053
331
1000080
  5
1000054
331
1000081
  5
1000055
331
1000082
  5
1000056
331
1000083
  5
1000057
331
1000084
  5
1000058
331
1000085
  5
1000059
331
1000086
  5
100005A
331
1000087
  5
100005B
331
1000088
  5
100005C
331
1000089
  5
100005D
331
100008A
  5
100005E
331
100008B
  5
100005F
331
100008C
  5
1000060
331
100008D
  5
1000061
331
100008E
  5
1000062
331
100008F
  5
1000063
331
1000090
  5
1000064
331
1000091
  5
1000065
331
1000092
  5
1000066
331
1000093
  5
1000067
331
1000094
  5
1000068
331
1000095
  5
1000069
331
1000096
  5
100006A
331
1000097
  5
100006B
331
1000098
  5
100006C
331
1000099
  5
100006D
331
100009A
  5
100006E
331
100009B
  5
100006F
331
100009C
  5
1000070
331
100009D
  5
1000071
331
100009E
  5
1000072
331
100009F
  5
1000073
331
10000A0
  5
1000074
331
10000A1
  5
1000075
331
10000A2
  5
1000076
331
10000A3
  5
1000077
331
10000A4
  5
1000078
331
10000A5
  5
1000079
331
10000A6
  5
100007A
331
10000A7
  5
100007B
331
10000A8
  5
100007C
331
10000A9
  5
100007D
331
10000AA
  5
100007E
331
10000AB
  5
100007F
331
10000AC
  5
1000080
331
10000AD
  5
1000081
331
10000AE
  5
1000082
331
10000AF
  5
1000083
331
10000B0
  5
1000084
331
10000B1
  5
1000085
331
10000B2
  5
1000086
331
10000B3
  5
1000087
331
10000B4
  5
1000088
331
10000B5
  5
1000089
331
10000B6
  5
100008A
331
10000B7
  5
100008B
331
10000B8
  5
100008C
331
10000B9
  5
100008D
331
10000BA
  5
100008E
331
10000BB
  5
100008F
331
10000BC
  5
1000090
331
10000BD
  5
1000091
331
10000BE
  5
1000092
331
10000BF
  5
1000093
331
10000C0
  5
1000094
331
10000C1
  5
1000095
331
10000C2
  5
1000096
331
10000C3
  5
1000097
331
10000C4
  5
1000098
331
10000C5
  5
1000099
331
10000C6
  5
100009A
331
10000C7
  5
100009B
331
10000C8
  5
100009C
331
10000C9
  5
100009D
331
10000CA
  5
100009E
331
10000CB
  5
100009F
331
10000CC
  5
10000A0
331
10000CD
  5
10000A1
331
10000CE
  5
10000A2
331
10000CF
  5
10000A3
331
10000D0
  5
10000A4
331
10000D1
  5
10000A5
331
10000D2
  5
10000A6
331
10000D3
  5
10000A7
331
10000D4
  5
10000A8
331
10000D5
  5
10000A9
331
10000D6
  5
10000AA
331
10000D7
  5
10000AB
331
10000D8
  5
10000AC
331
10000D9
  5
10000AD
331
10000DA
  5
10000AE
331
10000DB
  5
10000AF
331
10000DC
  5
10000B0
331
10000DD
  5
10000B1
331
10000DE
  5
10000B2
331
10000DF
  5
10000B3
331
10000E0
  5
10000B4
331
10000E1
  5
10000B5
331
10000E2
  5
10000B6
331
10000E3
  5
10000B7
331
10000E4
  5
10000B8
331
10000E5
  5
10000B9
331
10000E6
  5
10000BA
331
10000E7
  5
10000BB
331
10000E8
  5
10000BC
331
10000E9
  5
10000BD
331
10000EA
  5
10000BE
331
10000EB
  5
10000BF
331
10000EC
  5
10000C0
331
10000ED
  5
10000C1
331
10000EE
  5
10000C2
331
10000EF
  5
10000C3
331
10000F0
  5
10000C4
331
10000F1
  5
10000C5
331
10000F2
  5
10000C6
331
10000F3
  5
10000C7
331
10000F4
  5
10000C8
331
10000F5
  5
10000C9
331
10000F6
  5
10000CA
331
10000F7
  5
10000CB
331
10000F8
  5
10000CC
331
10000F9
  5
10000CD
331
10000FA
  5
10000CE
331
10000FB
  5
10000CF
331
10000FC
  5
10000D0
331
10000FD
  5
10000D1
331
10000FE
  5
10000D2
331
10000FF
  5
10000D3
331
1000100
  5
10000D4
331
1000101
  5
10000D5
331
1000102
  5
10000D6
331
1000103
  5
10000D7
331
1000104
  5
10000D8
331
1000105
  5
10000D9
331
1000106
  5
10000DA
331
1000107
  5
10000DB
331
1000108
  5
10000DC
331
1000109
  5
10000DD
331
100010A
  5
10000DE
331
100010B
  5
10000DF
331
100010C
  5
10000E0
331
100010D
  5
10000E1
331
100010E
  5
10000E2
331
100010F
  5
10000E3
331
1000110
  5
10000E4
331
1000111
  5
10000E5
331
1000112
  5
10000E6
331
1000113
  5
10000E7
331
1000114
  5
10000E8
331
1000115
  5
10000E9
331
1000116
  5
10000EA
331
1000117
  5
10000EB
331
1000118
  5
10000EC
331
1000119
  5
10000ED
331
100011A
  5
10000EE
331
100011B
  5
10000EF
331
100011C
  5
10000F0
331
100011D
  5
10000F1
331
100011E
  5
10000F2
331
100011F
  5
10000F3
331
1000120
  5
10000F4
331
1000121
  5
10000F5
331
1000122
  5
10000F6
331
1000123
  5
10000F7
331
1000124
  5
10000F8
331
1000125
  5
10000F9
331
1000126
  5
10000FA
331
1000127
  5
10000FB
331
1000128
  5
10000FC
331
1000129
  5
10000FD
331
100012A
  5
10000FE
331
100012B
  5
10000FF
331
100012C
  5
1000100
331
100012D
  5
1000101
331
100012E
  5
1000102
331
100012F
  5
1000103
331
1000130
  5
1000104
331
1000131
  5
1000105
331
1000132
  5
1000106
331
1000133
  5
1000107
331
1000134
  5
1000108
331
1000135
  5
1000109
331
1000136
  5
100010A
331
1000137
  5
100010B
331
1000138
  5
100010C
331
1000139
  5
100010D
331
100013A
  5
100010E
331
100013B
  5
100010F
331
100013C
  5
1000110
331
100013D
  5
1000111
331
100013E
  5
1000112
331
100013F
  5
1000113
331
1000140
  5
1000114
331
1000141
  5
1000115
331
1000142
  5
1000116
331
1000143
  5
1000117
331
1000144
  5
1000118
331
1000145
  5
1000119
331
1000146
  5
100011A
331
1000147
  5
100011B
331
1000148
  5
100011C
331
1000149
  5
100011D
331
100014A
  5
100011E
331
100014B
  5
100011F
331
100014C
  5
1000120
331
100014D
  5
1000121
331
100014E
  5
1000122
331
100014F
  5
1000123
331
1000150
  5
1000124
331
1000151
  5
1000125
331
1000152
  5
1000126
331
1000153
  5
1000127
331
1000154
  5
1000128
331
1000155
  5
1000129
331
1000156
  5
100012A
331
1000157
  5
100012B
331
1000158
  5
100012C
331
1000159
  5
100012D
331
100015A
  5
100012E
331
100015B
  5
100012F
331
100015C
  5
1000130
331
100015D
  5
1000131
331
100015E
  5
1000132
331
100015F
  5
1000133
331
1000160
  5
1000134
331
1000161
  5
1000135
331
1000162
  5
1000136
331
1000163
  5
1000137
331
1000164
  5
1000138
331
1000165
  5
1000139
331
1000166
  5
100013A
331
1000167
  5
100013B
331
1000168
  5
100013C
331
1000169
  5
100013D
331
100016A
  5
100013E
331
100016B
  5
100013F
331
100016C
  5
1000140
331
100016D
  5
1000141
331
100016E
  5
1000142
331
100016F
  5
1000143
331
1000170
  5
1000144
331
1000171
  5
1000145
331
1000172
  5
1000146
331
1000173
  5
1000147
331
1000174
  5
1000148
331
1000175
  5
1000149
331
1000176
  5
100014A
331
1000177
  5
100014B
331
1000178
  5
100014C
331
1000179
  5
100014D
331
100017A
  5
100014E
331
100017B
  5
100014F
331
100017C
  5
1000150
331
100017D
  5
1000151
331
100017E
  5
1000152
331
100017F
  5
1000153
331
1000180
  5
1000154
331
1000181
  5
1000155
331
1000182
  5
1000156
331
1000183
  5
1000157
  0
LAYOUT
  5
2B
330
2EE
100
AcDbPlotSettings
  1

  2

  4

  6

 40
0.0
 41
0.0
 42
0.0
 43
0.0
 44
0.0
 45
0.0
 46
0.0
 47
0.0
 48
0.0
 49
0.0
140
0.0
141
0.0
142
1.0
143
1.0
 70
   688
 72
     1
 73
     0
 74
     5
  7

 75
     0
 76
     0
 77
     2
 78
   300
147
1.0
148
0.0
149
0.0
100
AcDbLayout
  1
Layout
 70
     1
 71
     1
 10
0.0
 20
0.0
 11
420.0
 21
297.0
 12
0.0
 22
0.0
 32
0.0
 14
1.000000000000000E+20
 24
1.000000000000000E+20
 34
1.000000000000000E+20
 15
-1.000000000000000E+20
 25
-1.000000000000000E+20
 35
-1.000000000000000E+20
146
0.0
 13
0.0
 23
0.0
 33
0.0
 16
1.0
 26
0.0
 36
0.0
 17
0.0
 27
1.0
 37
0.0
 76
     0
330
2A
  0
LAYOUT
  5
29
330
2EE
100
AcDbPlotSettings
  1

  2

  4

  6

 40
0.0
 41
0.0
 42
0.0
 43
0.0
 44
0.0
 45
0.0
 46
0.0
 47
0.0
 48
0.0
 49
0.0
140
0.0
141
0.0
142
1.0
143
1.0
 70
  1712
 72
     1
 73
     0
 74
     0
  7

 75
     0
 76
     0
 77
     2
 78
   300
147
1.0
148
0.0
149
0.0
100
AcDbLayout
  1
Model
 70
     1
 71
     0
 10
0.0
 20
0.0
 11
12.0
 21
9.0
 12
0.0
 22
0.0
 32
0.0
 14
0.0
 24
0.0
 34
0.0
 15
0.0
 25
0.0
 35
0.0
146
0.0
 13
0.0
 23
0.0
 33
0.0
 16
1.0
 26
0.0
 36
0.0
 17
0.0
 27
1.0
 37
0.0
 76
     0
330
28
331
2
  0
MATERIAL
  5
1000001
102
{ACAD_REACTORS
330
FFFFFF
102
}
330
FFFFFF
100
AcDbMaterial
  1
ByBlock
 72
     0
 73
     2
 77
     0
 78
     2
171
     0
172
     2
175
     0
176
     2
179
     0
270
     2
274
     2
 94
      127
  0
MATERIAL
  5
1000000
102
{ACAD_REACTORS
330
FFFFFF
102
}
330
FFFFFF
100
AcDbMaterial
  1
ByLayer
 72
     0
 73
     2
 77
     0
 78
     2
171
     0
172
     2
175
     0
176
     2
179
     0
270
     2
274
     2
 94
      127
  0
MATERIAL
  5
1000002
102
{ACAD_REACTORS
330
FFFFFF
102
}
330
FFFFFF
100
AcDbMaterial
  1
Global
 72
     0
 73
     2
 77
     0
 78
     2
171
     0
172
     2
175
     0
176
     2
179
     0
270
     2
274
     2
 94
      127
  0
MLEADERSTYLE
  5
1000020
102
{ACAD_REACTORS
330
100001F
102
}
330
100001F
100
AcDbMLeaderStyle
179
     2
170
     2
171
     1
172
     0
 90
        2
 40
0.0
 41
0.0
173
     1
 91
-1056964608
340
4
 92
       -2
290
     1
 42
0.4
291
     1
 43
2.0
  3
Standard
 44
0.18
300

342
1E
174
     1
178
     1
175
     1
176
     0
 93
-1056964608
 45
0.2
292
     0
297
     0
 46
5.0
 94
-1056964608
 47
1.0
 49
1.0
140
1.0
293
     1
141
0.0
294
     1
177
     0
142
1.0
295
     0
296
     0
143
0.125
271
     0
272
     9
273
     9
298
     0
  0
MLINESTYLE
  5
7
330
2EF
100
AcDbMlineStyle
  2
L_0_02
 70
     0
  3

 62
   256
 51
90.0
 52
90.0
 71
     1
 49
0.0
 62
   256
  6
CONTINUOUS
  0
MLINESTYLE
  5
E
330
2EF
100
AcDbMlineStyle
  2
L_0_15
 70
     0
  3

 62
   256
 51
90.0
 52
90.0
 71
     2
 49
0.0
 62
   256
  6
L_0_15_SHX
 49
0.0
 62
   256
  6
CONTINUOUS
  0
MLINESTYLE
  5
12
330
2EF
100
AcDbMlineStyle
  2
L_0_E4
 70
     0
  3

 62
   256
 51
90.0
 52
90.0
 71
     2
 49
0.0
 62
   256
  6
CONTINUOUS
 49
-1.75
 62
   256
  6
L_0_E4_00
  0
MLINESTYLE
  5
2F2
102
{ACAD_REACTORS
330
2EF
102
}
330
2EF
100
AcDbMlineStyle
  2
Standard
 70
     0
  3

 62
   256
 51
90.0
 52
90.0
 71
     2
 49
0.5
 62
   256
  6
BYLAYER
 49
-0.5
 62
   256
  6
BYLAYER
  0
ACDBPLACEHOLDER
  5
17
330
2F1
  0
SCALE
  5
1000022
102
{ACAD_REACTORS
330
1000021
102
}
330
1000021
100
AcDbScale
 70
     0
300
1:1
140
1.0
141
1.0
290
     1
  0
SCALE
  5
1000023
102
{ACAD_REACTORS
330
1000021
102
}
330
1000021
100
AcDbScale
 70
     0
300
1:2
140
1.0
141
2.0
290
     0
  0
SCALE
  5
1000024
102
{ACAD_REACTORS
330
1000021
102
}
330
1000021
100
AcDbScale
 70
     0
300
1:4
140
1.0
141
4.0
290
     0
  0
SCALE
  5
1000025
102
{ACAD_REACTORS
330
1000021
102
}
330
1000021
100
AcDbScale
 70
     0
300
1:5
140
1.0
141
5.0
290
     0
  0
SCALE
  5
1000026
102
{ACAD_REACTORS
330
1000021
102
}
330
1000021
100
AcDbScale
 70
     0
300
1:8
140
1.0
141
8.0
290
     0
  0
SCALE
  5
1000027
102
{ACAD_REACTORS
330
1000021
102
}
330
1000021
100
AcDbScale
 70
     0
300
1:10
140
1.0
141
10.0
290
     0
  0
SCALE
  5
1000028
102
{ACAD_REACTORS
330
1000021
102
}
330
1000021
100
AcDbScale
 70
     0
300
1:16
140
1.0
141
16.0
290
     0
  0
SCALE
  5
1000029
102
{ACAD_REACTORS
330
1000021
102
}
330
1000021
100
AcDbScale
 70
     0
300
1:20
140
1.0
141
20.0
290
     0
  0
SCALE
  5
100002A
102
{ACAD_REACTORS
330
1000021
102
}
330
1000021
100
AcDbScale
 70
     0
300
1:30
140
1.0
141
30.0
290
     0
  0
SCALE
  5
100002B
102
{ACAD_REACTORS
330
1000021
102
}
330
1000021
100
AcDbScale
 70
     0
300
1:40
140
1.0
141
40.0
290
     0
  0
SCALE
  5
100002C
102
{ACAD_REACTORS
330
1000021
102
}
330
1000021
100
AcDbScale
 70
     0
300
1:50
140
1.0
141
50.0
290
     0
  0
SCALE
  5
100002D
102
{ACAD_REACTORS
330
1000021
102
}
330
1000021
100
AcDbScale
 70
     0
300
1:100
140
1.0
141
100.0
290
     0
  0
SCALE
  5
100002E
102
{ACAD_REACTORS
330
1000021
102
}
330
1000021
100
AcDbScale
 70
     0
300
2:1
140
2.0
141
1.0
290
     0
  0
SCALE
  5
100002F
102
{ACAD_REACTORS
330
1000021
102
}
330
1000021
100
AcDbScale
 70
     0
300
4:1
140
4.0
141
1.0
290
     0
  0
SCALE
  5
1000030
102
{ACAD_REACTORS
330
1000021
102
}
330
1000021
100
AcDbScale
 70
     0
300
8:1
140
8.0
141
1.0
290
     0
  0
SCALE
  5
1000031
102
{ACAD_REACTORS
330
1000021
102
}
330
1000021
100
AcDbScale
 70
     0
300
10:1
140
10.0
141
1.0
290
     0
  0
SCALE
  5
1000032
102
{ACAD_REACTORS
330
1000021
102
}
330
1000021
100
AcDbScale
 70
     0
300
100:1
140
100.0
141
1.0
290
     0
  0
TABLESTYLE
  5
100001E
102
{ACAD_REACTORS
330
100001D
102
}
330
100001D
100
AcDbTableStyle
  3
Standard
 70
     0
 71
     0
 40
0.06
 41
0.06
280
     0
281
     0
  7
STANDARD
140
0.18
170
     2
 62
     7
 63
   257
283
     0
 90
        4
 91
        0
  1

274
    -2
284
     1
 64
     0
275
    -2
285
     1
 65
     0
276
    -2
286
     1
 66
     0
277
    -2
287
     1
 67
     0
278
    -2
288
     1
 68
     0
279
    -2
289
     1
 69
     0
  7
STANDARD
140
0.25
170
     5
 62
     7
 63
   257
283
     0
 90
        4
 91
        0
  1

274
    -2
284
     1
 64
     0
275
    -2
285
     1
 65
     0
276
    -2
286
     1
 66
     0
277
    -2
287
     1
 67
     0
278
    -2
288
     1
 68
     0
279
    -2
289
     1
 69
     0
  7
STANDARD
140
0.18
170
     5
 62
     7
 63
   257
283
     0
 90
        4
 91
        0
  1

274
    -2
284
     1
 64
     0
275
    -2
285
     1
 65
     0
276
    -2
286
     1
 66
     0
277
    -2
287
     1
 67
     0
278
    -2
288
     1
 68
     0
279
    -2
289
     1
 69
     0
  0
VISUALSTYLE
  5
1000008
102
{ACAD_REACTORS
330
1000003
102
}
330
1000003
100
AcDbVisualStyle
  2
2dWireframe
 70
     4
177
     3
291
     0
 70
    58
 90
        0
176
     1
 90
        2
176
     1
 90
        0
176
     1
 90
        0
176
     1
 40
0.6
176
     1
 40
30.0
176
     1
 62
     7
420
 16777215
176
     1
 90
        1
176
     1
 90
        4
176
     1
 62
     7
176
     1
 62
   257
176
     1
 90
        1
176
     1
 90
        1
176
     1
 40
1.0
176
     1
 90
        0
176
     1
 62
   257
176
     1
 40
1.0
176
     1
 90
        1
176
     1
 90
        6
176
     1
 90
        2
176
     1
 62
     7
176
     1
 90
        5
176
     1
 90
        0
176
     1
 90
        0
176
     1
290
     0
176
     1
 90
        1
176
     1
 40
0.0
176
     1
 90
        0
176
     1
290
     1
176
     1
290
     1
176
     1
290
     0
176
     1
290
     0
176
     1
290
     0
176
     1
290
     0
176
     1
290
     0
176
     1
290
     0
176
     1
290
     0
176
     1
 90
       50
176
     1
 40
0.0
176
     1
 40
1.0
176
     1
 90
        0
176
     1
 62
    18
420
        0
176
     1
 90
       50
176
     1
 90
        3
176
     1
 62
     5
420
      255
176
     1
290
     0
176
     1
 90
       50
176
     1
 90
       50
176
     1
 90
       50
176
     1
290
     0
176
     1
 90
       50
176
     1
 62
   256
176
     0
 40
1.0
176
     0
 90
        2
176
     1
  1
strokes_ogs.tif
176
     1
290
     0
176
     1
 40
1.0
176
     1
 40
1.0
176
     1
  0
VISUALSTYLE
  5
100000B
102
{ACAD_REACTORS
330
1000003
102
}
330
1000003
100
AcDbVisualStyle
  2
Basic
 70
     7
177
     3
291
     1
 70
    58
 90
        1
176
     1
 90
        0
176
     1
 90
        1
176
     1
 90
        0
176
     1
 40
0.6
176
     1
 40
30.0
176
     1
 62
     7
420
 16777215
176
     1
 90
        0
176
     1
 90
        4
176
     1
 62
     7
176
     1
 62
   257
176
     1
 90
        1
176
     1
 90
        1
176
     1
 40
1.0
176
     1
 90
        8
176
     1
 62
     7
176
     1
 40
1.0
176
     1
 90
        1
176
     1
 90
        6
176
     1
 90
        2
176
     1
 62
     7
176
     1
 90
        5
176
     1
 90
        0
176
     1
 90
        0
176
     1
290
     0
176
     1
 90
        1
176
     1
 40
0.0
176
     1
 90
        0
176
     1
290
     0
176
     1
290
     1
176
     1
290
     1
176
     1
290
     0
176
     1
290
     0
176
     1
290
     0
176
     1
290
     0
176
     1
290
     0
176
     1
290
     0
176
     1
 90
       50
176
     1
 40
0.0
176
     1
 40
1.0
176
     1
 90
        0
176
     1
 62
    18
420
        0
176
     1
 90
       50
176
     1
 90
        3
176
     1
 62
     5
420
      255
176
     1
290
     0
176
     1
 90
       50
176
     1
 90
       50
176
     1
 90
       50
176
     1
290
     0
176
     1
 90
       50
176
     1
 62
   256
176
     0
 40
1.0
176
     0
 90
        2
176
     1
  1
strokes_ogs.tif
176
     1
290
     0
176
     1
 40
1.0
176
     1
 40
1.0
176
     1
  0
VISUALSTYLE
  5
100000F
102
{ACAD_REACTORS
330
1000003
102
}
330
1000003
100
AcDbVisualStyle
  2
Brighten
 70
    12
177
     3
291
     1
 70
    58
 90
        2
176
     1
 90
        2
176
     1
 90
        0
176
     1
 90
        0
176
     1
 40
0.6
176
     1
 40
30.0
176
     1
 62
     7
420
 16777215
176
     1
 90
        1
176
     1
 90
        4
176
     1
 62
     7
176
     1
 62
   257
176
     1
 90
        1
176
     1
 90
        1
176
     1
 40
1.0
176
     1
 90
        8
176
     1
 62
     7
176
     1
 40
1.0
176
     1
 90
        1
176
     1
 90
        6
176
     1
 90
        2
176
     1
 62
     7
176
     1
 90
        5
176
     1
 90
        0
176
     1
 90
        0
176
     1
290
     0
176
     1
 90
        1
176
     1
 40
50.0
176
     1
 90
        0
176
     1
290
     0
176
     1
290
     1
176
     1
290
     1
176
     1
290
     0
176
     1
290
     0
176
     1
290
     0
176
     1
290
     0
176
     1
290
     0
176
     1
290
     0
176
     1
 90
       50
176
     1
 40
0.0
176
     1
 40
1.0
176
     1
 90
        0
176
     1
 62
    18
420
        0
176
     1
 90
       50
176
     1
 90
        3
176
     1
 62
     5
420
      255
176
     1
290
     0
176
     1
 90
       50
176
     1
 90
       50
176
     1
 90
       50
176
     1
290
     0
176
     1
 90
       50
176
     1
 62
   256
176
     0
 40
1.0
176
     0
 90
        2
176
     1
  1
strokes_ogs.tif
176
     1
290
     0
176
     1
 40
1.0
176
     1
 40
1.0
176
     1
  0
VISUALSTYLE
  5
1000013
102
{ACAD_REACTORS
330
1000003
102
}
330
1000003
100
AcDbVisualStyle
  2
ColorChange
 70
    16
177
     3
291
     1
 70
    58
 90
        2
176
     1
 90
        2
176
     1
 90
        3
176
     1
 90
        0
176
     1
 40
0.6
176
     1
 40
30.0
176
     1
 62
     8
420
  8421504
176
     1
 90
        1
176
     1
 90
        4
176
     1
 62
     7
176
     1
 62
   257
176
     1
 90
        1
176
     1
 90
        1
176
     1
 40
1.0
176
     1
 90
        8
176
     1
 62
     8
420
  8421504
176
     1
 40
1.0
176
     1
 90
        1
176
     1
 90
        6
176
     1
 90
        2
176
     1
 62
     7
176
     1
 90
        5
176
     1
 90
        0
176
     1
 90
        0
176
     1
290
     0
176
     1
 90
        1
176
     1
 40
0.0
176
     1
 90
        0
176
     1
290
     0
176
     1
290
     1
176
     1
290
     1
176
     1
290
     0
176
     1
290
     0
176
     1
290
     0
176
     1
290
     0
176
     1
290
     0
176
     1
290
     0
176
     1
 90
       50
176
     1
 40
0.0
176
     1
 40
1.0
176
     1
 90
        0
176
     1
 62
    18
420
        0
176
     1
 90
       50
176
     1
 90
        3
176
     1
 62
     5
420
      255
176
     1
290
     0
176
     1
 90
       50
176
     1
 90
       50
176
     1
 90
       50
176
     1
290
     0
176
     1
 90
       50
176
     1
 62
   256
176
     0
 40
1.0
176
     0
 90
        2
176
     1
  1
strokes_ogs.tif
176
     1
290
     0
176
     1
 40
1.0
176
     1
 40
1.0
176
     1
  0
VISUALSTYLE
  5
100000D
102
{ACAD_REACTORS
330
1000003
102
}
330
1000003
100
AcDbVisualStyle
  2
Conceptual
 70
     9
177
     3
291
     0
 70
    58
 90
        3
176
     1
 90
        2
176
     1
 90
        0
176
     1
 90
        0
176
     1
 40
0.6
176
     1
 40
30.0
176
     1
 62
     7
420
 16777215
176
     1
 90
        2
176
     1
 90
        2
176
     1
 62
     7
176
     1
 62
   257
176
     1
 90
        1
176
     1
 90
        1
176
     1
 40
179.0
176
     1
 90
        8
176
     1
 62
     7
176
     1
 40
1.0
176
     1
 90
        1
176
     1
 90
        6
176
     1
 90
        2
176
     1
 62
     7
176
     1
 90
        3
176
     1
 90
        0
176
     1
 90
        0
176
     1
290
     0
176
     1
 90
        1
176
     1
 40
0.0
176
     1
 90
        0
176
     1
290
     0
176
     1
290
     1
176
     1
290
     1
176
     1
290
     0
176
     1
290
     0
176
     1
290
     0
176
     1
290
     0
176
     1
290
     0
176
     1
290
     0
176
     1
 90
       50
176
     1
 40
0.0
176
     1
 40
1.0
176
     1
 90
        0
176
     1
 62
    18
420
        0
176
     1
 90
       50
176
     1
 90
        3
176
     1
 62
     5
420
      255
176
     1
290
     0
176
     1
 90
       50
176
     1
 90
       50
176
     1
 90
       50
176
     1
290
     0
176
     1
 90
       50
176
     1
 62
   256
176
     0
 40
1.0
176
     0
 90
        2
176
     1
  1
strokes_ogs.tif
176
     1
290
     0
176
     1
 40
1.0
176
     1
 40
1.0
176
     1
  0
VISUALSTYLE
  5
100000E
102
{ACAD_REACTORS
330
1000003
102
}
330
1000003
100
AcDbVisualStyle
  2
Dim
 70
    11
177
     3
291
     1
 70
    58
 90
        2
176
     1
 90
        2
176
     1
 90
        0
176
     1
 90
        0
176
     1
 40
0.6
176
     1
 40
30.0
176
     1
 62
     7
420
 16777215
176
     1
 90
        1
176
     1
 90
        4
176
     1
 62
     7
176
     1
 62
   257
176
     1
 90
        1
176
     1
 90
        1
176
     1
 40
1.0
176
     1
 90
        8
176
     1
 62
     7
176
     1
 40
1.0
176
     1
 90
        1
176
     1
 90
        6
176
     1
 90
        2
176
     1
 62
     7
176
     1
 90
        5
176
     1
 90
        0
176
     1
 90
        0
176
     1
290
     0
176
     1
 90
        1
176
     1
 40
-50.0
176
     1
 90
        0
176
     1
290
     0
176
     1
290
     1
176
     1
290
     1
176
     1
290
     0
176
     1
290
     0
176
     1
290
     0
176
     1
290
     0
176
     1
290
     0
176
     1
290
     0
176
     1
 90
       50
176
     1
 40
0.0
176
     1
 40
1.0
176
     1
 90
        0
176
     1
 62
    18
420
        0
176
     1
 90
       50
176
     1
 90
        3
176
     1
 62
     5
420
      255
176
     1
290
     0
176
     1
 90
       50
176
     1
 90
       50
176
     1
 90
       50
176
     1
290
     0
176
     1
 90
       50
176
     1
 62
   256
176
     0
 40
1.0
176
     0
 90
        2
176
     1
  1
strokes_ogs.tif
176
     1
290
     0
176
     1
 40
1.0
176
     1
 40
1.0
176
     1
  0
VISUALSTYLE
  5
1000016
102
{ACAD_REACTORS
330
1000003
102
}
330
1000003
100
AcDbVisualStyle
  2
EdgeColorOff
 70
    22
177
     3
291
     1
 70
    58
 90
        2
176
     0
 90
        2
176
     0
 90
        0
176
     0
 90
        0
176
     0
 40
0.6
176
     0
 40
30.0
176
     0
 62
     7
420
 16777215
176
     0
 90
        1
176
     0
 90
        4
176
     0
 62
     7
176
     0
 62
   257
176
     0
 90
        1
176
     0
 90
        1
176
     0
 40
1.0
176
     0
 90
        8
176
     2
 62
     7
176
     0
 40
1.0
176
     0
 90
        1
176
     0
 90
        6
176
     0
 90
        2
176
     0
 62
     7
176
     0
 90
        5
176
     0
 90
        0
176
     0
 90
        0
176
     0
290
     0
176
     0
 90
        1
176
     0
 40
0.0
176
     0
 90
        0
176
     0
290
     0
176
     0
290
     1
176
     0
290
     1
176
     0
290
     0
176
     0
290
     0
176
     0
290
     0
176
     0
290
     0
176
     0
290
     0
176
     0
290
     0
176
     0
 90
       50
176
     0
 40
0.0
176
     0
 40
1.0
176
     0
 90
        0
176
     0
 62
    18
420
        0
176
     0
 90
       50
176
     0
 90
        3
176
     0
 62
     5
420
      255
176
     0
290
     0
176
     0
 90
       50
176
     0
 90
       50
176
     0
 90
       50
176
     0
290
     0
176
     0
 90
       50
176
     0
 62
   256
176
     0
 40
1.0
176
     0
 90
        2
176
     0
  1
strokes_ogs.tif
176
     0
290
     0
176
     0
 40
1.0
176
     0
 40
1.0
176
     0
  0
VISUALSTYLE
  5
1000012
102
{ACAD_REACTORS
330
1000003
102
}
330
1000003
100
AcDbVisualStyle
  2
Facepattern
 70
    15
177
     3
291
     1
 70
    58
 90
        2
176
     1
 90
        2
176
     1
 90
        0
176
     1
 90
        0
176
     1
 40
0.6
176
     1
 40
30.0
176
     1
 62
     7
420
 16777215
176
     1
 90
        1
176
     1
 90
        4
176
     1
 62
     7
176
     1
 62
   257
176
     1
 90
        1
176
     1
 90
        1
176
     1
 40
1.0
176
     1
 90
        8
176
     1
 62
     7
176
     1
 40
1.0
176
     1
 90
        1
176
     1
 90
        6
176
     1
 90
        2
176
     1
 62
     7
176
     1
 90
        5
176
     1
 90
        0
176
     1
 90
        0
176
     1
290
     0
176
     1
 90
        1
176
     1
 40
0.0
176
     1
 90
        0
176
     1
290
     0
176
     1
290
     1
176
     1
290
     1
176
     1
290
     0
176
     1
290
     0
176
     1
290
     0
176
     1
290
     0
176
     1
290
     0
176
     1
290
     0
176
     1
 90
       50
176
     1
 40
0.0
176
     1
 40
1.0
176
     1
 90
        0
176
     1
 62
    18
420
        0
176
     1
 90
       50
176
     1
 90
        3
176
     1
 62
     5
420
      255
176
     1
290
     0
176
     1
 90
       50
176
     1
 90
       50
176
     1
 90
       50
176
     1
290
     0
176
     1
 90
       50
176
     1
 62
   256
176
     0
 40
1.0
176
     0
 90
        2
176
     1
  1
strokes_ogs.tif
176
     1
290
     0
176
     1
 40
1.0
176
     1
 40
1.0
176
     1
  0
VISUALSTYLE
  5
1000004
102
{ACAD_REACTORS
330
1000003
102
}
330
1000003
100
AcDbVisualStyle
  2
Flat
 70
     0
177
     3
291
     1
 70
    58
 90
        2
176
     1
 90
        1
176
     1
 90
        1
176
     1
 90
        2
176
     1
 40
0.6
176
     1
 40
30.0
176
     1
 62
     7
420
 16777215
176
     1
 90
        0
176
     1
 90
        0
176
     1
 62
     7
176
     1
 62
   257
176
     1
 90
        1
176
     1
 90
        1
176
     1
 40
1.0
176
     1
 90
        8
176
     1
 62
     7
176
     1
 40
1.0
176
     1
 90
        1
176
     1
 90
        6
176
     1
 90
        2
176
     1
 62
     7
176
     1
 90
        5
176
     1
 90
        0
176
     1
 90
        0
176
     1
290
     0
176
     1
 90
       13
176
     1
 40
0.0
176
     1
 90
        0
176
     1
290
     0
176
     1
290
     1
176
     1
290
     1
176
     1
290
     0
176
     1
290
     0
176
     1
290
     0
176
     1
290
     0
176
     1
290
     0
176
     1
290
     0
176
     1
 90
       50
176
     1
 40
0.0
176
     1
 40
1.0
176
     1
 90
        0
176
     1
 62
    18
420
        0
176
     1
 90
       50
176
     1
 90
        3
176
     1
 62
     5
420
      255
176
     1
290
     0
176
     1
 90
       50
176
     1
 90
       50
176
     1
 90
       50
176
     1
290
     0
176
     1
 90
       50
176
     1
 62
   256
176
     0
 40
1.0
176
     0
 90
        2
176
     1
  1
strokes_ogs.tif
176
     1
290
     0
176
     1
 40
1.0
176
     1
 40
1.0
176
     1
  0
VISUALSTYLE
  5
1000005
102
{ACAD_REACTORS
330
1000003
102
}
330
1000003
100
AcDbVisualStyle
  2
FlatWithEdges
 70
     1
177
     3
291
     1
 70
    58
 90
        2
176
     1
 90
        1
176
     1
 90
        1
176
     1
 90
        2
176
     1
 40
0.6
176
     1
 40
30.0
176
     1
 62
     7
420
 16777215
176
     1
 90
        1
176
     1
 90
        0
176
     1
 62
     7
176
     1
 62
   257
176
     1
 90
        1
176
     1
 90
        1
176
     1
 40
1.0
176
     1
 90
        0
176
     1
 62
   257
176
     1
 40
1.0
176
     1
 90
        1
176
     1
 90
        6
176
     1
 90
        2
176
     1
 62
     7
176
     1
 90
        5
176
     1
 90
        0
176
     1
 90
        0
176
     1
290
     0
176
     1
 90
       13
176
     1
 40
0.0
176
     1
 90
        0
176
     1
290
     0
176
     1
290
     1
176
     1
290
     1
176
     1
290
     0
176
     1
290
     0
176
     1
290
     0
176
     1
290
     0
176
     1
290
     0
176
     1
290
     0
176
     1
 90
       50
176
     1
 40
0.0
176
     1
 40
1.0
176
     1
 90
        0
176
     1
 62
    18
420
        0
176
     1
 90
       50
176
     1
 90
        3
176
     1
 62
     5
420
      255
176
     1
290
     0
176
     1
 90
       50
176
     1
 90
       50
176
     1
 90
       50
176
     1
290
     0
176
     1
 90
       50
176
     1
 62
   256
176
     0
 40
1.0
176
     0
 90
        2
176
     1
  1
strokes_ogs.tif
176
     1
290
     0
176
     1
 40
1.0
176
     1
 40
1.0
176
     1
  0
VISUALSTYLE
  5
1000006
102
{ACAD_REACTORS
330
1000003
102
}
330
1000003
100
AcDbVisualStyle
  2
Gouraud
 70
     2
177
     3
291
     1
 70
    58
 90
        2
176
     1
 90
        2
176
     1
 90
        1
176
     1
 90
        2
176
     1
 40
0.6
176
     1
 40
30.0
176
     1
 62
     7
420
 16777215
176
     1
 90
        0
176
     1
 90
        0
176
     1
 62
     7
176
     1
 62
   257
176
     1
 90
        1
176
     1
 90
        1
176
     1
 40
1.0
176
     1
 90
        0
176
     1
 62
     7
176
     1
 40
1.0
176
     1
 90
        1
176
     1
 90
        6
176
     1
 90
        2
176
     1
 62
     7
176
     1
 90
        5
176
     1
 90
        0
176
     1
 90
        0
176
     1
290
     0
176
     1
 90
       13
176
     1
 40
0.0
176
     1
 90
        0
176
     1
290
     0
176
     1
290
     1
176
     1
290
     1
176
     1
290
     0
176
     1
290
     0
176
     1
290
     0
176
     1
290
     0
176
     1
290
     0
176
     1
290
     0
176
     1
 90
       50
176
     1
 40
0.0
176
     1
 40
1.0
176
     1
 90
        0
176
     1
 62
    18
420
        0
176
     1
 90
       50
176
     1
 90
        3
176
     1
 62
     5
420
      255
176
     1
290
     0
176
     1
 90
       50
176
     1
 90
       50
176
     1
 90
       50
176
     1
290
     0
176
     1
 90
       50
176
     1
 62
   256
176
     0
 40
1.0
176
     0
 90
        2
176
     1
  1
strokes_ogs.tif
176
     1
290
     0
176
     1
 40
1.0
176
     1
 40
1.0
176
     1
  0
VISUALSTYLE
  5
1000007
102
{ACAD_REACTORS
330
1000003
102
}
330
1000003
100
AcDbVisualStyle
  2
GouraudWithEdges
 70
     3
177
     3
291
     1
 70
    58
 90
        2
176
     1
 90
        2
176
     1
 90
        1
176
     1
 90
        2
176
     1
 40
0.6
176
     1
 40
30.0
176
     1
 62
     7
420
 16777215
176
     1
 90
        1
176
     1
 90
        0
176
     1
 62
     7
176
     1
 62
   257
176
     1
 90
        1
176
     1
 90
        1
176
     1
 40
1.0
176
     1
 90
        0
176
     1
 62
   257
176
     1
 40
1.0
176
     1
 90
        1
176
     1
 90
        6
176
     1
 90
        2
176
     1
 62
     7
176
     1
 90
        5
176
     1
 90
        0
176
     1
 90
        0
176
     1
290
     0
176
     1
 90
       13
176
     1
 40
0.0
176
     1
 90
        0
176
     1
290
     0
176
     1
290
     1
176
     1
290
     1
176
     1
290
     0
176
     1
290
     0
176
     1
290
     0
176
     1
290
     0
176
     1
290
     0
176
     1
290
     0
176
     1
 90
       50
176
     1
 40
0.0
176
     1
 40
1.0
176
     1
 90
        0
176
     1
 62
    18
420
        0
176
     1
 90
       50
176
     1
 90
        3
176
     1
 62
     5
420
      255
176
     1
290
     0
176
     1
 90
       50
176
     1
 90
       50
176
     1
 90
       50
176
     1
290
     0
176
     1
 90
       50
176
     1
 62
   256
176
     0
 40
1.0
176
     0
 90
        2
176
     1
  1
strokes_ogs.tif
176
     1
290
     0
176
     1
 40
1.0
176
     1
 40
1.0
176
     1
  0
VISUALSTYLE
  5
100000A
102
{ACAD_REACTORS
330
1000003
102
}
330
1000003
100
AcDbVisualStyle
  2
Hidden
 70
     6
177
     3
291
     0
 70
    58
 90
        1
176
     1
 90
        2
176
     1
 90
        2
176
     1
 90
        0
176
     1
 40
0.6
176
     1
 40
30.0
176
     1
 62
     7
420
 16777215
176
     1
 90
        2
176
     1
 90
        2
176
     1
 62
     7
176
     1
 62
   257
176
     1
 90
        2
176
     1
 90
        1
176
     1
 40
40.0
176
     1
 90
        0
176
     1
 62
   257
176
     1
 40
1.0
176
     1
 90
        1
176
     1
 90
        6
176
     1
 90
        2
176
     1
 62
     7
176
     1
 90
        3
176
     1
 90
        0
176
     1
 90
        0
176
     1
290
     0
176
     1
 90
        1
176
     1
 40
0.0
176
     1
 90
        0
176
     1
290
     0
176
     1
290
     1
176
     1
290
     1
176
     1
290
     0
176
     1
290
     0
176
     1
290
     0
176
     1
290
     0
176
     1
290
     0
176
     1
290
     0
176
     1
 90
       50
176
     1
 40
0.0
176
     1
 40
1.0
176
     1
 90
        0
176
     1
 62
    18
420
        0
176
     1
 90
       50
176
     1
 90
        3
176
     1
 62
     5
420
      255
176
     1
290
     0
176
     1
 90
       50
176
     1
 90
       50
176
     1
 90
       50
176
     1
290
     0
176
     1
 90
       50
176
     1
 62
   256
176
     0
 40
1.0
176
     0
 90
        2
176
     1
  1
strokes_ogs.tif
176
     1
290
     0
176
     1
 40
1.0
176
     1
 40
1.0
176
     1
  0
VISUALSTYLE
  5
1000014
102
{ACAD_REACTORS
330
1000003
102
}
330
1000003
100
AcDbVisualStyle
  2
JitterOff
 70
    20
177
     3
291
     1
 70
    58
 90
        2
176
     0
 90
        2
176
     0
 90
        0
176
     0
 90
        0
176
     0
 40
0.6
176
     0
 40
30.0
176
     0
 62
     7
420
 16777215
176
     0
 90
        1
176
     0
 90
        4
176
     0
 62
     7
176
     0
 62
   257
176
     0
 90
        1
176
     0
 90
        1
176
     0
 40
1.0
176
     0
 90
       10
176
     2
 62
     7
176
     0
 40
1.0
176
     0
 90
        1
176
     0
 90
        6
176
     0
 90
        2
176
     0
 62
     7
176
     0
 90
        5
176
     0
 90
        0
176
     0
 90
        0
176
     0
290
     0
176
     0
 90
        1
176
     0
 40
0.0
176
     0
 90
        0
176
     0
290
     0
176
     0
290
     1
176
     0
290
     1
176
     0
290
     0
176
     0
290
     0
176
     0
290
     0
176
     0
290
     0
176
     0
290
     0
176
     0
290
     0
176
     0
 90
       50
176
     0
 40
0.0
176
     0
 40
1.0
176
     0
 90
        0
176
     0
 62
    18
420
        0
176
     0
 90
       50
176
     0
 90
        3
176
     0
 62
     5
420
      255
176
     0
290
     0
176
     0
 90
       50
176
     0
 90
       50
176
     0
 90
       50
176
     0
290
     0
176
     0
 90
       50
176
     0
 62
   256
176
     0
 40
1.0
176
     0
 90
        2
176
     0
  1
strokes_ogs.tif
176
     0
290
     0
176
     0
 40
1.0
176
     0
 40
1.0
176
     0
  0
VISUALSTYLE
  5
1000011
102
{ACAD_REACTORS
330
1000003
102
}
330
1000003
100
AcDbVisualStyle
  2
Linepattern
 70
    14
177
     3
291
     1
 70
    58
 90
        2
176
     1
 90
        2
176
     1
 90
        0
176
     1
 90
        0
176
     1
 40
0.6
176
     1
 40
30.0
176
     1
 62
     7
420
 16777215
176
     1
 90
        1
176
     1
 90
        4
176
     1
 62
     7
176
     1
 62
   257
176
     1
 90
        7
176
     1
 90
        7
176
     1
 40
1.0
176
     1
 90
        8
176
     1
 62
     7
176
     1
 40
1.0
176
     1
 90
        1
176
     1
 90
        6
176
     1
 90
        2
176
     1
 62
     7
176
     1
 90
        5
176
     1
 90
        0
176
     1
 90
        0
176
     1
290
     0
176
     1
 90
        1
176
     1
 40
0.0
176
     1
 90
        0
176
     1
290
     0
176
     1
290
     1
176
     1
290
     1
176
     1
290
     0
176
     1
290
     0
176
     1
290
     0
176
     1
290
     0
176
     1
290
     0
176
     1
290
     0
176
     1
 90
       50
176
     1
 40
0.0
176
     1
 40
1.0
176
     1
 90
        0
176
     1
 62
    18
420
        0
176
     1
 90
       50
176
     1
 90
        3
176
     1
 62
     5
420
      255
176
     1
290
     0
176
     1
 90
       50
176
     1
 90
       50
176
     1
 90
       50
176
     1
290
     0
176
     1
 90
       50
176
     1
 62
   256
176
     0
 40
1.0
176
     0
 90
        2
176
     1
  1
strokes_ogs.tif
176
     1
290
     0
176
     1
 40
1.0
176
     1
 40
1.0
176
     1
  0
VISUALSTYLE
  5
1000015
102
{ACAD_REACTORS
330
1000003
102
}
330
1000003
100
AcDbVisualStyle
  2
OverhangOff
 70
    21
177
     3
291
     1
 70
    58
 90
        2
176
     0
 90
        2
176
     0
 90
        0
176
     0
 90
        0
176
     0
 40
0.6
176
     0
 40
30.0
176
     0
 62
     7
420
 16777215
176
     0
 90
        1
176
     0
 90
        4
176
     0
 62
     7
176
     0
 62
   257
176
     0
 90
        1
176
     0
 90
        1
176
     0
 40
1.0
176
     0
 90
        9
176
     2
 62
     7
176
     0
 40
1.0
176
     0
 90
        1
176
     0
 90
        6
176
     0
 90
        2
176
     0
 62
     7
176
     0
 90
        5
176
     0
 90
        0
176
     0
 90
        0
176
     0
290
     0
176
     0
 90
        1
176
     0
 40
0.0
176
     0
 90
        0
176
     0
290
     0
176
     0
290
     1
176
     0
290
     1
176
     0
290
     0
176
     0
290
     0
176
     0
290
     0
176
     0
290
     0
176
     0
290
     0
176
     0
290
     0
176
     0
 90
       50
176
     0
 40
0.0
176
     0
 40
1.0
176
     0
 90
        0
176
     0
 62
    18
420
        0
176
     0
 90
       50
176
     0
 90
        3
176
     0
 62
     5
420
      255
176
     0
290
     0
176
     0
 90
       50
176
     0
 90
       50
176
     0
 90
       50
176
     0
290
     0
176
     0
 90
       50
176
     0
 62
   256
176
     0
 40
1.0
176
     0
 90
        2
176
     0
  1
strokes_ogs.tif
176
     0
290
     0
176
     0
 40
1.0
176
     0
 40
1.0
176
     0
  0
VISUALSTYLE
  5
100000C
102
{ACAD_REACTORS
330
1000003
102
}
330
1000003
100
AcDbVisualStyle
  2
Realistic
 70
     8
177
     3
291
     0
 70
    58
 90
        2
176
     1
 90
        3
176
     1
 90
        0
176
     1
 90
        2
176
     1
 40
0.6
176
     1
 40
30.0
176
     1
 62
     7
420
 16777215
176
     1
 90
        0
176
     1
 90
        0
176
     1
 62
     7
176
     1
 62
   257
176
     1
 90
        1
176
     1
 90
        1
176
     1
 40
1.0
176
     1
 90
        8
176
     1
 62
   257
176
     1
 40
1.0
176
     1
 90
        1
176
     1
 90
        6
176
     1
 90
        2
176
     1
 62
     7
176
     1
 90
        3
176
     1
 90
        0
176
     1
 90
        0
176
     1
290
     0
176
     1
 90
       13
176
     1
 40
0.0
176
     1
 90
        0
176
     1
290
     0
176
     1
290
     1
176
     1
290
     1
176
     1
290
     0
176
     1
290
     0
176
     1
290
     0
176
     1
290
     0
176
     1
290
     0
176
     1
290
     0
176
     1
 90
       50
176
     1
 40
0.0
176
     1
 40
1.0
176
     1
 90
        0
176
     1
 62
    18
420
        0
176
     1
 90
       50
176
     1
 90
        3
176
     1
 62
     5
420
      255
176
     1
290
     0
176
     1
 90
       50
176
     1
 90
       50
176
     1
 90
       50
176
     1
290
     0
176
     1
 90
       50
176
     1
 62
   256
176
     0
 40
1.0
176
     0
 90
        2
176
     1
  1
strokes_ogs.tif
176
     1
290
     0
176
     1
 40
1.0
176
     1
 40
1.0
176
     1
  0
VISUALSTYLE
  5
100001B
102
{ACAD_REACTORS
330
1000003
102
}
330
1000003
100
AcDbVisualStyle
  2
Shaded
 70
    27
177
     3
291
     0
 70
    58
 90
        2
176
     1
 90
        2
176
     1
 90
        1
176
     1
 90
        2
176
     1
 40
0.6
176
     1
 40
30.0
176
     1
 62
     7
420
 16777215
176
     1
 90
        0
176
     1
 90
        4
176
     1
 62
     7
176
     1
 62
   257
176
     1
 90
        1
176
     1
 90
        1
176
     1
 40
1.0
176
     1
 90
        8
176
     1
 62
   257
176
     1
 40
1.0
176
     1
 90
        1
176
     1
 90
        6
176
     1
 90
        2
176
     1
 62
     8
420
  7895160
176
     1
 90
        3
176
     1
 90
        0
176
     1
 90
        0
176
     1
290
     0
176
     1
 90
        5
176
     1
 40
0.0
176
     1
 90
        0
176
     1
290
     0
176
     1
290
     1
176
     1
290
     1
176
     1
290
     0
176
     1
290
     0
176
     1
290
     0
176
     1
290
     0
176
     1
290
     0
176
     1
290
     0
176
     1
 90
       50
176
     1
 40
0.0
176
     1
 40
1.0
176
     1
 90
        0
176
     1
 62
    18
420
        0
176
     1
 90
       50
176
     1
 90
        3
176
     1
 62
     5
420
      255
176
     1
290
     0
176
     1
 90
       50
176
     1
 90
       50
176
     1
 90
       50
176
     1
290
     0
176
     1
 90
       50
176
     1
 62
   256
176
     0
 40
1.0
176
     0
 90
        2
176
     1
  1
strokes_ogs.tif
176
     1
290
     0
176
     1
 40
1.0
176
     1
 40
1.0
176
     1
  0
VISUALSTYLE
  5
100001A
102
{ACAD_REACTORS
330
1000003
102
}
330
1000003
100
AcDbVisualStyle
  2
Shaded with edges
 70
    26
177
     3
291
     0
 70
    58
 90
        2
176
     1
 90
        2
176
     1
 90
        1
176
     1
 90
        2
176
     1
 40
0.6
176
     1
 40
30.0
176
     1
 62
     7
420
 16777215
176
     1
 90
        1
176
     1
 90
       10
176
     1
 62
     7
176
     1
 62
   257
176
     1
 90
        2
176
     1
 90
        1
176
     1
 40
1.0
176
     1
 90
        8
176
     1
 62
   257
176
     1
 40
1.0
176
     1
 90
        1
176
     1
 90
        6
176
     1
 90
        2
176
     1
 62
     7
176
     1
 90
        3
176
     1
 90
        0
176
     1
 90
        0
176
     1
290
     0
176
     1
 90
        5
176
     1
 40
0.0
176
     1
 90
        0
176
     1
290
     0
176
     1
290
     1
176
     1
290
     1
176
     1
290
     0
176
     1
290
     0
176
     1
290
     0
176
     1
290
     0
176
     1
290
     0
176
     1
290
     0
176
     1
 90
       50
176
     1
 40
0.0
176
     1
 40
1.0
176
     1
 90
        0
176
     1
 62
    18
420
        0
176
     1
 90
       50
176
     1
 90
        3
176
     1
 62
     5
420
      255
176
     1
290
     0
176
     1
 90
       50
176
     1
 90
       50
176
     1
 90
       50
176
     1
290
     0
176
     1
 90
       50
176
     1
 62
   256
176
     0
 40
1.0
176
     0
 90
        2
176
     1
  1
strokes_ogs.tif
176
     1
290
     0
176
     1
 40
1.0
176
     1
 40
1.0
176
     1
  0
VISUALSTYLE
  5
1000017
102
{ACAD_REACTORS
330
1000003
102
}
330
1000003
100
AcDbVisualStyle
  2
Shades of Gray
 70
    23
177
     3
291
     0
 70
    58
 90
        2
176
     1
 90
        2
176
     1
 90
        3
176
     1
 90
        0
176
     1
 40
0.6
176
     1
 40
30.0
176
     1
 62
     7
420
 16777215
176
     1
 90
        2
176
     1
 90
        2
176
     1
 62
     7
176
     1
 62
     7
176
     1
 90
        1
176
     1
 90
        1
176
     1
 40
40.0
176
     1
 90
        8
176
     1
 62
     7
176
     1
 40
1.0
176
     1
 90
        1
176
     1
 90
        6
176
     1
 90
        2
176
     1
 62
     7
176
     1
 90
        3
176
     1
 90
        0
176
     1
 90
        0
176
     1
290
     0
176
     1
 90
        1
176
     1
 40
0.0
176
     1
 90
        0
176
     1
290
     0
176
     1
290
     1
176
     1
290
     1
176
     1
290
     0
176
     1
290
     0
176
     1
290
     0
176
     1
290
     0
176
     1
290
     0
176
     1
290
     0
176
     1
 90
       50
176
     1
 40
0.0
176
     1
 40
1.0
176
     1
 90
        0
176
     1
 62
    18
420
        0
176
     1
 90
       50
176
     1
 90
        3
176
     1
 62
     5
420
      255
176
     1
290
     0
176
     1
 90
       50
176
     1
 90
       50
176
     1
 90
       50
176
     1
290
     0
176
     1
 90
       50
176
     1
 62
   256
176
     0
 40
1.0
176
     0
 90
        2
176
     1
  1
strokes_ogs.tif
176
     1
290
     0
176
     1
 40
1.0
176
     1
 40
1.0
176
     1
  0
VISUALSTYLE
  5
1000018
102
{ACAD_REACTORS
330
1000003
102
}
330
1000003
100
AcDbVisualStyle
  2
Sketchy
 70
    24
177
     3
291
     0
 70
    58
 90
        1
176
     1
 90
        2
176
     1
 90
        2
176
     1
 90
        0
176
     1
 40
0.6
176
     1
 40
30.0
176
     1
 62
     7
420
 16777215
176
     1
 90
        2
176
     1
 90
        2
176
     1
 62
     7
176
     1
 62
     7
176
     1
 90
        1
176
     1
 90
        1
176
     1
 40
40.0
176
     1
 90
       11
176
     1
 62
     7
176
     1
 40
1.0
176
     1
 90
        1
176
     1
 90
        6
176
     1
 90
        2
176
     1
 62
     7
176
     1
 90
        6
176
     1
 90
        0
176
     1
 90
        0
176
     1
290
     0
176
     1
 90
        1
176
     1
 40
0.0
176
     1
 90
        0
176
     1
290
     0
176
     1
290
     1
176
     1
290
     1
176
     1
290
     0
176
     1
290
     0
176
     1
290
     0
176
     1
290
     0
176
     1
290
     0
176
     1
290
     0
176
     1
 90
       50
176
     1
 40
0.0
176
     1
 40
1.0
176
     1
 90
        0
176
     1
 62
    18
420
        0
176
     1
 90
       50
176
     1
 90
        3
176
     1
 62
     5
420
      255
176
     1
290
     0
176
     1
 90
       50
176
     1
 90
       50
176
     1
 90
       50
176
     1
290
     0
176
     1
 90
       50
176
     1
 62
   256
176
     0
 40
1.0
176
     0
 90
        2
176
     1
  1
strokes_ogs.tif
176
     1
290
     0
176
     1
 40
1.0
176
     1
 40
1.0
176
     1
  0
VISUALSTYLE
  5
1000010
102
{ACAD_REACTORS
330
1000003
102
}
330
1000003
100
AcDbVisualStyle
  2
Thicken
 70
    13
177
     3
291
     1
 70
    58
 90
        2
176
     1
 90
        2
176
     1
 90
        0
176
     1
 90
        0
176
     1
 40
0.6
176
     1
 40
30.0
176
     1
 62
     7
420
 16777215
176
     1
 90
        1
176
     1
 90
        4
176
     1
 62
     7
176
     1
 62
   257
176
     1
 90
        1
176
     1
 90
        1
176
     1
 40
1.0
176
     1
 90
       12
176
     1
 62
     7
176
     1
 40
1.0
176
     1
 90
        1
176
     1
 90
        6
176
     1
 90
        2
176
     1
 62
     7
176
     1
 90
        5
176
     1
 90
        0
176
     1
 90
        0
176
     1
290
     0
176
     1
 90
        1
176
     1
 40
0.0
176
     1
 90
        0
176
     1
290
     0
176
     1
290
     1
176
     1
290
     1
176
     1
290
     0
176
     1
290
     0
176
     1
290
     0
176
     1
290
     0
176
     1
290
     0
176
     1
290
     0
176
     1
 90
       50
176
     1
 40
0.0
176
     1
 40
1.0
176
     1
 90
        0
176
     1
 62
    18
420
        0
176
     1
 90
       50
176
     1
 90
        3
176
     1
 62
     5
420
      255
176
     1
290
     0
176
     1
 90
       50
176
     1
 90
       50
176
     1
 90
       50
176
     1
290
     0
176
     1
 90
       50
176
     1
 62
   256
176
     0
 40
1.0
176
     0
 90
        2
176
     1
  1
strokes_ogs.tif
176
     1
290
     0
176
     1
 40
1.0
176
     1
 40
1.0
176
     1
  0
VISUALSTYLE
  5
1000009
102
{ACAD_REACTORS
330
1000003
102
}
330
1000003
100
AcDbVisualStyle
  2
Wireframe
 70
     5
177
     3
291
     0
 70
    58
 90
        0
176
     1
 90
        2
176
     1
 90
        0
176
     1
 90
        0
176
     1
 40
0.6
176
     1
 40
30.0
176
     1
 62
     7
420
 16777215
176
     1
 90
        1
176
     1
 90
        4
176
     1
 62
     7
176
     1
 62
   257
176
     1
 90
        1
176
     1
 90
        1
176
     1
 40
1.0
176
     1
 90
        0
176
     1
 62
   257
176
     1
 40
1.0
176
     1
 90
        1
176
     1
 90
        6
176
     1
 90
        2
176
     1
 62
     7
176
     1
 90
        3
176
     1
 90
        0
176
     1
 90
        0
176
     1
290
     0
176
     1
 90
        1
176
     1
 40
0.0
176
     1
 90
        0
176
     1
290
     0
176
     1
290
     1
176
     1
290
     1
176
     1
290
     0
176
     1
290
     0
176
     1
290
     0
176
     1
290
     0
176
     1
290
     0
176
     1
290
     0
176
     1
 90
       50
176
     1
 40
0.0
176
     1
 40
1.0
176
     1
 90
        0
176
     1
 62
    18
420
        0
176
     1
 90
       50
176
     1
 90
        3
176
     1
 62
     5
420
      255
176
     1
290
     0
176
     1
 90
       50
176
     1
 90
       50
176
     1
 90
       50
176
     1
290
     0
176
     1
 90
       50
176
     1
 62
   256
176
     0
 40
1.0
176
     0
 90
        2
176
     1
  1
strokes_ogs.tif
176
     1
290
     0
176
     1
 40
1.0
176
     1
 40
1.0
176
     1
  0
VISUALSTYLE
  5
1000019
102
{ACAD_REACTORS
330
1000003
102
}
330
1000003
100
AcDbVisualStyle
  2
X-Ray
 70
    25
177
     3
291
     0
 70
    58
 90
        2
176
     1
 90
        2
176
     1
 90
        1
176
     1
 90
        1
176
     1
 40
0.5
176
     1
 40
30.0
176
     1
 62
     7
420
 16777215
176
     1
 90
        1
176
     1
 90
        0
176
     1
 62
     7
176
     1
 62
   257
176
     1
 90
        1
176
     1
 90
        1
176
     1
 40
1.0
176
     1
 90
        8
176
     1
 62
     7
176
     1
 40
1.0
176
     1
 90
        1
176
     1
 90
        6
176
     1
 90
        2
176
     1
 62
     7
176
     1
 90
        3
176
     1
 90
        0
176
     1
 90
        0
176
     1
290
     0
176
     1
 90
       13
176
     1
 40
0.0
176
     1
 90
        0
176
     1
290
     0
176
     1
290
     1
176
     1
290
     1
176
     1
290
     0
176
     1
290
     0
176
     1
290
     0
176
     1
290
     0
176
     1
290
     0
176
     1
290
     0
176
     1
 90
       50
176
     1
 40
0.0
176
     1
 40
1.0
176
     1
 90
        0
176
     1
 62
    18
420
        0
176
     1
 90
       50
176
     1
 90
        3
176
     1
 62
     5
420
      255
176
     1
290
     0
176
     1
 90
       50
176
     1
 90
       50
176
     1
 90
       50
176
     1
290
     0
176
     1
 90
       50
176
     1
 62
   256
176
     0
 40
1.0
176
     0
 90
        2
176
     1
  1
strokes_ogs.tif
176
     1
290
     0
176
     1
 40
1.0
176
     1
 40
1.0
176
     1
  0
DICTIONARYVAR
  5
100018C
102
{ACAD_REACTORS
330
1000188
102
}
330
1000188
100
DictionaryVariables
280
     0
  1
1:1
  0
DICTIONARYVAR
  5
100018A
102
{ACAD_REACTORS
330
1000188
102
}
330
1000188
100
DictionaryVariables
280
     0
  1
Standard
  0
DICTIONARYVAR
  5
1000189
102
{ACAD_REACTORS
330
1000188
102
}
330
1000188
100
DictionaryVariables
280
     0
  1
Standard
  0
DICTIONARYVAR
  5
100018B
102
{ACAD_REACTORS
330
1000188
102
}
330
1000188
100
DictionaryVariables
280
     0
  1
0
  0
ENDSEC
  0
SECTION
  2
ACDSDATA
 70
     2
 71
     2
  0
ACDSSCHEMA
 90
        0
  1
AcDb3DSolid_ASM_Data
  2
AcDbDs::ID
280
    10
 91
        0
  2
ASM_Data
280
    15
 91
        0
101
ACDSRECORD
 95
        0
 90
        1
  2
AcDbDs::TreatedAsObjectData
280
     1
291
     1
101
ACDSRECORD
 95
        0
 90
        2
  2
AcDbDs::Legacy
280
     1
291
     1
101
ACDSRECORD
  1
AcDbDs::ID
 90
        3
  2
AcDs:Indexable
280
     1
291
     1
101
ACDSRECORD
  1
AcDbDs::ID
 90
        4
  2
AcDbDs::HandleAttribute
280
     7
282
     1
  0
ACDSSCHEMA
 90
        1
  1
AcDbDs::TreatedAsObjectDataSchema
  2
AcDbDs::TreatedAsObjectData
280
     1
 91
        0
  0
ACDSSCHEMA
 90
        2
  1
AcDbDs::LegacySchema
  2
AcDbDs::Legacy
280
     1
 91
        0
  0
ACDSSCHEMA
 90
        3
  1
AcDbDs::IndexedPropertySchema
  2
AcDs:Indexable
280
     1
 91
        0
  0
ACDSSCHEMA
 90
        4
  1
AcDbDs::HandleAttributeSchema
  2
AcDbDs::HandleAttribute
280
     7
 91
        8
  0
ENDSEC
  0
EOF
