  0
SECTION
  2
HEADER
  9
$ACADVER
  1
AC1018
  9
$HANDSEED
  5
FFFFFF
  9
$EXTMAX
 10
7567833.59999999963
 20
5714238.24000000022
 30
1000000.00
  9
$EXTMIN
 10
7567357.08000000007
 20
5713836.94000000041
 30
0.00
  9
$LIMMIN
 10
7567357.08000000007
 20
5713836.94000000041
  9
$LIMMAX
 10
7567833.59999999963
 20
5714238.24000000022
  9
$DIMASZ
 40
2.5
  9
$DIMGAP
 40
0.625
  9
$INSUNITS
 70
6
  9
$MEASUREMENT
 70
1
  9
$DIMEXO
 40
0.625
  9
$DIMTXT
 40
2.5
  9
$DIMSTYLE
  2
Standard
  9
$PLIMMIN
 10
0.0
 20
0.0
  9
$PLIMMAX
 10
210.0
 20
297.0
  9
$DIMEXE
 40
1.25
  9
$TEXTSIZE
 40
2.5
  9
$TEXTSTYLE
  7
Standard
  9
$LWDISPLAY
290
1
  9
$TDCREATE
 40
45707.438538657
  9
$TDUCREATE
 40
45707.396871991
  9
$TDUPDATE
 40
45707.438538657
  9
$TDUUPDATE
 40
45707.396871991
  9
$TDINDWG
 40
0.0
  9
$TDUSRTIMER
 40
0.0
  9
$USRTIMER
 70
1
  0
ENDSEC
  0
SECTION
  2
TABLES
  0
TABLE
  2
VPORT
  5
1
100
AcDbSymbolTable
 70
1
  0
VPORT
  5
2
100
AcDbSymbolTableRecord
100
AcDbViewportTableRecord
  2
*ACTIVE
 70
0
 10
0.0
 20
0.0
 11
1.0
 21
1.0
 12
7567595.34
 22
5714037.59
 13
0.0
 23
0.0
 14
1.0
 24
1.0
 15
0.0
 25
0.0
 16
0.0
 26
0.0
 36
1.0
 17
0.0
 27
0.0
 37
0.0
 40
401.30
 41
1.19
 42
50.0
 43
0.0
 44
0.0
 50
0.0
 51
0.0
 71
0
 72
100
 73
1
 74
1
 75
0
 76
0
 77
0
 78
0
  0
ENDTAB
  0
TABLE
  2
LTYPE
  5
3
100
AcDbSymbolTable
 70
3
  0
LTYPE
  5
4
100
AcDbSymbolTableRecord
100
AcDbLinetypeTableRecord
  2
ByBlock
 70
0
  3

 72
65
 73
0
 40
0.0
  0
LTYPE
  5
5
100
AcDbSymbolTableRecord
100
AcDbLinetypeTableRecord
  2
ByLayer
 70
0
  3

 72
65
 73
0
 40
0.0
  0
LTYPE
  5
6
100
AcDbSymbolTableRecord
100
AcDbLinetypeTableRecord
  2
CONTINUOUS
 70
0
  3
Solid line
 72
65
 73
0
 40
0.0
  0
LTYPE
  5
7
100
AcDbSymbolTableRecord
100
AcDbLinetypeTableRecord
  2
L_0_03
 70
0
  3
Uzytek_gruntowy
 72
65
 73
2
 40
1.0
 49
0.5
 74
0
 49
-0.5
 74
0
  0
LTYPE
  5
8
100
AcDbSymbolTableRecord
100
AcDbLinetypeTableRecord
  2
L_0_04
 70
0
  3
Budynek_projektowany
 72
65
 73
2
 40
1.5
 49
1.0
 74
0
 49
-0.5
 74
0
  0
ENDTAB
  0
TABLE
  2
LAYER
  5
9
100
AcDbSymbolTable
 70
5
  0
LAYER
  5
A
100
AcDbSymbolTableRecord
100
AcDbLayerTableRecord
  2
0
 70
0
420
0
  6
CONTINUOUS
370
18
390
B
  0
LAYER
  5
C
100
AcDbSymbolTableRecord
100
AcDbLayerTableRecord
  2
granica
 70
0
420
0
  6
CONTINUOUS
370
18
390
B
  0
LAYER
  5
D
100
AcDbSymbolTableRecord
100
AcDbLayerTableRecord
  2
granica_niepewna
 70
0
420
65280
  6
CONTINUOUS
370
18
390
B
  0
LAYER
  5
E
100
AcDbSymbolTableRecord
100
AcDbLayerTableRecord
  2
podgik_
 70
0
420
0
  6
CONTINUOUS
370
18
390
B
  0
LAYER
  5
F
100
AcDbSymbolTableRecord
100
AcDbLayerTableRecord
  2
zarys_linie
 70
0
420
255
  6
L_0_04
370
25
390
B
  0
ENDTAB
  0
TABLE
  2
STYLE
  5
10
100
AcDbSymbolTable
 70
2
  0
STYLE
  5
11
100
AcDbSymbolTableRecord
100
AcDbTextStyleTableRecord
  2
STANDARD
 70
0
 40
0.0
 41
1.0
 50
0.0
 71
0
  3
simplex.shx
  4

  0
STYLE
  5
12
100
AcDbSymbolTableRecord
100
AcDbTextStyleTableRecord
  2
STANDARD_ITALIC
 70
0
 40
0.0
 41
1.0
 50
15.0
 71
0
  3
simplex.shx
  4

  0
ENDTAB
  0
TABLE
  2
VIEW
  5
13
100
AcDbSymbolTable
 70
0
  0
ENDTAB
  0
TABLE
  2
UCS
  5
14
100
AcDbSymbolTable
 70
0
  0
ENDTAB
  0
TABLE
  2
APPID
  5
15
100
AcDbSymbolTable
 70
1
  0
APPID
  5
16
100
AcDbSymbolTableRecord
100
AcDbRegAppTableRecord
  2
ACAD
 70
0
  0
ENDTAB
  0
TABLE
  2
DIMSTYLE
  5
17
100
AcDbSymbolTable
 70
1
100
AcDbDimStyleTable
  0
DIMSTYLE
105
18
100
AcDbSymbolTableRecord
100
AcDbDimStyleTableRecord
  2
Standard
 70
0
340
11
  0
ENDTAB
  0
TABLE
  2
BLOCK_RECORD
  5
19
100
AcDbSymbolTable
 70
2
  0
BLOCK_RECORD
  5
1A
100
AcDbSymbolTableRecord
100
AcDbBlockTableRecord
  2
*Model_Space
340
1B
  0
BLOCK_RECORD
  5
1C
100
AcDbSymbolTableRecord
100
AcDbBlockTableRecord
  2
*Paper_Space
340
1D
  0
ENDTAB
  0
ENDSEC
  0
SECTION
  2
BLOCKS
  0
BLOCK
  5
1E
100
AcDbEntity
  8
0
100
AcDbBlockBegin
  2
*Model_Space
 70
0
 10
0.0
 20
0.0
 30
0.0
  3
*Model_Space
  1

  0
ENDBLK
  5
1F
100
AcDbEntity
  8
0
100
AcDbBlockEnd
  0
BLOCK
  5
20
100
AcDbEntity
 67
1
  8
0
100
AcDbBlockBegin
  2
*Paper_Space
 70
0
 10
0.0
 20
0.0
 30
0.0
  3
*Paper_Space
  1

  0
ENDBLK
  5
21
100
AcDbEntity
 67
1
  8
0
100
AcDbBlockEnd
  0
ENDSEC
  0
SECTION
  2
ENTITIES
  0
POLYLINE
  5
22
100
AcDbEntity
  8
granica
  6
CONTINUOUS
370
18
100
AcDb2dPolyline
 66
1
 70
128
  0
VERTEX
  5
23
100
AcDbEntity
  8
granica
100
AcDbVertex
100
AcDb2dVertex
 10
7567669.09135035146
 20
5713897.00776613224
  0
VERTEX
  5
24
100
AcDbEntity
  8
granica
100
AcDbVertex
100
AcDb2dVertex
 10
7567660.37999999989
 20
5713875.62999999989
  0
VERTEX
  5
25
100
AcDbEntity
  8
granica
100
AcDbVertex
100
AcDb2dVertex
 10
7567641.11158586387
 20
5713864.24906073697
  0
VERTEX
  5
26
100
AcDbEntity
  8
granica
100
AcDbVertex
100
AcDb2dVertex
 10
7567622.47368646413
 20
5713856.72385602258
  0
VERTEX
  5
27
100
AcDbEntity
  8
granica
100
AcDbVertex
100
AcDb2dVertex
 10
7567603.92046381347
 20
5713854.8400158938
  0
VERTEX
  5
28
100
AcDbEntity
  8
granica
100
AcDbVertex
100
AcDb2dVertex
 10
7567581.36000000034
 20
5713844.20999999996
  0
VERTEX
  5
29
100
AcDbEntity
  8
granica
100
AcDbVertex
100
AcDb2dVertex
 10
7567571.87247705646
 20
5713836.93705217447
  0
SEQEND
  5
2A
100
AcDbEntity
  8
granica
  0
POLYLINE
  5
2B
100
AcDbEntity
  8
granica
  6
CONTINUOUS
370
18
100
AcDb2dPolyline
 66
1
 70
128
  0
VERTEX
  5
2C
100
AcDbEntity
  8
granica
100
AcDbVertex
100
AcDb2dVertex
 10
7567418.6209298782
 20
5714099.85546702985
  0
VERTEX
  5
2D
100
AcDbEntity
  8
granica
100
AcDbVertex
100
AcDb2dVertex
 10
7567417.23643201776
 20
5714098.41214943584
  0
VERTEX
  5
2E
100
AcDbEntity
  8
granica
100
AcDbVertex
100
AcDb2dVertex
 10
7567406.22967403103
 20
5714086.93777456786
  0
VERTEX
  5
2F
100
AcDbEntity
  8
granica
100
AcDbVertex
100
AcDb2dVertex
 10
7567402.90099719353
 20
5714083.75659388956
  0
SEQEND
  5
30
100
AcDbEntity
  8
granica
  0
POLYLINE
  5
31
100
AcDbEntity
  8
granica
  6
L_0_03
370
13
100
AcDb2dPolyline
 66
1
 70
128
  0
VERTEX
  5
32
100
AcDbEntity
  8
granica
100
AcDbVertex
100
AcDb2dVertex
 10
7567571.87000000011
 20
5713836.94000000041
  0
VERTEX
  5
33
100
AcDbEntity
  8
granica
100
AcDbVertex
100
AcDb2dVertex
 10
7567555.60368825682
 20
5713867.92618755531
  0
SEQEND
  5
34
100
AcDbEntity
  8
granica
  0
POLYLINE
  5
35
100
AcDbEntity
  8
granica
  6
L_0_03
370
13
100
AcDb2dPolyline
 66
1
 70
128
  0
VERTEX
  5
36
100
AcDbEntity
  8
granica
100
AcDbVertex
100
AcDb2dVertex
 10
7567608.17149359453
 20
5713895.52184796985
  0
VERTEX
  5
37
100
AcDbEntity
  8
granica
100
AcDbVertex
100
AcDb2dVertex
 10
7567608.16956215911
 20
5713895.52083405573
  0
SEQEND
  5
38
100
AcDbEntity
  8
granica
  0
POLYLINE
  5
39
100
AcDbEntity
  8
granica
  6
L_0_03
370
13
100
AcDb2dPolyline
 66
1
 70
128
  0
VERTEX
  5
3A
100
AcDbEntity
  8
granica
100
AcDbVertex
100
AcDb2dVertex
 10
7567577.75999999978
 20
5713879.55999999959
  0
VERTEX
  5
3B
100
AcDbEntity
  8
granica
100
AcDbVertex
100
AcDb2dVertex
 10
7567577.76114247832
 20
5713879.55782365706
  0
SEQEND
  5
3C
100
AcDbEntity
  8
granica
  0
POLYLINE
  5
3D
100
AcDbEntity
  8
granica
  6
L_0_03
370
13
100
AcDb2dPolyline
 66
1
 70
128
  0
VERTEX
  5
3E
100
AcDbEntity
  8
granica
100
AcDbVertex
100
AcDb2dVertex
 10
7567368.84999999963
 20
5714047.96999999974
  0
VERTEX
  5
3F
100
AcDbEntity
  8
granica
100
AcDbVertex
100
AcDb2dVertex
 10
7567368.84997859038
 20
5714047.97002053633
  0
SEQEND
  5
40
100
AcDbEntity
  8
granica
  0
POLYLINE
  5
41
100
AcDbEntity
  8
granica
  6
L_0_03
370
13
100
AcDb2dPolyline
 66
1
 70
128
  0
VERTEX
  5
42
100
AcDbEntity
  8
granica
100
AcDbVertex
100
AcDb2dVertex
 10
7567383.04000000004
 20
5714062.75999999978
  0
VERTEX
  5
43
100
AcDbEntity
  8
granica
100
AcDbVertex
100
AcDb2dVertex
 10
7567383.03855212312
 20
5714062.76138887089
  0
SEQEND
  5
44
100
AcDbEntity
  8
granica
  0
POLYLINE
  5
45
100
AcDbEntity
  8
granica
  6
L_0_03
370
13
100
AcDb2dPolyline
 66
1
 70
128
  0
VERTEX
  5
46
100
AcDbEntity
  8
granica
100
AcDbVertex
100
AcDb2dVertex
 10
7567383.3200000003
 20
5714063.04999999981
  0
VERTEX
  5
47
100
AcDbEntity
  8
granica
100
AcDbVertex
100
AcDb2dVertex
 10
7567383.31760510988
 20
5714063.05229729041
  0
SEQEND
  5
48
100
AcDbEntity
  8
granica
  0
POLYLINE
  5
49
100
AcDbEntity
  8
granica
  6
L_0_03
370
13
100
AcDb2dPolyline
 66
1
 70
128
  0
VERTEX
  5
4A
100
AcDbEntity
  8
granica
100
AcDbVertex
100
AcDb2dVertex
 10
7567402.90000000037
 20
5714083.75999999978
  0
VERTEX
  5
4B
100
AcDbEntity
  8
granica
100
AcDbVertex
100
AcDb2dVertex
 10
7567403.04655267205
 20
5714083.61941981129
  0
SEQEND
  5
4C
100
AcDbEntity
  8
granica
  0
POLYLINE
  5
4D
100
AcDbEntity
  8
granica
  6
L_0_03
370
13
100
AcDb2dPolyline
 66
1
 70
128
  0
VERTEX
  5
4E
100
AcDbEntity
  8
granica
100
AcDbVertex
100
AcDb2dVertex
 10
7567406.12000000011
 20
5714087.00999999978
  0
VERTEX
  5
4F
100
AcDbEntity
  8
granica
100
AcDbVertex
100
AcDb2dVertex
 10
7567406.21319877449
 20
5714086.9205993684
  0
SEQEND
  5
50
100
AcDbEntity
  8
granica
  0
POLYLINE
  5
51
100
AcDbEntity
  8
granica
  6
L_0_03
370
13
100
AcDb2dPolyline
 66
1
 70
128
  0
VERTEX
  5
52
100
AcDbEntity
  8
granica
100
AcDbVertex
100
AcDb2dVertex
 10
7567406.23000000045
 20
5714086.94000000041
  0
VERTEX
  5
53
100
AcDbEntity
  8
granica
100
AcDbVertex
100
AcDb2dVertex
 10
7567406.23094199225
 20
5714086.93909639772
  0
SEQEND
  5
54
100
AcDbEntity
  8
granica
  0
POLYLINE
  5
55
100
AcDbEntity
  8
granica
  6
L_0_03
370
13
100
AcDb2dPolyline
 66
1
 70
128
  0
VERTEX
  5
56
100
AcDbEntity
  8
granica
100
AcDbVertex
100
AcDb2dVertex
 10
7567417.24000000022
 20
5714098.41000000015
  0
VERTEX
  5
57
100
AcDbEntity
  8
granica
100
AcDbVertex
100
AcDb2dVertex
 10
7567417.2370680375
 20
5714098.41281247605
  0
SEQEND
  5
58
100
AcDbEntity
  8
granica
  0
POLYLINE
  5
59
100
AcDbEntity
  8
granica
  6
L_0_03
370
13
100
AcDb2dPolyline
 66
1
 70
128
  0
VERTEX
  5
5A
100
AcDbEntity
  8
granica
100
AcDbVertex
100
AcDb2dVertex
 10
7567418.66000000015
 20
5714099.63999999966
  0
VERTEX
  5
5B
100
AcDbEntity
  8
granica
100
AcDbVertex
100
AcDb2dVertex
 10
7567418.5320122838
 20
5714099.7627718132
  0
SEQEND
  5
5C
100
AcDbEntity
  8
granica
  0
POLYLINE
  5
5D
100
AcDbEntity
  8
granica
  6
L_0_03
370
13
100
AcDb2dPolyline
 66
1
 70
128
  0
VERTEX
  5
5E
100
AcDbEntity
  8
granica
100
AcDbVertex
100
AcDb2dVertex
 10
7567418.62000000011
 20
5714099.86000000034
  0
VERTEX
  5
5F
100
AcDbEntity
  8
granica
100
AcDbVertex
100
AcDb2dVertex
 10
7567418.62274879776
 20
5714099.85736322496
  0
SEQEND
  5
60
100
AcDbEntity
  8
granica
  0
POLYLINE
  5
61
100
AcDbEntity
  8
granica
  6
L_0_03
370
13
100
AcDb2dPolyline
 66
1
 70
128
  0
VERTEX
  5
62
100
AcDbEntity
  8
granica
100
AcDbVertex
100
AcDb2dVertex
 10
7567426.62999999989
 20
5714111.79999999981
  0
VERTEX
  5
63
100
AcDbEntity
  8
granica
100
AcDbVertex
100
AcDb2dVertex
 10
7567428.42604583874
 20
5714110.07714868058
  0
SEQEND
  5
64
100
AcDbEntity
  8
granica
  0
POLYLINE
  5
65
100
AcDbEntity
  8
granica
  6
L_0_03
370
13
100
AcDb2dPolyline
 66
1
 70
128
  0
VERTEX
  5
66
100
AcDbEntity
  8
granica
100
AcDbVertex
100
AcDb2dVertex
 10
7567429.51999999955
 20
5714109.04000000004
  0
VERTEX
  5
67
100
AcDbEntity
  8
granica
100
AcDbVertex
100
AcDb2dVertex
 10
7567428.43215225544
 20
5714110.08351452556
  0
SEQEND
  5
68
100
AcDbEntity
  8
granica
  0
POLYLINE
  5
69
100
AcDbEntity
  8
granica
  6
L_0_03
370
13
100
AcDb2dPolyline
 66
1
 70
128
  0
VERTEX
  5
6A
100
AcDbEntity
  8
granica
100
AcDbVertex
100
AcDb2dVertex
 10
7567546.08999999985
 20
5714232.74000000022
  0
VERTEX
  5
6B
100
AcDbEntity
  8
granica
100
AcDbVertex
100
AcDb2dVertex
 10
7567546.08999999985
 20
5714232.74000000022
  0
SEQEND
  5
6C
100
AcDbEntity
  8
granica
  0
POLYLINE
  5
6D
100
AcDbEntity
  8
granica
  6
CONTINUOUS
370
18
100
AcDb2dPolyline
 66
1
 70
129
  0
VERTEX
  5
6E
100
AcDbEntity
  8
granica
100
AcDbVertex
100
AcDb2dVertex
 10
7567642.25928055402
 20
5713864.93092088308
  0
VERTEX
  5
6F
100
AcDbEntity
  8
granica
100
AcDbVertex
100
AcDb2dVertex
 10
7567406.12000000011
 20
5714087.00999999978
  0
VERTEX
  5
70
100
AcDbEntity
  8
granica
100
AcDbVertex
100
AcDb2dVertex
 10
7567418.66000000015
 20
5714099.63999999966
  0
VERTEX
  5
71
100
AcDbEntity
  8
granica
100
AcDbVertex
100
AcDb2dVertex
 10
7567521.24000000022
 20
5714004.37000000011
  0
VERTEX
  5
72
100
AcDbEntity
  8
granica
100
AcDbVertex
100
AcDb2dVertex
 10
7567627.50999999978
 20
5713905.66999999993
  0
VERTEX
  5
73
100
AcDbEntity
  8
granica
100
AcDbVertex
100
AcDb2dVertex
 10
7567660.37999999989
 20
5713875.62999999989
  0
SEQEND
  5
74
100
AcDbEntity
  8
granica
  0
POLYLINE
  5
75
100
AcDbEntity
  8
granica
  6
CONTINUOUS
370
18
100
AcDb2dPolyline
 66
1
 70
129
  0
VERTEX
  5
76
100
AcDbEntity
  8
granica
100
AcDbVertex
100
AcDb2dVertex
 10
7567642.25928055402
 20
5713864.93092088308
  0
VERTEX
  5
77
100
AcDbEntity
  8
granica
100
AcDbVertex
100
AcDb2dVertex
 10
7567622.50999999978
 20
5713856.75
  0
VERTEX
  5
78
100
AcDbEntity
  8
granica
100
AcDbVertex
100
AcDb2dVertex
 10
7567603.95999999996
 20
5713854.87000000011
  0
VERTEX
  5
79
100
AcDbEntity
  8
granica
100
AcDbVertex
100
AcDb2dVertex
 10
7567484.83999999985
 20
5713967.23000000045
  0
VERTEX
  5
7A
100
AcDbEntity
  8
granica
100
AcDbVertex
100
AcDb2dVertex
 10
7567383.01999999955
 20
5714063.30999999959
  0
VERTEX
  5
7B
100
AcDbEntity
  8
granica
100
AcDbVertex
100
AcDb2dVertex
 10
7567406.12000000011
 20
5714087.00999999978
  0
SEQEND
  5
7C
100
AcDbEntity
  8
granica
  0
POLYLINE
  5
7D
100
AcDbEntity
  8
granica_niepewna
  6
CONTINUOUS
370
18
100
AcDb2dPolyline
 66
1
 70
128
  0
VERTEX
  5
7E
100
AcDbEntity
  8
granica_niepewna
100
AcDbVertex
100
AcDb2dVertex
 10
7567418.66000000015
 20
5714099.63999999966
  0
VERTEX
  5
7F
100
AcDbEntity
  8
granica_niepewna
100
AcDbVertex
100
AcDb2dVertex
 10
7567521.24000000022
 20
5714004.37000000011
  0
VERTEX
  5
80
100
AcDbEntity
  8
granica_niepewna
100
AcDbVertex
100
AcDb2dVertex
 10
7567627.50999999978
 20
5713905.66999999993
  0
VERTEX
  5
81
100
AcDbEntity
  8
granica_niepewna
100
AcDbVertex
100
AcDb2dVertex
 10
7567660.37999999989
 20
5713875.62999999989
  0
SEQEND
  5
82
100
AcDbEntity
  8
granica_niepewna
  0
POLYLINE
  5
83
100
AcDbEntity
  8
zarys_linie
  6
ByLayer
370
25
100
AcDb2dPolyline
 66
1
 70
128
  0
VERTEX
  5
84
100
AcDbEntity
  8
zarys_linie
100
AcDbVertex
100
AcDb2dVertex
 10
7567357.07990000024
 20
5714035.69660000037
  0
VERTEX
  5
85
100
AcDbEntity
  8
zarys_linie
100
AcDbVertex
100
AcDb2dVertex
 10
7567546.09449999966
 20
5714232.74299999978
  0
SEQEND
  5
86
100
AcDbEntity
  8
zarys_linie
  0
POLYLINE
  5
87
100
AcDbEntity
  8
zarys_linie
  6
L_0_03
370
13
100
AcDb2dPolyline
 66
1
 70
128
  0
VERTEX
  5
88
100
AcDbEntity
  8
zarys_linie
100
AcDbVertex
100
AcDb2dVertex
 10
7567658.36000000034
 20
5713874.4299999997
  0
VERTEX
  5
89
100
AcDbEntity
  8
zarys_linie
100
AcDbVertex
100
AcDb2dVertex
 10
7567638.83705522958
 20
5713911.61984597146
  0
SEQEND
  5
8A
100
AcDbEntity
  8
zarys_linie
  0
POLYLINE
  5
8B
100
AcDbEntity
  8
zarys_linie
  6
L_0_03
370
13
100
AcDb2dPolyline
 66
1
 70
128
  0
VERTEX
  5
8C
100
AcDbEntity
  8
zarys_linie
100
AcDbVertex
100
AcDb2dVertex
 10
7567641.11000000034
 20
5713864.25
  0
VERTEX
  5
8D
100
AcDbEntity
  8
zarys_linie
100
AcDbVertex
100
AcDb2dVertex
 10
7567621.12425538991
 20
5713902.32144733705
  0
SEQEND
  5
8E
100
AcDbEntity
  8
zarys_linie
  0
POLYLINE
  5
8F
100
AcDbEntity
  8
zarys_linie
  6
L_0_03
370
13
100
AcDb2dPolyline
 66
1
 70
128
  0
VERTEX
  5
90
100
AcDbEntity
  8
zarys_linie
100
AcDbVertex
100
AcDb2dVertex
 10
7567622.46999999974
 20
5713856.71999999974
  0
VERTEX
  5
91
100
AcDbEntity
  8
zarys_linie
100
AcDbVertex
100
AcDb2dVertex
 10
7567603.41233917233
 20
5713893.02351256367
  0
SEQEND
  5
92
100
AcDbEntity
  8
zarys_linie
  0
POLYLINE
  5
93
100
AcDbEntity
  8
zarys_linie
  6
L_0_03
370
13
100
AcDb2dPolyline
 66
1
 70
128
  0
VERTEX
  5
94
100
AcDbEntity
  8
zarys_linie
100
AcDbVertex
100
AcDb2dVertex
 10
7567581.36000000034
 20
5713844.20999999996
  0
VERTEX
  5
95
100
AcDbEntity
  8
zarys_linie
100
AcDbVertex
100
AcDb2dVertex
 10
7567566.03537527937
 20
5713873.40233956091
  0
SEQEND
  5
96
100
AcDbEntity
  8
zarys_linie
  0
POLYLINE
  5
97
100
AcDbEntity
  8
zarys_linie
  6
L_0_03
370
13
100
AcDb2dPolyline
 66
1
 70
128
  0
VERTEX
  5
98
100
AcDbEntity
  8
zarys_linie
100
AcDbVertex
100
AcDb2dVertex
 10
7567363.58999999985
 20
5714045.37000000011
  0
VERTEX
  5
99
100
AcDbEntity
  8
zarys_linie
100
AcDbVertex
100
AcDb2dVertex
 10
7567365.03046587668
 20
5714043.98823763989
  0
SEQEND
  5
9A
100
AcDbEntity
  8
zarys_linie
  0
POLYLINE
  5
9B
100
AcDbEntity
  8
zarys_linie
  6
L_0_03
370
13
100
AcDb2dPolyline
 66
1
 70
128
  0
VERTEX
  5
9C
100
AcDbEntity
  8
zarys_linie
100
AcDbVertex
100
AcDb2dVertex
 10
7567369.79999999981
 20
5714039.61000000034
  0
VERTEX
  5
9D
100
AcDbEntity
  8
zarys_linie
100
AcDbVertex
100
AcDb2dVertex
 10
7567365.12884219363
 20
5714044.09079342801
  0
SEQEND
  5
9E
100
AcDbEntity
  8
zarys_linie
  0
POLYLINE
  5
9F
100
AcDbEntity
  8
zarys_linie
  6
L_0_03
370
13
100
AcDb2dPolyline
 66
1
 70
128
  0
VERTEX
  5
A0
100
AcDbEntity
  8
zarys_linie
100
AcDbVertex
100
AcDb2dVertex
 10
7567365.96999999974
 20
5714050.74000000022
  0
VERTEX
  5
A1
100
AcDbEntity
  8
zarys_linie
100
AcDbVertex
100
AcDb2dVertex
 10
7567368.8536599353
 20
5714047.97385828104
  0
SEQEND
  5
A2
100
AcDbEntity
  8
zarys_linie
  0
POLYLINE
  5
A3
100
AcDbEntity
  8
zarys_linie
  6
L_0_03
370
13
100
AcDb2dPolyline
 66
1
 70
128
  0
VERTEX
  5
A4
100
AcDbEntity
  8
zarys_linie
100
AcDbVertex
100
AcDb2dVertex
 10
7567380.00999999978
 20
5714066.0
  0
VERTEX
  5
A5
100
AcDbEntity
  8
zarys_linie
100
AcDbVertex
100
AcDb2dVertex
 10
7567383.20514891949
 20
5714062.93506345246
  0
SEQEND
  5
A6
100
AcDbEntity
  8
zarys_linie
  0
POLYLINE
  5
A7
100
AcDbEntity
  8
zarys_linie
  6
L_0_03
370
13
100
AcDb2dPolyline
 66
1
 70
128
  0
VERTEX
  5
A8
100
AcDbEntity
  8
zarys_linie
100
AcDbVertex
100
AcDb2dVertex
 10
7567400.21999999974
 20
5714086.75
  0
VERTEX
  5
A9
100
AcDbEntity
  8
zarys_linie
100
AcDbVertex
100
AcDb2dVertex
 10
7567403.2559805885
 20
5714083.8377451729
  0
SEQEND
  5
AA
100
AcDbEntity
  8
zarys_linie
  0
POINT
  5
AB
100
AcDbEntity
  8
granica
100
AcDbPoint
 62
256
 10
7567642.25928055402
 20
5713864.93092088308
  0
POINT
  5
AC
100
AcDbEntity
  8
granica
100
AcDbPoint
 62
256
 10
7567609.17201231699
 20
5713896.04707390815
  0
POINT
  5
AD
100
AcDbEntity
  8
podgik_
100
AcDbPoint
 62
256
 10
7567603.95999999996
 20
5713854.87000000011
  0
POINT
  5
AE
100
AcDbEntity
  8
podgik_
100
AcDbPoint
 62
256
 10
7567622.50999999978
 20
5713856.75
  0
POINT
  5
AF
100
AcDbEntity
  8
podgik_
100
AcDbPoint
 62
256
 10
7567641.13999999966
 20
5713864.26999999955
  0
POINT
  5
B0
100
AcDbEntity
  8
podgik_
100
AcDbPoint
 62
256
 10
7567660.37999999989
 20
5713875.62999999989
  0
POINT
  5
B1
100
AcDbEntity
  8
podgik_
100
AcDbPoint
 62
256
 10
7567658.37999999989
 20
5713874.45000000019
  0
POINT
  5
B2
100
AcDbEntity
  8
podgik_
100
AcDbPoint
 62
256
 10
7567669.11000000034
 20
5713897.03000000026
  0
POINT
  5
B3
100
AcDbEntity
  8
podgik_
100
AcDbPoint
 62
256
 10
7567426.62999999989
 20
5714111.79999999981
  0
POINT
  5
B4
100
AcDbEntity
  8
podgik_
100
AcDbPoint
 62
256
 10
7567365.96999999974
 20
5714050.74000000022
  0
POINT
  5
B5
100
AcDbEntity
  8
podgik_
100
AcDbPoint
 62
256
 10
7567429.51999999955
 20
5714109.04000000004
  0
POINT
  5
B6
100
AcDbEntity
  8
podgik_
100
AcDbPoint
 62
256
 10
7567363.58999999985
 20
5714045.37000000011
  0
POINT
  5
B7
100
AcDbEntity
  8
podgik_
100
AcDbPoint
 62
256
 10
7567369.79999999981
 20
5714039.61000000034
  0
POINT
  5
B8
100
AcDbEntity
  8
podgik_
100
AcDbPoint
 62
256
 10
7567581.36000000034
 20
5713844.20999999996
  0
POINT
  5
B9
100
AcDbEntity
  8
podgik_
100
AcDbPoint
 62
256
 10
7567380.00999999978
 20
5714066.0
  0
POINT
  5
BA
100
AcDbEntity
  8
podgik_
100
AcDbPoint
 62
256
 10
7567400.21999999974
 20
5714086.75
  0
POINT
  5
BB
100
AcDbEntity
  8
podgik_
100
AcDbPoint
 62
256
 10
7567577.75999999978
 20
5713879.55999999959
  0
POINT
  5
BC
100
AcDbEntity
  8
podgik_
100
AcDbPoint
 62
256
 10
7567418.66000000015
 20
5714099.63999999966
  0
POINT
  5
BD
100
AcDbEntity
  8
podgik_
100
AcDbPoint
 62
256
 10
7567484.83999999985
 20
5713967.23000000045
  0
POINT
  5
BE
100
AcDbEntity
  8
podgik_
100
AcDbPoint
 62
256
 10
7567521.24000000022
 20
5714004.37000000011
  0
POINT
  5
BF
100
AcDbEntity
  8
podgik_
100
AcDbPoint
 62
256
 10
7567627.50999999978
 20
5713905.66999999993
  0
POINT
  5
C0
100
AcDbEntity
  8
podgik_
100
AcDbPoint
 62
256
 10
7567383.01999999955
 20
5714063.30999999959
  0
POINT
  5
C1
100
AcDbEntity
  8
podgik_
100
AcDbPoint
 62
256
 10
7567406.12000000011
 20
5714087.00999999978
  0
POINT
  5
C2
100
AcDbEntity
  8
0
100
AcDbPoint
 62
256
 10
7567555.63019999955
 20
5713867.94060000032
  0
POINT
  5
C3
100
AcDbEntity
  8
0
100
AcDbPoint
 62
256
 10
7567674.25040000025
 20
5713930.21129999962
  0
POINT
  5
C4
100
AcDbEntity
  8
0
100
AcDbPoint
 62
256
 10
7567357.07990000024
 20
5714035.69660000037
  0
POINT
  5
C5
100
AcDbEntity
  8
0
100
AcDbPoint
 62
256
 10
7567546.09449999966
 20
5714232.74299999978
  0
POINT
  5
C6
100
AcDbEntity
  8
0
100
AcDbPoint
 62
256
 10
7567669.09135035146
 20
5713897.00776613224
  0
POINT
  5
C7
100
AcDbEntity
  8
0
100
AcDbPoint
 62
256
 10
7567658.35508011561
 20
5713874.43050984573
  0
POINT
  5
C8
100
AcDbEntity
  8
0
100
AcDbPoint
 62
256
 10
7567641.11158586387
 20
5713864.24906073697
  0
POINT
  5
C9
100
AcDbEntity
  8
0
100
AcDbPoint
 62
256
 10
7567622.47368646413
 20
5713856.72385602258
  0
POINT
  5
CA
100
AcDbEntity
  8
0
100
AcDbPoint
 62
256
 10
7567603.92046381347
 20
5713854.8400158938
  0
POINT
  5
CB
100
AcDbEntity
  8
0
100
AcDbPoint
 62
256
 10
7567571.87247705646
 20
5713836.93705217447
  0
POINT
  5
CC
100
AcDbEntity
  8
0
100
AcDbPoint
 62
256
 10
7567368.84823181014
 20
5714047.96819954459
  0
POINT
  5
CD
100
AcDbEntity
  8
0
100
AcDbPoint
 62
256
 10
7567383.03933487553
 20
5714062.7622048771
  0
POINT
  5
CE
100
AcDbEntity
  8
0
100
AcDbPoint
 62
256
 10
7567383.31623444799
 20
5714063.05086839665
  0
POINT
  5
CF
100
AcDbEntity
  8
0
100
AcDbPoint
 62
256
 10
7567402.90099719353
 20
5714083.75659388956
  0
POINT
  5
D0
100
AcDbEntity
  8
0
100
AcDbPoint
 62
256
 10
7567406.22967403103
 20
5714086.93777456786
  0
POINT
  5
D1
100
AcDbEntity
  8
0
100
AcDbPoint
 62
256
 10
7567417.23643201776
 20
5714098.41214943584
  0
POINT
  5
D2
100
AcDbEntity
  8
0
100
AcDbPoint
 62
256
 10
7567418.6209298782
 20
5714099.85546702985
  0
POINT
  5
D3
100
AcDbEntity
  8
0
100
AcDbPoint
 62
256
 10
7567608.17149359453
 20
5713895.52184796985
  0
POINT
  5
D4
100
AcDbEntity
  8
0
100
AcDbPoint
 62
256
 10
7567627.63136345055
 20
5713905.74023010861
  0
TEXT
  5
D5
100
AcDbEntity
  8
granica
370
18
100
AcDbText
 10
7567639.23548236117
 20
5713911.8290248923
 40
0.90
  1
%%U40.00
 50
-242.30
 41
0.66
  7
STANDARD
 72
0
 11
7567638.83705522958
 21
5713911.61984597146
100
AcDbText
 73
2
  0
TEXT
  5
D6
100
AcDbEntity
  8
granica
370
18
100
AcDbText
 10
7567648.96210406348
 20
5713891.94518358819
 40
0.90
  1
42.00
 50
-242.30
 41
0.66
  7
STANDARD
 72
1
 11
7567648.70477485005
 21
5713893.08070403151
100
AcDbText
 73
1
  0
TEXT
  5
D7
100
AcDbEntity
  8
granica
370
18
100
AcDbText
 10
7567621.52268252149
 20
5713902.53062625788
 40
0.90
  1
%%U60.00
 50
-242.30
 41
0.66
  7
STANDARD
 72
0
 11
7567621.12425538991
 21
5713902.32144733705
100
AcDbText
 73
2
  0
TEXT
  5
D8
100
AcDbEntity
  8
granica
370
18
100
AcDbText
 10
7567631.48070414364
 20
5713882.20598427113
 40
0.90
  1
43.00
 50
-242.30
 41
0.66
  7
STANDARD
 72
1
 11
7567631.22337493021
 21
5713883.34150471445
100
AcDbText
 73
1
  0
TEXT
  5
D9
100
AcDbEntity
  8
granica
370
18
100
AcDbText
 10
7567603.81076630391
 20
5713893.2326914845
 40
0.90
  1
%%U80.01
 50
-242.30
 41
0.66
  7
STANDARD
 72
0
 11
7567603.41233917233
 21
5713893.02351256367
100
AcDbText
 73
2
  0
TEXT
  5
DA
100
AcDbEntity
  8
granica
370
18
100
AcDbText
 10
7567613.30474603456
 20
5713873.79201688431
 40
0.90
  1
41.00
 50
-242.30
 41
0.66
  7
STANDARD
 72
1
 11
7567613.04741682112
 21
5713874.92753732763
100
AcDbText
 73
1
  0
TEXT
  5
DB
100
AcDbEntity
  8
granica
370
18
100
AcDbText
 10
7567556.0021153884
 20
5713868.13536647614
 40
0.90
  1
%%U134.00
 50
-242.30
 41
0.66
  7
STANDARD
 72
0
 11
7567555.60368825682
 21
5713867.92618755531
100
AcDbText
 73
2
  0
TEXT
  5
DC
100
AcDbEntity
  8
granica
370
18
100
AcDbText
 10
7567564.10042057652
 20
5713851.35335438047
 40
0.90
  1
35.00
 50
-242.30
 41
0.66
  7
STANDARD
 72
1
 11
7567563.84309136309
 21
5713852.48887482379
100
AcDbText
 73
1
  0
TEXT
  5
DD
100
AcDbEntity
  8
zarys_linie
370
70
100
AcDbText
 10
7567523.79999999795
 20
5713982.29999999888
 40
3.50
  1
191/1
 50
-360.00
 41
0.66
  7
STANDARD
 72
0
 11
7567523.79999999795
 21
5713981.13333333191
100
AcDbText
 73
1
  0
TEXT
  5
DE
100
AcDbEntity
  8
zarys_linie
370
70
100
AcDbText
 10
7567491.49999999814
 20
5713973.64999999851
 40
3.50
  1
1.0526 ha
 50
0.00
 41
0.66
  7
STANDARD
 72
0
 11
7567491.49999999814
 21
5713972.48333333153
100
AcDbText
 73
1
  0
TEXT
  5
DF
100
AcDbEntity
  8
zarys_linie
370
70
100
AcDbText
 10
7567491.49999999814
 20
5713968.39999999851
 40
3.50
  1
1.03 ha ew
 50
0.00
 41
0.66
  7
STANDARD
 72
0
 11
7567491.49999999814
 21
5713967.23333333153
100
AcDbText
 73
1
  0
TEXT
  5
E0
100
AcDbEntity
  8
zarys_linie
370
70
100
AcDbText
 10
7567491.0999999987
 20
5713978.69999999832
 40
3.50
  1
192
 50
0.00
 41
0.66
  7
STANDARD
 72
0
 11
7567491.0999999987
 21
5713977.53333333135
100
AcDbText
 73
1
  0
TEXT
  5
E1
100
AcDbEntity
  8
zarys_linie
370
70
100
AcDbText
 10
7567528.89999999851
 20
5713976.8499999987
 40
3.50
  1
0.6156 ha
 50
0.00
 41
0.66
  7
STANDARD
 72
0
 11
7567528.89999999851
 21
5713975.68333333172
100
AcDbText
 73
1
  0
TEXT
  5
E2
100
AcDbEntity
  8
zarys_linie
370
70
100
AcDbText
 10
7567528.89999999851
 20
5713971.5999999987
 40
3.50
  1
0.58 ha ew
 50
0.00
 41
0.66
  7
STANDARD
 72
0
 11
7567528.89999999851
 21
5713970.43333333172
100
AcDbText
 73
1
  0
TEXT
  5
E3
100
AcDbEntity
  8
zarys_linie
370
18
100
AcDbText
 10
7567630.34432173148
 20
5713901.5270432597
 40
0.90
  1
52.65
 50
-242.30
 41
0.66
  7
STANDARD
 72
2
 11
7567628.89999999665
 21
5713903.3099999968
100
AcDbText
 73
2
  0
TEXT
  5
E4
100
AcDbEntity
  8
zarys_linie
370
18
100
AcDbText
 10
7567609.74432173092
 20
5713897.23704325967
 40
0.90
  1
73.50
 50
-242.30
 41
0.66
  7
STANDARD
 72
2
 11
7567608.29999999609
 21
5713899.01999999676
100
AcDbText
 73
2
  0
TEXT
  5
E5
100
AcDbEntity
  8
zarys_linie
370
18
100
AcDbText
 10
7567568.63987775147
 20
5713876.43639229611
 40
0.90
  1
119.83
 50
-242.70
 41
0.66
  7
STANDARD
 72
0
 11
7567568.2399999965
 21
5713876.22999999672
100
AcDbText
 73
2
  0
TEXT
  5
E6
100
AcDbEntity
  8
zarys_linie
370
18
100
AcDbText
 10
7567656.93999187369
 20
5713921.12307148986
 40
0.90
  1
20.00
 50
-242.30
 41
0.66
  7
STANDARD
 72
0
 11
7567656.5415647421
 21
5713920.91389256902
100
AcDbText
 73
2
  0
TEXT
  5
E7
100
AcDbEntity
  8
zarys_linie
370
18
100
AcDbText
 10
7567663.1793588195
 20
5713907.88220688701
 40
0.90
  1
27.00
 50
-242.30
 41
0.66
  7
STANDARD
 72
1
 11
7567662.92202960607
 21
5713909.01772733033
100
AcDbText
 73
1
  0
TEXT
  5
E8
100
AcDbEntity
  8
zarys_linie
370
18
100
AcDbText
 10
7567639.23548236117
 20
5713911.8290248923
 40
0.90
  1
40.00
 50
-242.30
 41
0.66
  7
STANDARD
 72
0
 11
7567638.83705522958
 21
5713911.61984597146
100
AcDbText
 73
2
  0
TEXT
  5
E9
100
AcDbEntity
  8
zarys_linie
370
18
100
AcDbText
 10
7567648.96210406348
 20
5713891.94518358819
 40
0.90
  1
42.00
 50
-242.30
 41
0.66
  7
STANDARD
 72
1
 11
7567648.70477485005
 21
5713893.08070403151
100
AcDbText
 73
1
  0
TEXT
  5
EA
100
AcDbEntity
  8
zarys_linie
370
18
100
AcDbText
 10
7567621.52268252149
 20
5713902.53062625788
 40
0.90
  1
60.00
 50
-242.30
 41
0.66
  7
STANDARD
 72
0
 11
7567621.12425538991
 21
5713902.32144733705
100
AcDbText
 73
2
  0
TEXT
  5
EB
100
AcDbEntity
  8
zarys_linie
370
18
100
AcDbText
 10
7567631.48070414364
 20
5713882.20598427113
 40
0.90
  1
43.00
 50
-242.30
 41
0.66
  7
STANDARD
 72
1
 11
7567631.22337493021
 21
5713883.34150471445
100
AcDbText
 73
1
  0
TEXT
  5
EC
100
AcDbEntity
  8
zarys_linie
370
18
100
AcDbText
 10
7567603.81076630391
 20
5713893.2326914845
 40
0.90
  1
80.01
 50
-242.30
 41
0.66
  7
STANDARD
 72
0
 11
7567603.41233917233
 21
5713893.02351256367
100
AcDbText
 73
2
  0
TEXT
  5
ED
100
AcDbEntity
  8
zarys_linie
370
18
100
AcDbText
 10
7567613.30474603456
 20
5713873.79201688431
 40
0.90
  1
41.00
 50
-242.30
 41
0.66
  7
STANDARD
 72
1
 11
7567613.04741682112
 21
5713874.92753732763
100
AcDbText
 73
1
  0
TEXT
  5
EE
100
AcDbEntity
  8
zarys_linie
370
18
100
AcDbText
 10
7567578.41842712741
 20
5713880.47917891759
 40
0.90
  1
109.00
 50
-242.30
 41
0.66
  7
STANDARD
 72
0
 11
7567578.01999999583
 21
5713880.26999999676
100
AcDbText
 73
2
  0
TEXT
  5
EF
100
AcDbEntity
  8
zarys_linie
370
18
100
AcDbText
 10
7567556.0021153884
 20
5713868.13536647614
 40
0.90
  1
134.00
 50
-242.30
 41
0.66
  7
STANDARD
 72
0
 11
7567555.60368825682
 21
5713867.92618755531
100
AcDbText
 73
2
  0
TEXT
  5
F0
100
AcDbEntity
  8
zarys_linie
370
18
100
AcDbText
 10
7567564.10042057652
 20
5713851.35335438047
 40
0.90
  1
35.00
 50
-242.30
 41
0.66
  7
STANDARD
 72
1
 11
7567563.84309136309
 21
5713852.48887482379
100
AcDbText
 73
1
  0
TEXT
  5
F1
100
AcDbEntity
  8
zarys_linie
370
18
100
AcDbText
 10
7567566.43380241096
 20
5713873.61151848175
 40
0.90
  1
%%U122.22
 50
-242.30
 41
0.66
  7
STANDARD
 72
0
 11
7567566.03537527937
 21
5713873.40233956091
100
AcDbText
 73
2
  0
TEXT
  5
F2
100
AcDbEntity
  8
zarys_linie
370
18
100
AcDbText
 10
7567574.06126408838
 20
5713857.72643038258
 40
0.90
  1
32.97
 50
-242.30
 41
0.66
  7
STANDARD
 72
1
 11
7567573.80393487494
 21
5713858.8619508259
100
AcDbText
 73
1
  0
TEXT
  5
F3
100
AcDbEntity
  8
zarys_linie
370
18
100
AcDbText
 10
7567589.81932064425
 20
5713868.41294626892
 40
0.90
  1
-35.99-
 50
-43.40
 41
0.66
  7
STANDARD
 72
1
 11
7567590.75754949823
 21
5713867.11281103827
100
AcDbText
 73
1
  0
TEXT
  5
F4
100
AcDbEntity
  8
zarys_linie
370
18
100
AcDbText
 10
7567607.70842712745
 20
5713895.96917891782
 40
0.90
  1
%%U74.63
 50
-242.30
 41
0.66
  7
STANDARD
 72
0
 11
7567607.30999999586
 21
5713895.75999999698
100
AcDbText
 73
2
  0
TEXT
  5
F5
100
AcDbEntity
  8
zarys_linie
370
18
100
AcDbText
 10
7567579.05350065138
 20
5713876.48861612845
 40
0.90
  1
%%U108.98
 50
-242.30
 41
0.66
  7
STANDARD
 72
2
 11
7567577.39999999665
 21
5713878.66999999713
100
AcDbText
 73
2
  0
TEXT
  5
F6
100
AcDbEntity
  8
zarys_linie
370
18
100
AcDbText
 10
7567364.33853556868
 20
5714043.29520789441
 40
0.90
  1
11.48
 50
-43.80
 41
0.66
  7
STANDARD
 72
0
 11
7567364.64999999665
 21
5714043.61999999732
100
AcDbText
 73
2
  0
TEXT
  5
F7
100
AcDbEntity
  8
zarys_linie
370
18
100
AcDbText
 10
7567362.69041579124
 20
5714044.47292885371
 40
0.90
  1
2.00
 50
-43.80
 41
0.66
  7
STANDARD
 72
1
 11
7567363.13235704415
 21
5714043.63347192854
100
AcDbText
 73
1
  0
TEXT
  5
F8
100
AcDbEntity
  8
zarys_linie
370
18
100
AcDbText
 10
7567365.45457505435
 20
5714044.06253003515
 40
0.90
  1
11.63
 50
-43.80
 41
0.66
  7
STANDARD
 72
2
 11
7567367.38999999594
 21
5714042.82999999728
100
AcDbText
 73
2
  0
TEXT
  5
F9
100
AcDbEntity
  8
zarys_linie
370
18
100
AcDbText
 10
7567367.44041579124
 20
5714042.14292885363
 40
0.90
  1
6.47
 50
-43.80
 41
0.66
  7
STANDARD
 72
1
 11
7567367.88235704415
 21
5714041.30347192846
100
AcDbText
 73
1
  0
TEXT
  5
FA
100
AcDbEntity
  8
zarys_linie
370
18
100
AcDbText
 10
7567369.01457505487
 20
5714047.01253003534
 40
0.90
  1
17.00
 50
-43.80
 41
0.66
  7
STANDARD
 72
2
 11
7567370.94999999646
 21
5714045.77999999747
100
AcDbText
 73
2
  0
TEXT
  5
FB
100
AcDbEntity
  8
zarys_linie
370
18
100
AcDbText
 10
7567366.8304157909
 20
5714050.21292885393
 40
0.90
  1
4.00
 50
-43.80
 41
0.66
  7
STANDARD
 72
1
 11
7567367.27235704381
 21
5714049.37347192876
100
AcDbText
 73
1
  0
TEXT
  5
FC
100
AcDbEntity
  8
zarys_linie
370
18
100
AcDbText
 10
7567382.62457505427
 20
5714061.59253003541
 40
0.90
  1
37.50
 50
-43.80
 41
0.66
  7
STANDARD
 72
2
 11
7567384.55999999586
 21
5714060.35999999754
100
AcDbText
 73
2
  0
TEXT
  5
FD
100
AcDbEntity
  8
zarys_linie
370
18
100
AcDbText
 10
7567383.87457505427
 20
5714062.83253003471
 40
0.90
  1
37.90
 50
-43.80
 41
0.66
  7
STANDARD
 72
2
 11
7567385.80999999586
 21
5714061.59999999683
100
AcDbText
 73
2
  0
TEXT
  5
FE
100
AcDbEntity
  8
zarys_linie
370
18
100
AcDbText
 10
7567385.19853556808
 20
5714060.78520789463
 40
0.90
  1
37.74
 50
-43.80
 41
0.66
  7
STANDARD
 72
0
 11
7567385.50999999605
 21
5714061.10999999754
100
AcDbText
 73
2
  0
TEXT
  5
FF
100
AcDbEntity
  8
zarys_linie
370
18
100
AcDbText
 10
7567381.08257602528
 20
5714065.2203774238
 40
0.90
  1
4.43
 50
-43.80
 41
0.66
  7
STANDARD
 72
1
 11
7567381.52451727819
 21
5714064.38092049863
100
AcDbText
 73
1
  0
TEXT
  5
100
100
AcDbEntity
  8
zarys_linie
370
18
100
AcDbText
 10
7567403.30653557368
 20
5714083.73620789871
 40
0.90
  1
66.70
 50
-43.80
 41
0.66
  7
STANDARD
 72
0
 11
7567403.61800000165
 21
5714084.06100000162
100
AcDbText
 73
2
  0
TEXT
  5
101
100
AcDbEntity
  8
zarys_linie
370
18
100
AcDbText
 10
7567401.21299185976
 20
5714086.04671828449
 40
0.90
  1
4.21
 50
-43.80
 41
0.66
  7
STANDARD
 72
1
 11
7567401.65493311267
 21
5714085.20726135932
100
AcDbText
 73
1
  0
TEXT
  5
102
100
AcDbEntity
  8
zarys_linie
370
18
100
AcDbText
 10
7567402.433535574
 20
5714082.80420789868
 40
0.90
  1
66.40
 50
-43.80
 41
0.66
  7
STANDARD
 72
0
 11
7567402.74500000197
 21
5714083.12900000159
100
AcDbText
 73
2
  0
TEXT
  5
103
100
AcDbEntity
  8
zarys_linie
370
18
100
AcDbText
 10
7567400.85041579138
 20
5714084.33292885404
 40
0.90
  1
0.20
 50
-43.80
 41
0.66
  7
STANDARD
 72
1
 11
7567401.29235704429
 21
5714083.49347192887
100
AcDbText
 73
1
  0
TEXT
  5
104
100
AcDbEntity
  8
zarys_linie
370
18
100
AcDbText
 10
7567405.6885355683
 20
5714085.83520789444
 40
0.90
  1
70.98
 50
-43.80
 41
0.66
  7
STANDARD
 72
0
 11
7567405.99999999628
 21
5714086.15999999736
100
AcDbText
 73
2
  0
TEXT
  5
105
100
AcDbEntity
  8
zarys_linie
370
18
100
AcDbText
 10
7567405.24041579105
 20
5714088.78292885423
 40
0.90
  1
0.13
 50
-43.80
 41
0.66
  7
STANDARD
 72
1
 11
7567405.68235704396
 21
5714087.94347192906
100
AcDbText
 73
1
  0
TEXT
  5
106
100
AcDbEntity
  8
zarys_linie
370
18
100
AcDbText
 10
7567406.66853556782
 20
5714086.90520789381
 40
0.90
  1
71.00
 50
-43.80
 41
0.66
  7
STANDARD
 72
0
 11
7567406.97999999579
 21
5714087.22999999672
100
AcDbText
 73
2
  0
TEXT
  5
107
100
AcDbEntity
  8
zarys_linie
370
18
100
AcDbText
 10
7567417.77457505465
 20
5714097.14253003523
 40
0.90
  1
86.90
 50
-43.80
 41
0.66
  7
STANDARD
 72
2
 11
7567419.70999999624
 21
5714095.90999999736
100
AcDbText
 73
2
  0
TEXT
  5
108
100
AcDbEntity
  8
zarys_linie
370
18
100
AcDbText
 10
7567418.70457505435
 20
5714098.17253003456
 40
0.90
  1
88.77
 50
-43.80
 41
0.66
  7
STANDARD
 72
2
 11
7567420.63999999594
 21
5714096.93999999668
100
AcDbText
 73
2
  0
TEXT
  5
109
100
AcDbEntity
  8
zarys_linie
370
18
100
AcDbText
 10
7567419.15153557342
 20
5714099.976207898
 40
0.90
  1
88.90
 50
-43.80
 41
0.66
  7
STANDARD
 72
0
 11
7567419.46300000139
 21
5714100.30100000091
100
AcDbText
 73
2
  0
TEXT
  5
10A
100
AcDbEntity
  8
zarys_linie
370
18
100
AcDbText
 10
7567428.57853556797
 20
5714107.86520789377
 40
0.90
  1
103.06
 50
-43.80
 41
0.66
  7
STANDARD
 72
0
 11
7567428.88999999594
 21
5714108.18999999668
100
AcDbText
 73
2
  0
TEXT
  5
10B
100
AcDbEntity
  8
zarys_linie
370
18
100
AcDbText
 10
7567426.02041579131
 20
5714110.85292885359
 40
0.90
  1
2.49
 50
-43.80
 41
0.66
  7
STANDARD
 72
1
 11
7567426.46235704422
 21
5714110.01347192843
100
AcDbText
 73
1
  0
TEXT
  5
10C
100
AcDbEntity
  8
zarys_linie
370
18
100
AcDbText
 10
7567424.36978295632
 20
5714113.34399446659
 40
0.90
  1
103.07
 50
-43.80
 41
0.66
  7
STANDARD
 72
2
 11
7567426.62999999989
 21
5714111.79999999981
100
AcDbText
 73
2
  0
TEXT
  5
10D
100
AcDbEntity
  8
zarys_linie
370
18
100
AcDbText
 10
7567427.41802563239
 20
5714109.35870731622
 40
0.90
  1
1.51
 50
-41.70
 41
0.66
  7
STANDARD
 72
1
 11
7567427.89043089002
 21
5714108.5360085424
100
AcDbText
 73
1
  0
ENDSEC
  0
SECTION
  2
OBJECTS
  0
DICTIONARY
  5
10E
330
0
100
AcDbDictionary
280
0
281
1
  3
ACAD_GROUP
350
10F
  3
ACAD_LAYOUT
350
110
  3
ACAD_MLINESTYLE
350
111
  3
ACAD_PLOTSETTINGS
350
112
  3
ACAD_PLOTSTYLENAME
350
113
  0
DICTIONARY
  5
10F
102
{ACAD_REACTORS
330
10E
102
}
330
10E
100
AcDbDictionary
280
0
281
1
  0
DICTIONARY
  5
110
102
{ACAD_REACTORS
330
10E
102
}
330
10E
100
AcDbDictionary
280
0
281
1
  3
Layout
350
1D
  3
Model
350
1B
  0
DICTIONARY
  5
111
102
{ACAD_REACTORS
330
10E
102
}
330
10E
100
AcDbDictionary
280
0
281
1
  3
Standard
350
114
  0
DICTIONARY
  5
112
102
{ACAD_REACTORS
330
10E
102
}
330
10E
100
AcDbDictionary
280
0
281
1
  0
ACDBDICTIONARYWDFLT
  5
113
102
{ACAD_REACTORS
330
10E
102
}
330
10E
100
AcDbDictionary
281
1
  3
Normal
350
B
100
AcDbDictionaryWithDefault
340
B
  0
LAYOUT
  5
1D
100
AcDbPlotSettings
  1

  2

  4

  6

 40
0.0
 41
0.0
 42
0.0
 43
0.0
 44
0.0
 45
0.0
 46
0.0
 47
0.0
 48
0.0
 49
0.0
140
0.0
141
0.0
142
1.0
143
1.0
 70
688
 72
1
 73
0
 74
5
  7

 75
0
147
1.0
148
0.0
149
0.0
100
AcDbLayout
  1
Layout
 70
1
 71
1
 10
0.0
 20
0.0
 11
420.0
 21
297.0
 12
0.0
 22
0.0
 32
0.0
 14
100000000000000000000.0
 24
100000000000000000000.0
 34
100000000000000000000.0
 15
-100000000000000000000.0
 25
-100000000000000000000.0
 35
-100000000000000000000.0
146
0.0
 13
0.0
 23
0.0
 33
0.0
 16
1.0
 26
0.0
 36
0.0
 17
0.0
 27
1.0
 37
0.0
 76
0
330
1C
  0
LAYOUT
  5
1B
100
AcDbPlotSettings
  1

  2

  4

  6

 40
0.0
 41
0.0
 42
0.0
 43
0.0
 44
0.0
 45
0.0
 46
0.0
 47
0.0
 48
0.0
 49
0.0
140
0.0
141
0.0
142
1.0
143
1.0
 70
1712
 72
1
 73
0
 74
0
  7

 75
0
147
1.0
148
0.0
149
0.0
100
AcDbLayout
  1
Model
 70
1
 71
0
 10
0.0
 20
0.0
 11
12.0
 21
9.0
 12
0.0
 22
0.0
 32
0.0
 14
0.0
 24
0.0
 34
0.0
 15
0.0
 25
0.0
 35
0.0
146
0.0
 13
0.0
 23
0.0
 33
0.0
 16
1.0
 26
0.0
 36
0.0
 17
0.0
 27
1.0
 37
0.0
 76
0
330
1A
  0
MLINESTYLE
  5
114
102
{ACAD_REACTORS
330
111
102
}
330
111
100
AcDbMlineStyle
  2
Standard
 70
0
  3

 62
256
 51
90.0
 52
90.0
  2
Standard
 71
2
 49
0.5
 62
256
  6
ByLayer
 49
-0.5
 62
256
  6
ByLayer
  0
ACDBPLACEHOLDER
  5
B
  0
ENDSEC
  0
EOF
