  0
SECTION
  2
HEADER
  9
$ACADVER
  1
AC1018
  9
$HANDSEED
  5
FFFFFF
  9
$EXTMAX
 10
7572026.5700000003
 20
5715284.84999999963
 30
1000000.00
  9
$EXTMIN
 10
7571111.88999999966
 20
5714320.05999999959
 30
0.00
  9
$LIMMIN
 10
7571111.88999999966
 20
5714320.05999999959
  9
$LIMMAX
 10
7572026.5700000003
 20
5715284.84999999963
  9
$DIMASZ
 40
2.5
  9
$DIMGAP
 40
0.625
  9
$INSUNITS
 70
6
  9
$DIMEXO
 40
0.625
  9
$DIMTXT
 40
2.5
  9
$DIMSTYLE
  2
Standard
  9
$PLIMMIN
 10
0.0
 20
0.0
  9
$PLIMMAX
 10
210.0
 20
297.0
  9
$DIMEXE
 40
1.25
  9
$TEXTSIZE
 40
2.5
  9
$TEXTSTYLE
  7
Standard
  9
$LWDISPLAY
290
1
  9
$TDCREATE
 40
45197.945686030
  9
$TDUCREATE
 40
45197.862352697
  9
$TDUPDATE
 40
45197.945686030
  9
$TDUUPDATE
 40
45197.862352697
  9
$TDINDWG
 40
0.0
  9
$TDUSRTIMER
 40
0.0
  9
$USRTIMER
 70
1
  0
ENDSEC
  0
SECTION
  2
TABLES
  0
TABLE
  2
VPORT
  5
1
100
AcDbSymbolTable
 70
1
  0
VPORT
  5
2
100
AcDbSymbolTableRecord
100
AcDbViewportTableRecord
  2
*ACTIVE
 70
0
 10
0.0
 20
0.0
 11
1.0
 21
1.0
 12
7571569.230
 22
5714802.455
 13
0.0
 23
0.0
 14
1.0
 24
1.0
 15
0.0
 25
0.0
 16
0.0
 26
0.0
 36
1.0
 17
0.0
 27
0.0
 37
0.0
 40
964.790
 41
0.948
 42
50.0
 43
0.0
 44
0.0
 50
0.0
 51
0.0
 71
0
 72
100
 73
1
 74
1
 75
0
 76
0
 77
0
 78
0
  0
ENDTAB
  0
TABLE
  2
LTYPE
  5
3
100
AcDbSymbolTable
 70
3
  0
LTYPE
  5
4
100
AcDbSymbolTableRecord
100
AcDbLinetypeTableRecord
  2
ByBlock
 70
0
  3

 72
65
 73
0
 40
0.0
  0
LTYPE
  5
5
100
AcDbSymbolTableRecord
100
AcDbLinetypeTableRecord
  2
ByLayer
 70
0
  3

 72
65
 73
0
 40
0.0
  0
LTYPE
  5
6
100
AcDbSymbolTableRecord
100
AcDbLinetypeTableRecord
  2
CONTINUOUS
 70
0
  3
Solid line
 72
65
 73
0
 40
0.0
  0
LTYPE
  5
8
100
AcDbSymbolTableRecord
100
AcDbLinetypeTableRecord
  2
L_0_02
 70
0
  3
Dzialka_ewidencyjna (MLineStyle)
 72
65
 73
0
 40
0.0
  0
LTYPE
  5
9
100
AcDbSymbolTableRecord
100
AcDbLinetypeTableRecord
  2
L_0_03
 70
0
  3
Uzytek_gruntowy
 72
65
 73
2
 40
1.0
 49
0.5
 74
0
 49
-0.5
 74
0
  0
LTYPE
  5
A
100
AcDbSymbolTableRecord
100
AcDbLinetypeTableRecord
  2
L_0_04
 70
0
  3
Budynek_projektowany
 72
65
 73
2
 40
1.5
 49
1.0
 74
0
 49
-0.5
 74
0
  0
LTYPE
  5
B
100
AcDbSymbolTableRecord
100
AcDbLinetypeTableRecord
  2
L_0_06
 70
0
  3
Granica_konturu_klasyfikacyjnego_Krawedz_chodnika
 72
65
 73
2
 40
2.0
 49
1.5
 74
0
 49
-0.5
 74
0
  0
LTYPE
  5
D
100
AcDbSymbolTableRecord
100
AcDbLinetypeTableRecord
  2
L_0_E3_00
 70
0
  3
Budynek_w_budowie_dla_MZ2015_1_500___1_1000
 72
65
 73
3
 40
1.5
 49
0.0
 74
0
 49
1.0
 74
0
 49
-0.5
 74
0
  0
LTYPE
  5
E
100
AcDbSymbolTableRecord
100
AcDbLinetypeTableRecord
  2
L_0_E3
 70
0
  3
Budynek_w_budowie_dla_MZ2015_1_500___1_1000 (MLineStyle)
 72
65
 73
0
 40
0.0
  0
ENDTAB
  0
TABLE
  2
LAYER
  5
F
100
AcDbSymbolTable
 70
2
  0
LAYER
  5
10
100
AcDbSymbolTableRecord
100
AcDbLayerTableRecord
  2
0
 70
0
420
0
  6
CONTINUOUS
370
18
390
11
  0
LAYER
  5
12
100
AcDbSymbolTableRecord
100
AcDbLayerTableRecord
  2
dzialka
 70
0
420
32768
  6
CONTINUOUS
370
18
390
11
  0
ENDTAB
  0
TABLE
  2
STYLE
  5
13
100
AcDbSymbolTable
 70
2
  0
STYLE
  5
14
100
AcDbSymbolTableRecord
100
AcDbTextStyleTableRecord
  2
STANDARD
 70
0
 40
0.0
 41
1.0
 50
0.0
 71
0
  3
simplex.shx
  4

  0
STYLE
  5
15
100
AcDbSymbolTableRecord
100
AcDbTextStyleTableRecord
  2
STANDARD_ITALIC
 70
0
 40
0.0
 41
1.0
 50
15.0
 71
0
  3
simplex.shx
  4

  0
ENDTAB
  0
TABLE
  2
VIEW
  5
16
100
AcDbSymbolTable
 70
0
  0
ENDTAB
  0
TABLE
  2
UCS
  5
17
100
AcDbSymbolTable
 70
0
  0
ENDTAB
  0
TABLE
  2
APPID
  5
18
100
AcDbSymbolTable
 70
1
  0
APPID
  5
19
100
AcDbSymbolTableRecord
100
AcDbRegAppTableRecord
  2
ACAD
 70
0
  0
ENDTAB
  0
TABLE
  2
DIMSTYLE
  5
1A
100
AcDbSymbolTable
 70
1
100
AcDbDimStyleTable
  0
DIMSTYLE
105
1B
100
AcDbSymbolTableRecord
100
AcDbDimStyleTableRecord
  2
Standard
 70
0
340
14
  0
ENDTAB
  0
TABLE
  2
BLOCK_RECORD
  5
1C
100
AcDbSymbolTable
 70
4
  0
BLOCK_RECORD
  5
1D
100
AcDbSymbolTableRecord
100
AcDbBlockTableRecord
  2
*Model_Space
340
1E
  0
BLOCK_RECORD
  5
1F
100
AcDbSymbolTableRecord
100
AcDbBlockTableRecord
  2
*Paper_Space
340
20
  0
BLOCK_RECORD
  5
21
100
AcDbSymbolTableRecord
100
AcDbBlockTableRecord
  2
L_0_02_1
340
22
  0
BLOCK_RECORD
  5
23
100
AcDbSymbolTableRecord
100
AcDbBlockTableRecord
  2
L_0_02_2
340
24
  0
ENDTAB
  0
ENDSEC
  0
SECTION
  2
BLOCKS
  0
BLOCK
  5
25
100
AcDbEntity
  8
0
100
AcDbBlockBegin
  2
*Model_Space
 70
0
 10
0.0
 20
0.0
 30
0.0
  3
*Model_Space
  1

  0
ENDBLK
  5
26
100
AcDbEntity
  8
0
100
AcDbBlockEnd
  0
BLOCK
  5
27
100
AcDbEntity
 67
1
  8
0
100
AcDbBlockBegin
  2
*Paper_Space
 70
0
 10
0.0
 20
0.0
 30
0.0
  3
*Paper_Space
  1

  0
ENDBLK
  5
28
100
AcDbEntity
 67
1
  8
0
100
AcDbBlockEnd
  0
BLOCK
  5
22
100
AcDbEntity
  8
0
100
AcDbBlockBegin
 62
0
370
13
  2
L_0_02_1
 70
0
 10
0
 20
0
 30
0
  3
L_0_02_1
  0
POINT
  5
29
100
AcDbEntity
  8
0
100
AcDbPoint
 62
0
 10
0.0
 20
0.0
 30
0.000
  0
ENDBLK
  5
2A
100
AcDbEntity
  8
0
100
AcDbBlockEnd
  0
BLOCK
  5
24
100
AcDbEntity
  8
0
100
AcDbBlockBegin
 62
0
370
13
  2
L_0_02_2
 70
0
 10
0
 20
0
 30
0
  3
L_0_02_2
  0
POINT
  5
2B
100
AcDbEntity
  8
0
100
AcDbPoint
 62
0
 10
-0.0
 20
-0.0
 30
0.000
  0
ENDBLK
  5
2C
100
AcDbEntity
  8
0
100
AcDbBlockEnd
  0
ENDSEC
  0
SECTION
  2
ENTITIES
  0
POLYLINE
  5
2D
100
AcDbEntity
  8
dzialka
  6
CONTINUOUS
370
18
100
AcDb2dPolyline
 66
1
 70
129
  0
VERTEX
  5
2E
100
AcDbEntity
  8
dzialka
100
AcDbVertex
100
AcDb2dVertex
 10
7571255.87000000011
 20
5715034.70000000019
  0
VERTEX
  5
2F
100
AcDbEntity
  8
dzialka
100
AcDbVertex
100
AcDb2dVertex
 10
7571273.90000000037
 20
5715089.84999999963
  0
VERTEX
  5
30
100
AcDbEntity
  8
dzialka
100
AcDbVertex
100
AcDb2dVertex
 10
7571298.33999999985
 20
5715082.04999999981
  0
VERTEX
  5
31
100
AcDbEntity
  8
dzialka
100
AcDbVertex
100
AcDb2dVertex
 10
7571280.37999999989
 20
5715026.70000000019
  0
SEQEND
  5
32
100
AcDbEntity
  8
dzialka
  0
POLYLINE
  5
33
100
AcDbEntity
  8
dzialka
  6
CONTINUOUS
370
18
100
AcDb2dPolyline
 66
1
 70
129
  0
VERTEX
  5
34
100
AcDbEntity
  8
dzialka
100
AcDbVertex
100
AcDb2dVertex
 10
7571280.37999999989
 20
5715026.70000000019
  0
VERTEX
  5
35
100
AcDbEntity
  8
dzialka
100
AcDbVertex
100
AcDb2dVertex
 10
7571298.33999999985
 20
5715082.04999999981
  0
VERTEX
  5
36
100
AcDbEntity
  8
dzialka
100
AcDbVertex
100
AcDb2dVertex
 10
7571315.70999999996
 20
5715077.46999999974
  0
VERTEX
  5
37
100
AcDbEntity
  8
dzialka
100
AcDbVertex
100
AcDb2dVertex
 10
7571297.62000000011
 20
5715021.08000000007
  0
SEQEND
  5
38
100
AcDbEntity
  8
dzialka
  0
POLYLINE
  5
39
100
AcDbEntity
  8
dzialka
  6
CONTINUOUS
370
18
100
AcDb2dPolyline
 66
1
 70
129
  0
VERTEX
  5
3A
100
AcDbEntity
  8
dzialka
100
AcDbVertex
100
AcDb2dVertex
 10
7571297.62000000011
 20
5715021.08000000007
  0
VERTEX
  5
3B
100
AcDbEntity
  8
dzialka
100
AcDbVertex
100
AcDb2dVertex
 10
7571315.70999999996
 20
5715077.46999999974
  0
VERTEX
  5
3C
100
AcDbEntity
  8
dzialka
100
AcDbVertex
100
AcDb2dVertex
 10
7571328.66999999993
 20
5715076.26999999955
  0
VERTEX
  5
3D
100
AcDbEntity
  8
dzialka
100
AcDbVertex
100
AcDb2dVertex
 10
7571335.12000000011
 20
5715076.12999999989
  0
VERTEX
  5
3E
100
AcDbEntity
  8
dzialka
100
AcDbVertex
100
AcDb2dVertex
 10
7571315.0700000003
 20
5715015.38999999966
  0
SEQEND
  5
3F
100
AcDbEntity
  8
dzialka
  0
POLYLINE
  5
40
100
AcDbEntity
  8
dzialka
  6
CONTINUOUS
370
18
100
AcDb2dPolyline
 66
1
 70
129
  0
VERTEX
  5
41
100
AcDbEntity
  8
dzialka
100
AcDbVertex
100
AcDb2dVertex
 10
7571315.0700000003
 20
5715015.38999999966
  0
VERTEX
  5
42
100
AcDbEntity
  8
dzialka
100
AcDbVertex
100
AcDb2dVertex
 10
7571335.12000000011
 20
5715076.12999999989
  0
VERTEX
  5
43
100
AcDbEntity
  8
dzialka
100
AcDbVertex
100
AcDb2dVertex
 10
7571350.0700000003
 20
5715075.80999999959
  0
VERTEX
  5
44
100
AcDbEntity
  8
dzialka
100
AcDbVertex
100
AcDb2dVertex
 10
7571329.50999999978
 20
5715010.6799999997
  0
SEQEND
  5
45
100
AcDbEntity
  8
dzialka
  0
POLYLINE
  5
46
100
AcDbEntity
  8
dzialka
  6
CONTINUOUS
370
18
100
AcDb2dPolyline
 66
1
 70
129
  0
VERTEX
  5
47
100
AcDbEntity
  8
dzialka
100
AcDbVertex
100
AcDb2dVertex
 10
7571368.05999999959
 20
5715000.83000000007
  0
VERTEX
  5
48
100
AcDbEntity
  8
dzialka
100
AcDbVertex
100
AcDb2dVertex
 10
7571392.95999999996
 20
5715076.05999999959
  0
VERTEX
  5
49
100
AcDbEntity
  8
dzialka
100
AcDbVertex
100
AcDb2dVertex
 10
7571398.38999999966
 20
5715075.96999999974
  0
VERTEX
  5
4A
100
AcDbEntity
  8
dzialka
100
AcDbVertex
100
AcDb2dVertex
 10
7571372.88999999966
 20
5715000.4299999997
  0
SEQEND
  5
4B
100
AcDbEntity
  8
dzialka
  0
POLYLINE
  5
4C
100
AcDbEntity
  8
dzialka
  6
CONTINUOUS
370
18
100
AcDb2dPolyline
 66
1
 70
129
  0
VERTEX
  5
4D
100
AcDbEntity
  8
dzialka
100
AcDbVertex
100
AcDb2dVertex
 10
7571398.38999999966
 20
5715075.96999999974
  0
VERTEX
  5
4E
100
AcDbEntity
  8
dzialka
100
AcDbVertex
100
AcDb2dVertex
 10
7571403.03000000026
 20
5715075.87999999989
  0
VERTEX
  5
4F
100
AcDbEntity
  8
dzialka
100
AcDbVertex
100
AcDb2dVertex
 10
7571405.79000000004
 20
5715075.84999999963
  0
VERTEX
  5
50
100
AcDbEntity
  8
dzialka
100
AcDbVertex
100
AcDb2dVertex
 10
7571380.26999999955
 20
5714999.79000000004
  0
VERTEX
  5
51
100
AcDbEntity
  8
dzialka
100
AcDbVertex
100
AcDb2dVertex
 10
7571372.88999999966
 20
5715000.4299999997
  0
SEQEND
  5
52
100
AcDbEntity
  8
dzialka
  0
POLYLINE
  5
53
100
AcDbEntity
  8
dzialka
  6
CONTINUOUS
370
18
100
AcDb2dPolyline
 66
1
 70
129
  0
VERTEX
  5
54
100
AcDbEntity
  8
dzialka
100
AcDbVertex
100
AcDb2dVertex
 10
7571405.79000000004
 20
5715075.84999999963
  0
VERTEX
  5
55
100
AcDbEntity
  8
dzialka
100
AcDbVertex
100
AcDb2dVertex
 10
7571413.19000000041
 20
5715075.76999999955
  0
VERTEX
  5
56
100
AcDbEntity
  8
dzialka
100
AcDbVertex
100
AcDb2dVertex
 10
7571387.63999999966
 20
5714999.16000000015
  0
VERTEX
  5
57
100
AcDbEntity
  8
dzialka
100
AcDbVertex
100
AcDb2dVertex
 10
7571380.26999999955
 20
5714999.79000000004
  0
SEQEND
  5
58
100
AcDbEntity
  8
dzialka
  0
POLYLINE
  5
59
100
AcDbEntity
  8
dzialka
  6
CONTINUOUS
370
18
100
AcDb2dPolyline
 66
1
 70
129
  0
VERTEX
  5
5A
100
AcDbEntity
  8
dzialka
100
AcDbVertex
100
AcDb2dVertex
 10
7571413.19000000041
 20
5715075.76999999955
  0
VERTEX
  5
5B
100
AcDbEntity
  8
dzialka
100
AcDbVertex
100
AcDb2dVertex
 10
7571431.48000000045
 20
5715078.04999999981
  0
VERTEX
  5
5C
100
AcDbEntity
  8
dzialka
100
AcDbVertex
100
AcDb2dVertex
 10
7571405.51999999955
 20
5714997.62000000011
  0
VERTEX
  5
5D
100
AcDbEntity
  8
dzialka
100
AcDbVertex
100
AcDb2dVertex
 10
7571387.63999999966
 20
5714999.16000000015
  0
SEQEND
  5
5E
100
AcDbEntity
  8
dzialka
  0
POLYLINE
  5
5F
100
AcDbEntity
  8
dzialka
  6
CONTINUOUS
370
18
100
AcDb2dPolyline
 66
1
 70
129
  0
VERTEX
  5
60
100
AcDbEntity
  8
dzialka
100
AcDbVertex
100
AcDb2dVertex
 10
7571413.58999999985
 20
5714983.25999999978
  0
VERTEX
  5
61
100
AcDbEntity
  8
dzialka
100
AcDbVertex
100
AcDb2dVertex
 10
7571386.33000000007
 20
5714992.15000000037
  0
VERTEX
  5
62
100
AcDbEntity
  8
dzialka
100
AcDbVertex
100
AcDb2dVertex
 10
7571415.66000000015
 20
5714989.62000000011
  0
SEQEND
  5
63
100
AcDbEntity
  8
dzialka
  0
POLYLINE
  5
64
100
AcDbEntity
  8
dzialka
  6
CONTINUOUS
370
18
100
AcDb2dPolyline
 66
1
 70
129
  0
VERTEX
  5
65
100
AcDbEntity
  8
dzialka
100
AcDbVertex
100
AcDb2dVertex
 10
7571431.48000000045
 20
5715078.04999999981
  0
VERTEX
  5
66
100
AcDbEntity
  8
dzialka
100
AcDbVertex
100
AcDb2dVertex
 10
7571444.78000000026
 20
5715079.0
  0
VERTEX
  5
67
100
AcDbEntity
  8
dzialka
100
AcDbVertex
100
AcDb2dVertex
 10
7571417.91999999993
 20
5714996.54999999981
  0
VERTEX
  5
68
100
AcDbEntity
  8
dzialka
100
AcDbVertex
100
AcDb2dVertex
 10
7571405.51999999955
 20
5714997.62000000011
  0
SEQEND
  5
69
100
AcDbEntity
  8
dzialka
  0
POLYLINE
  5
6A
100
AcDbEntity
  8
dzialka
  6
CONTINUOUS
370
18
100
AcDb2dPolyline
 66
1
 70
129
  0
VERTEX
  5
6B
100
AcDbEntity
  8
dzialka
100
AcDbVertex
100
AcDb2dVertex
 10
7571413.58999999985
 20
5714983.25999999978
  0
VERTEX
  5
6C
100
AcDbEntity
  8
dzialka
100
AcDbVertex
100
AcDb2dVertex
 10
7571415.66000000015
 20
5714989.62000000011
  0
VERTEX
  5
6D
100
AcDbEntity
  8
dzialka
100
AcDbVertex
100
AcDb2dVertex
 10
7571434.65000000037
 20
5714988.04999999981
  0
VERTEX
  5
6E
100
AcDbEntity
  8
dzialka
100
AcDbVertex
100
AcDb2dVertex
 10
7571431.20000000019
 20
5714977.50999999978
  0
SEQEND
  5
6F
100
AcDbEntity
  8
dzialka
  0
POLYLINE
  5
70
100
AcDbEntity
  8
dzialka
  6
CONTINUOUS
370
18
100
AcDb2dPolyline
 66
1
 70
129
  0
VERTEX
  5
71
100
AcDbEntity
  8
dzialka
100
AcDbVertex
100
AcDb2dVertex
 10
7571444.78000000026
 20
5715079.0
  0
VERTEX
  5
72
100
AcDbEntity
  8
dzialka
100
AcDbVertex
100
AcDb2dVertex
 10
7571467.25
 20
5715087.75
  0
VERTEX
  5
73
100
AcDbEntity
  8
dzialka
100
AcDbVertex
100
AcDb2dVertex
 10
7571436.88999999966
 20
5714994.91999999993
  0
VERTEX
  5
74
100
AcDbEntity
  8
dzialka
100
AcDbVertex
100
AcDb2dVertex
 10
7571417.91999999993
 20
5714996.54999999981
  0
SEQEND
  5
75
100
AcDbEntity
  8
dzialka
  0
POLYLINE
  5
76
100
AcDbEntity
  8
dzialka
  6
CONTINUOUS
370
18
100
AcDb2dPolyline
 66
1
 70
129
  0
VERTEX
  5
77
100
AcDbEntity
  8
dzialka
100
AcDbVertex
100
AcDb2dVertex
 10
7571431.20000000019
 20
5714977.50999999978
  0
VERTEX
  5
78
100
AcDbEntity
  8
dzialka
100
AcDbVertex
100
AcDb2dVertex
 10
7571434.65000000037
 20
5714988.04999999981
  0
VERTEX
  5
79
100
AcDbEntity
  8
dzialka
100
AcDbVertex
100
AcDb2dVertex
 10
7571451.3200000003
 20
5714986.66000000015
  0
VERTEX
  5
7A
100
AcDbEntity
  8
dzialka
100
AcDbVertex
100
AcDb2dVertex
 10
7571446.75999999978
 20
5714972.44000000041
  0
SEQEND
  5
7B
100
AcDbEntity
  8
dzialka
  0
POLYLINE
  5
7C
100
AcDbEntity
  8
dzialka
  6
CONTINUOUS
370
18
100
AcDb2dPolyline
 66
1
 70
129
  0
VERTEX
  5
7D
100
AcDbEntity
  8
dzialka
100
AcDbVertex
100
AcDb2dVertex
 10
7571467.25
 20
5715087.75
  0
VERTEX
  5
7E
100
AcDbEntity
  8
dzialka
100
AcDbVertex
100
AcDb2dVertex
 10
7571487.75
 20
5715100.23000000045
  0
VERTEX
  5
7F
100
AcDbEntity
  8
dzialka
100
AcDbVertex
100
AcDb2dVertex
 10
7571453.50999999978
 20
5714993.49000000022
  0
VERTEX
  5
80
100
AcDbEntity
  8
dzialka
100
AcDbVertex
100
AcDb2dVertex
 10
7571436.88999999966
 20
5714994.91999999993
  0
SEQEND
  5
81
100
AcDbEntity
  8
dzialka
  0
POLYLINE
  5
82
100
AcDbEntity
  8
dzialka
  6
CONTINUOUS
370
18
100
AcDb2dPolyline
 66
1
 70
129
  0
VERTEX
  5
83
100
AcDbEntity
  8
dzialka
100
AcDbVertex
100
AcDb2dVertex
 10
7571446.75999999978
 20
5714972.44000000041
  0
VERTEX
  5
84
100
AcDbEntity
  8
dzialka
100
AcDbVertex
100
AcDb2dVertex
 10
7571451.3200000003
 20
5714986.66000000015
  0
VERTEX
  5
85
100
AcDbEntity
  8
dzialka
100
AcDbVertex
100
AcDb2dVertex
 10
7571468.23000000045
 20
5714985.25
  0
VERTEX
  5
86
100
AcDbEntity
  8
dzialka
100
AcDbVertex
100
AcDb2dVertex
 10
7571462.20000000019
 20
5714967.40000000037
  0
VERTEX
  5
87
100
AcDbEntity
  8
dzialka
100
AcDbVertex
100
AcDb2dVertex
 10
7571456.48000000045
 20
5714969.25999999978
  0
SEQEND
  5
88
100
AcDbEntity
  8
dzialka
  0
POLYLINE
  5
89
100
AcDbEntity
  8
dzialka
  6
CONTINUOUS
370
18
100
AcDb2dPolyline
 66
1
 70
129
  0
VERTEX
  5
8A
100
AcDbEntity
  8
dzialka
100
AcDbVertex
100
AcDb2dVertex
 10
7571487.75
 20
5715100.23000000045
  0
VERTEX
  5
8B
100
AcDbEntity
  8
dzialka
100
AcDbVertex
100
AcDb2dVertex
 10
7571515.44000000041
 20
5715127.75999999978
  0
VERTEX
  5
8C
100
AcDbEntity
  8
dzialka
100
AcDbVertex
100
AcDb2dVertex
 10
7571495.87999999989
 20
5715068.73000000045
  0
VERTEX
  5
8D
100
AcDbEntity
  8
dzialka
100
AcDbVertex
100
AcDb2dVertex
 10
7571470.46999999974
 20
5714992.00999999978
  0
VERTEX
  5
8E
100
AcDbEntity
  8
dzialka
100
AcDbVertex
100
AcDb2dVertex
 10
7571453.50999999978
 20
5714993.49000000022
  0
SEQEND
  5
8F
100
AcDbEntity
  8
dzialka
  0
POLYLINE
  5
90
100
AcDbEntity
  8
dzialka
  6
CONTINUOUS
370
18
100
AcDb2dPolyline
 66
1
 70
129
  0
VERTEX
  5
91
100
AcDbEntity
  8
dzialka
100
AcDbVertex
100
AcDb2dVertex
 10
7571269.62999999989
 20
5715026.00999999978
  0
VERTEX
  5
92
100
AcDbEntity
  8
dzialka
100
AcDbVertex
100
AcDb2dVertex
 10
7571293.19000000041
 20
5715018.3200000003
  0
VERTEX
  5
93
100
AcDbEntity
  8
dzialka
100
AcDbVertex
100
AcDb2dVertex
 10
7571290.24000000022
 20
5715009.4299999997
  0
VERTEX
  5
94
100
AcDbEntity
  8
dzialka
100
AcDbVertex
100
AcDb2dVertex
 10
7571281.78000000026
 20
5715010.50999999978
  0
VERTEX
  5
95
100
AcDbEntity
  8
dzialka
100
AcDbVertex
100
AcDb2dVertex
 10
7571265.58000000007
 20
5715013.79000000004
  0
SEQEND
  5
96
100
AcDbEntity
  8
dzialka
  0
POLYLINE
  5
97
100
AcDbEntity
  8
dzialka
  6
CONTINUOUS
370
18
100
AcDb2dPolyline
 66
1
 70
129
  0
VERTEX
  5
98
100
AcDbEntity
  8
dzialka
100
AcDbVertex
100
AcDb2dVertex
 10
7571293.19000000041
 20
5715018.3200000003
  0
VERTEX
  5
99
100
AcDbEntity
  8
dzialka
100
AcDbVertex
100
AcDb2dVertex
 10
7571337.29000000004
 20
5715003.9299999997
  0
VERTEX
  5
9A
100
AcDbEntity
  8
dzialka
100
AcDbVertex
100
AcDb2dVertex
 10
7571314.70000000019
 20
5715006.36000000034
  0
VERTEX
  5
9B
100
AcDbEntity
  8
dzialka
100
AcDbVertex
100
AcDb2dVertex
 10
7571311.46999999974
 20
5715006.70999999996
  0
VERTEX
  5
9C
100
AcDbEntity
  8
dzialka
100
AcDbVertex
100
AcDb2dVertex
 10
7571290.24000000022
 20
5715009.4299999997
  0
SEQEND
  5
9D
100
AcDbEntity
  8
dzialka
  0
POLYLINE
  5
9E
100
AcDbEntity
  8
dzialka
  6
CONTINUOUS
370
18
100
AcDb2dPolyline
 66
1
 70
129
  0
VERTEX
  5
9F
100
AcDbEntity
  8
dzialka
100
AcDbVertex
100
AcDb2dVertex
 10
7571214.78000000026
 20
5714600.6799999997
  0
VERTEX
  5
A0
100
AcDbEntity
  8
dzialka
100
AcDbVertex
100
AcDb2dVertex
 10
7571345.91000000015
 20
5714996.0
  0
VERTEX
  5
A1
100
AcDbEntity
  8
dzialka
100
AcDbVertex
100
AcDb2dVertex
 10
7571353.55999999959
 20
5714995.26999999955
  0
VERTEX
  5
A2
100
AcDbEntity
  8
dzialka
100
AcDbVertex
100
AcDb2dVertex
 10
7571261.16999999993
 20
5714716.73000000045
  0
VERTEX
  5
A3
100
AcDbEntity
  8
dzialka
100
AcDbVertex
100
AcDb2dVertex
 10
7571221.91000000015
 20
5714598.34999999963
  0
SEQEND
  5
A4
100
AcDbEntity
  8
dzialka
  0
POLYLINE
  5
A5
100
AcDbEntity
  8
dzialka
  6
CONTINUOUS
370
18
100
AcDb2dPolyline
 66
1
 70
129
  0
VERTEX
  5
A6
100
AcDbEntity
  8
dzialka
100
AcDbVertex
100
AcDb2dVertex
 10
7571214.78000000026
 20
5714600.6799999997
  0
VERTEX
  5
A7
100
AcDbEntity
  8
dzialka
100
AcDbVertex
100
AcDb2dVertex
 10
7571209.36000000034
 20
5714602.45000000019
  0
VERTEX
  5
A8
100
AcDbEntity
  8
dzialka
100
AcDbVertex
100
AcDb2dVertex
 10
7571339.99000000022
 20
5714996.55999999959
  0
VERTEX
  5
A9
100
AcDbEntity
  8
dzialka
100
AcDbVertex
100
AcDb2dVertex
 10
7571345.91000000015
 20
5714996.0
  0
SEQEND
  5
AA
100
AcDbEntity
  8
dzialka
  0
POLYLINE
  5
AB
100
AcDbEntity
  8
dzialka
  6
CONTINUOUS
370
18
100
AcDb2dPolyline
 66
1
 70
129
  0
VERTEX
  5
AC
100
AcDbEntity
  8
dzialka
100
AcDbVertex
100
AcDb2dVertex
 10
7571209.36000000034
 20
5714602.45000000019
  0
VERTEX
  5
AD
100
AcDbEntity
  8
dzialka
100
AcDbVertex
100
AcDb2dVertex
 10
7571202.33000000007
 20
5714604.74000000022
  0
VERTEX
  5
AE
100
AcDbEntity
  8
dzialka
100
AcDbVertex
100
AcDb2dVertex
 10
7571332.63999999966
 20
5714997.26999999955
  0
VERTEX
  5
AF
100
AcDbEntity
  8
dzialka
100
AcDbVertex
100
AcDb2dVertex
 10
7571339.99000000022
 20
5714996.55999999959
  0
SEQEND
  5
B0
100
AcDbEntity
  8
dzialka
  0
POLYLINE
  5
B1
100
AcDbEntity
  8
dzialka
  6
CONTINUOUS
370
18
100
AcDb2dPolyline
 66
1
 70
129
  0
VERTEX
  5
B2
100
AcDbEntity
  8
dzialka
100
AcDbVertex
100
AcDb2dVertex
 10
7571202.33000000007
 20
5714604.74000000022
  0
VERTEX
  5
B3
100
AcDbEntity
  8
dzialka
100
AcDbVertex
100
AcDb2dVertex
 10
7571196.8200000003
 20
5714606.54000000004
  0
VERTEX
  5
B4
100
AcDbEntity
  8
dzialka
100
AcDbVertex
100
AcDb2dVertex
 10
7571326.51999999955
 20
5714997.84999999963
  0
VERTEX
  5
B5
100
AcDbEntity
  8
dzialka
100
AcDbVertex
100
AcDb2dVertex
 10
7571332.63999999966
 20
5714997.26999999955
  0
SEQEND
  5
B6
100
AcDbEntity
  8
dzialka
  0
POLYLINE
  5
B7
100
AcDbEntity
  8
dzialka
  6
CONTINUOUS
370
18
100
AcDb2dPolyline
 66
1
 70
129
  0
VERTEX
  5
B8
100
AcDbEntity
  8
dzialka
100
AcDbVertex
100
AcDb2dVertex
 10
7571261.16999999993
 20
5714716.73000000045
  0
VERTEX
  5
B9
100
AcDbEntity
  8
dzialka
100
AcDbVertex
100
AcDb2dVertex
 10
7571353.55999999959
 20
5714995.26999999955
  0
VERTEX
  5
BA
100
AcDbEntity
  8
dzialka
100
AcDbVertex
100
AcDb2dVertex
 10
7571368.04999999981
 20
5714993.90000000037
  0
VERTEX
  5
BB
100
AcDbEntity
  8
dzialka
100
AcDbVertex
100
AcDb2dVertex
 10
7571375.03000000026
 20
5714991.62999999989
  0
VERTEX
  5
BC
100
AcDbEntity
  8
dzialka
100
AcDbVertex
100
AcDb2dVertex
 10
7571281.63999999966
 20
5714710.01999999955
  0
VERTEX
  5
BD
100
AcDbEntity
  8
dzialka
100
AcDbVertex
100
AcDb2dVertex
 10
7571279.54999999981
 20
5714710.70999999996
  0
SEQEND
  5
BE
100
AcDbEntity
  8
dzialka
  0
POLYLINE
  5
BF
100
AcDbEntity
  8
dzialka
  6
CONTINUOUS
370
18
100
AcDb2dPolyline
 66
1
 70
129
  0
VERTEX
  5
C0
100
AcDbEntity
  8
dzialka
100
AcDbVertex
100
AcDb2dVertex
 10
7571281.63999999966
 20
5714710.01999999955
  0
VERTEX
  5
C1
100
AcDbEntity
  8
dzialka
100
AcDbVertex
100
AcDb2dVertex
 10
7571375.03000000026
 20
5714991.62999999989
  0
VERTEX
  5
C2
100
AcDbEntity
  8
dzialka
100
AcDbVertex
100
AcDb2dVertex
 10
7571398.58999999985
 20
5714983.94000000041
  0
VERTEX
  5
C3
100
AcDbEntity
  8
dzialka
100
AcDbVertex
100
AcDb2dVertex
 10
7571305.19000000041
 20
5714702.30999999959
  0
VERTEX
  5
C4
100
AcDbEntity
  8
dzialka
100
AcDbVertex
100
AcDb2dVertex
 10
7571297.45000000019
 20
5714704.84999999963
  0
SEQEND
  5
C5
100
AcDbEntity
  8
dzialka
  0
POLYLINE
  5
C6
100
AcDbEntity
  8
dzialka
  6
CONTINUOUS
370
18
100
AcDb2dPolyline
 66
1
 70
129
  0
VERTEX
  5
C7
100
AcDbEntity
  8
dzialka
100
AcDbVertex
100
AcDb2dVertex
 10
7571305.19000000041
 20
5714702.30999999959
  0
VERTEX
  5
C8
100
AcDbEntity
  8
dzialka
100
AcDbVertex
100
AcDb2dVertex
 10
7571398.58999999985
 20
5714983.94000000041
  0
VERTEX
  5
C9
100
AcDbEntity
  8
dzialka
100
AcDbVertex
100
AcDb2dVertex
 10
7571417.58999999985
 20
5714977.75
  0
VERTEX
  5
CA
100
AcDbEntity
  8
dzialka
100
AcDbVertex
100
AcDb2dVertex
 10
7571324.19000000041
 20
5714696.08999999985
  0
VERTEX
  5
CB
100
AcDbEntity
  8
dzialka
100
AcDbVertex
100
AcDb2dVertex
 10
7571318.34999999963
 20
5714698.0
  0
SEQEND
  5
CC
100
AcDbEntity
  8
dzialka
  0
POLYLINE
  5
CD
100
AcDbEntity
  8
dzialka
  6
CONTINUOUS
370
18
100
AcDb2dPolyline
 66
1
 70
129
  0
VERTEX
  5
CE
100
AcDbEntity
  8
dzialka
100
AcDbVertex
100
AcDb2dVertex
 10
7571324.19000000041
 20
5714696.08999999985
  0
VERTEX
  5
CF
100
AcDbEntity
  8
dzialka
100
AcDbVertex
100
AcDb2dVertex
 10
7571417.58999999985
 20
5714977.75
  0
VERTEX
  5
D0
100
AcDbEntity
  8
dzialka
100
AcDbVertex
100
AcDb2dVertex
 10
7571436.16000000015
 20
5714971.69000000041
  0
VERTEX
  5
D1
100
AcDbEntity
  8
dzialka
100
AcDbVertex
100
AcDb2dVertex
 10
7571342.74000000022
 20
5714690.00999999978
  0
SEQEND
  5
D2
100
AcDbEntity
  8
dzialka
  0
POLYLINE
  5
D3
100
AcDbEntity
  8
dzialka
  6
CONTINUOUS
370
18
100
AcDb2dPolyline
 66
1
 70
129
  0
VERTEX
  5
D4
100
AcDbEntity
  8
dzialka
100
AcDbVertex
100
AcDb2dVertex
 10
7571342.74000000022
 20
5714690.00999999978
  0
VERTEX
  5
D5
100
AcDbEntity
  8
dzialka
100
AcDbVertex
100
AcDb2dVertex
 10
7571436.16000000015
 20
5714971.69000000041
  0
VERTEX
  5
D6
100
AcDbEntity
  8
dzialka
100
AcDbVertex
100
AcDb2dVertex
 10
7571455.25999999978
 20
5714965.45999999996
  0
VERTEX
  5
D7
100
AcDbEntity
  8
dzialka
100
AcDbVertex
100
AcDb2dVertex
 10
7571364.50999999978
 20
5714682.87999999989
  0
VERTEX
  5
D8
100
AcDbEntity
  8
dzialka
100
AcDbVertex
100
AcDb2dVertex
 10
7571343.45000000019
 20
5714689.78000000026
  0
SEQEND
  5
D9
100
AcDbEntity
  8
dzialka
  0
POLYLINE
  5
DA
100
AcDbEntity
  8
dzialka
  6
CONTINUOUS
370
18
100
AcDb2dPolyline
 66
1
 70
129
  0
VERTEX
  5
DB
100
AcDbEntity
  8
dzialka
100
AcDbVertex
100
AcDb2dVertex
 10
7571413.58999999985
 20
5714983.25999999978
  0
VERTEX
  5
DC
100
AcDbEntity
  8
dzialka
100
AcDbVertex
100
AcDb2dVertex
 10
7571431.20000000019
 20
5714977.50999999978
  0
VERTEX
  5
DD
100
AcDbEntity
  8
dzialka
100
AcDbVertex
100
AcDb2dVertex
 10
7571446.75999999978
 20
5714972.44000000041
  0
VERTEX
  5
DE
100
AcDbEntity
  8
dzialka
100
AcDbVertex
100
AcDb2dVertex
 10
7571456.48000000045
 20
5714969.25999999978
  0
VERTEX
  5
DF
100
AcDbEntity
  8
dzialka
100
AcDbVertex
100
AcDb2dVertex
 10
7571455.25999999978
 20
5714965.45999999996
  0
VERTEX
  5
E0
100
AcDbEntity
  8
dzialka
100
AcDbVertex
100
AcDb2dVertex
 10
7571436.16000000015
 20
5714971.69000000041
  0
VERTEX
  5
E1
100
AcDbEntity
  8
dzialka
100
AcDbVertex
100
AcDb2dVertex
 10
7571417.58999999985
 20
5714977.75
  0
VERTEX
  5
E2
100
AcDbEntity
  8
dzialka
100
AcDbVertex
100
AcDb2dVertex
 10
7571398.58999999985
 20
5714983.94000000041
  0
VERTEX
  5
E3
100
AcDbEntity
  8
dzialka
100
AcDbVertex
100
AcDb2dVertex
 10
7571375.03000000026
 20
5714991.62999999989
  0
VERTEX
  5
E4
100
AcDbEntity
  8
dzialka
100
AcDbVertex
100
AcDb2dVertex
 10
7571368.04999999981
 20
5714993.90000000037
  0
VERTEX
  5
E5
100
AcDbEntity
  8
dzialka
100
AcDbVertex
100
AcDb2dVertex
 10
7571386.33000000007
 20
5714992.15000000037
  0
SEQEND
  5
E6
100
AcDbEntity
  8
dzialka
  0
POLYLINE
  5
E7
100
AcDbEntity
  8
dzialka
  6
CONTINUOUS
370
18
100
AcDb2dPolyline
 66
1
 70
129
  0
VERTEX
  5
E8
100
AcDbEntity
  8
dzialka
100
AcDbVertex
100
AcDb2dVertex
 10
7571462.20000000019
 20
5714967.40000000037
  0
VERTEX
  5
E9
100
AcDbEntity
  8
dzialka
100
AcDbVertex
100
AcDb2dVertex
 10
7571468.23000000045
 20
5714985.25
  0
VERTEX
  5
EA
100
AcDbEntity
  8
dzialka
100
AcDbVertex
100
AcDb2dVertex
 10
7571475.98000000045
 20
5714984.5700000003
  0
VERTEX
  5
EB
100
AcDbEntity
  8
dzialka
100
AcDbVertex
100
AcDb2dVertex
 10
7571440.36000000034
 20
5714877.08999999985
  0
VERTEX
  5
EC
100
AcDbEntity
  8
dzialka
100
AcDbVertex
100
AcDb2dVertex
 10
7571434.62999999989
 20
5714883.84999999963
  0
SEQEND
  5
ED
100
AcDbEntity
  8
dzialka
  0
POLYLINE
  5
EE
100
AcDbEntity
  8
dzialka
  6
CONTINUOUS
370
18
100
AcDb2dPolyline
 66
1
 70
129
  0
VERTEX
  5
EF
100
AcDbEntity
  8
dzialka
100
AcDbVertex
100
AcDb2dVertex
 10
7571495.87999999989
 20
5715068.73000000045
  0
VERTEX
  5
F0
100
AcDbEntity
  8
dzialka
100
AcDbVertex
100
AcDb2dVertex
 10
7571503.1799999997
 20
5715066.63999999966
  0
VERTEX
  5
F1
100
AcDbEntity
  8
dzialka
100
AcDbVertex
100
AcDb2dVertex
 10
7571478.23000000045
 20
5714991.36000000034
  0
VERTEX
  5
F2
100
AcDbEntity
  8
dzialka
100
AcDbVertex
100
AcDb2dVertex
 10
7571470.46999999974
 20
5714992.00999999978
  0
SEQEND
  5
F3
100
AcDbEntity
  8
dzialka
  0
POLYLINE
  5
F4
100
AcDbEntity
  8
dzialka
  6
CONTINUOUS
370
18
100
AcDb2dPolyline
 66
1
 70
129
  0
VERTEX
  5
F5
100
AcDbEntity
  8
dzialka
100
AcDbVertex
100
AcDb2dVertex
 10
7571495.87999999989
 20
5715068.73000000045
  0
VERTEX
  5
F6
100
AcDbEntity
  8
dzialka
100
AcDbVertex
100
AcDb2dVertex
 10
7571515.44000000041
 20
5715127.75999999978
  0
VERTEX
  5
F7
100
AcDbEntity
  8
dzialka
100
AcDbVertex
100
AcDb2dVertex
 10
7571556.11000000034
 20
5715250.54000000004
  0
VERTEX
  5
F8
100
AcDbEntity
  8
dzialka
100
AcDbVertex
100
AcDb2dVertex
 10
7571563.45999999996
 20
5715248.54999999981
  0
VERTEX
  5
F9
100
AcDbEntity
  8
dzialka
100
AcDbVertex
100
AcDb2dVertex
 10
7571503.1799999997
 20
5715066.63999999966
  0
SEQEND
  5
FA
100
AcDbEntity
  8
dzialka
  0
POLYLINE
  5
FB
100
AcDbEntity
  8
dzialka
  6
CONTINUOUS
370
18
100
AcDb2dPolyline
 66
1
 70
129
  0
VERTEX
  5
FC
100
AcDbEntity
  8
dzialka
100
AcDbVertex
100
AcDb2dVertex
 10
7571440.36000000034
 20
5714877.08999999985
  0
VERTEX
  5
FD
100
AcDbEntity
  8
dzialka
100
AcDbVertex
100
AcDb2dVertex
 10
7571475.98000000045
 20
5714984.5700000003
  0
VERTEX
  5
FE
100
AcDbEntity
  8
dzialka
100
AcDbVertex
100
AcDb2dVertex
 10
7571487.0
 20
5714983.59999999963
  0
VERTEX
  5
FF
100
AcDbEntity
  8
dzialka
100
AcDbVertex
100
AcDb2dVertex
 10
7571447.61000000034
 20
5714864.70999999996
  0
VERTEX
  5
100
100
AcDbEntity
  8
dzialka
100
AcDbVertex
100
AcDb2dVertex
 10
7571446.34999999963
 20
5714866.20999999996
  0
SEQEND
  5
101
100
AcDbEntity
  8
dzialka
  0
POLYLINE
  5
102
100
AcDbEntity
  8
dzialka
  6
CONTINUOUS
370
18
100
AcDb2dPolyline
 66
1
 70
129
  0
VERTEX
  5
103
100
AcDbEntity
  8
dzialka
100
AcDbVertex
100
AcDb2dVertex
 10
7571503.1799999997
 20
5715066.63999999966
  0
VERTEX
  5
104
100
AcDbEntity
  8
dzialka
100
AcDbVertex
100
AcDb2dVertex
 10
7571563.45999999996
 20
5715248.54999999981
  0
VERTEX
  5
105
100
AcDbEntity
  8
dzialka
100
AcDbVertex
100
AcDb2dVertex
 10
7571565.15000000037
 20
5715248.08999999985
  0
VERTEX
  5
106
100
AcDbEntity
  8
dzialka
100
AcDbVertex
100
AcDb2dVertex
 10
7571573.84999999963
 20
5715245.73000000045
  0
VERTEX
  5
107
100
AcDbEntity
  8
dzialka
100
AcDbVertex
100
AcDb2dVertex
 10
7571489.26999999955
 20
5714990.4299999997
  0
VERTEX
  5
108
100
AcDbEntity
  8
dzialka
100
AcDbVertex
100
AcDb2dVertex
 10
7571478.23000000045
 20
5714991.36000000034
  0
SEQEND
  5
109
100
AcDbEntity
  8
dzialka
  0
POLYLINE
  5
10A
100
AcDbEntity
  8
dzialka
  6
CONTINUOUS
370
18
100
AcDb2dPolyline
 66
1
 70
129
  0
VERTEX
  5
10B
100
AcDbEntity
  8
dzialka
100
AcDbVertex
100
AcDb2dVertex
 10
7571447.61000000034
 20
5714864.70999999996
  0
VERTEX
  5
10C
100
AcDbEntity
  8
dzialka
100
AcDbVertex
100
AcDb2dVertex
 10
7571487.0
 20
5714983.59999999963
  0
VERTEX
  5
10D
100
AcDbEntity
  8
dzialka
100
AcDbVertex
100
AcDb2dVertex
 10
7571499.96999999974
 20
5714982.45999999996
  0
VERTEX
  5
10E
100
AcDbEntity
  8
dzialka
100
AcDbVertex
100
AcDb2dVertex
 10
7571472.79999999981
 20
5714899.49000000022
  0
VERTEX
  5
10F
100
AcDbEntity
  8
dzialka
100
AcDbVertex
100
AcDb2dVertex
 10
7571468.13999999966
 20
5714894.91999999993
  0
VERTEX
  5
110
100
AcDbEntity
  8
dzialka
100
AcDbVertex
100
AcDb2dVertex
 10
7571455.25999999978
 20
5714855.58999999985
  0
SEQEND
  5
111
100
AcDbEntity
  8
dzialka
  0
POLYLINE
  5
112
100
AcDbEntity
  8
dzialka
  6
CONTINUOUS
370
18
100
AcDb2dPolyline
 66
1
 70
129
  0
VERTEX
  5
113
100
AcDbEntity
  8
dzialka
100
AcDbVertex
100
AcDb2dVertex
 10
7571573.84999999963
 20
5715245.73000000045
  0
VERTEX
  5
114
100
AcDbEntity
  8
dzialka
100
AcDbVertex
100
AcDb2dVertex
 10
7571585.20000000019
 20
5715242.65000000037
  0
VERTEX
  5
115
100
AcDbEntity
  8
dzialka
100
AcDbVertex
100
AcDb2dVertex
 10
7571502.23000000045
 20
5714989.33000000007
  0
VERTEX
  5
116
100
AcDbEntity
  8
dzialka
100
AcDbVertex
100
AcDb2dVertex
 10
7571489.26999999955
 20
5714990.4299999997
  0
SEQEND
  5
117
100
AcDbEntity
  8
dzialka
  0
POLYLINE
  5
118
100
AcDbEntity
  8
dzialka
  6
CONTINUOUS
370
18
100
AcDb2dPolyline
 66
1
 70
129
  0
VERTEX
  5
119
100
AcDbEntity
  8
dzialka
100
AcDbVertex
100
AcDb2dVertex
 10
7571468.79000000004
 20
5714850.79999999981
  0
VERTEX
  5
11A
100
AcDbEntity
  8
dzialka
100
AcDbVertex
100
AcDb2dVertex
 10
7571466.78000000026
 20
5714844.74000000022
  0
VERTEX
  5
11B
100
AcDbEntity
  8
dzialka
100
AcDbVertex
100
AcDb2dVertex
 10
7571462.91000000015
 20
5714847.44000000041
  0
VERTEX
  5
11C
100
AcDbEntity
  8
dzialka
100
AcDbVertex
100
AcDb2dVertex
 10
7571457.08000000007
 20
5714851.5
  0
VERTEX
  5
11D
100
AcDbEntity
  8
dzialka
100
AcDbVertex
100
AcDb2dVertex
 10
7571470.76999999955
 20
5714893.29000000004
  0
VERTEX
  5
11E
100
AcDbEntity
  8
dzialka
100
AcDbVertex
100
AcDb2dVertex
 10
7571488.6799999997
 20
5714910.87999999989
  0
SEQEND
  5
11F
100
AcDbEntity
  8
dzialka
  0
POLYLINE
  5
120
100
AcDbEntity
  8
dzialka
  6
CONTINUOUS
370
18
100
AcDb2dPolyline
 66
1
 70
129
  0
VERTEX
  5
121
100
AcDbEntity
  8
dzialka
100
AcDbVertex
100
AcDb2dVertex
 10
7571472.79999999981
 20
5714899.49000000022
  0
VERTEX
  5
122
100
AcDbEntity
  8
dzialka
100
AcDbVertex
100
AcDb2dVertex
 10
7571499.96999999974
 20
5714982.45999999996
  0
VERTEX
  5
123
100
AcDbEntity
  8
dzialka
100
AcDbVertex
100
AcDb2dVertex
 10
7571512.03000000026
 20
5714981.40000000037
  0
VERTEX
  5
124
100
AcDbEntity
  8
dzialka
100
AcDbVertex
100
AcDb2dVertex
 10
7571490.1799999997
 20
5714915.41999999993
  0
VERTEX
  5
125
100
AcDbEntity
  8
dzialka
100
AcDbVertex
100
AcDb2dVertex
 10
7571486.79999999981
 20
5714913.24000000022
  0
SEQEND
  5
126
100
AcDbEntity
  8
dzialka
  0
POLYLINE
  5
127
100
AcDbEntity
  8
dzialka
  6
CONTINUOUS
370
18
100
AcDb2dPolyline
 66
1
 70
129
  0
VERTEX
  5
128
100
AcDbEntity
  8
dzialka
100
AcDbVertex
100
AcDb2dVertex
 10
7571585.20000000019
 20
5715242.65000000037
  0
VERTEX
  5
129
100
AcDbEntity
  8
dzialka
100
AcDbVertex
100
AcDb2dVertex
 10
7571597.41999999993
 20
5715239.33999999985
  0
VERTEX
  5
12A
100
AcDbEntity
  8
dzialka
100
AcDbVertex
100
AcDb2dVertex
 10
7571514.3200000003
 20
5714988.30999999959
  0
VERTEX
  5
12B
100
AcDbEntity
  8
dzialka
100
AcDbVertex
100
AcDb2dVertex
 10
7571502.23000000045
 20
5714989.33000000007
  0
SEQEND
  5
12C
100
AcDbEntity
  8
dzialka
  0
POLYLINE
  5
12D
100
AcDbEntity
  8
dzialka
  6
CONTINUOUS
370
18
100
AcDb2dPolyline
 66
1
 70
129
  0
VERTEX
  5
12E
100
AcDbEntity
  8
dzialka
100
AcDbVertex
100
AcDb2dVertex
 10
7571468.79000000004
 20
5714850.79999999981
  0
VERTEX
  5
12F
100
AcDbEntity
  8
dzialka
100
AcDbVertex
100
AcDb2dVertex
 10
7571488.6799999997
 20
5714910.87999999989
  0
VERTEX
  5
130
100
AcDbEntity
  8
dzialka
100
AcDbVertex
100
AcDb2dVertex
 10
7571505.6799999997
 20
5714921.83000000007
  0
VERTEX
  5
131
100
AcDbEntity
  8
dzialka
100
AcDbVertex
100
AcDb2dVertex
 10
7571514.29999999981
 20
5714924.04999999981
  0
VERTEX
  5
132
100
AcDbEntity
  8
dzialka
100
AcDbVertex
100
AcDb2dVertex
 10
7571487.13999999966
 20
5714842.24000000022
  0
VERTEX
  5
133
100
AcDbEntity
  8
dzialka
100
AcDbVertex
100
AcDb2dVertex
 10
7571473.71999999974
 20
5714846.24000000022
  0
SEQEND
  5
134
100
AcDbEntity
  8
dzialka
  0
POLYLINE
  5
135
100
AcDbEntity
  8
dzialka
  6
CONTINUOUS
370
18
100
AcDb2dPolyline
 66
1
 70
129
  0
VERTEX
  5
136
100
AcDbEntity
  8
dzialka
100
AcDbVertex
100
AcDb2dVertex
 10
7571490.1799999997
 20
5714915.41999999993
  0
VERTEX
  5
137
100
AcDbEntity
  8
dzialka
100
AcDbVertex
100
AcDb2dVertex
 10
7571512.03000000026
 20
5714981.40000000037
  0
VERTEX
  5
138
100
AcDbEntity
  8
dzialka
100
AcDbVertex
100
AcDb2dVertex
 10
7571532.73000000045
 20
5714979.58000000007
  0
VERTEX
  5
139
100
AcDbEntity
  8
dzialka
100
AcDbVertex
100
AcDb2dVertex
 10
7571515.41999999993
 20
5714927.44000000041
  0
VERTEX
  5
13A
100
AcDbEntity
  8
dzialka
100
AcDbVertex
100
AcDb2dVertex
 10
7571504.45999999996
 20
5714924.61000000034
  0
SEQEND
  5
13B
100
AcDbEntity
  8
dzialka
  0
POLYLINE
  5
13C
100
AcDbEntity
  8
dzialka
  6
CONTINUOUS
370
18
100
AcDb2dPolyline
 66
1
 70
129
  0
VERTEX
  5
13D
100
AcDbEntity
  8
dzialka
100
AcDbVertex
100
AcDb2dVertex
 10
7571597.41999999993
 20
5715239.33999999985
  0
VERTEX
  5
13E
100
AcDbEntity
  8
dzialka
100
AcDbVertex
100
AcDb2dVertex
 10
7571617.1799999997
 20
5715233.98000000045
  0
VERTEX
  5
13F
100
AcDbEntity
  8
dzialka
100
AcDbVertex
100
AcDb2dVertex
 10
7571535.04999999981
 20
5714986.5700000003
  0
VERTEX
  5
140
100
AcDbEntity
  8
dzialka
100
AcDbVertex
100
AcDb2dVertex
 10
7571514.3200000003
 20
5714988.30999999959
  0
SEQEND
  5
141
100
AcDbEntity
  8
dzialka
  0
POLYLINE
  5
142
100
AcDbEntity
  8
dzialka
  6
CONTINUOUS
370
18
100
AcDb2dPolyline
 66
1
 70
129
  0
VERTEX
  5
143
100
AcDbEntity
  8
dzialka
100
AcDbVertex
100
AcDb2dVertex
 10
7571487.13999999966
 20
5714842.24000000022
  0
VERTEX
  5
144
100
AcDbEntity
  8
dzialka
100
AcDbVertex
100
AcDb2dVertex
 10
7571514.29999999981
 20
5714924.04999999981
  0
VERTEX
  5
145
100
AcDbEntity
  8
dzialka
100
AcDbVertex
100
AcDb2dVertex
 10
7571517.24000000022
 20
5714924.80999999959
  0
VERTEX
  5
146
100
AcDbEntity
  8
dzialka
100
AcDbVertex
100
AcDb2dVertex
 10
7571534.53000000026
 20
5714924.20000000019
  0
VERTEX
  5
147
100
AcDbEntity
  8
dzialka
100
AcDbVertex
100
AcDb2dVertex
 10
7571541.83000000007
 20
5714922.00999999978
  0
VERTEX
  5
148
100
AcDbEntity
  8
dzialka
100
AcDbVertex
100
AcDb2dVertex
 10
7571506.29000000004
 20
5714814.38999999966
  0
VERTEX
  5
149
100
AcDbEntity
  8
dzialka
100
AcDbVertex
100
AcDb2dVertex
 10
7571500.73000000045
 20
5714814.53000000026
  0
VERTEX
  5
14A
100
AcDbEntity
  8
dzialka
100
AcDbVertex
100
AcDb2dVertex
 10
7571493.05999999959
 20
5714818.20999999996
  0
VERTEX
  5
14B
100
AcDbEntity
  8
dzialka
100
AcDbVertex
100
AcDb2dVertex
 10
7571490.62999999989
 20
5714821.4299999997
  0
VERTEX
  5
14C
100
AcDbEntity
  8
dzialka
100
AcDbVertex
100
AcDb2dVertex
 10
7571487.98000000045
 20
5714829.00999999978
  0
VERTEX
  5
14D
100
AcDbEntity
  8
dzialka
100
AcDbVertex
100
AcDb2dVertex
 10
7571487.20999999996
 20
5714841.13999999966
  0
SEQEND
  5
14E
100
AcDbEntity
  8
dzialka
  0
POLYLINE
  5
14F
100
AcDbEntity
  8
dzialka
  6
CONTINUOUS
370
18
100
AcDb2dPolyline
 66
1
 70
129
  0
VERTEX
  5
150
100
AcDbEntity
  8
dzialka
100
AcDbVertex
100
AcDb2dVertex
 10
7571515.41999999993
 20
5714927.44000000041
  0
VERTEX
  5
151
100
AcDbEntity
  8
dzialka
100
AcDbVertex
100
AcDb2dVertex
 10
7571532.73000000045
 20
5714979.58000000007
  0
VERTEX
  5
152
100
AcDbEntity
  8
dzialka
100
AcDbVertex
100
AcDb2dVertex
 10
7571560.04999999981
 20
5714977.1799999997
  0
VERTEX
  5
153
100
AcDbEntity
  8
dzialka
100
AcDbVertex
100
AcDb2dVertex
 10
7571542.78000000026
 20
5714924.86000000034
  0
VERTEX
  5
154
100
AcDbEntity
  8
dzialka
100
AcDbVertex
100
AcDb2dVertex
 10
7571535.01999999955
 20
5714927.1799999997
  0
VERTEX
  5
155
100
AcDbEntity
  8
dzialka
100
AcDbVertex
100
AcDb2dVertex
 10
7571516.91000000015
 20
5714927.8200000003
  0
SEQEND
  5
156
100
AcDbEntity
  8
dzialka
  0
POLYLINE
  5
157
100
AcDbEntity
  8
dzialka
  6
CONTINUOUS
370
18
100
AcDb2dPolyline
 66
1
 70
129
  0
VERTEX
  5
158
100
AcDbEntity
  8
dzialka
100
AcDbVertex
100
AcDb2dVertex
 10
7571535.04999999981
 20
5714986.5700000003
  0
VERTEX
  5
159
100
AcDbEntity
  8
dzialka
100
AcDbVertex
100
AcDb2dVertex
 10
7571617.1799999997
 20
5715233.98000000045
  0
VERTEX
  5
15A
100
AcDbEntity
  8
dzialka
100
AcDbVertex
100
AcDb2dVertex
 10
7571642.58999999985
 20
5715227.08999999985
  0
VERTEX
  5
15B
100
AcDbEntity
  8
dzialka
100
AcDbVertex
100
AcDb2dVertex
 10
7571562.38999999966
 20
5714984.25999999978
  0
SEQEND
  5
15C
100
AcDbEntity
  8
dzialka
  0
POLYLINE
  5
15D
100
AcDbEntity
  8
dzialka
  6
CONTINUOUS
370
18
100
AcDb2dPolyline
 66
1
 70
129
  0
VERTEX
  5
15E
100
AcDbEntity
  8
dzialka
100
AcDbVertex
100
AcDb2dVertex
 10
7571506.29000000004
 20
5714814.38999999966
  0
VERTEX
  5
15F
100
AcDbEntity
  8
dzialka
100
AcDbVertex
100
AcDb2dVertex
 10
7571541.83000000007
 20
5714922.00999999978
  0
VERTEX
  5
160
100
AcDbEntity
  8
dzialka
100
AcDbVertex
100
AcDb2dVertex
 10
7571547.78000000026
 20
5714920.21999999974
  0
VERTEX
  5
161
100
AcDbEntity
  8
dzialka
100
AcDbVertex
100
AcDb2dVertex
 10
7571512.79999999981
 20
5714815.80999999959
  0
VERTEX
  5
162
100
AcDbEntity
  8
dzialka
100
AcDbVertex
100
AcDb2dVertex
 10
7571507.71999999974
 20
5714814.34999999963
  0
SEQEND
  5
163
100
AcDbEntity
  8
dzialka
  0
POLYLINE
  5
164
100
AcDbEntity
  8
dzialka
  6
CONTINUOUS
370
18
100
AcDb2dPolyline
 66
1
 70
129
  0
VERTEX
  5
165
100
AcDbEntity
  8
dzialka
100
AcDbVertex
100
AcDb2dVertex
 10
7571542.78000000026
 20
5714924.86000000034
  0
VERTEX
  5
166
100
AcDbEntity
  8
dzialka
100
AcDbVertex
100
AcDb2dVertex
 10
7571560.04999999981
 20
5714977.1799999997
  0
VERTEX
  5
167
100
AcDbEntity
  8
dzialka
100
AcDbVertex
100
AcDb2dVertex
 10
7571566.66000000015
 20
5714976.59999999963
  0
VERTEX
  5
168
100
AcDbEntity
  8
dzialka
100
AcDbVertex
100
AcDb2dVertex
 10
7571548.74000000022
 20
5714923.08000000007
  0
SEQEND
  5
169
100
AcDbEntity
  8
dzialka
  0
POLYLINE
  5
16A
100
AcDbEntity
  8
dzialka
  6
CONTINUOUS
370
18
100
AcDb2dPolyline
 66
1
 70
129
  0
VERTEX
  5
16B
100
AcDbEntity
  8
dzialka
100
AcDbVertex
100
AcDb2dVertex
 10
7571562.38999999966
 20
5714984.25999999978
  0
VERTEX
  5
16C
100
AcDbEntity
  8
dzialka
100
AcDbVertex
100
AcDb2dVertex
 10
7571642.58999999985
 20
5715227.08999999985
  0
VERTEX
  5
16D
100
AcDbEntity
  8
dzialka
100
AcDbVertex
100
AcDb2dVertex
 10
7571649.91999999993
 20
5715225.11000000034
  0
VERTEX
  5
16E
100
AcDbEntity
  8
dzialka
100
AcDbVertex
100
AcDb2dVertex
 10
7571569.04000000004
 20
5714983.70000000019
  0
SEQEND
  5
16F
100
AcDbEntity
  8
dzialka
  0
POLYLINE
  5
170
100
AcDbEntity
  8
dzialka
  6
CONTINUOUS
370
18
100
AcDb2dPolyline
 66
1
 70
129
  0
VERTEX
  5
171
100
AcDbEntity
  8
dzialka
100
AcDbVertex
100
AcDb2dVertex
 10
7571512.79999999981
 20
5714815.80999999959
  0
VERTEX
  5
172
100
AcDbEntity
  8
dzialka
100
AcDbVertex
100
AcDb2dVertex
 10
7571547.78000000026
 20
5714920.21999999974
  0
VERTEX
  5
173
100
AcDbEntity
  8
dzialka
100
AcDbVertex
100
AcDb2dVertex
 10
7571559.12999999989
 20
5714916.83000000007
  0
VERTEX
  5
174
100
AcDbEntity
  8
dzialka
100
AcDbVertex
100
AcDb2dVertex
 10
7571529.01999999955
 20
5714825.70999999996
  0
VERTEX
  5
175
100
AcDbEntity
  8
dzialka
100
AcDbVertex
100
AcDb2dVertex
 10
7571524.63999999966
 20
5714826.84999999963
  0
VERTEX
  5
176
100
AcDbEntity
  8
dzialka
100
AcDbVertex
100
AcDb2dVertex
 10
7571517.54999999981
 20
5714819.48000000045
  0
SEQEND
  5
177
100
AcDbEntity
  8
dzialka
  0
POLYLINE
  5
178
100
AcDbEntity
  8
dzialka
  6
CONTINUOUS
370
18
100
AcDb2dPolyline
 66
1
 70
129
  0
VERTEX
  5
179
100
AcDbEntity
  8
dzialka
100
AcDbVertex
100
AcDb2dVertex
 10
7571548.74000000022
 20
5714923.08000000007
  0
VERTEX
  5
17A
100
AcDbEntity
  8
dzialka
100
AcDbVertex
100
AcDb2dVertex
 10
7571566.66000000015
 20
5714976.59999999963
  0
VERTEX
  5
17B
100
AcDbEntity
  8
dzialka
100
AcDbVertex
100
AcDb2dVertex
 10
7571578.53000000026
 20
5714975.54999999981
  0
VERTEX
  5
17C
100
AcDbEntity
  8
dzialka
100
AcDbVertex
100
AcDb2dVertex
 10
7571560.0700000003
 20
5714919.6799999997
  0
SEQEND
  5
17D
100
AcDbEntity
  8
dzialka
  0
POLYLINE
  5
17E
100
AcDbEntity
  8
dzialka
  6
CONTINUOUS
370
18
100
AcDb2dPolyline
 66
1
 70
129
  0
VERTEX
  5
17F
100
AcDbEntity
  8
dzialka
100
AcDbVertex
100
AcDb2dVertex
 10
7571649.91999999993
 20
5715225.11000000034
  0
VERTEX
  5
180
100
AcDbEntity
  8
dzialka
100
AcDbVertex
100
AcDb2dVertex
 10
7571660.08000000007
 20
5715222.34999999963
  0
VERTEX
  5
181
100
AcDbEntity
  8
dzialka
100
AcDbVertex
100
AcDb2dVertex
 10
7571580.88999999966
 20
5714982.70000000019
  0
VERTEX
  5
182
100
AcDbEntity
  8
dzialka
100
AcDbVertex
100
AcDb2dVertex
 10
7571569.04000000004
 20
5714983.70000000019
  0
SEQEND
  5
183
100
AcDbEntity
  8
dzialka
  0
POLYLINE
  5
184
100
AcDbEntity
  8
dzialka
  6
CONTINUOUS
370
18
100
AcDb2dPolyline
 66
1
 70
129
  0
VERTEX
  5
185
100
AcDbEntity
  8
dzialka
100
AcDbVertex
100
AcDb2dVertex
 10
7571529.01999999955
 20
5714825.70999999996
  0
VERTEX
  5
186
100
AcDbEntity
  8
dzialka
100
AcDbVertex
100
AcDb2dVertex
 10
7571559.12999999989
 20
5714916.83000000007
  0
VERTEX
  5
187
100
AcDbEntity
  8
dzialka
100
AcDbVertex
100
AcDb2dVertex
 10
7571565.46999999974
 20
5714914.9299999997
  0
VERTEX
  5
188
100
AcDbEntity
  8
dzialka
100
AcDbVertex
100
AcDb2dVertex
 10
7571535.45000000019
 20
5714824.04999999981
  0
SEQEND
  5
189
100
AcDbEntity
  8
dzialka
  0
POLYLINE
  5
18A
100
AcDbEntity
  8
dzialka
  6
CONTINUOUS
370
18
100
AcDb2dPolyline
 66
1
 70
129
  0
VERTEX
  5
18B
100
AcDbEntity
  8
dzialka
100
AcDbVertex
100
AcDb2dVertex
 10
7571560.0700000003
 20
5714919.6799999997
  0
VERTEX
  5
18C
100
AcDbEntity
  8
dzialka
100
AcDbVertex
100
AcDb2dVertex
 10
7571578.53000000026
 20
5714975.54999999981
  0
VERTEX
  5
18D
100
AcDbEntity
  8
dzialka
100
AcDbVertex
100
AcDb2dVertex
 10
7571585.30999999959
 20
5714974.95999999996
  0
VERTEX
  5
18E
100
AcDbEntity
  8
dzialka
100
AcDbVertex
100
AcDb2dVertex
 10
7571566.41999999993
 20
5714917.78000000026
  0
SEQEND
  5
18F
100
AcDbEntity
  8
dzialka
  0
POLYLINE
  5
190
100
AcDbEntity
  8
dzialka
  6
CONTINUOUS
370
18
100
AcDb2dPolyline
 66
1
 70
129
  0
VERTEX
  5
191
100
AcDbEntity
  8
dzialka
100
AcDbVertex
100
AcDb2dVertex
 10
7571660.08000000007
 20
5715222.34999999963
  0
VERTEX
  5
192
100
AcDbEntity
  8
dzialka
100
AcDbVertex
100
AcDb2dVertex
 10
7571666.46999999974
 20
5715220.62000000011
  0
VERTEX
  5
193
100
AcDbEntity
  8
dzialka
100
AcDbVertex
100
AcDb2dVertex
 10
7571587.6799999997
 20
5714982.12999999989
  0
VERTEX
  5
194
100
AcDbEntity
  8
dzialka
100
AcDbVertex
100
AcDb2dVertex
 10
7571580.88999999966
 20
5714982.70000000019
  0
SEQEND
  5
195
100
AcDbEntity
  8
dzialka
  0
POLYLINE
  5
196
100
AcDbEntity
  8
dzialka
  6
CONTINUOUS
370
18
100
AcDb2dPolyline
 66
1
 70
129
  0
VERTEX
  5
197
100
AcDbEntity
  8
dzialka
100
AcDbVertex
100
AcDb2dVertex
 10
7571535.45000000019
 20
5714824.04999999981
  0
VERTEX
  5
198
100
AcDbEntity
  8
dzialka
100
AcDbVertex
100
AcDb2dVertex
 10
7571565.46999999974
 20
5714914.9299999997
  0
VERTEX
  5
199
100
AcDbEntity
  8
dzialka
100
AcDbVertex
100
AcDb2dVertex
 10
7571568.48000000045
 20
5714914.03000000026
  0
VERTEX
  5
19A
100
AcDbEntity
  8
dzialka
100
AcDbVertex
100
AcDb2dVertex
 10
7571579.78000000026
 20
5714914.87000000011
  0
VERTEX
  5
19B
100
AcDbEntity
  8
dzialka
100
AcDbVertex
100
AcDb2dVertex
 10
7571548.66000000015
 20
5714820.62999999989
  0
SEQEND
  5
19C
100
AcDbEntity
  8
dzialka
  0
POLYLINE
  5
19D
100
AcDbEntity
  8
dzialka
  6
CONTINUOUS
370
18
100
AcDb2dPolyline
 66
1
 70
129
  0
VERTEX
  5
19E
100
AcDbEntity
  8
dzialka
100
AcDbVertex
100
AcDb2dVertex
 10
7571566.41999999993
 20
5714917.78000000026
  0
VERTEX
  5
19F
100
AcDbEntity
  8
dzialka
100
AcDbVertex
100
AcDb2dVertex
 10
7571585.30999999959
 20
5714974.95999999996
  0
VERTEX
  5
1A0
100
AcDbEntity
  8
dzialka
100
AcDbVertex
100
AcDb2dVertex
 10
7571599.21999999974
 20
5714973.73000000045
  0
VERTEX
  5
1A1
100
AcDbEntity
  8
dzialka
100
AcDbVertex
100
AcDb2dVertex
 10
7571580.79999999981
 20
5714917.95000000019
  0
VERTEX
  5
1A2
100
AcDbEntity
  8
dzialka
100
AcDbVertex
100
AcDb2dVertex
 10
7571568.80999999959
 20
5714917.05999999959
  0
SEQEND
  5
1A3
100
AcDbEntity
  8
dzialka
  0
POLYLINE
  5
1A4
100
AcDbEntity
  8
dzialka
  6
CONTINUOUS
370
18
100
AcDb2dPolyline
 66
1
 70
129
  0
VERTEX
  5
1A5
100
AcDbEntity
  8
dzialka
100
AcDbVertex
100
AcDb2dVertex
 10
7571666.46999999974
 20
5715220.62000000011
  0
VERTEX
  5
1A6
100
AcDbEntity
  8
dzialka
100
AcDbVertex
100
AcDb2dVertex
 10
7571679.5700000003
 20
5715217.0700000003
  0
VERTEX
  5
1A7
100
AcDbEntity
  8
dzialka
100
AcDbVertex
100
AcDb2dVertex
 10
7571601.59999999963
 20
5714980.95000000019
  0
VERTEX
  5
1A8
100
AcDbEntity
  8
dzialka
100
AcDbVertex
100
AcDb2dVertex
 10
7571587.6799999997
 20
5714982.12999999989
  0
SEQEND
  5
1A9
100
AcDbEntity
  8
dzialka
  0
POLYLINE
  5
1AA
100
AcDbEntity
  8
dzialka
  6
CONTINUOUS
370
18
100
AcDb2dPolyline
 66
1
 70
129
  0
VERTEX
  5
1AB
100
AcDbEntity
  8
dzialka
100
AcDbVertex
100
AcDb2dVertex
 10
7571548.66000000015
 20
5714820.62999999989
  0
VERTEX
  5
1AC
100
AcDbEntity
  8
dzialka
100
AcDbVertex
100
AcDb2dVertex
 10
7571579.78000000026
 20
5714914.87000000011
  0
VERTEX
  5
1AD
100
AcDbEntity
  8
dzialka
100
AcDbVertex
100
AcDb2dVertex
 10
7571586.24000000022
 20
5714915.34999999963
  0
VERTEX
  5
1AE
100
AcDbEntity
  8
dzialka
100
AcDbVertex
100
AcDb2dVertex
 10
7571554.46999999974
 20
5714819.12000000011
  0
SEQEND
  5
1AF
100
AcDbEntity
  8
dzialka
  0
POLYLINE
  5
1B0
100
AcDbEntity
  8
dzialka
  6
CONTINUOUS
370
18
100
AcDb2dPolyline
 66
1
 70
129
  0
VERTEX
  5
1B1
100
AcDbEntity
  8
dzialka
100
AcDbVertex
100
AcDb2dVertex
 10
7571580.79999999981
 20
5714917.95000000019
  0
VERTEX
  5
1B2
100
AcDbEntity
  8
dzialka
100
AcDbVertex
100
AcDb2dVertex
 10
7571599.21999999974
 20
5714973.73000000045
  0
VERTEX
  5
1B3
100
AcDbEntity
  8
dzialka
100
AcDbVertex
100
AcDb2dVertex
 10
7571605.33999999985
 20
5714973.20000000019
  0
VERTEX
  5
1B4
100
AcDbEntity
  8
dzialka
100
AcDbVertex
100
AcDb2dVertex
 10
7571587.25999999978
 20
5714918.44000000041
  0
SEQEND
  5
1B5
100
AcDbEntity
  8
dzialka
  0
POLYLINE
  5
1B6
100
AcDbEntity
  8
dzialka
  6
CONTINUOUS
370
18
100
AcDb2dPolyline
 66
1
 70
129
  0
VERTEX
  5
1B7
100
AcDbEntity
  8
dzialka
100
AcDbVertex
100
AcDb2dVertex
 10
7571679.5700000003
 20
5715217.0700000003
  0
VERTEX
  5
1B8
100
AcDbEntity
  8
dzialka
100
AcDbVertex
100
AcDb2dVertex
 10
7571685.33999999985
 20
5715215.5
  0
VERTEX
  5
1B9
100
AcDbEntity
  8
dzialka
100
AcDbVertex
100
AcDb2dVertex
 10
7571650.45000000019
 20
5715109.83000000007
  0
VERTEX
  5
1BA
100
AcDbEntity
  8
dzialka
100
AcDbVertex
100
AcDb2dVertex
 10
7571631.51999999955
 20
5715052.49000000022
  0
VERTEX
  5
1BB
100
AcDbEntity
  8
dzialka
100
AcDbVertex
100
AcDb2dVertex
 10
7571607.73000000045
 20
5714980.44000000041
  0
VERTEX
  5
1BC
100
AcDbEntity
  8
dzialka
100
AcDbVertex
100
AcDb2dVertex
 10
7571601.59999999963
 20
5714980.95000000019
  0
SEQEND
  5
1BD
100
AcDbEntity
  8
dzialka
  0
POLYLINE
  5
1BE
100
AcDbEntity
  8
dzialka
  6
CONTINUOUS
370
18
100
AcDb2dPolyline
 66
1
 70
129
  0
VERTEX
  5
1BF
100
AcDbEntity
  8
dzialka
100
AcDbVertex
100
AcDb2dVertex
 10
7571554.46999999974
 20
5714819.12000000011
  0
VERTEX
  5
1C0
100
AcDbEntity
  8
dzialka
100
AcDbVertex
100
AcDb2dVertex
 10
7571586.24000000022
 20
5714915.34999999963
  0
VERTEX
  5
1C1
100
AcDbEntity
  8
dzialka
100
AcDbVertex
100
AcDb2dVertex
 10
7571592.70000000019
 20
5714915.83000000007
  0
VERTEX
  5
1C2
100
AcDbEntity
  8
dzialka
100
AcDbVertex
100
AcDb2dVertex
 10
7571559.70000000019
 20
5714815.86000000034
  0
VERTEX
  5
1C3
100
AcDbEntity
  8
dzialka
100
AcDbVertex
100
AcDb2dVertex
 10
7571555.62000000011
 20
5714818.8200000003
  0
SEQEND
  5
1C4
100
AcDbEntity
  8
dzialka
  0
POLYLINE
  5
1C5
100
AcDbEntity
  8
dzialka
  6
CONTINUOUS
370
18
100
AcDb2dPolyline
 66
1
 70
129
  0
VERTEX
  5
1C6
100
AcDbEntity
  8
dzialka
100
AcDbVertex
100
AcDb2dVertex
 10
7571587.25999999978
 20
5714918.44000000041
  0
VERTEX
  5
1C7
100
AcDbEntity
  8
dzialka
100
AcDbVertex
100
AcDb2dVertex
 10
7571605.33999999985
 20
5714973.20000000019
  0
VERTEX
  5
1C8
100
AcDbEntity
  8
dzialka
100
AcDbVertex
100
AcDb2dVertex
 10
7571611.45999999996
 20
5714972.66000000015
  0
VERTEX
  5
1C9
100
AcDbEntity
  8
dzialka
100
AcDbVertex
100
AcDb2dVertex
 10
7571593.71999999974
 20
5714918.91999999993
  0
SEQEND
  5
1CA
100
AcDbEntity
  8
dzialka
  0
POLYLINE
  5
1CB
100
AcDbEntity
  8
dzialka
  6
CONTINUOUS
370
18
100
AcDb2dPolyline
 66
1
 70
129
  0
VERTEX
  5
1CC
100
AcDbEntity
  8
dzialka
100
AcDbVertex
100
AcDb2dVertex
 10
7571631.51999999955
 20
5715052.49000000022
  0
VERTEX
  5
1CD
100
AcDbEntity
  8
dzialka
100
AcDbVertex
100
AcDb2dVertex
 10
7571637.23000000045
 20
5715050.69000000041
  0
VERTEX
  5
1CE
100
AcDbEntity
  8
dzialka
100
AcDbVertex
100
AcDb2dVertex
 10
7571613.86000000034
 20
5714979.91999999993
  0
VERTEX
  5
1CF
100
AcDbEntity
  8
dzialka
100
AcDbVertex
100
AcDb2dVertex
 10
7571607.73000000045
 20
5714980.44000000041
  0
SEQEND
  5
1D0
100
AcDbEntity
  8
dzialka
  0
POLYLINE
  5
1D1
100
AcDbEntity
  8
dzialka
  6
CONTINUOUS
370
18
100
AcDb2dPolyline
 66
1
 70
129
  0
VERTEX
  5
1D2
100
AcDbEntity
  8
dzialka
100
AcDbVertex
100
AcDb2dVertex
 10
7571631.51999999955
 20
5715052.49000000022
  0
VERTEX
  5
1D3
100
AcDbEntity
  8
dzialka
100
AcDbVertex
100
AcDb2dVertex
 10
7571650.45000000019
 20
5715109.83000000007
  0
VERTEX
  5
1D4
100
AcDbEntity
  8
dzialka
100
AcDbVertex
100
AcDb2dVertex
 10
7571656.15000000037
 20
5715108.03000000026
  0
VERTEX
  5
1D5
100
AcDbEntity
  8
dzialka
100
AcDbVertex
100
AcDb2dVertex
 10
7571637.23000000045
 20
5715050.69000000041
  0
SEQEND
  5
1D6
100
AcDbEntity
  8
dzialka
  0
POLYLINE
  5
1D7
100
AcDbEntity
  8
dzialka
  6
CONTINUOUS
370
18
100
AcDb2dPolyline
 66
1
 70
129
  0
VERTEX
  5
1D8
100
AcDbEntity
  8
dzialka
100
AcDbVertex
100
AcDb2dVertex
 10
7571650.45000000019
 20
5715109.83000000007
  0
VERTEX
  5
1D9
100
AcDbEntity
  8
dzialka
100
AcDbVertex
100
AcDb2dVertex
 10
7571685.33999999985
 20
5715215.5
  0
VERTEX
  5
1DA
100
AcDbEntity
  8
dzialka
100
AcDbVertex
100
AcDb2dVertex
 10
7571691.12000000011
 20
5715213.94000000041
  0
VERTEX
  5
1DB
100
AcDbEntity
  8
dzialka
100
AcDbVertex
100
AcDb2dVertex
 10
7571656.15000000037
 20
5715108.03000000026
  0
SEQEND
  5
1DC
100
AcDbEntity
  8
dzialka
  0
POLYLINE
  5
1DD
100
AcDbEntity
  8
dzialka
  6
CONTINUOUS
370
18
100
AcDb2dPolyline
 66
1
 70
129
  0
VERTEX
  5
1DE
100
AcDbEntity
  8
dzialka
100
AcDbVertex
100
AcDb2dVertex
 10
7571559.70000000019
 20
5714815.86000000034
  0
VERTEX
  5
1DF
100
AcDbEntity
  8
dzialka
100
AcDbVertex
100
AcDb2dVertex
 10
7571592.70000000019
 20
5714915.83000000007
  0
VERTEX
  5
1E0
100
AcDbEntity
  8
dzialka
100
AcDbVertex
100
AcDb2dVertex
 10
7571599.05999999959
 20
5714916.29999999981
  0
VERTEX
  5
1E1
100
AcDbEntity
  8
dzialka
100
AcDbVertex
100
AcDb2dVertex
 10
7571565.90000000037
 20
5714815.83999999985
  0
VERTEX
  5
1E2
100
AcDbEntity
  8
dzialka
100
AcDbVertex
100
AcDb2dVertex
 10
7571563.21999999974
 20
5714815.58999999985
  0
VERTEX
  5
1E3
100
AcDbEntity
  8
dzialka
100
AcDbVertex
100
AcDb2dVertex
 10
7571560.87999999989
 20
5714815.0
  0
SEQEND
  5
1E4
100
AcDbEntity
  8
dzialka
  0
POLYLINE
  5
1E5
100
AcDbEntity
  8
dzialka
  6
CONTINUOUS
370
18
100
AcDb2dPolyline
 66
1
 70
129
  0
VERTEX
  5
1E6
100
AcDbEntity
  8
dzialka
100
AcDbVertex
100
AcDb2dVertex
 10
7571593.71999999974
 20
5714918.91999999993
  0
VERTEX
  5
1E7
100
AcDbEntity
  8
dzialka
100
AcDbVertex
100
AcDb2dVertex
 10
7571611.45999999996
 20
5714972.66000000015
  0
VERTEX
  5
1E8
100
AcDbEntity
  8
dzialka
100
AcDbVertex
100
AcDb2dVertex
 10
7571617.48000000045
 20
5714972.12999999989
  0
VERTEX
  5
1E9
100
AcDbEntity
  8
dzialka
100
AcDbVertex
100
AcDb2dVertex
 10
7571600.08000000007
 20
5714919.38999999966
  0
SEQEND
  5
1EA
100
AcDbEntity
  8
dzialka
  0
POLYLINE
  5
1EB
100
AcDbEntity
  8
dzialka
  6
CONTINUOUS
370
18
100
AcDb2dPolyline
 66
1
 70
129
  0
VERTEX
  5
1EC
100
AcDbEntity
  8
dzialka
100
AcDbVertex
100
AcDb2dVertex
 10
7571637.23000000045
 20
5715050.69000000041
  0
VERTEX
  5
1ED
100
AcDbEntity
  8
dzialka
100
AcDbVertex
100
AcDb2dVertex
 10
7571656.15000000037
 20
5715108.03000000026
  0
VERTEX
  5
1EE
100
AcDbEntity
  8
dzialka
100
AcDbVertex
100
AcDb2dVertex
 10
7571691.12000000011
 20
5715213.94000000041
  0
VERTEX
  5
1EF
100
AcDbEntity
  8
dzialka
100
AcDbVertex
100
AcDb2dVertex
 10
7571696.79000000004
 20
5715212.40000000037
  0
VERTEX
  5
1F0
100
AcDbEntity
  8
dzialka
100
AcDbVertex
100
AcDb2dVertex
 10
7571619.88999999966
 20
5714979.41000000015
  0
VERTEX
  5
1F1
100
AcDbEntity
  8
dzialka
100
AcDbVertex
100
AcDb2dVertex
 10
7571613.86000000034
 20
5714979.91999999993
  0
SEQEND
  5
1F2
100
AcDbEntity
  8
dzialka
  0
POLYLINE
  5
1F3
100
AcDbEntity
  8
dzialka
  6
CONTINUOUS
370
18
100
AcDb2dPolyline
 66
1
 70
129
  0
VERTEX
  5
1F4
100
AcDbEntity
  8
dzialka
100
AcDbVertex
100
AcDb2dVertex
 10
7571565.90000000037
 20
5714815.83999999985
  0
VERTEX
  5
1F5
100
AcDbEntity
  8
dzialka
100
AcDbVertex
100
AcDb2dVertex
 10
7571599.05999999959
 20
5714916.29999999981
  0
VERTEX
  5
1F6
100
AcDbEntity
  8
dzialka
100
AcDbVertex
100
AcDb2dVertex
 10
7571607.45000000019
 20
5714916.9299999997
  0
VERTEX
  5
1F7
100
AcDbEntity
  8
dzialka
100
AcDbVertex
100
AcDb2dVertex
 10
7571574.30999999959
 20
5714816.62999999989
  0
SEQEND
  5
1F8
100
AcDbEntity
  8
dzialka
  0
POLYLINE
  5
1F9
100
AcDbEntity
  8
dzialka
  6
CONTINUOUS
370
18
100
AcDb2dPolyline
 66
1
 70
129
  0
VERTEX
  5
1FA
100
AcDbEntity
  8
dzialka
100
AcDbVertex
100
AcDb2dVertex
 10
7571600.08000000007
 20
5714919.38999999966
  0
VERTEX
  5
1FB
100
AcDbEntity
  8
dzialka
100
AcDbVertex
100
AcDb2dVertex
 10
7571617.48000000045
 20
5714972.12999999989
  0
VERTEX
  5
1FC
100
AcDbEntity
  8
dzialka
100
AcDbVertex
100
AcDb2dVertex
 10
7571625.4299999997
 20
5714971.4299999997
  0
VERTEX
  5
1FD
100
AcDbEntity
  8
dzialka
100
AcDbVertex
100
AcDb2dVertex
 10
7571608.65000000037
 20
5714920.55999999959
  0
VERTEX
  5
1FE
100
AcDbEntity
  8
dzialka
100
AcDbVertex
100
AcDb2dVertex
 10
7571606.80999999959
 20
5714919.88999999966
  0
SEQEND
  5
1FF
100
AcDbEntity
  8
dzialka
  0
POLYLINE
  5
200
100
AcDbEntity
  8
dzialka
  6
CONTINUOUS
370
18
100
AcDb2dPolyline
 66
1
 70
129
  0
VERTEX
  5
201
100
AcDbEntity
  8
dzialka
100
AcDbVertex
100
AcDb2dVertex
 10
7571619.88999999966
 20
5714979.41000000015
  0
VERTEX
  5
202
100
AcDbEntity
  8
dzialka
100
AcDbVertex
100
AcDb2dVertex
 10
7571696.79000000004
 20
5715212.40000000037
  0
VERTEX
  5
203
100
AcDbEntity
  8
dzialka
100
AcDbVertex
100
AcDb2dVertex
 10
7571704.28000000026
 20
5715210.37000000011
  0
VERTEX
  5
204
100
AcDbEntity
  8
dzialka
100
AcDbVertex
100
AcDb2dVertex
 10
7571627.84999999963
 20
5714978.74000000022
  0
SEQEND
  5
205
100
AcDbEntity
  8
dzialka
  0
POLYLINE
  5
206
100
AcDbEntity
  8
dzialka
  6
CONTINUOUS
370
18
100
AcDb2dPolyline
 66
1
 70
129
  0
VERTEX
  5
207
100
AcDbEntity
  8
dzialka
100
AcDbVertex
100
AcDb2dVertex
 10
7571574.30999999959
 20
5714816.62999999989
  0
VERTEX
  5
208
100
AcDbEntity
  8
dzialka
100
AcDbVertex
100
AcDb2dVertex
 10
7571607.45000000019
 20
5714916.9299999997
  0
VERTEX
  5
209
100
AcDbEntity
  8
dzialka
100
AcDbVertex
100
AcDb2dVertex
 10
7571611.63999999966
 20
5714918.45000000019
  0
VERTEX
  5
20A
100
AcDbEntity
  8
dzialka
100
AcDbVertex
100
AcDb2dVertex
 10
7571578.16000000015
 20
5714816.98000000045
  0
SEQEND
  5
20B
100
AcDbEntity
  8
dzialka
  0
POLYLINE
  5
20C
100
AcDbEntity
  8
dzialka
  6
CONTINUOUS
370
18
100
AcDb2dPolyline
 66
1
 70
129
  0
VERTEX
  5
20D
100
AcDbEntity
  8
dzialka
100
AcDbVertex
100
AcDb2dVertex
 10
7571608.65000000037
 20
5714920.55999999959
  0
VERTEX
  5
20E
100
AcDbEntity
  8
dzialka
100
AcDbVertex
100
AcDb2dVertex
 10
7571625.4299999997
 20
5714971.4299999997
  0
VERTEX
  5
20F
100
AcDbEntity
  8
dzialka
100
AcDbVertex
100
AcDb2dVertex
 10
7571629.01999999955
 20
5714971.11000000034
  0
VERTEX
  5
210
100
AcDbEntity
  8
dzialka
100
AcDbVertex
100
AcDb2dVertex
 10
7571612.83999999985
 20
5714922.08000000007
  0
SEQEND
  5
211
100
AcDbEntity
  8
dzialka
  0
POLYLINE
  5
212
100
AcDbEntity
  8
dzialka
  6
CONTINUOUS
370
18
100
AcDb2dPolyline
 66
1
 70
129
  0
VERTEX
  5
213
100
AcDbEntity
  8
dzialka
100
AcDbVertex
100
AcDb2dVertex
 10
7571627.84999999963
 20
5714978.74000000022
  0
VERTEX
  5
214
100
AcDbEntity
  8
dzialka
100
AcDbVertex
100
AcDb2dVertex
 10
7571704.28000000026
 20
5715210.37000000011
  0
VERTEX
  5
215
100
AcDbEntity
  8
dzialka
100
AcDbVertex
100
AcDb2dVertex
 10
7571707.66000000015
 20
5715209.45000000019
  0
VERTEX
  5
216
100
AcDbEntity
  8
dzialka
100
AcDbVertex
100
AcDb2dVertex
 10
7571631.44000000041
 20
5714978.44000000041
  0
SEQEND
  5
217
100
AcDbEntity
  8
dzialka
  0
POLYLINE
  5
218
100
AcDbEntity
  8
dzialka
  6
CONTINUOUS
370
18
100
AcDb2dPolyline
 66
1
 70
129
  0
VERTEX
  5
219
100
AcDbEntity
  8
dzialka
100
AcDbVertex
100
AcDb2dVertex
 10
7571578.16000000015
 20
5714816.98000000045
  0
VERTEX
  5
21A
100
AcDbEntity
  8
dzialka
100
AcDbVertex
100
AcDb2dVertex
 10
7571611.63999999966
 20
5714918.45000000019
  0
VERTEX
  5
21B
100
AcDbEntity
  8
dzialka
100
AcDbVertex
100
AcDb2dVertex
 10
7571625.66000000015
 20
5714923.54999999981
  0
VERTEX
  5
21C
100
AcDbEntity
  8
dzialka
100
AcDbVertex
100
AcDb2dVertex
 10
7571590.88999999966
 20
5714818.16000000015
  0
SEQEND
  5
21D
100
AcDbEntity
  8
dzialka
  0
POLYLINE
  5
21E
100
AcDbEntity
  8
dzialka
  6
CONTINUOUS
370
18
100
AcDb2dPolyline
 66
1
 70
129
  0
VERTEX
  5
21F
100
AcDbEntity
  8
dzialka
100
AcDbVertex
100
AcDb2dVertex
 10
7571612.83999999985
 20
5714922.08000000007
  0
VERTEX
  5
220
100
AcDbEntity
  8
dzialka
100
AcDbVertex
100
AcDb2dVertex
 10
7571629.01999999955
 20
5714971.11000000034
  0
VERTEX
  5
221
100
AcDbEntity
  8
dzialka
100
AcDbVertex
100
AcDb2dVertex
 10
7571637.9299999997
 20
5714970.33000000007
  0
VERTEX
  5
222
100
AcDbEntity
  8
dzialka
100
AcDbVertex
100
AcDb2dVertex
 10
7571623.25999999978
 20
5714925.87000000011
  0
SEQEND
  5
223
100
AcDbEntity
  8
dzialka
  0
POLYLINE
  5
224
100
AcDbEntity
  8
dzialka
  6
CONTINUOUS
370
18
100
AcDb2dPolyline
 66
1
 70
129
  0
VERTEX
  5
225
100
AcDbEntity
  8
dzialka
100
AcDbVertex
100
AcDb2dVertex
 10
7571631.44000000041
 20
5714978.44000000041
  0
VERTEX
  5
226
100
AcDbEntity
  8
dzialka
100
AcDbVertex
100
AcDb2dVertex
 10
7571707.66000000015
 20
5715209.45000000019
  0
VERTEX
  5
227
100
AcDbEntity
  8
dzialka
100
AcDbVertex
100
AcDb2dVertex
 10
7571716.04999999981
 20
5715207.1799999997
  0
VERTEX
  5
228
100
AcDbEntity
  8
dzialka
100
AcDbVertex
100
AcDb2dVertex
 10
7571676.80999999959
 20
5715088.21999999974
  0
VERTEX
  5
229
100
AcDbEntity
  8
dzialka
100
AcDbVertex
100
AcDb2dVertex
 10
7571640.34999999963
 20
5714977.69000000041
  0
SEQEND
  5
22A
100
AcDbEntity
  8
dzialka
  0
POLYLINE
  5
22B
100
AcDbEntity
  8
dzialka
  6
CONTINUOUS
370
18
100
AcDb2dPolyline
 66
1
 70
129
  0
VERTEX
  5
22C
100
AcDbEntity
  8
dzialka
100
AcDbVertex
100
AcDb2dVertex
 10
7571590.88999999966
 20
5714818.16000000015
  0
VERTEX
  5
22D
100
AcDbEntity
  8
dzialka
100
AcDbVertex
100
AcDb2dVertex
 10
7571625.66000000015
 20
5714923.54999999981
  0
VERTEX
  5
22E
100
AcDbEntity
  8
dzialka
100
AcDbVertex
100
AcDb2dVertex
 10
7571636.95000000019
 20
5714922.13999999966
  0
VERTEX
  5
22F
100
AcDbEntity
  8
dzialka
100
AcDbVertex
100
AcDb2dVertex
 10
7571602.24000000022
 20
5714809.30999999959
  0
SEQEND
  5
230
100
AcDbEntity
  8
dzialka
  0
POLYLINE
  5
231
100
AcDbEntity
  8
dzialka
  6
CONTINUOUS
370
18
100
AcDb2dPolyline
 66
1
 70
129
  0
VERTEX
  5
232
100
AcDbEntity
  8
dzialka
100
AcDbVertex
100
AcDb2dVertex
 10
7571626.5700000003
 20
5714926.45999999996
  0
VERTEX
  5
233
100
AcDbEntity
  8
dzialka
100
AcDbVertex
100
AcDb2dVertex
 10
7571641.0
 20
5714970.05999999959
  0
VERTEX
  5
234
100
AcDbEntity
  8
dzialka
100
AcDbVertex
100
AcDb2dVertex
 10
7571648.45000000019
 20
5714969.54999999981
  0
VERTEX
  5
235
100
AcDbEntity
  8
dzialka
100
AcDbVertex
100
AcDb2dVertex
 10
7571647.00999999978
 20
5714954.84999999963
  0
VERTEX
  5
236
100
AcDbEntity
  8
dzialka
100
AcDbVertex
100
AcDb2dVertex
 10
7571637.83999999985
 20
5714925.04999999981
  0
SEQEND
  5
237
100
AcDbEntity
  8
dzialka
  0
POLYLINE
  5
238
100
AcDbEntity
  8
dzialka
  6
CONTINUOUS
370
18
100
AcDb2dPolyline
 66
1
 70
129
  0
VERTEX
  5
239
100
AcDbEntity
  8
dzialka
100
AcDbVertex
100
AcDb2dVertex
 10
7571643.40000000037
 20
5714977.4299999997
  0
VERTEX
  5
23A
100
AcDbEntity
  8
dzialka
100
AcDbVertex
100
AcDb2dVertex
 10
7571668.23000000045
 20
5715052.63999999966
  0
VERTEX
  5
23B
100
AcDbEntity
  8
dzialka
100
AcDbVertex
100
AcDb2dVertex
 10
7571674.45000000019
 20
5715051.0
  0
VERTEX
  5
23C
100
AcDbEntity
  8
dzialka
100
AcDbVertex
100
AcDb2dVertex
 10
7571653.9299999997
 20
5714976.37000000011
  0
SEQEND
  5
23D
100
AcDbEntity
  8
dzialka
  0
POLYLINE
  5
23E
100
AcDbEntity
  8
dzialka
  6
CONTINUOUS
370
18
100
AcDb2dPolyline
 66
1
 70
129
  0
VERTEX
  5
23F
100
AcDbEntity
  8
dzialka
100
AcDbVertex
100
AcDb2dVertex
 10
7571602.24000000022
 20
5714809.30999999959
  0
VERTEX
  5
240
100
AcDbEntity
  8
dzialka
100
AcDbVertex
100
AcDb2dVertex
 10
7571636.95000000019
 20
5714922.13999999966
  0
VERTEX
  5
241
100
AcDbEntity
  8
dzialka
100
AcDbVertex
100
AcDb2dVertex
 10
7571644.34999999963
 20
5714921.21999999974
  0
VERTEX
  5
242
100
AcDbEntity
  8
dzialka
100
AcDbVertex
100
AcDb2dVertex
 10
7571647.69000000041
 20
5714919.28000000026
  0
VERTEX
  5
243
100
AcDbEntity
  8
dzialka
100
AcDbVertex
100
AcDb2dVertex
 10
7571613.79999999981
 20
5714800.28000000026
  0
SEQEND
  5
244
100
AcDbEntity
  8
dzialka
  0
POLYLINE
  5
245
100
AcDbEntity
  8
dzialka
  6
CONTINUOUS
370
18
100
AcDb2dPolyline
 66
1
 70
129
  0
VERTEX
  5
246
100
AcDbEntity
  8
dzialka
100
AcDbVertex
100
AcDb2dVertex
 10
7571637.83999999985
 20
5714925.04999999981
  0
VERTEX
  5
247
100
AcDbEntity
  8
dzialka
100
AcDbVertex
100
AcDb2dVertex
 10
7571647.00999999978
 20
5714954.84999999963
  0
VERTEX
  5
248
100
AcDbEntity
  8
dzialka
100
AcDbVertex
100
AcDb2dVertex
 10
7571648.45000000019
 20
5714969.54999999981
  0
VERTEX
  5
249
100
AcDbEntity
  8
dzialka
100
AcDbVertex
100
AcDb2dVertex
 10
7571661.75
 20
5714968.63999999966
  0
VERTEX
  5
24A
100
AcDbEntity
  8
dzialka
100
AcDbVertex
100
AcDb2dVertex
 10
7571648.54000000004
 20
5714922.25999999978
  0
VERTEX
  5
24B
100
AcDbEntity
  8
dzialka
100
AcDbVertex
100
AcDb2dVertex
 10
7571645.33000000008
 20
5714924.12000000011
  0
SEQEND
  5
24C
100
AcDbEntity
  8
dzialka
  0
POLYLINE
  5
24D
100
AcDbEntity
  8
dzialka
  6
CONTINUOUS
370
18
100
AcDb2dPolyline
 66
1
 70
129
  0
VERTEX
  5
24E
100
AcDbEntity
  8
dzialka
100
AcDbVertex
100
AcDb2dVertex
 10
7571653.9299999997
 20
5714976.37000000011
  0
VERTEX
  5
24F
100
AcDbEntity
  8
dzialka
100
AcDbVertex
100
AcDb2dVertex
 10
7571674.45000000019
 20
5715051.0
  0
VERTEX
  5
250
100
AcDbEntity
  8
dzialka
100
AcDbVertex
100
AcDb2dVertex
 10
7571684.45999999996
 20
5715048.36000000034
  0
VERTEX
  5
251
100
AcDbEntity
  8
dzialka
100
AcDbVertex
100
AcDb2dVertex
 10
7571663.6799999997
 20
5714975.38999999966
  0
SEQEND
  5
252
100
AcDbEntity
  8
dzialka
  0
POLYLINE
  5
253
100
AcDbEntity
  8
dzialka
  6
CONTINUOUS
370
18
100
AcDb2dPolyline
 66
1
 70
129
  0
VERTEX
  5
254
100
AcDbEntity
  8
dzialka
100
AcDbVertex
100
AcDb2dVertex
 10
7571613.79999999981
 20
5714800.28000000026
  0
VERTEX
  5
255
100
AcDbEntity
  8
dzialka
100
AcDbVertex
100
AcDb2dVertex
 10
7571647.69000000041
 20
5714919.28000000026
  0
VERTEX
  5
256
100
AcDbEntity
  8
dzialka
100
AcDbVertex
100
AcDb2dVertex
 10
7571667.54999999981
 20
5714907.75999999978
  0
VERTEX
  5
257
100
AcDbEntity
  8
dzialka
100
AcDbVertex
100
AcDb2dVertex
 10
7571634.9299999997
 20
5714781.73000000045
  0
VERTEX
  5
258
100
AcDbEntity
  8
dzialka
100
AcDbVertex
100
AcDb2dVertex
 10
7571630.37999999989
 20
5714786.1799999997
  0
SEQEND
  5
259
100
AcDbEntity
  8
dzialka
  0
POLYLINE
  5
25A
100
AcDbEntity
  8
dzialka
  6
CONTINUOUS
370
18
100
AcDb2dPolyline
 66
1
 70
129
  0
VERTEX
  5
25B
100
AcDbEntity
  8
dzialka
100
AcDbVertex
100
AcDb2dVertex
 10
7571648.54000000004
 20
5714922.25999999978
  0
VERTEX
  5
25C
100
AcDbEntity
  8
dzialka
100
AcDbVertex
100
AcDb2dVertex
 10
7571661.75
 20
5714968.63999999966
  0
VERTEX
  5
25D
100
AcDbEntity
  8
dzialka
100
AcDbVertex
100
AcDb2dVertex
 10
7571682.94000000041
 20
5714967.19000000041
  0
VERTEX
  5
25E
100
AcDbEntity
  8
dzialka
100
AcDbVertex
100
AcDb2dVertex
 10
7571668.33000000007
 20
5714910.78000000026
  0
SEQEND
  5
25F
100
AcDbEntity
  8
dzialka
  0
POLYLINE
  5
260
100
AcDbEntity
  8
dzialka
  6
CONTINUOUS
370
18
100
AcDb2dPolyline
 66
1
 70
129
  0
VERTEX
  5
261
100
AcDbEntity
  8
dzialka
100
AcDbVertex
100
AcDb2dVertex
 10
7571663.6799999997
 20
5714975.38999999966
  0
VERTEX
  5
262
100
AcDbEntity
  8
dzialka
100
AcDbVertex
100
AcDb2dVertex
 10
7571684.45999999996
 20
5715048.36000000034
  0
VERTEX
  5
263
100
AcDbEntity
  8
dzialka
100
AcDbVertex
100
AcDb2dVertex
 10
7571691.45999999996
 20
5715046.50999999978
  0
VERTEX
  5
264
100
AcDbEntity
  8
dzialka
100
AcDbVertex
100
AcDb2dVertex
 10
7571702.70000000019
 20
5715043.54000000004
  0
VERTEX
  5
265
100
AcDbEntity
  8
dzialka
100
AcDbVertex
100
AcDb2dVertex
 10
7571684.51999999955
 20
5714973.29000000004
  0
SEQEND
  5
266
100
AcDbEntity
  8
dzialka
  0
POLYLINE
  5
267
100
AcDbEntity
  8
dzialka
  6
CONTINUOUS
370
18
100
AcDb2dPolyline
 66
1
 70
129
  0
VERTEX
  5
268
100
AcDbEntity
  8
dzialka
100
AcDbVertex
100
AcDb2dVertex
 10
7571674.45000000019
 20
5715051.0
  0
VERTEX
  5
269
100
AcDbEntity
  8
dzialka
100
AcDbVertex
100
AcDb2dVertex
 10
7571668.23000000045
 20
5715052.63999999966
  0
VERTEX
  5
26A
100
AcDbEntity
  8
dzialka
100
AcDbVertex
100
AcDb2dVertex
 10
7571707.83999999985
 20
5715172.71999999974
  0
VERTEX
  5
26B
100
AcDbEntity
  8
dzialka
100
AcDbVertex
100
AcDb2dVertex
 10
7571725.45000000019
 20
5715168.25999999978
  0
VERTEX
  5
26C
100
AcDbEntity
  8
dzialka
100
AcDbVertex
100
AcDb2dVertex
 10
7571691.45999999996
 20
5715046.50999999978
  0
VERTEX
  5
26D
100
AcDbEntity
  8
dzialka
100
AcDbVertex
100
AcDb2dVertex
 10
7571684.45999999996
 20
5715048.36000000034
  0
SEQEND
  5
26E
100
AcDbEntity
  8
dzialka
  0
POLYLINE
  5
26F
100
AcDbEntity
  8
dzialka
  6
CONTINUOUS
370
18
100
AcDb2dPolyline
 66
1
 70
129
  0
VERTEX
  5
270
100
AcDbEntity
  8
dzialka
100
AcDbVertex
100
AcDb2dVertex
 10
7571684.51999999955
 20
5714973.29000000004
  0
VERTEX
  5
271
100
AcDbEntity
  8
dzialka
100
AcDbVertex
100
AcDb2dVertex
 10
7571702.70000000019
 20
5715043.54000000004
  0
VERTEX
  5
272
100
AcDbEntity
  8
dzialka
100
AcDbVertex
100
AcDb2dVertex
 10
7571691.45999999996
 20
5715046.50999999978
  0
VERTEX
  5
273
100
AcDbEntity
  8
dzialka
100
AcDbVertex
100
AcDb2dVertex
 10
7571725.45000000019
 20
5715168.25999999978
  0
VERTEX
  5
274
100
AcDbEntity
  8
dzialka
100
AcDbVertex
100
AcDb2dVertex
 10
7571748.12999999989
 20
5715162.51999999955
  0
VERTEX
  5
275
100
AcDbEntity
  8
dzialka
100
AcDbVertex
100
AcDb2dVertex
 10
7571698.5700000003
 20
5714971.37000000011
  0
SEQEND
  5
276
100
AcDbEntity
  8
dzialka
  0
POLYLINE
  5
277
100
AcDbEntity
  8
dzialka
  6
CONTINUOUS
370
18
100
AcDb2dPolyline
 66
1
 70
129
  0
VERTEX
  5
278
100
AcDbEntity
  8
dzialka
100
AcDbVertex
100
AcDb2dVertex
 10
7571634.9299999997
 20
5714781.73000000045
  0
VERTEX
  5
279
100
AcDbEntity
  8
dzialka
100
AcDbVertex
100
AcDb2dVertex
 10
7571667.54999999981
 20
5714907.75999999978
  0
VERTEX
  5
27A
100
AcDbEntity
  8
dzialka
100
AcDbVertex
100
AcDb2dVertex
 10
7571680.03000000026
 20
5714902.70999999996
  0
VERTEX
  5
27B
100
AcDbEntity
  8
dzialka
100
AcDbVertex
100
AcDb2dVertex
 10
7571680.74000000022
 20
5714902.62999999989
  0
VERTEX
  5
27C
100
AcDbEntity
  8
dzialka
100
AcDbVertex
100
AcDb2dVertex
 10
7571646.46999999974
 20
5714770.45999999996
  0
SEQEND
  5
27D
100
AcDbEntity
  8
dzialka
  0
POLYLINE
  5
27E
100
AcDbEntity
  8
dzialka
  6
CONTINUOUS
370
18
100
AcDb2dPolyline
 66
1
 70
129
  0
VERTEX
  5
27F
100
AcDbEntity
  8
dzialka
100
AcDbVertex
100
AcDb2dVertex
 10
7571668.33000000007
 20
5714910.78000000026
  0
VERTEX
  5
280
100
AcDbEntity
  8
dzialka
100
AcDbVertex
100
AcDb2dVertex
 10
7571682.94000000041
 20
5714967.19000000041
  0
VERTEX
  5
281
100
AcDbEntity
  8
dzialka
100
AcDbVertex
100
AcDb2dVertex
 10
7571696.99000000022
 20
5714965.30999999959
  0
VERTEX
  5
282
100
AcDbEntity
  8
dzialka
100
AcDbVertex
100
AcDb2dVertex
 10
7571681.5
 20
5714905.55999999959
  0
VERTEX
  5
283
100
AcDbEntity
  8
dzialka
100
AcDbVertex
100
AcDb2dVertex
 10
7571680.78000000026
 20
5714905.65000000037
  0
VERTEX
  5
284
100
AcDbEntity
  8
dzialka
100
AcDbVertex
100
AcDb2dVertex
 10
7571668.87999999989
 20
5714910.45999999996
  0
SEQEND
  5
285
100
AcDbEntity
  8
dzialka
  0
POLYLINE
  5
286
100
AcDbEntity
  8
dzialka
  6
CONTINUOUS
370
18
100
AcDb2dPolyline
 66
1
 70
129
  0
VERTEX
  5
287
100
AcDbEntity
  8
dzialka
100
AcDbVertex
100
AcDb2dVertex
 10
7571646.46999999974
 20
5714770.45999999996
  0
VERTEX
  5
288
100
AcDbEntity
  8
dzialka
100
AcDbVertex
100
AcDb2dVertex
 10
7571680.74000000022
 20
5714902.62999999989
  0
VERTEX
  5
289
100
AcDbEntity
  8
dzialka
100
AcDbVertex
100
AcDb2dVertex
 10
7571701.55999999959
 20
5714900.25999999978
  0
VERTEX
  5
28A
100
AcDbEntity
  8
dzialka
100
AcDbVertex
100
AcDb2dVertex
 10
7571722.30999999959
 20
5714899.95000000019
  0
VERTEX
  5
28B
100
AcDbEntity
  8
dzialka
100
AcDbVertex
100
AcDb2dVertex
 10
7571686.38999999966
 20
5714761.05999999959
  0
VERTEX
  5
28C
100
AcDbEntity
  8
dzialka
100
AcDbVertex
100
AcDb2dVertex
 10
7571685.4299999997
 20
5714761.08000000007
  0
VERTEX
  5
28D
100
AcDbEntity
  8
dzialka
100
AcDbVertex
100
AcDb2dVertex
 10
7571663.87999999989
 20
5714759.03000000026
  0
SEQEND
  5
28E
100
AcDbEntity
  8
dzialka
  0
POLYLINE
  5
28F
100
AcDbEntity
  8
dzialka
  6
CONTINUOUS
370
18
100
AcDb2dPolyline
 66
1
 70
129
  0
VERTEX
  5
290
100
AcDbEntity
  8
dzialka
100
AcDbVertex
100
AcDb2dVertex
 10
7571681.5
 20
5714905.55999999959
  0
VERTEX
  5
291
100
AcDbEntity
  8
dzialka
100
AcDbVertex
100
AcDb2dVertex
 10
7571696.99000000022
 20
5714965.30999999959
  0
VERTEX
  5
292
100
AcDbEntity
  8
dzialka
100
AcDbVertex
100
AcDb2dVertex
 10
7571737.79999999981
 20
5714959.84999999963
  0
VERTEX
  5
293
100
AcDbEntity
  8
dzialka
100
AcDbVertex
100
AcDb2dVertex
 10
7571723.08000000007
 20
5714902.94000000041
  0
VERTEX
  5
294
100
AcDbEntity
  8
dzialka
100
AcDbVertex
100
AcDb2dVertex
 10
7571701.75
 20
5714903.25999999978
  0
SEQEND
  5
295
100
AcDbEntity
  8
dzialka
  0
POLYLINE
  5
296
100
AcDbEntity
  8
dzialka
  6
CONTINUOUS
370
18
100
AcDb2dPolyline
 66
1
 70
129
  0
VERTEX
  5
297
100
AcDbEntity
  8
dzialka
100
AcDbVertex
100
AcDb2dVertex
 10
7571698.5700000003
 20
5714971.37000000011
  0
VERTEX
  5
298
100
AcDbEntity
  8
dzialka
100
AcDbVertex
100
AcDb2dVertex
 10
7571748.12999999989
 20
5715162.51999999955
  0
VERTEX
  5
299
100
AcDbEntity
  8
dzialka
100
AcDbVertex
100
AcDb2dVertex
 10
7571787.62000000011
 20
5715152.53000000026
  0
VERTEX
  5
29A
100
AcDbEntity
  8
dzialka
100
AcDbVertex
100
AcDb2dVertex
 10
7571739.30999999959
 20
5714965.8200000003
  0
SEQEND
  5
29B
100
AcDbEntity
  8
dzialka
  0
POLYLINE
  5
29C
100
AcDbEntity
  8
dzialka
  6
CONTINUOUS
370
18
100
AcDb2dPolyline
 66
1
 70
129
  0
VERTEX
  5
29D
100
AcDbEntity
  8
dzialka
100
AcDbVertex
100
AcDb2dVertex
 10
7571686.38999999966
 20
5714761.05999999959
  0
VERTEX
  5
29E
100
AcDbEntity
  8
dzialka
100
AcDbVertex
100
AcDb2dVertex
 10
7571722.30999999959
 20
5714899.95000000019
  0
VERTEX
  5
29F
100
AcDbEntity
  8
dzialka
100
AcDbVertex
100
AcDb2dVertex
 10
7571750.41999999993
 20
5714899.53000000026
  0
VERTEX
  5
2A0
100
AcDbEntity
  8
dzialka
100
AcDbVertex
100
AcDb2dVertex
 10
7571714.54999999981
 20
5714759.83999999985
  0
VERTEX
  5
2A1
100
AcDbEntity
  8
dzialka
100
AcDbVertex
100
AcDb2dVertex
 10
7571713.41000000015
 20
5714760.21999999974
  0
VERTEX
  5
2A2
100
AcDbEntity
  8
dzialka
100
AcDbVertex
100
AcDb2dVertex
 10
7571700.49000000022
 20
5714760.62000000011
  0
SEQEND
  5
2A3
100
AcDbEntity
  8
dzialka
  0
POLYLINE
  5
2A4
100
AcDbEntity
  8
dzialka
  6
CONTINUOUS
370
18
100
AcDb2dPolyline
 66
1
 70
129
  0
VERTEX
  5
2A5
100
AcDbEntity
  8
dzialka
100
AcDbVertex
100
AcDb2dVertex
 10
7571723.08000000007
 20
5714902.94000000041
  0
VERTEX
  5
2A6
100
AcDbEntity
  8
dzialka
100
AcDbVertex
100
AcDb2dVertex
 10
7571737.79999999981
 20
5714959.84999999963
  0
VERTEX
  5
2A7
100
AcDbEntity
  8
dzialka
100
AcDbVertex
100
AcDb2dVertex
 10
7571750.95000000019
 20
5714956.41000000015
  0
VERTEX
  5
2A8
100
AcDbEntity
  8
dzialka
100
AcDbVertex
100
AcDb2dVertex
 10
7571764.15000000037
 20
5714952.95999999996
  0
VERTEX
  5
2A9
100
AcDbEntity
  8
dzialka
100
AcDbVertex
100
AcDb2dVertex
 10
7571751.1799999997
 20
5714902.46999999974
  0
SEQEND
  5
2AA
100
AcDbEntity
  8
dzialka
  0
POLYLINE
  5
2AB
100
AcDbEntity
  8
dzialka
  6
CONTINUOUS
370
18
100
AcDb2dPolyline
 66
1
 70
129
  0
VERTEX
  5
2AC
100
AcDbEntity
  8
dzialka
100
AcDbVertex
100
AcDb2dVertex
 10
7571739.30999999959
 20
5714965.8200000003
  0
VERTEX
  5
2AD
100
AcDbEntity
  8
dzialka
100
AcDbVertex
100
AcDb2dVertex
 10
7571787.62000000011
 20
5715152.53000000026
  0
VERTEX
  5
2AE
100
AcDbEntity
  8
dzialka
100
AcDbVertex
100
AcDb2dVertex
 10
7571813.70000000019
 20
5715145.9299999997
  0
VERTEX
  5
2AF
100
AcDbEntity
  8
dzialka
100
AcDbVertex
100
AcDb2dVertex
 10
7571765.70000000019
 20
5714959.01999999955
  0
VERTEX
  5
2B0
100
AcDbEntity
  8
dzialka
100
AcDbVertex
100
AcDb2dVertex
 10
7571752.59999999963
 20
5714962.8200000003
  0
SEQEND
  5
2B1
100
AcDbEntity
  8
dzialka
  0
POLYLINE
  5
2B2
100
AcDbEntity
  8
dzialka
  6
CONTINUOUS
370
18
100
AcDb2dPolyline
 66
1
 70
129
  0
VERTEX
  5
2B3
100
AcDbEntity
  8
dzialka
100
AcDbVertex
100
AcDb2dVertex
 10
7571750.41999999993
 20
5714899.53000000026
  0
VERTEX
  5
2B4
100
AcDbEntity
  8
dzialka
100
AcDbVertex
100
AcDb2dVertex
 10
7571778.62999999989
 20
5714897.11000000034
  0
VERTEX
  5
2B5
100
AcDbEntity
  8
dzialka
100
AcDbVertex
100
AcDb2dVertex
 10
7571741.49000000022
 20
5714753.25999999978
  0
VERTEX
  5
2B6
100
AcDbEntity
  8
dzialka
100
AcDbVertex
100
AcDb2dVertex
 10
7571737.12999999989
 20
5714752.29000000004
  0
VERTEX
  5
2B7
100
AcDbEntity
  8
dzialka
100
AcDbVertex
100
AcDb2dVertex
 10
7571714.54999999981
 20
5714759.83999999985
  0
SEQEND
  5
2B8
100
AcDbEntity
  8
dzialka
  0
POLYLINE
  5
2B9
100
AcDbEntity
  8
dzialka
  6
CONTINUOUS
370
18
100
AcDb2dPolyline
 66
1
 70
129
  0
VERTEX
  5
2BA
100
AcDbEntity
  8
dzialka
100
AcDbVertex
100
AcDb2dVertex
 10
7571751.1799999997
 20
5714902.46999999974
  0
VERTEX
  5
2BB
100
AcDbEntity
  8
dzialka
100
AcDbVertex
100
AcDb2dVertex
 10
7571764.15000000037
 20
5714952.95999999996
  0
VERTEX
  5
2BC
100
AcDbEntity
  8
dzialka
100
AcDbVertex
100
AcDb2dVertex
 10
7571790.40000000037
 20
5714942.71999999974
  0
VERTEX
  5
2BD
100
AcDbEntity
  8
dzialka
100
AcDbVertex
100
AcDb2dVertex
 10
7571779.37999999989
 20
5714900.00999999978
  0
SEQEND
  5
2BE
100
AcDbEntity
  8
dzialka
  0
POLYLINE
  5
2BF
100
AcDbEntity
  8
dzialka
  6
CONTINUOUS
370
18
100
AcDb2dPolyline
 66
1
 70
129
  0
VERTEX
  5
2C0
100
AcDbEntity
  8
dzialka
100
AcDbVertex
100
AcDb2dVertex
 10
7571765.70000000019
 20
5714959.01999999955
  0
VERTEX
  5
2C1
100
AcDbEntity
  8
dzialka
100
AcDbVertex
100
AcDb2dVertex
 10
7571813.70000000019
 20
5715145.9299999997
  0
VERTEX
  5
2C2
100
AcDbEntity
  8
dzialka
100
AcDbVertex
100
AcDb2dVertex
 10
7571841.08000000007
 20
5715139.0
  0
VERTEX
  5
2C3
100
AcDbEntity
  8
dzialka
100
AcDbVertex
100
AcDb2dVertex
 10
7571792.08000000007
 20
5714949.20999999996
  0
SEQEND
  5
2C4
100
AcDbEntity
  8
dzialka
  0
POLYLINE
  5
2C5
100
AcDbEntity
  8
dzialka
  6
CONTINUOUS
370
18
100
AcDb2dPolyline
 66
1
 70
129
  0
VERTEX
  5
2C6
100
AcDbEntity
  8
dzialka
100
AcDbVertex
100
AcDb2dVertex
 10
7571741.49000000022
 20
5714753.25999999978
  0
VERTEX
  5
2C7
100
AcDbEntity
  8
dzialka
100
AcDbVertex
100
AcDb2dVertex
 10
7571778.62999999989
 20
5714897.11000000034
  0
VERTEX
  5
2C8
100
AcDbEntity
  8
dzialka
100
AcDbVertex
100
AcDb2dVertex
 10
7571804.79999999981
 20
5714891.16999999993
  0
VERTEX
  5
2C9
100
AcDbEntity
  8
dzialka
100
AcDbVertex
100
AcDb2dVertex
 10
7571769.29999999981
 20
5714756.09999999963
  0
VERTEX
  5
2CA
100
AcDbEntity
  8
dzialka
100
AcDbVertex
100
AcDb2dVertex
 10
7571760.70000000019
 20
5714757.49000000022
  0
SEQEND
  5
2CB
100
AcDbEntity
  8
dzialka
  0
POLYLINE
  5
2CC
100
AcDbEntity
  8
dzialka
  6
CONTINUOUS
370
18
100
AcDb2dPolyline
 66
1
 70
129
  0
VERTEX
  5
2CD
100
AcDbEntity
  8
dzialka
100
AcDbVertex
100
AcDb2dVertex
 10
7571779.37999999989
 20
5714900.00999999978
  0
VERTEX
  5
2CE
100
AcDbEntity
  8
dzialka
100
AcDbVertex
100
AcDb2dVertex
 10
7571790.40000000037
 20
5714942.71999999974
  0
VERTEX
  5
2CF
100
AcDbEntity
  8
dzialka
100
AcDbVertex
100
AcDb2dVertex
 10
7571815.74000000022
 20
5714932.8200000003
  0
VERTEX
  5
2D0
100
AcDbEntity
  8
dzialka
100
AcDbVertex
100
AcDb2dVertex
 10
7571805.55999999959
 20
5714894.0700000003
  0
SEQEND
  5
2D1
100
AcDbEntity
  8
dzialka
  0
POLYLINE
  5
2D2
100
AcDbEntity
  8
dzialka
  6
CONTINUOUS
370
18
100
AcDb2dPolyline
 66
1
 70
129
  0
VERTEX
  5
2D3
100
AcDbEntity
  8
dzialka
100
AcDbVertex
100
AcDb2dVertex
 10
7571792.08000000007
 20
5714949.20999999996
  0
VERTEX
  5
2D4
100
AcDbEntity
  8
dzialka
100
AcDbVertex
100
AcDb2dVertex
 10
7571841.08000000007
 20
5715139.0
  0
VERTEX
  5
2D5
100
AcDbEntity
  8
dzialka
100
AcDbVertex
100
AcDb2dVertex
 10
7571858.69000000041
 20
5715134.54000000004
  0
VERTEX
  5
2D6
100
AcDbEntity
  8
dzialka
100
AcDbVertex
100
AcDb2dVertex
 10
7571868.12999999989
 20
5715132.15000000037
  0
VERTEX
  5
2D7
100
AcDbEntity
  8
dzialka
100
AcDbVertex
100
AcDb2dVertex
 10
7571817.46999999974
 20
5714939.37000000011
  0
SEQEND
  5
2D8
100
AcDbEntity
  8
dzialka
  0
POLYLINE
  5
2D9
100
AcDbEntity
  8
dzialka
  6
CONTINUOUS
370
18
100
AcDb2dPolyline
 66
1
 70
129
  0
VERTEX
  5
2DA
100
AcDbEntity
  8
dzialka
100
AcDbVertex
100
AcDb2dVertex
 10
7571804.79999999981
 20
5714891.16999999993
  0
VERTEX
  5
2DB
100
AcDbEntity
  8
dzialka
100
AcDbVertex
100
AcDb2dVertex
 10
7571819.21999999974
 20
5714888.08999999985
  0
VERTEX
  5
2DC
100
AcDbEntity
  8
dzialka
100
AcDbVertex
100
AcDb2dVertex
 10
7571784.59999999963
 20
5714755.04999999981
  0
VERTEX
  5
2DD
100
AcDbEntity
  8
dzialka
100
AcDbVertex
100
AcDb2dVertex
 10
7571778.63999999966
 20
5714754.58999999985
  0
VERTEX
  5
2DE
100
AcDbEntity
  8
dzialka
100
AcDbVertex
100
AcDb2dVertex
 10
7571769.29999999981
 20
5714756.09999999963
  0
SEQEND
  5
2DF
100
AcDbEntity
  8
dzialka
  0
POLYLINE
  5
2E0
100
AcDbEntity
  8
dzialka
  6
CONTINUOUS
370
18
100
AcDb2dPolyline
 66
1
 70
129
  0
VERTEX
  5
2E1
100
AcDbEntity
  8
dzialka
100
AcDbVertex
100
AcDb2dVertex
 10
7571805.55999999959
 20
5714894.0700000003
  0
VERTEX
  5
2E2
100
AcDbEntity
  8
dzialka
100
AcDbVertex
100
AcDb2dVertex
 10
7571815.74000000022
 20
5714932.8200000003
  0
VERTEX
  5
2E3
100
AcDbEntity
  8
dzialka
100
AcDbVertex
100
AcDb2dVertex
 10
7571829.36000000034
 20
5714927.03000000026
  0
VERTEX
  5
2E4
100
AcDbEntity
  8
dzialka
100
AcDbVertex
100
AcDb2dVertex
 10
7571819.98000000045
 20
5714890.99000000022
  0
SEQEND
  5
2E5
100
AcDbEntity
  8
dzialka
  0
POLYLINE
  5
2E6
100
AcDbEntity
  8
dzialka
  6
CONTINUOUS
370
18
100
AcDb2dPolyline
 66
1
 70
129
  0
VERTEX
  5
2E7
100
AcDbEntity
  8
dzialka
100
AcDbVertex
100
AcDb2dVertex
 10
7571817.46999999974
 20
5714939.37000000011
  0
VERTEX
  5
2E8
100
AcDbEntity
  8
dzialka
100
AcDbVertex
100
AcDb2dVertex
 10
7571868.12999999989
 20
5715132.15000000037
  0
VERTEX
  5
2E9
100
AcDbEntity
  8
dzialka
100
AcDbVertex
100
AcDb2dVertex
 10
7571881.83999999985
 20
5715128.6799999997
  0
VERTEX
  5
2EA
100
AcDbEntity
  8
dzialka
100
AcDbVertex
100
AcDb2dVertex
 10
7571831.01999999955
 20
5714933.41999999993
  0
SEQEND
  5
2EB
100
AcDbEntity
  8
dzialka
  0
POLYLINE
  5
2EC
100
AcDbEntity
  8
dzialka
  6
CONTINUOUS
370
18
100
AcDb2dPolyline
 66
1
 70
129
  0
VERTEX
  5
2ED
100
AcDbEntity
  8
dzialka
100
AcDbVertex
100
AcDb2dVertex
 10
7571784.59999999963
 20
5714755.04999999981
  0
VERTEX
  5
2EE
100
AcDbEntity
  8
dzialka
100
AcDbVertex
100
AcDb2dVertex
 10
7571819.21999999974
 20
5714888.08999999985
  0
VERTEX
  5
2EF
100
AcDbEntity
  8
dzialka
100
AcDbVertex
100
AcDb2dVertex
 10
7571833.62000000011
 20
5714885.00999999978
  0
VERTEX
  5
2F0
100
AcDbEntity
  8
dzialka
100
AcDbVertex
100
AcDb2dVertex
 10
7571799.41999999993
 20
5714752.25
  0
VERTEX
  5
2F1
100
AcDbEntity
  8
dzialka
100
AcDbVertex
100
AcDb2dVertex
 10
7571799.0
 20
5714756.16999999993
  0
SEQEND
  5
2F2
100
AcDbEntity
  8
dzialka
  0
POLYLINE
  5
2F3
100
AcDbEntity
  8
dzialka
  6
CONTINUOUS
370
18
100
AcDb2dPolyline
 66
1
 70
129
  0
VERTEX
  5
2F4
100
AcDbEntity
  8
dzialka
100
AcDbVertex
100
AcDb2dVertex
 10
7571819.98000000045
 20
5714890.99000000022
  0
VERTEX
  5
2F5
100
AcDbEntity
  8
dzialka
100
AcDbVertex
100
AcDb2dVertex
 10
7571829.36000000034
 20
5714927.03000000026
  0
VERTEX
  5
2F6
100
AcDbEntity
  8
dzialka
100
AcDbVertex
100
AcDb2dVertex
 10
7571842.95999999996
 20
5714921.24000000022
  0
VERTEX
  5
2F7
100
AcDbEntity
  8
dzialka
100
AcDbVertex
100
AcDb2dVertex
 10
7571834.37000000011
 20
5714887.91000000015
  0
SEQEND
  5
2F8
100
AcDbEntity
  8
dzialka
  0
POLYLINE
  5
2F9
100
AcDbEntity
  8
dzialka
  6
CONTINUOUS
370
18
100
AcDb2dPolyline
 66
1
 70
129
  0
VERTEX
  5
2FA
100
AcDbEntity
  8
dzialka
100
AcDbVertex
100
AcDb2dVertex
 10
7571831.01999999955
 20
5714933.41999999993
  0
VERTEX
  5
2FB
100
AcDbEntity
  8
dzialka
100
AcDbVertex
100
AcDb2dVertex
 10
7571881.83999999985
 20
5715128.6799999997
  0
VERTEX
  5
2FC
100
AcDbEntity
  8
dzialka
100
AcDbVertex
100
AcDb2dVertex
 10
7571895.50999999978
 20
5715125.21999999974
  0
VERTEX
  5
2FD
100
AcDbEntity
  8
dzialka
100
AcDbVertex
100
AcDb2dVertex
 10
7571844.5700000003
 20
5714927.48000000045
  0
SEQEND
  5
2FE
100
AcDbEntity
  8
dzialka
  0
POLYLINE
  5
2FF
100
AcDbEntity
  8
dzialka
  6
CONTINUOUS
370
18
100
AcDb2dPolyline
 66
1
 70
129
  0
VERTEX
  5
300
100
AcDbEntity
  8
dzialka
100
AcDbVertex
100
AcDb2dVertex
 10
7571799.41999999993
 20
5714752.25
  0
VERTEX
  5
301
100
AcDbEntity
  8
dzialka
100
AcDbVertex
100
AcDb2dVertex
 10
7571833.62000000011
 20
5714885.00999999978
  0
VERTEX
  5
302
100
AcDbEntity
  8
dzialka
100
AcDbVertex
100
AcDb2dVertex
 10
7571848.69000000041
 20
5714881.79000000004
  0
VERTEX
  5
303
100
AcDbEntity
  8
dzialka
100
AcDbVertex
100
AcDb2dVertex
 10
7571810.86000000034
 20
5714734.83999999985
  0
VERTEX
  5
304
100
AcDbEntity
  8
dzialka
100
AcDbVertex
100
AcDb2dVertex
 10
7571800.62000000011
 20
5714741.01999999955
  0
SEQEND
  5
305
100
AcDbEntity
  8
dzialka
  0
POLYLINE
  5
306
100
AcDbEntity
  8
dzialka
  6
CONTINUOUS
370
18
100
AcDb2dPolyline
 66
1
 70
129
  0
VERTEX
  5
307
100
AcDbEntity
  8
dzialka
100
AcDbVertex
100
AcDb2dVertex
 10
7571834.37000000011
 20
5714887.91000000015
  0
VERTEX
  5
308
100
AcDbEntity
  8
dzialka
100
AcDbVertex
100
AcDb2dVertex
 10
7571842.95999999996
 20
5714921.24000000022
  0
VERTEX
  5
309
100
AcDbEntity
  8
dzialka
100
AcDbVertex
100
AcDb2dVertex
 10
7571857.09999999963
 20
5714914.45999999996
  0
VERTEX
  5
30A
100
AcDbEntity
  8
dzialka
100
AcDbVertex
100
AcDb2dVertex
 10
7571849.44000000041
 20
5714884.69000000041
  0
SEQEND
  5
30B
100
AcDbEntity
  8
dzialka
  0
POLYLINE
  5
30C
100
AcDbEntity
  8
dzialka
  6
CONTINUOUS
370
18
100
AcDb2dPolyline
 66
1
 70
129
  0
VERTEX
  5
30D
100
AcDbEntity
  8
dzialka
100
AcDbVertex
100
AcDb2dVertex
 10
7571844.5700000003
 20
5714927.48000000045
  0
VERTEX
  5
30E
100
AcDbEntity
  8
dzialka
100
AcDbVertex
100
AcDb2dVertex
 10
7571895.50999999978
 20
5715125.21999999974
  0
VERTEX
  5
30F
100
AcDbEntity
  8
dzialka
100
AcDbVertex
100
AcDb2dVertex
 10
7571910.38999999966
 20
5715121.45999999996
  0
VERTEX
  5
310
100
AcDbEntity
  8
dzialka
100
AcDbVertex
100
AcDb2dVertex
 10
7571858.83999999985
 20
5714921.21999999974
  0
SEQEND
  5
311
100
AcDbEntity
  8
dzialka
  0
POLYLINE
  5
312
100
AcDbEntity
  8
dzialka
  6
CONTINUOUS
370
18
100
AcDb2dPolyline
 66
1
 70
129
  0
VERTEX
  5
313
100
AcDbEntity
  8
dzialka
100
AcDbVertex
100
AcDb2dVertex
 10
7571810.86000000034
 20
5714734.83999999985
  0
VERTEX
  5
314
100
AcDbEntity
  8
dzialka
100
AcDbVertex
100
AcDb2dVertex
 10
7571848.69000000041
 20
5714881.79000000004
  0
VERTEX
  5
315
100
AcDbEntity
  8
dzialka
100
AcDbVertex
100
AcDb2dVertex
 10
7571861.75
 20
5714878.99000000022
  0
VERTEX
  5
316
100
AcDbEntity
  8
dzialka
100
AcDbVertex
100
AcDb2dVertex
 10
7571824.45999999996
 20
5714734.12999999989
  0
VERTEX
  5
317
100
AcDbEntity
  8
dzialka
100
AcDbVertex
100
AcDb2dVertex
 10
7571811.20999999996
 20
5714734.62999999989
  0
SEQEND
  5
318
100
AcDbEntity
  8
dzialka
  0
POLYLINE
  5
319
100
AcDbEntity
  8
dzialka
  6
CONTINUOUS
370
18
100
AcDb2dPolyline
 66
1
 70
129
  0
VERTEX
  5
31A
100
AcDbEntity
  8
dzialka
100
AcDbVertex
100
AcDb2dVertex
 10
7571849.44000000041
 20
5714884.69000000041
  0
VERTEX
  5
31B
100
AcDbEntity
  8
dzialka
100
AcDbVertex
100
AcDb2dVertex
 10
7571857.09999999963
 20
5714914.45999999996
  0
VERTEX
  5
31C
100
AcDbEntity
  8
dzialka
100
AcDbVertex
100
AcDb2dVertex
 10
7571869.37000000011
 20
5714908.5700000003
  0
VERTEX
  5
31D
100
AcDbEntity
  8
dzialka
100
AcDbVertex
100
AcDb2dVertex
 10
7571862.5
 20
5714881.91000000015
  0
SEQEND
  5
31E
100
AcDbEntity
  8
dzialka
  0
POLYLINE
  5
31F
100
AcDbEntity
  8
dzialka
  6
CONTINUOUS
370
18
100
AcDb2dPolyline
 66
1
 70
129
  0
VERTEX
  5
320
100
AcDbEntity
  8
dzialka
100
AcDbVertex
100
AcDb2dVertex
 10
7571858.83999999985
 20
5714921.21999999974
  0
VERTEX
  5
321
100
AcDbEntity
  8
dzialka
100
AcDbVertex
100
AcDb2dVertex
 10
7571910.38999999966
 20
5715121.45999999996
  0
VERTEX
  5
322
100
AcDbEntity
  8
dzialka
100
AcDbVertex
100
AcDb2dVertex
 10
7571923.33000000007
 20
5715118.1799999997
  0
VERTEX
  5
323
100
AcDbEntity
  8
dzialka
100
AcDbVertex
100
AcDb2dVertex
 10
7571871.23000000045
 20
5714915.78000000026
  0
SEQEND
  5
324
100
AcDbEntity
  8
dzialka
  0
POLYLINE
  5
325
100
AcDbEntity
  8
dzialka
  6
CONTINUOUS
370
18
100
AcDb2dPolyline
 66
1
 70
129
  0
VERTEX
  5
326
100
AcDbEntity
  8
dzialka
100
AcDbVertex
100
AcDb2dVertex
 10
7571861.75
 20
5714878.99000000022
  0
VERTEX
  5
327
100
AcDbEntity
  8
dzialka
100
AcDbVertex
100
AcDb2dVertex
 10
7571889.59999999963
 20
5714874.45999999996
  0
VERTEX
  5
328
100
AcDbEntity
  8
dzialka
100
AcDbVertex
100
AcDb2dVertex
 10
7571852.83000000007
 20
5714731.88999999966
  0
VERTEX
  5
329
100
AcDbEntity
  8
dzialka
100
AcDbVertex
100
AcDb2dVertex
 10
7571836.28000000026
 20
5714734.45000000019
  0
VERTEX
  5
32A
100
AcDbEntity
  8
dzialka
100
AcDbVertex
100
AcDb2dVertex
 10
7571828.36000000034
 20
5714733.98000000045
  0
VERTEX
  5
32B
100
AcDbEntity
  8
dzialka
100
AcDbVertex
100
AcDb2dVertex
 10
7571824.45999999996
 20
5714734.12999999989
  0
SEQEND
  5
32C
100
AcDbEntity
  8
dzialka
  0
POLYLINE
  5
32D
100
AcDbEntity
  8
dzialka
  6
CONTINUOUS
370
18
100
AcDb2dPolyline
 66
1
 70
129
  0
VERTEX
  5
32E
100
AcDbEntity
  8
dzialka
100
AcDbVertex
100
AcDb2dVertex
 10
7571862.5
 20
5714881.91000000015
  0
VERTEX
  5
32F
100
AcDbEntity
  8
dzialka
100
AcDbVertex
100
AcDb2dVertex
 10
7571869.37000000011
 20
5714908.5700000003
  0
VERTEX
  5
330
100
AcDbEntity
  8
dzialka
100
AcDbVertex
100
AcDb2dVertex
 10
7571895.19000000041
 20
5714896.12999999989
  0
VERTEX
  5
331
100
AcDbEntity
  8
dzialka
100
AcDbVertex
100
AcDb2dVertex
 10
7571890.34999999963
 20
5714877.37999999989
  0
SEQEND
  5
332
100
AcDbEntity
  8
dzialka
  0
POLYLINE
  5
333
100
AcDbEntity
  8
dzialka
  6
CONTINUOUS
370
18
100
AcDb2dPolyline
 66
1
 70
129
  0
VERTEX
  5
334
100
AcDbEntity
  8
dzialka
100
AcDbVertex
100
AcDb2dVertex
 10
7571468.79000000004
 20
5714850.79999999981
  0
VERTEX
  5
335
100
AcDbEntity
  8
dzialka
100
AcDbVertex
100
AcDb2dVertex
 10
7571473.71999999974
 20
5714846.24000000022
  0
VERTEX
  5
336
100
AcDbEntity
  8
dzialka
100
AcDbVertex
100
AcDb2dVertex
 10
7571487.13999999966
 20
5714842.24000000022
  0
VERTEX
  5
337
100
AcDbEntity
  8
dzialka
100
AcDbVertex
100
AcDb2dVertex
 10
7571487.20999999996
 20
5714841.13999999966
  0
VERTEX
  5
338
100
AcDbEntity
  8
dzialka
100
AcDbVertex
100
AcDb2dVertex
 10
7571487.98000000045
 20
5714829.00999999978
  0
VERTEX
  5
339
100
AcDbEntity
  8
dzialka
100
AcDbVertex
100
AcDb2dVertex
 10
7571490.62999999989
 20
5714821.4299999997
  0
VERTEX
  5
33A
100
AcDbEntity
  8
dzialka
100
AcDbVertex
100
AcDb2dVertex
 10
7571493.05999999959
 20
5714818.20999999996
  0
VERTEX
  5
33B
100
AcDbEntity
  8
dzialka
100
AcDbVertex
100
AcDb2dVertex
 10
7571500.73000000045
 20
5714814.53000000026
  0
VERTEX
  5
33C
100
AcDbEntity
  8
dzialka
100
AcDbVertex
100
AcDb2dVertex
 10
7571506.29000000004
 20
5714814.38999999966
  0
VERTEX
  5
33D
100
AcDbEntity
  8
dzialka
100
AcDbVertex
100
AcDb2dVertex
 10
7571507.71999999974
 20
5714814.34999999963
  0
VERTEX
  5
33E
100
AcDbEntity
  8
dzialka
100
AcDbVertex
100
AcDb2dVertex
 10
7571512.79999999981
 20
5714815.80999999959
  0
VERTEX
  5
33F
100
AcDbEntity
  8
dzialka
100
AcDbVertex
100
AcDb2dVertex
 10
7571517.54999999981
 20
5714819.48000000045
  0
VERTEX
  5
340
100
AcDbEntity
  8
dzialka
100
AcDbVertex
100
AcDb2dVertex
 10
7571524.63999999966
 20
5714826.84999999963
  0
VERTEX
  5
341
100
AcDbEntity
  8
dzialka
100
AcDbVertex
100
AcDb2dVertex
 10
7571529.01999999955
 20
5714825.70999999996
  0
VERTEX
  5
342
100
AcDbEntity
  8
dzialka
100
AcDbVertex
100
AcDb2dVertex
 10
7571535.45000000019
 20
5714824.04999999981
  0
VERTEX
  5
343
100
AcDbEntity
  8
dzialka
100
AcDbVertex
100
AcDb2dVertex
 10
7571548.66000000015
 20
5714820.62999999989
  0
VERTEX
  5
344
100
AcDbEntity
  8
dzialka
100
AcDbVertex
100
AcDb2dVertex
 10
7571554.46999999974
 20
5714819.12000000011
  0
VERTEX
  5
345
100
AcDbEntity
  8
dzialka
100
AcDbVertex
100
AcDb2dVertex
 10
7571555.62000000011
 20
5714818.8200000003
  0
VERTEX
  5
346
100
AcDbEntity
  8
dzialka
100
AcDbVertex
100
AcDb2dVertex
 10
7571559.70000000019
 20
5714815.86000000034
  0
VERTEX
  5
347
100
AcDbEntity
  8
dzialka
100
AcDbVertex
100
AcDb2dVertex
 10
7571560.87999999989
 20
5714815.0
  0
VERTEX
  5
348
100
AcDbEntity
  8
dzialka
100
AcDbVertex
100
AcDb2dVertex
 10
7571563.21999999974
 20
5714815.58999999985
  0
VERTEX
  5
349
100
AcDbEntity
  8
dzialka
100
AcDbVertex
100
AcDb2dVertex
 10
7571565.90000000037
 20
5714815.83999999985
  0
VERTEX
  5
34A
100
AcDbEntity
  8
dzialka
100
AcDbVertex
100
AcDb2dVertex
 10
7571574.30999999959
 20
5714816.62999999989
  0
VERTEX
  5
34B
100
AcDbEntity
  8
dzialka
100
AcDbVertex
100
AcDb2dVertex
 10
7571578.16000000015
 20
5714816.98000000045
  0
VERTEX
  5
34C
100
AcDbEntity
  8
dzialka
100
AcDbVertex
100
AcDb2dVertex
 10
7571590.88999999966
 20
5714818.16000000015
  0
VERTEX
  5
34D
100
AcDbEntity
  8
dzialka
100
AcDbVertex
100
AcDb2dVertex
 10
7571602.24000000022
 20
5714809.30999999959
  0
VERTEX
  5
34E
100
AcDbEntity
  8
dzialka
100
AcDbVertex
100
AcDb2dVertex
 10
7571613.79999999981
 20
5714800.28000000026
  0
VERTEX
  5
34F
100
AcDbEntity
  8
dzialka
100
AcDbVertex
100
AcDb2dVertex
 10
7571630.37999999989
 20
5714786.1799999997
  0
VERTEX
  5
350
100
AcDbEntity
  8
dzialka
100
AcDbVertex
100
AcDb2dVertex
 10
7571634.9299999997
 20
5714781.73000000045
  0
VERTEX
  5
351
100
AcDbEntity
  8
dzialka
100
AcDbVertex
100
AcDb2dVertex
 10
7571646.46999999974
 20
5714770.45999999996
  0
VERTEX
  5
352
100
AcDbEntity
  8
dzialka
100
AcDbVertex
100
AcDb2dVertex
 10
7571663.87999999989
 20
5714759.03000000026
  0
VERTEX
  5
353
100
AcDbEntity
  8
dzialka
100
AcDbVertex
100
AcDb2dVertex
 10
7571685.4299999997
 20
5714761.08000000007
  0
VERTEX
  5
354
100
AcDbEntity
  8
dzialka
100
AcDbVertex
100
AcDb2dVertex
 10
7571686.38999999966
 20
5714761.05999999959
  0
VERTEX
  5
355
100
AcDbEntity
  8
dzialka
100
AcDbVertex
100
AcDb2dVertex
 10
7571700.49000000022
 20
5714760.62000000011
  0
VERTEX
  5
356
100
AcDbEntity
  8
dzialka
100
AcDbVertex
100
AcDb2dVertex
 10
7571713.41000000015
 20
5714760.21999999974
  0
VERTEX
  5
357
100
AcDbEntity
  8
dzialka
100
AcDbVertex
100
AcDb2dVertex
 10
7571714.54999999981
 20
5714759.83999999985
  0
VERTEX
  5
358
100
AcDbEntity
  8
dzialka
100
AcDbVertex
100
AcDb2dVertex
 10
7571737.12999999989
 20
5714752.29000000004
  0
VERTEX
  5
359
100
AcDbEntity
  8
dzialka
100
AcDbVertex
100
AcDb2dVertex
 10
7571741.49000000022
 20
5714753.25999999978
  0
VERTEX
  5
35A
100
AcDbEntity
  8
dzialka
100
AcDbVertex
100
AcDb2dVertex
 10
7571760.70000000019
 20
5714757.49000000022
  0
VERTEX
  5
35B
100
AcDbEntity
  8
dzialka
100
AcDbVertex
100
AcDb2dVertex
 10
7571769.29999999981
 20
5714756.09999999963
  0
VERTEX
  5
35C
100
AcDbEntity
  8
dzialka
100
AcDbVertex
100
AcDb2dVertex
 10
7571778.63999999966
 20
5714754.58999999985
  0
VERTEX
  5
35D
100
AcDbEntity
  8
dzialka
100
AcDbVertex
100
AcDb2dVertex
 10
7571784.59999999963
 20
5714755.04999999981
  0
VERTEX
  5
35E
100
AcDbEntity
  8
dzialka
100
AcDbVertex
100
AcDb2dVertex
 10
7571799.0
 20
5714756.16999999993
  0
VERTEX
  5
35F
100
AcDbEntity
  8
dzialka
100
AcDbVertex
100
AcDb2dVertex
 10
7571799.41999999993
 20
5714752.25
  0
VERTEX
  5
360
100
AcDbEntity
  8
dzialka
100
AcDbVertex
100
AcDb2dVertex
 10
7571800.62000000011
 20
5714741.01999999955
  0
VERTEX
  5
361
100
AcDbEntity
  8
dzialka
100
AcDbVertex
100
AcDb2dVertex
 10
7571810.86000000034
 20
5714734.83999999985
  0
VERTEX
  5
362
100
AcDbEntity
  8
dzialka
100
AcDbVertex
100
AcDb2dVertex
 10
7571811.20999999996
 20
5714734.62999999989
  0
VERTEX
  5
363
100
AcDbEntity
  8
dzialka
100
AcDbVertex
100
AcDb2dVertex
 10
7571824.45999999996
 20
5714734.12999999989
  0
VERTEX
  5
364
100
AcDbEntity
  8
dzialka
100
AcDbVertex
100
AcDb2dVertex
 10
7571828.36000000034
 20
5714733.98000000045
  0
VERTEX
  5
365
100
AcDbEntity
  8
dzialka
100
AcDbVertex
100
AcDb2dVertex
 10
7571836.28000000026
 20
5714734.45000000019
  0
VERTEX
  5
366
100
AcDbEntity
  8
dzialka
100
AcDbVertex
100
AcDb2dVertex
 10
7571852.83000000007
 20
5714731.88999999966
  0
VERTEX
  5
367
100
AcDbEntity
  8
dzialka
100
AcDbVertex
100
AcDb2dVertex
 10
7571857.69000000041
 20
5714731.13999999966
  0
VERTEX
  5
368
100
AcDbEntity
  8
dzialka
100
AcDbVertex
100
AcDb2dVertex
 10
7571869.00999999978
 20
5714736.37999999989
  0
VERTEX
  5
369
100
AcDbEntity
  8
dzialka
100
AcDbVertex
100
AcDb2dVertex
 10
7571886.08000000007
 20
5714744.29000000004
  0
VERTEX
  5
36A
100
AcDbEntity
  8
dzialka
100
AcDbVertex
100
AcDb2dVertex
 10
7571887.59999999963
 20
5714744.99000000022
  0
VERTEX
  5
36B
100
AcDbEntity
  8
dzialka
100
AcDbVertex
100
AcDb2dVertex
 10
7571894.3200000003
 20
5714745.76999999955
  0
VERTEX
  5
36C
100
AcDbEntity
  8
dzialka
100
AcDbVertex
100
AcDb2dVertex
 10
7571902.41000000015
 20
5714746.70999999996
  0
VERTEX
  5
36D
100
AcDbEntity
  8
dzialka
100
AcDbVertex
100
AcDb2dVertex
 10
7571907.66999999993
 20
5714747.3200000003
  0
VERTEX
  5
36E
100
AcDbEntity
  8
dzialka
100
AcDbVertex
100
AcDb2dVertex
 10
7571910.19000000041
 20
5714746.58000000007
  0
VERTEX
  5
36F
100
AcDbEntity
  8
dzialka
100
AcDbVertex
100
AcDb2dVertex
 10
7571917.48000000045
 20
5714744.41999999993
  0
VERTEX
  5
370
100
AcDbEntity
  8
dzialka
100
AcDbVertex
100
AcDb2dVertex
 10
7571933.45999999996
 20
5714739.6799999997
  0
VERTEX
  5
371
100
AcDbEntity
  8
dzialka
100
AcDbVertex
100
AcDb2dVertex
 10
7571947.86000000034
 20
5714735.74000000022
  0
VERTEX
  5
372
100
AcDbEntity
  8
dzialka
100
AcDbVertex
100
AcDb2dVertex
 10
7571951.8200000003
 20
5714734.66000000015
  0
VERTEX
  5
373
100
AcDbEntity
  8
dzialka
100
AcDbVertex
100
AcDb2dVertex
 10
7571975.54000000004
 20
5714741.78000000026
  0
VERTEX
  5
374
100
AcDbEntity
  8
dzialka
100
AcDbVertex
100
AcDb2dVertex
 10
7571977.8200000003
 20
5714741.37000000011
  0
VERTEX
  5
375
100
AcDbEntity
  8
dzialka
100
AcDbVertex
100
AcDb2dVertex
 10
7571993.95000000019
 20
5714738.45999999996
  0
VERTEX
  5
376
100
AcDbEntity
  8
dzialka
100
AcDbVertex
100
AcDb2dVertex
 10
7572006.04999999981
 20
5714740.29000000004
  0
VERTEX
  5
377
100
AcDbEntity
  8
dzialka
100
AcDbVertex
100
AcDb2dVertex
 10
7571998.08000000007
 20
5714711.83000000007
  0
VERTEX
  5
378
100
AcDbEntity
  8
dzialka
100
AcDbVertex
100
AcDb2dVertex
 10
7571991.54000000004
 20
5714688.5
  0
VERTEX
  5
379
100
AcDbEntity
  8
dzialka
100
AcDbVertex
100
AcDb2dVertex
 10
7571977.04999999981
 20
5714689.12000000011
  0
VERTEX
  5
37A
100
AcDbEntity
  8
dzialka
100
AcDbVertex
100
AcDb2dVertex
 10
7571951.95000000019
 20
5714701.62000000011
  0
VERTEX
  5
37B
100
AcDbEntity
  8
dzialka
100
AcDbVertex
100
AcDb2dVertex
 10
7571932.59999999963
 20
5714710.66000000015
  0
VERTEX
  5
37C
100
AcDbEntity
  8
dzialka
100
AcDbVertex
100
AcDb2dVertex
 10
7571918.5700000003
 20
5714710.75
  0
VERTEX
  5
37D
100
AcDbEntity
  8
dzialka
100
AcDbVertex
100
AcDb2dVertex
 10
7571912.16000000015
 20
5714705.74000000022
  0
VERTEX
  5
37E
100
AcDbEntity
  8
dzialka
100
AcDbVertex
100
AcDb2dVertex
 10
7571889.69000000041
 20
5714707.0
  0
VERTEX
  5
37F
100
AcDbEntity
  8
dzialka
100
AcDbVertex
100
AcDb2dVertex
 10
7571881.8200000003
 20
5714707.99000000022
  0
VERTEX
  5
380
100
AcDbEntity
  8
dzialka
100
AcDbVertex
100
AcDb2dVertex
 10
7571874.79000000004
 20
5714708.87000000011
  0
VERTEX
  5
381
100
AcDbEntity
  8
dzialka
100
AcDbVertex
100
AcDb2dVertex
 10
7571868.70999999996
 20
5714708.13999999966
  0
VERTEX
  5
382
100
AcDbEntity
  8
dzialka
100
AcDbVertex
100
AcDb2dVertex
 10
7571858.87000000011
 20
5714704.09999999963
  0
VERTEX
  5
383
100
AcDbEntity
  8
dzialka
100
AcDbVertex
100
AcDb2dVertex
 10
7571840.87000000011
 20
5714704.80999999959
  0
VERTEX
  5
384
100
AcDbEntity
  8
dzialka
100
AcDbVertex
100
AcDb2dVertex
 10
7571829.20000000019
 20
5714709.4299999997
  0
VERTEX
  5
385
100
AcDbEntity
  8
dzialka
100
AcDbVertex
100
AcDb2dVertex
 10
7571820.70000000019
 20
5714711.66000000015
  0
VERTEX
  5
386
100
AcDbEntity
  8
dzialka
100
AcDbVertex
100
AcDb2dVertex
 10
7571819.37000000011
 20
5714712.00999999978
  0
VERTEX
  5
387
100
AcDbEntity
  8
dzialka
100
AcDbVertex
100
AcDb2dVertex
 10
7571800.66000000015
 20
5714716.48000000045
  0
VERTEX
  5
388
100
AcDbEntity
  8
dzialka
100
AcDbVertex
100
AcDb2dVertex
 10
7571794.65000000037
 20
5714717.65000000037
  0
VERTEX
  5
389
100
AcDbEntity
  8
dzialka
100
AcDbVertex
100
AcDb2dVertex
 10
7571778.9299999997
 20
5714720.70000000019
  0
VERTEX
  5
38A
100
AcDbEntity
  8
dzialka
100
AcDbVertex
100
AcDb2dVertex
 10
7571768.79999999981
 20
5714722.95999999996
  0
VERTEX
  5
38B
100
AcDbEntity
  8
dzialka
100
AcDbVertex
100
AcDb2dVertex
 10
7571765.12999999989
 20
5714723.78000000026
  0
VERTEX
  5
38C
100
AcDbEntity
  8
dzialka
100
AcDbVertex
100
AcDb2dVertex
 10
7571753.00999999978
 20
5714722.73000000045
  0
VERTEX
  5
38D
100
AcDbEntity
  8
dzialka
100
AcDbVertex
100
AcDb2dVertex
 10
7571743.91000000015
 20
5714721.12000000011
  0
VERTEX
  5
38E
100
AcDbEntity
  8
dzialka
100
AcDbVertex
100
AcDb2dVertex
 10
7571721.03000000026
 20
5714728.99000000022
  0
VERTEX
  5
38F
100
AcDbEntity
  8
dzialka
100
AcDbVertex
100
AcDb2dVertex
 10
7571708.45000000019
 20
5714733.30999999959
  0
VERTEX
  5
390
100
AcDbEntity
  8
dzialka
100
AcDbVertex
100
AcDb2dVertex
 10
7571706.41999999992
 20
5714734.00999999978
  0
VERTEX
  5
391
100
AcDbEntity
  8
dzialka
100
AcDbVertex
100
AcDb2dVertex
 10
7571699.69000000041
 20
5714742.45999999996
  0
VERTEX
  5
392
100
AcDbEntity
  8
dzialka
100
AcDbVertex
100
AcDb2dVertex
 10
7571698.9299999997
 20
5714742.55999999959
  0
VERTEX
  5
393
100
AcDbEntity
  8
dzialka
100
AcDbVertex
100
AcDb2dVertex
 10
7571693.45999999996
 20
5714743.23000000045
  0
VERTEX
  5
394
100
AcDbEntity
  8
dzialka
100
AcDbVertex
100
AcDb2dVertex
 10
7571686.53000000026
 20
5714735.16999999993
  0
VERTEX
  5
395
100
AcDbEntity
  8
dzialka
100
AcDbVertex
100
AcDb2dVertex
 10
7571670.28000000026
 20
5714732.45000000019
  0
VERTEX
  5
396
100
AcDbEntity
  8
dzialka
100
AcDbVertex
100
AcDb2dVertex
 10
7571669.95999999996
 20
5714732.38999999966
  0
VERTEX
  5
397
100
AcDbEntity
  8
dzialka
100
AcDbVertex
100
AcDb2dVertex
 10
7571664.75
 20
5714732.76999999955
  0
VERTEX
  5
398
100
AcDbEntity
  8
dzialka
100
AcDbVertex
100
AcDb2dVertex
 10
7571657.28000000026
 20
5714735.62000000011
  0
VERTEX
  5
399
100
AcDbEntity
  8
dzialka
100
AcDbVertex
100
AcDb2dVertex
 10
7571647.28000000026
 20
5714740.9299999997
  0
VERTEX
  5
39A
100
AcDbEntity
  8
dzialka
100
AcDbVertex
100
AcDb2dVertex
 10
7571646.59999999963
 20
5714741.29000000004
  0
VERTEX
  5
39B
100
AcDbEntity
  8
dzialka
100
AcDbVertex
100
AcDb2dVertex
 10
7571636.58999999985
 20
5714762.75999999978
  0
VERTEX
  5
39C
100
AcDbEntity
  8
dzialka
100
AcDbVertex
100
AcDb2dVertex
 10
7571629.78000000026
 20
5714768.33000000007
  0
VERTEX
  5
39D
100
AcDbEntity
  8
dzialka
100
AcDbVertex
100
AcDb2dVertex
 10
7571625.58000000007
 20
5714771.76999999955
  0
VERTEX
  5
39E
100
AcDbEntity
  8
dzialka
100
AcDbVertex
100
AcDb2dVertex
 10
7571618.29999999981
 20
5714779.36000000034
  0
VERTEX
  5
39F
100
AcDbEntity
  8
dzialka
100
AcDbVertex
100
AcDb2dVertex
 10
7571607.80999999959
 20
5714785.95999999996
  0
VERTEX
  5
3A0
100
AcDbEntity
  8
dzialka
100
AcDbVertex
100
AcDb2dVertex
 10
7571601.04000000004
 20
5714790.21999999974
  0
VERTEX
  5
3A1
100
AcDbEntity
  8
dzialka
100
AcDbVertex
100
AcDb2dVertex
 10
7571596.20000000019
 20
5714792.3200000003
  0
VERTEX
  5
3A2
100
AcDbEntity
  8
dzialka
100
AcDbVertex
100
AcDb2dVertex
 10
7571584.09999999963
 20
5714797.55999999959
  0
VERTEX
  5
3A3
100
AcDbEntity
  8
dzialka
100
AcDbVertex
100
AcDb2dVertex
 10
7571581.20000000019
 20
5714800.75999999978
  0
VERTEX
  5
3A4
100
AcDbEntity
  8
dzialka
100
AcDbVertex
100
AcDb2dVertex
 10
7571580.16999999993
 20
5714805.96999999974
  0
VERTEX
  5
3A5
100
AcDbEntity
  8
dzialka
100
AcDbVertex
100
AcDb2dVertex
 10
7571578.88999999966
 20
5714812.46999999974
  0
VERTEX
  5
3A6
100
AcDbEntity
  8
dzialka
100
AcDbVertex
100
AcDb2dVertex
 10
7571575.66999999993
 20
5714812.88999999966
  0
VERTEX
  5
3A7
100
AcDbEntity
  8
dzialka
100
AcDbVertex
100
AcDb2dVertex
 10
7571567.98000000045
 20
5714813.88999999966
  0
VERTEX
  5
3A8
100
AcDbEntity
  8
dzialka
100
AcDbVertex
100
AcDb2dVertex
 10
7571563.23000000045
 20
5714812.65000000037
  0
VERTEX
  5
3A9
100
AcDbEntity
  8
dzialka
100
AcDbVertex
100
AcDb2dVertex
 10
7571552.58000000007
 20
5714809.86000000034
  0
VERTEX
  5
3AA
100
AcDbEntity
  8
dzialka
100
AcDbVertex
100
AcDb2dVertex
 10
7571549.5
 20
5714810.24000000022
  0
VERTEX
  5
3AB
100
AcDbEntity
  8
dzialka
100
AcDbVertex
100
AcDb2dVertex
 10
7571543.83999999985
 20
5714810.95000000019
  0
VERTEX
  5
3AC
100
AcDbEntity
  8
dzialka
100
AcDbVertex
100
AcDb2dVertex
 10
7571537.91999999993
 20
5714811.6799999997
  0
VERTEX
  5
3AD
100
AcDbEntity
  8
dzialka
100
AcDbVertex
100
AcDb2dVertex
 10
7571520.3200000003
 20
5714813.87000000011
  0
VERTEX
  5
3AE
100
AcDbEntity
  8
dzialka
100
AcDbVertex
100
AcDb2dVertex
 10
7571516.73000000045
 20
5714811.91999999993
  0
VERTEX
  5
3AF
100
AcDbEntity
  8
dzialka
100
AcDbVertex
100
AcDb2dVertex
 10
7571503.33000000007
 20
5714804.65000000037
  0
VERTEX
  5
3B0
100
AcDbEntity
  8
dzialka
100
AcDbVertex
100
AcDb2dVertex
 10
7571494.70000000019
 20
5714811.37000000011
  0
VERTEX
  5
3B1
100
AcDbEntity
  8
dzialka
100
AcDbVertex
100
AcDb2dVertex
 10
7571487.5700000003
 20
5714816.91000000015
  0
VERTEX
  5
3B2
100
AcDbEntity
  8
dzialka
100
AcDbVertex
100
AcDb2dVertex
 10
7571486.5
 20
5714820.04000000004
  0
VERTEX
  5
3B3
100
AcDbEntity
  8
dzialka
100
AcDbVertex
100
AcDb2dVertex
 10
7571481.61000000034
 20
5714834.41999999993
  0
VERTEX
  5
3B4
100
AcDbEntity
  8
dzialka
100
AcDbVertex
100
AcDb2dVertex
 10
7571471.16999999993
 20
5714841.69000000041
  0
VERTEX
  5
3B5
100
AcDbEntity
  8
dzialka
100
AcDbVertex
100
AcDb2dVertex
 10
7571466.78000000026
 20
5714844.74000000022
  0
SEQEND
  5
3B6
100
AcDbEntity
  8
dzialka
  0
POLYLINE
  5
3B7
100
AcDbEntity
  8
dzialka
  6
CONTINUOUS
370
18
100
AcDb2dPolyline
 66
1
 70
129
  0
VERTEX
  5
3B8
100
AcDbEntity
  8
dzialka
100
AcDbVertex
100
AcDb2dVertex
 10
7571249.44000000041
 20
5714325.15000000037
  0
VERTEX
  5
3B9
100
AcDbEntity
  8
dzialka
100
AcDbVertex
100
AcDb2dVertex
 10
7571326.48000000045
 20
5714557.90000000037
  0
VERTEX
  5
3BA
100
AcDbEntity
  8
dzialka
100
AcDbVertex
100
AcDb2dVertex
 10
7571434.25999999978
 20
5714882.74000000022
  0
VERTEX
  5
3BB
100
AcDbEntity
  8
dzialka
100
AcDbVertex
100
AcDb2dVertex
 10
7571443.84999999963
 20
5714864.53000000026
  0
VERTEX
  5
3BC
100
AcDbEntity
  8
dzialka
100
AcDbVertex
100
AcDb2dVertex
 10
7571447.45000000019
 20
5714860.24000000022
  0
VERTEX
  5
3BD
100
AcDbEntity
  8
dzialka
100
AcDbVertex
100
AcDb2dVertex
 10
7571269.21999999974
 20
5714322.53000000026
  0
SEQEND
  5
3BE
100
AcDbEntity
  8
dzialka
  0
POLYLINE
  5
3BF
100
AcDbEntity
  8
dzialka
  6
CONTINUOUS
370
18
100
AcDb2dPolyline
 66
1
 70
129
  0
VERTEX
  5
3C0
100
AcDbEntity
  8
dzialka
100
AcDbVertex
100
AcDb2dVertex
 10
7571269.21999999974
 20
5714322.53000000026
  0
VERTEX
  5
3C1
100
AcDbEntity
  8
dzialka
100
AcDbVertex
100
AcDb2dVertex
 10
7571447.45000000019
 20
5714860.24000000022
  0
VERTEX
  5
3C2
100
AcDbEntity
  8
dzialka
100
AcDbVertex
100
AcDb2dVertex
 10
7571453.15000000037
 20
5714853.4299999997
  0
VERTEX
  5
3C3
100
AcDbEntity
  8
dzialka
100
AcDbVertex
100
AcDb2dVertex
 10
7571459.37999999989
 20
5714836.79999999981
  0
VERTEX
  5
3C4
100
AcDbEntity
  8
dzialka
100
AcDbVertex
100
AcDb2dVertex
 10
7571288.09999999963
 20
5714320.05999999959
  0
SEQEND
  5
3C5
100
AcDbEntity
  8
dzialka
  0
POLYLINE
  5
3C6
100
AcDbEntity
  8
dzialka
  6
CONTINUOUS
370
18
100
AcDb2dPolyline
 66
1
 70
129
  0
VERTEX
  5
3C7
100
AcDbEntity
  8
dzialka
100
AcDbVertex
100
AcDb2dVertex
 10
7571457.08000000007
 20
5714851.5
  0
VERTEX
  5
3C8
100
AcDbEntity
  8
dzialka
100
AcDbVertex
100
AcDb2dVertex
 10
7571462.91000000015
 20
5714847.44000000041
  0
VERTEX
  5
3C9
100
AcDbEntity
  8
dzialka
100
AcDbVertex
100
AcDb2dVertex
 10
7571460.87999999989
 20
5714841.33000000007
  0
SEQEND
  5
3CA
100
AcDbEntity
  8
dzialka
  0
POLYLINE
  5
3CB
100
AcDbEntity
  8
dzialka
  6
CONTINUOUS
370
18
100
AcDb2dPolyline
 66
1
 70
129
  0
VERTEX
  5
3CC
100
AcDbEntity
  8
dzialka
100
AcDbVertex
100
AcDb2dVertex
 10
7571462.91000000015
 20
5714847.44000000041
  0
VERTEX
  5
3CD
100
AcDbEntity
  8
dzialka
100
AcDbVertex
100
AcDb2dVertex
 10
7571466.78000000026
 20
5714844.74000000022
  0
VERTEX
  5
3CE
100
AcDbEntity
  8
dzialka
100
AcDbVertex
100
AcDb2dVertex
 10
7571471.16999999993
 20
5714841.69000000041
  0
VERTEX
  5
3CF
100
AcDbEntity
  8
dzialka
100
AcDbVertex
100
AcDb2dVertex
 10
7571466.28000000026
 20
5714826.94000000041
  0
VERTEX
  5
3D0
100
AcDbEntity
  8
dzialka
100
AcDbVertex
100
AcDb2dVertex
 10
7571460.87999999989
 20
5714841.33000000007
  0
SEQEND
  5
3D1
100
AcDbEntity
  8
dzialka
  0
POLYLINE
  5
3D2
100
AcDbEntity
  8
dzialka
  6
CONTINUOUS
370
18
100
AcDb2dPolyline
 66
1
 70
129
  0
VERTEX
  5
3D3
100
AcDbEntity
  8
dzialka
100
AcDbVertex
100
AcDb2dVertex
 10
7571676.80999999959
 20
5715088.21999999974
  0
VERTEX
  5
3D4
100
AcDbEntity
  8
dzialka
100
AcDbVertex
100
AcDb2dVertex
 10
7571716.04999999981
 20
5715207.1799999997
  0
VERTEX
  5
3D5
100
AcDbEntity
  8
dzialka
100
AcDbVertex
100
AcDb2dVertex
 10
7571718.95000000019
 20
5715206.38999999966
  0
VERTEX
  5
3D6
100
AcDbEntity
  8
dzialka
100
AcDbVertex
100
AcDb2dVertex
 10
7571716.0
 20
5715197.45999999996
  0
VERTEX
  5
3D7
100
AcDbEntity
  8
dzialka
100
AcDbVertex
100
AcDb2dVertex
 10
7571707.83999999985
 20
5715172.71999999974
  0
VERTEX
  5
3D8
100
AcDbEntity
  8
dzialka
100
AcDbVertex
100
AcDb2dVertex
 10
7571668.23000000045
 20
5715052.63999999966
  0
VERTEX
  5
3D9
100
AcDbEntity
  8
dzialka
100
AcDbVertex
100
AcDb2dVertex
 10
7571643.40000000037
 20
5714977.4299999997
  0
VERTEX
  5
3DA
100
AcDbEntity
  8
dzialka
100
AcDbVertex
100
AcDb2dVertex
 10
7571640.34999999963
 20
5714977.69000000041
  0
SEQEND
  5
3DB
100
AcDbEntity
  8
dzialka
  0
POLYLINE
  5
3DC
100
AcDbEntity
  8
dzialka
  6
CONTINUOUS
370
18
100
AcDb2dPolyline
 66
1
 70
129
  0
VERTEX
  5
3DD
100
AcDbEntity
  8
dzialka
100
AcDbVertex
100
AcDb2dVertex
 10
7571468.23000000045
 20
5714985.25
  0
VERTEX
  5
3DE
100
AcDbEntity
  8
dzialka
100
AcDbVertex
100
AcDb2dVertex
 10
7571470.46999999974
 20
5714992.00999999978
  0
VERTEX
  5
3DF
100
AcDbEntity
  8
dzialka
100
AcDbVertex
100
AcDb2dVertex
 10
7571478.23000000045
 20
5714991.36000000034
  0
VERTEX
  5
3E0
100
AcDbEntity
  8
dzialka
100
AcDbVertex
100
AcDb2dVertex
 10
7571489.26999999955
 20
5714990.4299999997
  0
VERTEX
  5
3E1
100
AcDbEntity
  8
dzialka
100
AcDbVertex
100
AcDb2dVertex
 10
7571502.23000000045
 20
5714989.33000000007
  0
VERTEX
  5
3E2
100
AcDbEntity
  8
dzialka
100
AcDbVertex
100
AcDb2dVertex
 10
7571514.3200000003
 20
5714988.30999999959
  0
VERTEX
  5
3E3
100
AcDbEntity
  8
dzialka
100
AcDbVertex
100
AcDb2dVertex
 10
7571535.04999999981
 20
5714986.5700000003
  0
VERTEX
  5
3E4
100
AcDbEntity
  8
dzialka
100
AcDbVertex
100
AcDb2dVertex
 10
7571562.38999999966
 20
5714984.25999999978
  0
VERTEX
  5
3E5
100
AcDbEntity
  8
dzialka
100
AcDbVertex
100
AcDb2dVertex
 10
7571569.04000000004
 20
5714983.70000000019
  0
VERTEX
  5
3E6
100
AcDbEntity
  8
dzialka
100
AcDbVertex
100
AcDb2dVertex
 10
7571580.88999999966
 20
5714982.70000000019
  0
VERTEX
  5
3E7
100
AcDbEntity
  8
dzialka
100
AcDbVertex
100
AcDb2dVertex
 10
7571587.6799999997
 20
5714982.12999999989
  0
VERTEX
  5
3E8
100
AcDbEntity
  8
dzialka
100
AcDbVertex
100
AcDb2dVertex
 10
7571601.59999999963
 20
5714980.95000000019
  0
VERTEX
  5
3E9
100
AcDbEntity
  8
dzialka
100
AcDbVertex
100
AcDb2dVertex
 10
7571607.73000000045
 20
5714980.44000000041
  0
VERTEX
  5
3EA
100
AcDbEntity
  8
dzialka
100
AcDbVertex
100
AcDb2dVertex
 10
7571613.86000000034
 20
5714979.91999999993
  0
VERTEX
  5
3EB
100
AcDbEntity
  8
dzialka
100
AcDbVertex
100
AcDb2dVertex
 10
7571619.88999999966
 20
5714979.41000000015
  0
VERTEX
  5
3EC
100
AcDbEntity
  8
dzialka
100
AcDbVertex
100
AcDb2dVertex
 10
7571627.84999999963
 20
5714978.74000000022
  0
VERTEX
  5
3ED
100
AcDbEntity
  8
dzialka
100
AcDbVertex
100
AcDb2dVertex
 10
7571631.44000000041
 20
5714978.44000000041
  0
VERTEX
  5
3EE
100
AcDbEntity
  8
dzialka
100
AcDbVertex
100
AcDb2dVertex
 10
7571640.34999999963
 20
5714977.69000000041
  0
VERTEX
  5
3EF
100
AcDbEntity
  8
dzialka
100
AcDbVertex
100
AcDb2dVertex
 10
7571643.40000000037
 20
5714977.4299999997
  0
VERTEX
  5
3F0
100
AcDbEntity
  8
dzialka
100
AcDbVertex
100
AcDb2dVertex
 10
7571653.9299999997
 20
5714976.37000000011
  0
VERTEX
  5
3F1
100
AcDbEntity
  8
dzialka
100
AcDbVertex
100
AcDb2dVertex
 10
7571663.6799999997
 20
5714975.38999999966
  0
VERTEX
  5
3F2
100
AcDbEntity
  8
dzialka
100
AcDbVertex
100
AcDb2dVertex
 10
7571684.51999999955
 20
5714973.29000000004
  0
VERTEX
  5
3F3
100
AcDbEntity
  8
dzialka
100
AcDbVertex
100
AcDb2dVertex
 10
7571698.5700000003
 20
5714971.37000000011
  0
VERTEX
  5
3F4
100
AcDbEntity
  8
dzialka
100
AcDbVertex
100
AcDb2dVertex
 10
7571739.30999999959
 20
5714965.8200000003
  0
VERTEX
  5
3F5
100
AcDbEntity
  8
dzialka
100
AcDbVertex
100
AcDb2dVertex
 10
7571752.59999999963
 20
5714962.8200000003
  0
VERTEX
  5
3F6
100
AcDbEntity
  8
dzialka
100
AcDbVertex
100
AcDb2dVertex
 10
7571765.70000000019
 20
5714959.01999999955
  0
VERTEX
  5
3F7
100
AcDbEntity
  8
dzialka
100
AcDbVertex
100
AcDb2dVertex
 10
7571792.08000000007
 20
5714949.20999999996
  0
VERTEX
  5
3F8
100
AcDbEntity
  8
dzialka
100
AcDbVertex
100
AcDb2dVertex
 10
7571817.46999999974
 20
5714939.37000000011
  0
VERTEX
  5
3F9
100
AcDbEntity
  8
dzialka
100
AcDbVertex
100
AcDb2dVertex
 10
7571831.01999999955
 20
5714933.41999999993
  0
VERTEX
  5
3FA
100
AcDbEntity
  8
dzialka
100
AcDbVertex
100
AcDb2dVertex
 10
7571844.5700000003
 20
5714927.48000000045
  0
VERTEX
  5
3FB
100
AcDbEntity
  8
dzialka
100
AcDbVertex
100
AcDb2dVertex
 10
7571858.83999999985
 20
5714921.21999999974
  0
VERTEX
  5
3FC
100
AcDbEntity
  8
dzialka
100
AcDbVertex
100
AcDb2dVertex
 10
7571871.23000000045
 20
5714915.78000000026
  0
VERTEX
  5
3FD
100
AcDbEntity
  8
dzialka
100
AcDbVertex
100
AcDb2dVertex
 10
7571896.99000000022
 20
5714903.11000000034
  0
VERTEX
  5
3FE
100
AcDbEntity
  8
dzialka
100
AcDbVertex
100
AcDb2dVertex
 10
7571910.29000000004
 20
5714896.25
  0
VERTEX
  5
3FF
100
AcDbEntity
  8
dzialka
100
AcDbVertex
100
AcDb2dVertex
 10
7571923.58000000007
 20
5714889.38999999966
  0
VERTEX
  5
400
100
AcDbEntity
  8
dzialka
100
AcDbVertex
100
AcDb2dVertex
 10
7571930.45999999996
 20
5714885.76999999955
  0
VERTEX
  5
401
100
AcDbEntity
  8
dzialka
100
AcDbVertex
100
AcDb2dVertex
 10
7571937.23000000045
 20
5714881.75999999978
  0
VERTEX
  5
402
100
AcDbEntity
  8
dzialka
100
AcDbVertex
100
AcDb2dVertex
 10
7571944.00999999978
 20
5714877.75
  0
VERTEX
  5
403
100
AcDbEntity
  8
dzialka
100
AcDbVertex
100
AcDb2dVertex
 10
7571950.79999999981
 20
5714873.71999999974
  0
VERTEX
  5
404
100
AcDbEntity
  8
dzialka
100
AcDbVertex
100
AcDb2dVertex
 10
7571968.66000000015
 20
5714862.58000000007
  0
VERTEX
  5
405
100
AcDbEntity
  8
dzialka
100
AcDbVertex
100
AcDb2dVertex
 10
7571977.95000000019
 20
5714856.78000000026
  0
VERTEX
  5
406
100
AcDbEntity
  8
dzialka
100
AcDbVertex
100
AcDb2dVertex
 10
7571995.66999999992
 20
5714844.44000000041
  0
VERTEX
  5
407
100
AcDbEntity
  8
dzialka
100
AcDbVertex
100
AcDb2dVertex
 10
7572003.41000000015
 20
5714837.51999999955
  0
VERTEX
  5
408
100
AcDbEntity
  8
dzialka
100
AcDbVertex
100
AcDb2dVertex
 10
7572007.95000000019
 20
5714833.45999999996
  0
VERTEX
  5
409
100
AcDbEntity
  8
dzialka
100
AcDbVertex
100
AcDb2dVertex
 10
7572026.5700000003
 20
5714813.34999999963
  0
VERTEX
  5
40A
100
AcDbEntity
  8
dzialka
100
AcDbVertex
100
AcDb2dVertex
 10
7572023.33000000007
 20
5714801.79999999981
  0
VERTEX
  5
40B
100
AcDbEntity
  8
dzialka
100
AcDbVertex
100
AcDb2dVertex
 10
7572011.28000000026
 20
5714816.15000000037
  0
VERTEX
  5
40C
100
AcDbEntity
  8
dzialka
100
AcDbVertex
100
AcDb2dVertex
 10
7572000.98000000045
 20
5714828.40000000037
  0
VERTEX
  5
40D
100
AcDbEntity
  8
dzialka
100
AcDbVertex
100
AcDb2dVertex
 10
7571984.33999999985
 20
5714841.08000000007
  0
VERTEX
  5
40E
100
AcDbEntity
  8
dzialka
100
AcDbVertex
100
AcDb2dVertex
 10
7571976.00999999978
 20
5714846.6799999997
  0
VERTEX
  5
40F
100
AcDbEntity
  8
dzialka
100
AcDbVertex
100
AcDb2dVertex
 10
7571948.51999999955
 20
5714864.87000000011
  0
VERTEX
  5
410
100
AcDbEntity
  8
dzialka
100
AcDbVertex
100
AcDb2dVertex
 10
7571942.29999999981
 20
5714868.91999999993
  0
VERTEX
  5
411
100
AcDbEntity
  8
dzialka
100
AcDbVertex
100
AcDb2dVertex
 10
7571928.44000000041
 20
5714877.95000000019
  0
VERTEX
  5
412
100
AcDbEntity
  8
dzialka
100
AcDbVertex
100
AcDb2dVertex
 10
7571921.62000000011
 20
5714881.79999999981
  0
VERTEX
  5
413
100
AcDbEntity
  8
dzialka
100
AcDbVertex
100
AcDb2dVertex
 10
7571908.40000000037
 20
5714888.96999999974
  0
VERTEX
  5
414
100
AcDbEntity
  8
dzialka
100
AcDbVertex
100
AcDb2dVertex
 10
7571895.19000000041
 20
5714896.12999999989
  0
VERTEX
  5
415
100
AcDbEntity
  8
dzialka
100
AcDbVertex
100
AcDb2dVertex
 10
7571869.37000000011
 20
5714908.5700000003
  0
VERTEX
  5
416
100
AcDbEntity
  8
dzialka
100
AcDbVertex
100
AcDb2dVertex
 10
7571857.09999999963
 20
5714914.45999999996
  0
VERTEX
  5
417
100
AcDbEntity
  8
dzialka
100
AcDbVertex
100
AcDb2dVertex
 10
7571842.95999999996
 20
5714921.24000000022
  0
VERTEX
  5
418
100
AcDbEntity
  8
dzialka
100
AcDbVertex
100
AcDb2dVertex
 10
7571829.36000000034
 20
5714927.03000000026
  0
VERTEX
  5
419
100
AcDbEntity
  8
dzialka
100
AcDbVertex
100
AcDb2dVertex
 10
7571815.74000000022
 20
5714932.8200000003
  0
VERTEX
  5
41A
100
AcDbEntity
  8
dzialka
100
AcDbVertex
100
AcDb2dVertex
 10
7571790.40000000037
 20
5714942.71999999974
  0
VERTEX
  5
41B
100
AcDbEntity
  8
dzialka
100
AcDbVertex
100
AcDb2dVertex
 10
7571764.15000000037
 20
5714952.95999999996
  0
VERTEX
  5
41C
100
AcDbEntity
  8
dzialka
100
AcDbVertex
100
AcDb2dVertex
 10
7571750.95000000019
 20
5714956.41000000015
  0
VERTEX
  5
41D
100
AcDbEntity
  8
dzialka
100
AcDbVertex
100
AcDb2dVertex
 10
7571737.79999999981
 20
5714959.84999999963
  0
VERTEX
  5
41E
100
AcDbEntity
  8
dzialka
100
AcDbVertex
100
AcDb2dVertex
 10
7571696.99000000022
 20
5714965.30999999959
  0
VERTEX
  5
41F
100
AcDbEntity
  8
dzialka
100
AcDbVertex
100
AcDb2dVertex
 10
7571682.94000000041
 20
5714967.19000000041
  0
VERTEX
  5
420
100
AcDbEntity
  8
dzialka
100
AcDbVertex
100
AcDb2dVertex
 10
7571661.75
 20
5714968.63999999966
  0
VERTEX
  5
421
100
AcDbEntity
  8
dzialka
100
AcDbVertex
100
AcDb2dVertex
 10
7571648.45000000019
 20
5714969.54999999981
  0
VERTEX
  5
422
100
AcDbEntity
  8
dzialka
100
AcDbVertex
100
AcDb2dVertex
 10
7571641.0
 20
5714970.05999999959
  0
VERTEX
  5
423
100
AcDbEntity
  8
dzialka
100
AcDbVertex
100
AcDb2dVertex
 10
7571637.9299999997
 20
5714970.33000000007
  0
VERTEX
  5
424
100
AcDbEntity
  8
dzialka
100
AcDbVertex
100
AcDb2dVertex
 10
7571629.01999999955
 20
5714971.11000000034
  0
VERTEX
  5
425
100
AcDbEntity
  8
dzialka
100
AcDbVertex
100
AcDb2dVertex
 10
7571625.4299999997
 20
5714971.4299999997
  0
VERTEX
  5
426
100
AcDbEntity
  8
dzialka
100
AcDbVertex
100
AcDb2dVertex
 10
7571617.48000000045
 20
5714972.12999999989
  0
VERTEX
  5
427
100
AcDbEntity
  8
dzialka
100
AcDbVertex
100
AcDb2dVertex
 10
7571611.45999999996
 20
5714972.66000000015
  0
VERTEX
  5
428
100
AcDbEntity
  8
dzialka
100
AcDbVertex
100
AcDb2dVertex
 10
7571605.33999999985
 20
5714973.20000000019
  0
VERTEX
  5
429
100
AcDbEntity
  8
dzialka
100
AcDbVertex
100
AcDb2dVertex
 10
7571599.21999999974
 20
5714973.73000000045
  0
VERTEX
  5
42A
100
AcDbEntity
  8
dzialka
100
AcDbVertex
100
AcDb2dVertex
 10
7571585.30999999959
 20
5714974.95999999996
  0
VERTEX
  5
42B
100
AcDbEntity
  8
dzialka
100
AcDbVertex
100
AcDb2dVertex
 10
7571578.53000000026
 20
5714975.54999999981
  0
VERTEX
  5
42C
100
AcDbEntity
  8
dzialka
100
AcDbVertex
100
AcDb2dVertex
 10
7571566.66000000015
 20
5714976.59999999963
  0
VERTEX
  5
42D
100
AcDbEntity
  8
dzialka
100
AcDbVertex
100
AcDb2dVertex
 10
7571560.04999999981
 20
5714977.1799999997
  0
VERTEX
  5
42E
100
AcDbEntity
  8
dzialka
100
AcDbVertex
100
AcDb2dVertex
 10
7571532.73000000045
 20
5714979.58000000007
  0
VERTEX
  5
42F
100
AcDbEntity
  8
dzialka
100
AcDbVertex
100
AcDb2dVertex
 10
7571512.03000000026
 20
5714981.40000000037
  0
VERTEX
  5
430
100
AcDbEntity
  8
dzialka
100
AcDbVertex
100
AcDb2dVertex
 10
7571499.96999999974
 20
5714982.45999999996
  0
VERTEX
  5
431
100
AcDbEntity
  8
dzialka
100
AcDbVertex
100
AcDb2dVertex
 10
7571487.0
 20
5714983.59999999963
  0
VERTEX
  5
432
100
AcDbEntity
  8
dzialka
100
AcDbVertex
100
AcDb2dVertex
 10
7571475.98000000045
 20
5714984.5700000003
  0
SEQEND
  5
433
100
AcDbEntity
  8
dzialka
  0
POLYLINE
  5
434
100
AcDbEntity
  8
dzialka
  6
CONTINUOUS
370
18
100
AcDb2dPolyline
 66
1
 70
129
  0
VERTEX
  5
435
100
AcDbEntity
  8
dzialka
100
AcDbVertex
100
AcDb2dVertex
 10
7571455.25999999978
 20
5714855.58999999985
  0
VERTEX
  5
436
100
AcDbEntity
  8
dzialka
100
AcDbVertex
100
AcDb2dVertex
 10
7571468.13999999966
 20
5714894.91999999993
  0
VERTEX
  5
437
100
AcDbEntity
  8
dzialka
100
AcDbVertex
100
AcDb2dVertex
 10
7571472.79999999981
 20
5714899.49000000022
  0
VERTEX
  5
438
100
AcDbEntity
  8
dzialka
100
AcDbVertex
100
AcDb2dVertex
 10
7571486.79999999981
 20
5714913.24000000022
  0
VERTEX
  5
439
100
AcDbEntity
  8
dzialka
100
AcDbVertex
100
AcDb2dVertex
 10
7571490.1799999997
 20
5714915.41999999993
  0
VERTEX
  5
43A
100
AcDbEntity
  8
dzialka
100
AcDbVertex
100
AcDb2dVertex
 10
7571504.45999999996
 20
5714924.61000000034
  0
VERTEX
  5
43B
100
AcDbEntity
  8
dzialka
100
AcDbVertex
100
AcDb2dVertex
 10
7571515.41999999993
 20
5714927.44000000041
  0
VERTEX
  5
43C
100
AcDbEntity
  8
dzialka
100
AcDbVertex
100
AcDb2dVertex
 10
7571516.91000000015
 20
5714927.8200000003
  0
VERTEX
  5
43D
100
AcDbEntity
  8
dzialka
100
AcDbVertex
100
AcDb2dVertex
 10
7571535.01999999955
 20
5714927.1799999997
  0
VERTEX
  5
43E
100
AcDbEntity
  8
dzialka
100
AcDbVertex
100
AcDb2dVertex
 10
7571542.78000000026
 20
5714924.86000000034
  0
VERTEX
  5
43F
100
AcDbEntity
  8
dzialka
100
AcDbVertex
100
AcDb2dVertex
 10
7571548.74000000022
 20
5714923.08000000007
  0
VERTEX
  5
440
100
AcDbEntity
  8
dzialka
100
AcDbVertex
100
AcDb2dVertex
 10
7571560.0700000003
 20
5714919.6799999997
  0
VERTEX
  5
441
100
AcDbEntity
  8
dzialka
100
AcDbVertex
100
AcDb2dVertex
 10
7571566.41999999993
 20
5714917.78000000026
  0
VERTEX
  5
442
100
AcDbEntity
  8
dzialka
100
AcDbVertex
100
AcDb2dVertex
 10
7571568.80999999959
 20
5714917.05999999959
  0
VERTEX
  5
443
100
AcDbEntity
  8
dzialka
100
AcDbVertex
100
AcDb2dVertex
 10
7571580.79999999981
 20
5714917.95000000019
  0
VERTEX
  5
444
100
AcDbEntity
  8
dzialka
100
AcDbVertex
100
AcDb2dVertex
 10
7571587.25999999978
 20
5714918.44000000041
  0
VERTEX
  5
445
100
AcDbEntity
  8
dzialka
100
AcDbVertex
100
AcDb2dVertex
 10
7571593.71999999974
 20
5714918.91999999993
  0
VERTEX
  5
446
100
AcDbEntity
  8
dzialka
100
AcDbVertex
100
AcDb2dVertex
 10
7571600.08000000007
 20
5714919.38999999966
  0
VERTEX
  5
447
100
AcDbEntity
  8
dzialka
100
AcDbVertex
100
AcDb2dVertex
 10
7571606.80999999959
 20
5714919.88999999966
  0
VERTEX
  5
448
100
AcDbEntity
  8
dzialka
100
AcDbVertex
100
AcDb2dVertex
 10
7571608.65000000037
 20
5714920.55999999959
  0
VERTEX
  5
449
100
AcDbEntity
  8
dzialka
100
AcDbVertex
100
AcDb2dVertex
 10
7571612.83999999985
 20
5714922.08000000007
  0
VERTEX
  5
44A
100
AcDbEntity
  8
dzialka
100
AcDbVertex
100
AcDb2dVertex
 10
7571623.25999999978
 20
5714925.87000000011
  0
VERTEX
  5
44B
100
AcDbEntity
  8
dzialka
100
AcDbVertex
100
AcDb2dVertex
 10
7571626.5700000003
 20
5714926.45999999996
  0
VERTEX
  5
44C
100
AcDbEntity
  8
dzialka
100
AcDbVertex
100
AcDb2dVertex
 10
7571637.83999999985
 20
5714925.04999999981
  0
VERTEX
  5
44D
100
AcDbEntity
  8
dzialka
100
AcDbVertex
100
AcDb2dVertex
 10
7571645.33000000008
 20
5714924.12000000011
  0
VERTEX
  5
44E
100
AcDbEntity
  8
dzialka
100
AcDbVertex
100
AcDb2dVertex
 10
7571648.54000000004
 20
5714922.25999999978
  0
VERTEX
  5
44F
100
AcDbEntity
  8
dzialka
100
AcDbVertex
100
AcDb2dVertex
 10
7571668.33000000007
 20
5714910.78000000026
  0
VERTEX
  5
450
100
AcDbEntity
  8
dzialka
100
AcDbVertex
100
AcDb2dVertex
 10
7571668.87999999989
 20
5714910.45999999996
  0
VERTEX
  5
451
100
AcDbEntity
  8
dzialka
100
AcDbVertex
100
AcDb2dVertex
 10
7571680.78000000026
 20
5714905.65000000037
  0
VERTEX
  5
452
100
AcDbEntity
  8
dzialka
100
AcDbVertex
100
AcDb2dVertex
 10
7571681.5
 20
5714905.55999999959
  0
VERTEX
  5
453
100
AcDbEntity
  8
dzialka
100
AcDbVertex
100
AcDb2dVertex
 10
7571701.75
 20
5714903.25999999978
  0
VERTEX
  5
454
100
AcDbEntity
  8
dzialka
100
AcDbVertex
100
AcDb2dVertex
 10
7571723.08000000007
 20
5714902.94000000041
  0
VERTEX
  5
455
100
AcDbEntity
  8
dzialka
100
AcDbVertex
100
AcDb2dVertex
 10
7571751.1799999997
 20
5714902.46999999974
  0
VERTEX
  5
456
100
AcDbEntity
  8
dzialka
100
AcDbVertex
100
AcDb2dVertex
 10
7571779.37999999989
 20
5714900.00999999978
  0
VERTEX
  5
457
100
AcDbEntity
  8
dzialka
100
AcDbVertex
100
AcDb2dVertex
 10
7571805.55999999959
 20
5714894.0700000003
  0
VERTEX
  5
458
100
AcDbEntity
  8
dzialka
100
AcDbVertex
100
AcDb2dVertex
 10
7571819.98000000045
 20
5714890.99000000022
  0
VERTEX
  5
459
100
AcDbEntity
  8
dzialka
100
AcDbVertex
100
AcDb2dVertex
 10
7571834.37000000011
 20
5714887.91000000015
  0
VERTEX
  5
45A
100
AcDbEntity
  8
dzialka
100
AcDbVertex
100
AcDb2dVertex
 10
7571849.44000000041
 20
5714884.69000000041
  0
VERTEX
  5
45B
100
AcDbEntity
  8
dzialka
100
AcDbVertex
100
AcDb2dVertex
 10
7571862.5
 20
5714881.91000000015
  0
VERTEX
  5
45C
100
AcDbEntity
  8
dzialka
100
AcDbVertex
100
AcDb2dVertex
 10
7571890.34999999963
 20
5714877.37999999989
  0
VERTEX
  5
45D
100
AcDbEntity
  8
dzialka
100
AcDbVertex
100
AcDb2dVertex
 10
7571904.80999999959
 20
5714875.01999999955
  0
VERTEX
  5
45E
100
AcDbEntity
  8
dzialka
100
AcDbVertex
100
AcDb2dVertex
 10
7571919.25999999978
 20
5714872.66999999993
  0
VERTEX
  5
45F
100
AcDbEntity
  8
dzialka
100
AcDbVertex
100
AcDb2dVertex
 10
7571942.29999999981
 20
5714868.91999999993
  0
VERTEX
  5
460
100
AcDbEntity
  8
dzialka
100
AcDbVertex
100
AcDb2dVertex
 10
7571948.51999999955
 20
5714864.87000000011
  0
VERTEX
  5
461
100
AcDbEntity
  8
dzialka
100
AcDbVertex
100
AcDb2dVertex
 10
7571941.0
 20
5714866.08999999985
  0
VERTEX
  5
462
100
AcDbEntity
  8
dzialka
100
AcDbVertex
100
AcDb2dVertex
 10
7571933.50999999978
 20
5714867.30999999959
  0
VERTEX
  5
463
100
AcDbEntity
  8
dzialka
100
AcDbVertex
100
AcDb2dVertex
 10
7571918.50999999978
 20
5714869.75
  0
VERTEX
  5
464
100
AcDbEntity
  8
dzialka
100
AcDbVertex
100
AcDb2dVertex
 10
7571904.04999999981
 20
5714872.11000000034
  0
VERTEX
  5
465
100
AcDbEntity
  8
dzialka
100
AcDbVertex
100
AcDb2dVertex
 10
7571889.59999999963
 20
5714874.45999999996
  0
VERTEX
  5
466
100
AcDbEntity
  8
dzialka
100
AcDbVertex
100
AcDb2dVertex
 10
7571861.75
 20
5714878.99000000022
  0
VERTEX
  5
467
100
AcDbEntity
  8
dzialka
100
AcDbVertex
100
AcDb2dVertex
 10
7571848.69000000041
 20
5714881.79000000004
  0
VERTEX
  5
468
100
AcDbEntity
  8
dzialka
100
AcDbVertex
100
AcDb2dVertex
 10
7571833.62000000011
 20
5714885.00999999978
  0
VERTEX
  5
469
100
AcDbEntity
  8
dzialka
100
AcDbVertex
100
AcDb2dVertex
 10
7571819.21999999974
 20
5714888.08999999985
  0
VERTEX
  5
46A
100
AcDbEntity
  8
dzialka
100
AcDbVertex
100
AcDb2dVertex
 10
7571804.79999999981
 20
5714891.16999999993
  0
VERTEX
  5
46B
100
AcDbEntity
  8
dzialka
100
AcDbVertex
100
AcDb2dVertex
 10
7571778.62999999989
 20
5714897.11000000034
  0
VERTEX
  5
46C
100
AcDbEntity
  8
dzialka
100
AcDbVertex
100
AcDb2dVertex
 10
7571750.41999999993
 20
5714899.53000000026
  0
VERTEX
  5
46D
100
AcDbEntity
  8
dzialka
100
AcDbVertex
100
AcDb2dVertex
 10
7571722.30999999959
 20
5714899.95000000019
  0
VERTEX
  5
46E
100
AcDbEntity
  8
dzialka
100
AcDbVertex
100
AcDb2dVertex
 10
7571701.55999999959
 20
5714900.25999999978
  0
VERTEX
  5
46F
100
AcDbEntity
  8
dzialka
100
AcDbVertex
100
AcDb2dVertex
 10
7571680.74000000022
 20
5714902.62999999989
  0
VERTEX
  5
470
100
AcDbEntity
  8
dzialka
100
AcDbVertex
100
AcDb2dVertex
 10
7571680.03000000026
 20
5714902.70999999996
  0
VERTEX
  5
471
100
AcDbEntity
  8
dzialka
100
AcDbVertex
100
AcDb2dVertex
 10
7571667.54999999981
 20
5714907.75999999978
  0
VERTEX
  5
472
100
AcDbEntity
  8
dzialka
100
AcDbVertex
100
AcDb2dVertex
 10
7571647.69000000041
 20
5714919.28000000026
  0
VERTEX
  5
473
100
AcDbEntity
  8
dzialka
100
AcDbVertex
100
AcDb2dVertex
 10
7571644.34999999963
 20
5714921.21999999974
  0
VERTEX
  5
474
100
AcDbEntity
  8
dzialka
100
AcDbVertex
100
AcDb2dVertex
 10
7571636.95000000019
 20
5714922.13999999966
  0
VERTEX
  5
475
100
AcDbEntity
  8
dzialka
100
AcDbVertex
100
AcDb2dVertex
 10
7571625.66000000015
 20
5714923.54999999981
  0
VERTEX
  5
476
100
AcDbEntity
  8
dzialka
100
AcDbVertex
100
AcDb2dVertex
 10
7571611.63999999966
 20
5714918.45000000019
  0
VERTEX
  5
477
100
AcDbEntity
  8
dzialka
100
AcDbVertex
100
AcDb2dVertex
 10
7571607.45000000019
 20
5714916.9299999997
  0
VERTEX
  5
478
100
AcDbEntity
  8
dzialka
100
AcDbVertex
100
AcDb2dVertex
 10
7571599.05999999959
 20
5714916.29999999981
  0
VERTEX
  5
479
100
AcDbEntity
  8
dzialka
100
AcDbVertex
100
AcDb2dVertex
 10
7571592.70000000019
 20
5714915.83000000007
  0
VERTEX
  5
47A
100
AcDbEntity
  8
dzialka
100
AcDbVertex
100
AcDb2dVertex
 10
7571586.24000000022
 20
5714915.34999999963
  0
VERTEX
  5
47B
100
AcDbEntity
  8
dzialka
100
AcDbVertex
100
AcDb2dVertex
 10
7571579.78000000026
 20
5714914.87000000011
  0
VERTEX
  5
47C
100
AcDbEntity
  8
dzialka
100
AcDbVertex
100
AcDb2dVertex
 10
7571568.48000000045
 20
5714914.03000000026
  0
VERTEX
  5
47D
100
AcDbEntity
  8
dzialka
100
AcDbVertex
100
AcDb2dVertex
 10
7571565.46999999974
 20
5714914.9299999997
  0
VERTEX
  5
47E
100
AcDbEntity
  8
dzialka
100
AcDbVertex
100
AcDb2dVertex
 10
7571559.12999999989
 20
5714916.83000000007
  0
VERTEX
  5
47F
100
AcDbEntity
  8
dzialka
100
AcDbVertex
100
AcDb2dVertex
 10
7571547.78000000026
 20
5714920.21999999974
  0
VERTEX
  5
480
100
AcDbEntity
  8
dzialka
100
AcDbVertex
100
AcDb2dVertex
 10
7571541.83000000007
 20
5714922.00999999978
  0
VERTEX
  5
481
100
AcDbEntity
  8
dzialka
100
AcDbVertex
100
AcDb2dVertex
 10
7571534.53000000026
 20
5714924.20000000019
  0
VERTEX
  5
482
100
AcDbEntity
  8
dzialka
100
AcDbVertex
100
AcDb2dVertex
 10
7571517.24000000022
 20
5714924.80999999959
  0
VERTEX
  5
483
100
AcDbEntity
  8
dzialka
100
AcDbVertex
100
AcDb2dVertex
 10
7571514.29999999981
 20
5714924.04999999981
  0
VERTEX
  5
484
100
AcDbEntity
  8
dzialka
100
AcDbVertex
100
AcDb2dVertex
 10
7571505.6799999997
 20
5714921.83000000007
  0
VERTEX
  5
485
100
AcDbEntity
  8
dzialka
100
AcDbVertex
100
AcDb2dVertex
 10
7571488.6799999997
 20
5714910.87999999989
  0
VERTEX
  5
486
100
AcDbEntity
  8
dzialka
100
AcDbVertex
100
AcDb2dVertex
 10
7571470.76999999955
 20
5714893.29000000004
  0
VERTEX
  5
487
100
AcDbEntity
  8
dzialka
100
AcDbVertex
100
AcDb2dVertex
 10
7571457.08000000007
 20
5714851.5
  0
SEQEND
  5
488
100
AcDbEntity
  8
dzialka
  0
POLYLINE
  5
489
100
AcDbEntity
  8
dzialka
  6
CONTINUOUS
370
18
100
AcDb2dPolyline
 66
1
 70
129
  0
VERTEX
  5
48A
100
AcDbEntity
  8
dzialka
100
AcDbVertex
100
AcDb2dVertex
 10
7571623.25999999978
 20
5714925.87000000011
  0
VERTEX
  5
48B
100
AcDbEntity
  8
dzialka
100
AcDbVertex
100
AcDb2dVertex
 10
7571637.9299999997
 20
5714970.33000000007
  0
VERTEX
  5
48C
100
AcDbEntity
  8
dzialka
100
AcDbVertex
100
AcDb2dVertex
 10
7571641.0
 20
5714970.05999999959
  0
VERTEX
  5
48D
100
AcDbEntity
  8
dzialka
100
AcDbVertex
100
AcDb2dVertex
 10
7571626.5700000003
 20
5714926.45999999996
  0
SEQEND
  5
48E
100
AcDbEntity
  8
dzialka
  0
POLYLINE
  5
48F
100
AcDbEntity
  8
dzialka
  6
CONTINUOUS
370
18
100
AcDb2dPolyline
 66
1
 70
129
  0
VERTEX
  5
490
100
AcDbEntity
  8
dzialka
100
AcDbVertex
100
AcDb2dVertex
 10
7571440.36000000034
 20
5714877.08999999985
  0
VERTEX
  5
491
100
AcDbEntity
  8
dzialka
100
AcDbVertex
100
AcDb2dVertex
 10
7571446.34999999963
 20
5714866.20999999996
  0
VERTEX
  5
492
100
AcDbEntity
  8
dzialka
100
AcDbVertex
100
AcDb2dVertex
 10
7571447.61000000034
 20
5714864.70999999996
  0
VERTEX
  5
493
100
AcDbEntity
  8
dzialka
100
AcDbVertex
100
AcDb2dVertex
 10
7571455.25999999978
 20
5714855.58999999985
  0
VERTEX
  5
494
100
AcDbEntity
  8
dzialka
100
AcDbVertex
100
AcDb2dVertex
 10
7571457.08000000007
 20
5714851.5
  0
VERTEX
  5
495
100
AcDbEntity
  8
dzialka
100
AcDbVertex
100
AcDb2dVertex
 10
7571460.87999999989
 20
5714841.33000000007
  0
VERTEX
  5
496
100
AcDbEntity
  8
dzialka
100
AcDbVertex
100
AcDb2dVertex
 10
7571466.28000000026
 20
5714826.94000000041
  0
VERTEX
  5
497
100
AcDbEntity
  8
dzialka
100
AcDbVertex
100
AcDb2dVertex
 10
7571470.12000000011
 20
5714812.5700000003
  0
VERTEX
  5
498
100
AcDbEntity
  8
dzialka
100
AcDbVertex
100
AcDb2dVertex
 10
7571471.86000000034
 20
5714800.88999999966
  0
VERTEX
  5
499
100
AcDbEntity
  8
dzialka
100
AcDbVertex
100
AcDb2dVertex
 10
7571474.01999999955
 20
5714792.6799999997
  0
VERTEX
  5
49A
100
AcDbEntity
  8
dzialka
100
AcDbVertex
100
AcDb2dVertex
 10
7571476.12999999989
 20
5714788.58999999985
  0
VERTEX
  5
49B
100
AcDbEntity
  8
dzialka
100
AcDbVertex
100
AcDb2dVertex
 10
7571477.75999999978
 20
5714785.41999999993
  0
VERTEX
  5
49C
100
AcDbEntity
  8
dzialka
100
AcDbVertex
100
AcDb2dVertex
 10
7571483.90000000037
 20
5714778.62000000011
  0
VERTEX
  5
49D
100
AcDbEntity
  8
dzialka
100
AcDbVertex
100
AcDb2dVertex
 10
7571489.25999999978
 20
5714774.25999999978
  0
VERTEX
  5
49E
100
AcDbEntity
  8
dzialka
100
AcDbVertex
100
AcDb2dVertex
 10
7571492.8200000003
 20
5714772.78000000026
  0
VERTEX
  5
49F
100
AcDbEntity
  8
dzialka
100
AcDbVertex
100
AcDb2dVertex
 10
7571496.29000000004
 20
5714771.33000000007
  0
VERTEX
  5
4A0
100
AcDbEntity
  8
dzialka
100
AcDbVertex
100
AcDb2dVertex
 10
7571502.6799999997
 20
5714769.19000000041
  0
VERTEX
  5
4A1
100
AcDbEntity
  8
dzialka
100
AcDbVertex
100
AcDb2dVertex
 10
7571521.91000000015
 20
5714762.75
  0
VERTEX
  5
4A2
100
AcDbEntity
  8
dzialka
100
AcDbVertex
100
AcDb2dVertex
 10
7571527.45999999996
 20
5714760.88999999966
  0
VERTEX
  5
4A3
100
AcDbEntity
  8
dzialka
100
AcDbVertex
100
AcDb2dVertex
 10
7571532.76999999955
 20
5714759.12000000011
  0
VERTEX
  5
4A4
100
AcDbEntity
  8
dzialka
100
AcDbVertex
100
AcDb2dVertex
 10
7571544.4299999997
 20
5714755.20999999996
  0
VERTEX
  5
4A5
100
AcDbEntity
  8
dzialka
100
AcDbVertex
100
AcDb2dVertex
 10
7571549.79000000004
 20
5714753.41999999993
  0
VERTEX
  5
4A6
100
AcDbEntity
  8
dzialka
100
AcDbVertex
100
AcDb2dVertex
 10
7571555.54999999981
 20
5714751.49000000022
  0
VERTEX
  5
4A7
100
AcDbEntity
  8
dzialka
100
AcDbVertex
100
AcDb2dVertex
 10
7571561.54999999981
 20
5714749.48000000045
  0
VERTEX
  5
4A8
100
AcDbEntity
  8
dzialka
100
AcDbVertex
100
AcDb2dVertex
 10
7571567.5700000003
 20
5714747.45999999996
  0
VERTEX
  5
4A9
100
AcDbEntity
  8
dzialka
100
AcDbVertex
100
AcDb2dVertex
 10
7571574.62999999989
 20
5714745.20000000019
  0
VERTEX
  5
4AA
100
AcDbEntity
  8
dzialka
100
AcDbVertex
100
AcDb2dVertex
 10
7571578.55999999959
 20
5714743.9299999997
  0
VERTEX
  5
4AB
100
AcDbEntity
  8
dzialka
100
AcDbVertex
100
AcDb2dVertex
 10
7571580.00999999978
 20
5714743.25999999978
  0
VERTEX
  5
4AC
100
AcDbEntity
  8
dzialka
100
AcDbVertex
100
AcDb2dVertex
 10
7571595.95999999996
 20
5714735.83000000007
  0
VERTEX
  5
4AD
100
AcDbEntity
  8
dzialka
100
AcDbVertex
100
AcDb2dVertex
 10
7571607.25999999978
 20
5714729.79999999981
  0
VERTEX
  5
4AE
100
AcDbEntity
  8
dzialka
100
AcDbVertex
100
AcDb2dVertex
 10
7571618.70999999996
 20
5714723.69000000041
  0
VERTEX
  5
4AF
100
AcDbEntity
  8
dzialka
100
AcDbVertex
100
AcDb2dVertex
 10
7571640.08000000007
 20
5714712.20999999996
  0
VERTEX
  5
4B0
100
AcDbEntity
  8
dzialka
100
AcDbVertex
100
AcDb2dVertex
 10
7571662.80999999959
 20
5714702.41000000015
  0
VERTEX
  5
4B1
100
AcDbEntity
  8
dzialka
100
AcDbVertex
100
AcDb2dVertex
 10
7571668.96999999974
 20
5714699.50999999978
  0
VERTEX
  5
4B2
100
AcDbEntity
  8
dzialka
100
AcDbVertex
100
AcDb2dVertex
 10
7571681.01999999955
 20
5714691.90000000037
  0
VERTEX
  5
4B3
100
AcDbEntity
  8
dzialka
100
AcDbVertex
100
AcDb2dVertex
 10
7571685.16999999992
 20
5714688.41000000015
  0
VERTEX
  5
4B4
100
AcDbEntity
  8
dzialka
100
AcDbVertex
100
AcDb2dVertex
 10
7571694.94000000041
 20
5714680.1799999997
  0
VERTEX
  5
4B5
100
AcDbEntity
  8
dzialka
100
AcDbVertex
100
AcDb2dVertex
 10
7571705.38999999966
 20
5714671.37999999989
  0
VERTEX
  5
4B6
100
AcDbEntity
  8
dzialka
100
AcDbVertex
100
AcDb2dVertex
 10
7571704.26999999955
 20
5714667.13999999966
  0
VERTEX
  5
4B7
100
AcDbEntity
  8
dzialka
100
AcDbVertex
100
AcDb2dVertex
 10
7571693.94000000041
 20
5714676.24000000022
  0
VERTEX
  5
4B8
100
AcDbEntity
  8
dzialka
100
AcDbVertex
100
AcDb2dVertex
 10
7571694.12000000011
 20
5714676.95000000019
  0
VERTEX
  5
4B9
100
AcDbEntity
  8
dzialka
100
AcDbVertex
100
AcDb2dVertex
 10
7571684.34999999963
 20
5714685.1799999997
  0
VERTEX
  5
4BA
100
AcDbEntity
  8
dzialka
100
AcDbVertex
100
AcDb2dVertex
 10
7571679.24000000022
 20
5714689.48000000045
  0
VERTEX
  5
4BB
100
AcDbEntity
  8
dzialka
100
AcDbVertex
100
AcDb2dVertex
 10
7571667.51999999955
 20
5714696.87000000011
  0
VERTEX
  5
4BC
100
AcDbEntity
  8
dzialka
100
AcDbVertex
100
AcDb2dVertex
 10
7571662.08000000007
 20
5714699.44000000041
  0
VERTEX
  5
4BD
100
AcDbEntity
  8
dzialka
100
AcDbVertex
100
AcDb2dVertex
 10
7571639.33999999985
 20
5714709.25999999978
  0
VERTEX
  5
4BE
100
AcDbEntity
  8
dzialka
100
AcDbVertex
100
AcDb2dVertex
 10
7571617.95999999996
 20
5714720.6799999997
  0
VERTEX
  5
4BF
100
AcDbEntity
  8
dzialka
100
AcDbVertex
100
AcDb2dVertex
 10
7571606.58000000007
 20
5714726.75999999978
  0
VERTEX
  5
4C0
100
AcDbEntity
  8
dzialka
100
AcDbVertex
100
AcDb2dVertex
 10
7571595.25
 20
5714732.80999999959
  0
VERTEX
  5
4C1
100
AcDbEntity
  8
dzialka
100
AcDbVertex
100
AcDb2dVertex
 10
7571579.05999999959
 20
5714740.38999999966
  0
VERTEX
  5
4C2
100
AcDbEntity
  8
dzialka
100
AcDbVertex
100
AcDb2dVertex
 10
7571577.45999999996
 20
5714741.13999999966
  0
VERTEX
  5
4C3
100
AcDbEntity
  8
dzialka
100
AcDbVertex
100
AcDb2dVertex
 10
7571572.13999999966
 20
5714742.83999999985
  0
VERTEX
  5
4C4
100
AcDbEntity
  8
dzialka
100
AcDbVertex
100
AcDb2dVertex
 10
7571566.62999999989
 20
5714744.61000000034
  0
VERTEX
  5
4C5
100
AcDbEntity
  8
dzialka
100
AcDbVertex
100
AcDb2dVertex
 10
7571560.61000000034
 20
5714746.62999999989
  0
VERTEX
  5
4C6
100
AcDbEntity
  8
dzialka
100
AcDbVertex
100
AcDb2dVertex
 10
7571554.61000000034
 20
5714748.63999999966
  0
VERTEX
  5
4C7
100
AcDbEntity
  8
dzialka
100
AcDbVertex
100
AcDb2dVertex
 10
7571543.5
 20
5714752.36000000034
  0
VERTEX
  5
4C8
100
AcDbEntity
  8
dzialka
100
AcDbVertex
100
AcDb2dVertex
 10
7571531.83000000007
 20
5714756.25999999978
  0
VERTEX
  5
4C9
100
AcDbEntity
  8
dzialka
100
AcDbVertex
100
AcDb2dVertex
 10
7571526.51999999955
 20
5714758.04000000004
  0
VERTEX
  5
4CA
100
AcDbEntity
  8
dzialka
100
AcDbVertex
100
AcDb2dVertex
 10
7571520.98000000045
 20
5714759.90000000037
  0
VERTEX
  5
4CB
100
AcDbEntity
  8
dzialka
100
AcDbVertex
100
AcDb2dVertex
 10
7571501.74000000022
 20
5714766.33999999985
  0
VERTEX
  5
4CC
100
AcDbEntity
  8
dzialka
100
AcDbVertex
100
AcDb2dVertex
 10
7571495.24000000022
 20
5714768.51999999955
  0
VERTEX
  5
4CD
100
AcDbEntity
  8
dzialka
100
AcDbVertex
100
AcDb2dVertex
 10
7571491.87999999989
 20
5714769.91999999993
  0
VERTEX
  5
4CE
100
AcDbEntity
  8
dzialka
100
AcDbVertex
100
AcDb2dVertex
 10
7571487.70999999996
 20
5714771.66000000015
  0
VERTEX
  5
4CF
100
AcDbEntity
  8
dzialka
100
AcDbVertex
100
AcDb2dVertex
 10
7571482.88999999966
 20
5714775.5700000003
  0
VERTEX
  5
4D0
100
AcDbEntity
  8
dzialka
100
AcDbVertex
100
AcDb2dVertex
 10
7571481.58000000007
 20
5714776.62999999989
  0
VERTEX
  5
4D1
100
AcDbEntity
  8
dzialka
100
AcDbVertex
100
AcDb2dVertex
 10
7571475.26999999955
 20
5714783.70999999996
  0
VERTEX
  5
4D2
100
AcDbEntity
  8
dzialka
100
AcDbVertex
100
AcDb2dVertex
 10
7571474.80999999959
 20
5714784.59999999963
  0
VERTEX
  5
4D3
100
AcDbEntity
  8
dzialka
100
AcDbVertex
100
AcDb2dVertex
 10
7571471.20000000019
 20
5714791.59999999963
  0
VERTEX
  5
4D4
100
AcDbEntity
  8
dzialka
100
AcDbVertex
100
AcDb2dVertex
 10
7571468.91999999993
 20
5714800.28000000026
  0
VERTEX
  5
4D5
100
AcDbEntity
  8
dzialka
100
AcDbVertex
100
AcDb2dVertex
 10
7571467.16999999993
 20
5714811.96999999974
  0
VERTEX
  5
4D6
100
AcDbEntity
  8
dzialka
100
AcDbVertex
100
AcDb2dVertex
 10
7571464.58000000007
 20
5714821.8200000003
  0
VERTEX
  5
4D7
100
AcDbEntity
  8
dzialka
100
AcDbVertex
100
AcDb2dVertex
 10
7571463.62000000011
 20
5714825.49000000022
  0
VERTEX
  5
4D8
100
AcDbEntity
  8
dzialka
100
AcDbVertex
100
AcDb2dVertex
 10
7571459.37999999989
 20
5714836.79999999981
  0
VERTEX
  5
4D9
100
AcDbEntity
  8
dzialka
100
AcDbVertex
100
AcDb2dVertex
 10
7571453.15000000037
 20
5714853.4299999997
  0
VERTEX
  5
4DA
100
AcDbEntity
  8
dzialka
100
AcDbVertex
100
AcDb2dVertex
 10
7571447.45000000019
 20
5714860.24000000022
  0
VERTEX
  5
4DB
100
AcDbEntity
  8
dzialka
100
AcDbVertex
100
AcDb2dVertex
 10
7571443.84999999963
 20
5714864.53000000026
  0
VERTEX
  5
4DC
100
AcDbEntity
  8
dzialka
100
AcDbVertex
100
AcDb2dVertex
 10
7571434.25999999978
 20
5714882.74000000022
  0
VERTEX
  5
4DD
100
AcDbEntity
  8
dzialka
100
AcDbVertex
100
AcDb2dVertex
 10
7571434.62999999989
 20
5714883.84999999963
  0
SEQEND
  5
4DE
100
AcDbEntity
  8
dzialka
  0
POLYLINE
  5
4DF
100
AcDbEntity
  8
dzialka
  6
CONTINUOUS
370
18
100
AcDb2dPolyline
 66
1
 70
129
  0
VERTEX
  5
4E0
100
AcDbEntity
  8
dzialka
100
AcDbVertex
100
AcDb2dVertex
 10
7571868.12999999989
 20
5715132.15000000037
  0
VERTEX
  5
4E1
100
AcDbEntity
  8
dzialka
100
AcDbVertex
100
AcDb2dVertex
 10
7571858.69000000041
 20
5715134.54000000004
  0
VERTEX
  5
4E2
100
AcDbEntity
  8
dzialka
100
AcDbVertex
100
AcDb2dVertex
 10
7571874.75
 20
5715201.84999999963
  0
VERTEX
  5
4E3
100
AcDbEntity
  8
dzialka
100
AcDbVertex
100
AcDb2dVertex
 10
7571880.90000000037
 20
5715229.73000000045
  0
VERTEX
  5
4E4
100
AcDbEntity
  8
dzialka
100
AcDbVertex
100
AcDb2dVertex
 10
7571893.05999999959
 20
5715284.84999999963
  0
VERTEX
  5
4E5
100
AcDbEntity
  8
dzialka
100
AcDbVertex
100
AcDb2dVertex
 10
7571917.45999999996
 20
5715275.34999999963
  0
VERTEX
  5
4E6
100
AcDbEntity
  8
dzialka
100
AcDbVertex
100
AcDb2dVertex
 10
7571941.33000000007
 20
5715271.91999999993
  0
VERTEX
  5
4E7
100
AcDbEntity
  8
dzialka
100
AcDbVertex
100
AcDb2dVertex
 10
7571955.71999999974
 20
5715273.90000000037
  0
VERTEX
  5
4E8
100
AcDbEntity
  8
dzialka
100
AcDbVertex
100
AcDb2dVertex
 10
7571980.83999999985
 20
5715270.29000000004
  0
VERTEX
  5
4E9
100
AcDbEntity
  8
dzialka
100
AcDbVertex
100
AcDb2dVertex
 10
7571998.75999999978
 20
5715267.71999999974
  0
VERTEX
  5
4EA
100
AcDbEntity
  8
dzialka
100
AcDbVertex
100
AcDb2dVertex
 10
7571958.05999999959
 20
5715109.38999999966
  0
VERTEX
  5
4EB
100
AcDbEntity
  8
dzialka
100
AcDbVertex
100
AcDb2dVertex
 10
7571950.66999999993
 20
5715111.25999999978
  0
VERTEX
  5
4EC
100
AcDbEntity
  8
dzialka
100
AcDbVertex
100
AcDb2dVertex
 10
7571923.33000000007
 20
5715118.1799999997
  0
VERTEX
  5
4ED
100
AcDbEntity
  8
dzialka
100
AcDbVertex
100
AcDb2dVertex
 10
7571910.38999999966
 20
5715121.45999999996
  0
VERTEX
  5
4EE
100
AcDbEntity
  8
dzialka
100
AcDbVertex
100
AcDb2dVertex
 10
7571895.50999999978
 20
5715125.21999999974
  0
VERTEX
  5
4EF
100
AcDbEntity
  8
dzialka
100
AcDbVertex
100
AcDb2dVertex
 10
7571881.83999999985
 20
5715128.6799999997
  0
SEQEND
  5
4F0
100
AcDbEntity
  8
dzialka
  0
POLYLINE
  5
4F1
100
AcDbEntity
  8
dzialka
  6
CONTINUOUS
370
18
100
AcDb2dPolyline
 66
1
 70
129
  0
VERTEX
  5
4F2
100
AcDbEntity
  8
dzialka
100
AcDbVertex
100
AcDb2dVertex
 10
7571241.55999999959
 20
5715103.6799999997
  0
VERTEX
  5
4F3
100
AcDbEntity
  8
dzialka
100
AcDbVertex
100
AcDb2dVertex
 10
7571228.51999999955
 20
5715109.62999999989
  0
VERTEX
  5
4F4
100
AcDbEntity
  8
dzialka
100
AcDbVertex
100
AcDb2dVertex
 10
7571225.21999999974
 20
5715111.13999999966
  0
VERTEX
  5
4F5
100
AcDbEntity
  8
dzialka
100
AcDbVertex
100
AcDb2dVertex
 10
7571228.91000000015
 20
5715130.9299999997
  0
VERTEX
  5
4F6
100
AcDbEntity
  8
dzialka
100
AcDbVertex
100
AcDb2dVertex
 10
7571232.73000000045
 20
5715151.45999999996
  0
VERTEX
  5
4F7
100
AcDbEntity
  8
dzialka
100
AcDbVertex
100
AcDb2dVertex
 10
7571237.24000000022
 20
5715175.62999999989
  0
VERTEX
  5
4F8
100
AcDbEntity
  8
dzialka
100
AcDbVertex
100
AcDb2dVertex
 10
7571317.45000000019
 20
5715167.15000000037
  0
VERTEX
  5
4F9
100
AcDbEntity
  8
dzialka
100
AcDbVertex
100
AcDb2dVertex
 10
7571372.53000000026
 20
5715161.76999999955
  0
VERTEX
  5
4FA
100
AcDbEntity
  8
dzialka
100
AcDbVertex
100
AcDb2dVertex
 10
7571405.87999999989
 20
5715169.78000000026
  0
VERTEX
  5
4FB
100
AcDbEntity
  8
dzialka
100
AcDbVertex
100
AcDb2dVertex
 10
7571431.69000000041
 20
5715188.11000000034
  0
VERTEX
  5
4FC
100
AcDbEntity
  8
dzialka
100
AcDbVertex
100
AcDb2dVertex
 10
7571457.4299999997
 20
5715214.78000000026
  0
VERTEX
  5
4FD
100
AcDbEntity
  8
dzialka
100
AcDbVertex
100
AcDb2dVertex
 10
7571474.25
 20
5715242.84999999963
  0
VERTEX
  5
4FE
100
AcDbEntity
  8
dzialka
100
AcDbVertex
100
AcDb2dVertex
 10
7571484.84999999963
 20
5715271.05999999959
  0
VERTEX
  5
4FF
100
AcDbEntity
  8
dzialka
100
AcDbVertex
100
AcDb2dVertex
 10
7571522.99000000022
 20
5715260.04000000004
  0
VERTEX
  5
500
100
AcDbEntity
  8
dzialka
100
AcDbVertex
100
AcDb2dVertex
 10
7571556.11000000034
 20
5715250.54000000004
  0
VERTEX
  5
501
100
AcDbEntity
  8
dzialka
100
AcDbVertex
100
AcDb2dVertex
 10
7571515.44000000041
 20
5715127.75999999978
  0
VERTEX
  5
502
100
AcDbEntity
  8
dzialka
100
AcDbVertex
100
AcDb2dVertex
 10
7571487.75
 20
5715100.23000000045
  0
VERTEX
  5
503
100
AcDbEntity
  8
dzialka
100
AcDbVertex
100
AcDb2dVertex
 10
7571467.25
 20
5715087.75
  0
VERTEX
  5
504
100
AcDbEntity
  8
dzialka
100
AcDbVertex
100
AcDb2dVertex
 10
7571444.78000000026
 20
5715079.0
  0
VERTEX
  5
505
100
AcDbEntity
  8
dzialka
100
AcDbVertex
100
AcDb2dVertex
 10
7571431.48000000045
 20
5715078.04999999981
  0
VERTEX
  5
506
100
AcDbEntity
  8
dzialka
100
AcDbVertex
100
AcDb2dVertex
 10
7571413.19000000041
 20
5715075.76999999955
  0
VERTEX
  5
507
100
AcDbEntity
  8
dzialka
100
AcDbVertex
100
AcDb2dVertex
 10
7571405.79000000004
 20
5715075.84999999963
  0
VERTEX
  5
508
100
AcDbEntity
  8
dzialka
100
AcDbVertex
100
AcDb2dVertex
 10
7571403.03000000026
 20
5715075.87999999989
  0
VERTEX
  5
509
100
AcDbEntity
  8
dzialka
100
AcDbVertex
100
AcDb2dVertex
 10
7571398.38999999966
 20
5715075.96999999974
  0
VERTEX
  5
50A
100
AcDbEntity
  8
dzialka
100
AcDbVertex
100
AcDb2dVertex
 10
7571392.95999999996
 20
5715076.05999999959
  0
VERTEX
  5
50B
100
AcDbEntity
  8
dzialka
100
AcDbVertex
100
AcDb2dVertex
 10
7571383.3200000003
 20
5715076.24000000022
  0
VERTEX
  5
50C
100
AcDbEntity
  8
dzialka
100
AcDbVertex
100
AcDb2dVertex
 10
7571371.78000000026
 20
5715076.45000000019
  0
VERTEX
  5
50D
100
AcDbEntity
  8
dzialka
100
AcDbVertex
100
AcDb2dVertex
 10
7571350.0700000003
 20
5715075.80999999959
  0
VERTEX
  5
50E
100
AcDbEntity
  8
dzialka
100
AcDbVertex
100
AcDb2dVertex
 10
7571335.12000000011
 20
5715076.12999999989
  0
VERTEX
  5
50F
100
AcDbEntity
  8
dzialka
100
AcDbVertex
100
AcDb2dVertex
 10
7571328.66999999993
 20
5715076.26999999955
  0
VERTEX
  5
510
100
AcDbEntity
  8
dzialka
100
AcDbVertex
100
AcDb2dVertex
 10
7571315.70999999996
 20
5715077.46999999974
  0
VERTEX
  5
511
100
AcDbEntity
  8
dzialka
100
AcDbVertex
100
AcDb2dVertex
 10
7571298.33999999985
 20
5715082.04999999981
  0
VERTEX
  5
512
100
AcDbEntity
  8
dzialka
100
AcDbVertex
100
AcDb2dVertex
 10
7571273.90000000037
 20
5715089.84999999963
  0
VERTEX
  5
513
100
AcDbEntity
  8
dzialka
100
AcDbVertex
100
AcDb2dVertex
 10
7571257.25
 20
5715096.96999999974
  0
SEQEND
  5
514
100
AcDbEntity
  8
dzialka
  0
POLYLINE
  5
515
100
AcDbEntity
  8
dzialka
  6
CONTINUOUS
370
18
100
AcDb2dPolyline
 66
1
 70
129
  0
VERTEX
  5
516
100
AcDbEntity
  8
dzialka
100
AcDbVertex
100
AcDb2dVertex
 10
7571226.96999999974
 20
5715044.12000000011
  0
VERTEX
  5
517
100
AcDbEntity
  8
dzialka
100
AcDbVertex
100
AcDb2dVertex
 10
7571238.58000000007
 20
5715040.33999999985
  0
VERTEX
  5
518
100
AcDbEntity
  8
dzialka
100
AcDbVertex
100
AcDb2dVertex
 10
7571255.87000000011
 20
5715034.70000000019
  0
VERTEX
  5
519
100
AcDbEntity
  8
dzialka
100
AcDbVertex
100
AcDb2dVertex
 10
7571280.37999999989
 20
5715026.70000000019
  0
VERTEX
  5
51A
100
AcDbEntity
  8
dzialka
100
AcDbVertex
100
AcDb2dVertex
 10
7571297.62000000011
 20
5715021.08000000007
  0
VERTEX
  5
51B
100
AcDbEntity
  8
dzialka
100
AcDbVertex
100
AcDb2dVertex
 10
7571315.0700000003
 20
5715015.38999999966
  0
VERTEX
  5
51C
100
AcDbEntity
  8
dzialka
100
AcDbVertex
100
AcDb2dVertex
 10
7571329.50999999978
 20
5715010.6799999997
  0
VERTEX
  5
51D
100
AcDbEntity
  8
dzialka
100
AcDbVertex
100
AcDb2dVertex
 10
7571346.91999999992
 20
5715005.0
  0
VERTEX
  5
51E
100
AcDbEntity
  8
dzialka
100
AcDbVertex
100
AcDb2dVertex
 10
7571356.54000000004
 20
5715001.86000000034
  0
VERTEX
  5
51F
100
AcDbEntity
  8
dzialka
100
AcDbVertex
100
AcDb2dVertex
 10
7571337.29000000004
 20
5715003.9299999997
  0
VERTEX
  5
520
100
AcDbEntity
  8
dzialka
100
AcDbVertex
100
AcDb2dVertex
 10
7571293.19000000041
 20
5715018.3200000003
  0
VERTEX
  5
521
100
AcDbEntity
  8
dzialka
100
AcDbVertex
100
AcDb2dVertex
 10
7571269.62999999989
 20
5715026.00999999978
  0
VERTEX
  5
522
100
AcDbEntity
  8
dzialka
100
AcDbVertex
100
AcDb2dVertex
 10
7571217.49000000022
 20
5715043.00999999978
  0
VERTEX
  5
523
100
AcDbEntity
  8
dzialka
100
AcDbVertex
100
AcDb2dVertex
 10
7571218.15000000037
 20
5715047.0
  0
SEQEND
  5
524
100
AcDbEntity
  8
dzialka
  0
POLYLINE
  5
525
100
AcDbEntity
  8
dzialka
  6
CONTINUOUS
370
18
100
AcDb2dPolyline
 66
1
 70
129
  0
VERTEX
  5
526
100
AcDbEntity
  8
dzialka
100
AcDbVertex
100
AcDb2dVertex
 10
7571368.05999999959
 20
5715000.83000000007
  0
VERTEX
  5
527
100
AcDbEntity
  8
dzialka
100
AcDbVertex
100
AcDb2dVertex
 10
7571372.88999999966
 20
5715000.4299999997
  0
VERTEX
  5
528
100
AcDbEntity
  8
dzialka
100
AcDbVertex
100
AcDb2dVertex
 10
7571380.26999999955
 20
5714999.79000000004
  0
VERTEX
  5
529
100
AcDbEntity
  8
dzialka
100
AcDbVertex
100
AcDb2dVertex
 10
7571387.63999999966
 20
5714999.16000000015
  0
VERTEX
  5
52A
100
AcDbEntity
  8
dzialka
100
AcDbVertex
100
AcDb2dVertex
 10
7571405.51999999955
 20
5714997.62000000011
  0
VERTEX
  5
52B
100
AcDbEntity
  8
dzialka
100
AcDbVertex
100
AcDb2dVertex
 10
7571417.91999999993
 20
5714996.54999999981
  0
VERTEX
  5
52C
100
AcDbEntity
  8
dzialka
100
AcDbVertex
100
AcDb2dVertex
 10
7571436.88999999966
 20
5714994.91999999993
  0
VERTEX
  5
52D
100
AcDbEntity
  8
dzialka
100
AcDbVertex
100
AcDb2dVertex
 10
7571453.50999999978
 20
5714993.49000000022
  0
VERTEX
  5
52E
100
AcDbEntity
  8
dzialka
100
AcDbVertex
100
AcDb2dVertex
 10
7571470.46999999974
 20
5714992.00999999978
  0
VERTEX
  5
52F
100
AcDbEntity
  8
dzialka
100
AcDbVertex
100
AcDb2dVertex
 10
7571468.23000000045
 20
5714985.25
  0
VERTEX
  5
530
100
AcDbEntity
  8
dzialka
100
AcDbVertex
100
AcDb2dVertex
 10
7571451.3200000003
 20
5714986.66000000015
  0
VERTEX
  5
531
100
AcDbEntity
  8
dzialka
100
AcDbVertex
100
AcDb2dVertex
 10
7571434.65000000037
 20
5714988.04999999981
  0
VERTEX
  5
532
100
AcDbEntity
  8
dzialka
100
AcDbVertex
100
AcDb2dVertex
 10
7571415.66000000015
 20
5714989.62000000011
  0
VERTEX
  5
533
100
AcDbEntity
  8
dzialka
100
AcDbVertex
100
AcDb2dVertex
 10
7571386.33000000007
 20
5714992.15000000037
  0
VERTEX
  5
534
100
AcDbEntity
  8
dzialka
100
AcDbVertex
100
AcDb2dVertex
 10
7571368.04999999981
 20
5714993.90000000037
  0
VERTEX
  5
535
100
AcDbEntity
  8
dzialka
100
AcDbVertex
100
AcDb2dVertex
 10
7571353.55999999959
 20
5714995.26999999955
  0
VERTEX
  5
536
100
AcDbEntity
  8
dzialka
100
AcDbVertex
100
AcDb2dVertex
 10
7571345.91000000015
 20
5714996.0
  0
VERTEX
  5
537
100
AcDbEntity
  8
dzialka
100
AcDbVertex
100
AcDb2dVertex
 10
7571339.99000000022
 20
5714996.55999999959
  0
VERTEX
  5
538
100
AcDbEntity
  8
dzialka
100
AcDbVertex
100
AcDb2dVertex
 10
7571332.63999999966
 20
5714997.26999999955
  0
VERTEX
  5
539
100
AcDbEntity
  8
dzialka
100
AcDbVertex
100
AcDb2dVertex
 10
7571326.51999999955
 20
5714997.84999999963
  0
VERTEX
  5
53A
100
AcDbEntity
  8
dzialka
100
AcDbVertex
100
AcDb2dVertex
 10
7571312.41000000015
 20
5714999.46999999974
  0
VERTEX
  5
53B
100
AcDbEntity
  8
dzialka
100
AcDbVertex
100
AcDb2dVertex
 10
7571288.0
 20
5715002.6799999997
  0
VERTEX
  5
53C
100
AcDbEntity
  8
dzialka
100
AcDbVertex
100
AcDb2dVertex
 10
7571269.09999999963
 20
5715005.16000000015
  0
VERTEX
  5
53D
100
AcDbEntity
  8
dzialka
100
AcDbVertex
100
AcDb2dVertex
 10
7571263.13999999966
 20
5715006.44000000041
  0
VERTEX
  5
53E
100
AcDbEntity
  8
dzialka
100
AcDbVertex
100
AcDb2dVertex
 10
7571252.65000000037
 20
5715008.6799999997
  0
VERTEX
  5
53F
100
AcDbEntity
  8
dzialka
100
AcDbVertex
100
AcDb2dVertex
 10
7571239.05999999959
 20
5715013.62000000011
  0
VERTEX
  5
540
100
AcDbEntity
  8
dzialka
100
AcDbVertex
100
AcDb2dVertex
 10
7571227.54000000004
 20
5715020.05999999959
  0
VERTEX
  5
541
100
AcDbEntity
  8
dzialka
100
AcDbVertex
100
AcDb2dVertex
 10
7571214.71999999974
 20
5715027.55999999959
  0
VERTEX
  5
542
100
AcDbEntity
  8
dzialka
100
AcDbVertex
100
AcDb2dVertex
 10
7571216.41999999992
 20
5715037.05999999959
  0
VERTEX
  5
543
100
AcDbEntity
  8
dzialka
100
AcDbVertex
100
AcDb2dVertex
 10
7571238.54000000004
 20
5715023.3200000003
  0
VERTEX
  5
544
100
AcDbEntity
  8
dzialka
100
AcDbVertex
100
AcDb2dVertex
 10
7571258.62999999989
 20
5715015.20000000019
  0
VERTEX
  5
545
100
AcDbEntity
  8
dzialka
100
AcDbVertex
100
AcDb2dVertex
 10
7571265.58000000007
 20
5715013.79000000004
  0
VERTEX
  5
546
100
AcDbEntity
  8
dzialka
100
AcDbVertex
100
AcDb2dVertex
 10
7571281.78000000026
 20
5715010.50999999978
  0
VERTEX
  5
547
100
AcDbEntity
  8
dzialka
100
AcDbVertex
100
AcDb2dVertex
 10
7571290.24000000022
 20
5715009.4299999997
  0
VERTEX
  5
548
100
AcDbEntity
  8
dzialka
100
AcDbVertex
100
AcDb2dVertex
 10
7571311.46999999974
 20
5715006.70999999996
  0
VERTEX
  5
549
100
AcDbEntity
  8
dzialka
100
AcDbVertex
100
AcDb2dVertex
 10
7571314.70000000019
 20
5715006.36000000034
  0
VERTEX
  5
54A
100
AcDbEntity
  8
dzialka
100
AcDbVertex
100
AcDb2dVertex
 10
7571337.29000000004
 20
5715003.9299999997
  0
VERTEX
  5
54B
100
AcDbEntity
  8
dzialka
100
AcDbVertex
100
AcDb2dVertex
 10
7571356.54000000004
 20
5715001.86000000034
  0
VERTEX
  5
54C
100
AcDbEntity
  8
dzialka
100
AcDbVertex
100
AcDb2dVertex
 10
7571357.53000000026
 20
5715001.75999999978
  0
SEQEND
  5
54D
100
AcDbEntity
  8
dzialka
  0
POLYLINE
  5
54E
100
AcDbEntity
  8
dzialka
  6
CONTINUOUS
370
18
100
AcDb2dPolyline
 66
1
 70
129
  0
VERTEX
  5
54F
100
AcDbEntity
  8
dzialka
100
AcDbVertex
100
AcDb2dVertex
 10
7571224.33000000007
 20
5714889.46999999974
  0
VERTEX
  5
550
100
AcDbEntity
  8
dzialka
100
AcDbVertex
100
AcDb2dVertex
 10
7571263.13999999966
 20
5715006.44000000041
  0
VERTEX
  5
551
100
AcDbEntity
  8
dzialka
100
AcDbVertex
100
AcDb2dVertex
 10
7571269.09999999963
 20
5715005.16000000015
  0
VERTEX
  5
552
100
AcDbEntity
  8
dzialka
100
AcDbVertex
100
AcDb2dVertex
 10
7571288.0
 20
5715002.6799999997
  0
VERTEX
  5
553
100
AcDbEntity
  8
dzialka
100
AcDbVertex
100
AcDb2dVertex
 10
7571248.13999999966
 20
5714882.51999999955
  0
SEQEND
  5
554
100
AcDbEntity
  8
dzialka
  0
POLYLINE
  5
555
100
AcDbEntity
  8
dzialka
  6
CONTINUOUS
370
18
100
AcDb2dPolyline
 66
1
 70
129
  0
VERTEX
  5
556
100
AcDbEntity
  8
dzialka
100
AcDbVertex
100
AcDb2dVertex
 10
7571196.8200000003
 20
5714606.54000000004
  0
VERTEX
  5
557
100
AcDbEntity
  8
dzialka
100
AcDbVertex
100
AcDb2dVertex
 10
7571183.50999999978
 20
5714610.88999999966
  0
VERTEX
  5
558
100
AcDbEntity
  8
dzialka
100
AcDbVertex
100
AcDb2dVertex
 10
7571312.41000000015
 20
5714999.46999999974
  0
VERTEX
  5
559
100
AcDbEntity
  8
dzialka
100
AcDbVertex
100
AcDb2dVertex
 10
7571326.51999999955
 20
5714997.84999999963
  0
SEQEND
  5
55A
100
AcDbEntity
  8
dzialka
  0
POLYLINE
  5
55B
100
AcDbEntity
  8
dzialka
  6
CONTINUOUS
370
18
100
AcDb2dPolyline
 66
1
 70
129
  0
VERTEX
  5
55C
100
AcDbEntity
  8
dzialka
100
AcDbVertex
100
AcDb2dVertex
 10
7571456.48000000045
 20
5714969.25999999978
  0
VERTEX
  5
55D
100
AcDbEntity
  8
dzialka
100
AcDbVertex
100
AcDb2dVertex
 10
7571462.20000000019
 20
5714967.40000000037
  0
VERTEX
  5
55E
100
AcDbEntity
  8
dzialka
100
AcDbVertex
100
AcDb2dVertex
 10
7571434.62999999989
 20
5714883.84999999963
  0
VERTEX
  5
55F
100
AcDbEntity
  8
dzialka
100
AcDbVertex
100
AcDb2dVertex
 10
7571434.25999999978
 20
5714882.74000000022
  0
VERTEX
  5
560
100
AcDbEntity
  8
dzialka
100
AcDbVertex
100
AcDb2dVertex
 10
7571326.48000000045
 20
5714557.90000000037
  0
VERTEX
  5
561
100
AcDbEntity
  8
dzialka
100
AcDbVertex
100
AcDb2dVertex
 10
7571313.79000000004
 20
5714562.04000000004
  0
VERTEX
  5
562
100
AcDbEntity
  8
dzialka
100
AcDbVertex
100
AcDb2dVertex
 10
7571303.80999999959
 20
5714565.29999999981
  0
VERTEX
  5
563
100
AcDbEntity
  8
dzialka
100
AcDbVertex
100
AcDb2dVertex
 10
7571292.40000000037
 20
5714569.03000000026
  0
VERTEX
  5
564
100
AcDbEntity
  8
dzialka
100
AcDbVertex
100
AcDb2dVertex
 10
7571195.74000000022
 20
5714600.58000000007
  0
VERTEX
  5
565
100
AcDbEntity
  8
dzialka
100
AcDbVertex
100
AcDb2dVertex
 10
7571159.41000000015
 20
5714612.45999999996
  0
VERTEX
  5
566
100
AcDbEntity
  8
dzialka
100
AcDbVertex
100
AcDb2dVertex
 10
7571117.58999999985
 20
5714626.11000000034
  0
VERTEX
  5
567
100
AcDbEntity
  8
dzialka
100
AcDbVertex
100
AcDb2dVertex
 10
7571111.88999999966
 20
5714627.96999999974
  0
VERTEX
  5
568
100
AcDbEntity
  8
dzialka
100
AcDbVertex
100
AcDb2dVertex
 10
7571113.49000000022
 20
5714633.75
  0
VERTEX
  5
569
100
AcDbEntity
  8
dzialka
100
AcDbVertex
100
AcDb2dVertex
 10
7571136.94000000041
 20
5714626.09999999963
  0
VERTEX
  5
56A
100
AcDbEntity
  8
dzialka
100
AcDbVertex
100
AcDb2dVertex
 10
7571160.50999999978
 20
5714618.40000000037
  0
VERTEX
  5
56B
100
AcDbEntity
  8
dzialka
100
AcDbVertex
100
AcDb2dVertex
 10
7571183.50999999978
 20
5714610.88999999966
  0
VERTEX
  5
56C
100
AcDbEntity
  8
dzialka
100
AcDbVertex
100
AcDb2dVertex
 10
7571196.8200000003
 20
5714606.54000000004
  0
VERTEX
  5
56D
100
AcDbEntity
  8
dzialka
100
AcDbVertex
100
AcDb2dVertex
 10
7571202.33000000007
 20
5714604.74000000022
  0
VERTEX
  5
56E
100
AcDbEntity
  8
dzialka
100
AcDbVertex
100
AcDb2dVertex
 10
7571209.36000000034
 20
5714602.45000000019
  0
VERTEX
  5
56F
100
AcDbEntity
  8
dzialka
100
AcDbVertex
100
AcDb2dVertex
 10
7571214.78000000026
 20
5714600.6799999997
  0
VERTEX
  5
570
100
AcDbEntity
  8
dzialka
100
AcDbVertex
100
AcDb2dVertex
 10
7571221.91000000015
 20
5714598.34999999963
  0
VERTEX
  5
571
100
AcDbEntity
  8
dzialka
100
AcDbVertex
100
AcDb2dVertex
 10
7571240.29999999981
 20
5714592.34999999963
  0
VERTEX
  5
572
100
AcDbEntity
  8
dzialka
100
AcDbVertex
100
AcDb2dVertex
 10
7571258.21999999974
 20
5714586.5
  0
VERTEX
  5
573
100
AcDbEntity
  8
dzialka
100
AcDbVertex
100
AcDb2dVertex
 10
7571279.12999999989
 20
5714579.66999999993
  0
VERTEX
  5
574
100
AcDbEntity
  8
dzialka
100
AcDbVertex
100
AcDb2dVertex
 10
7571305.41000000015
 20
5714571.08999999985
  0
VERTEX
  5
575
100
AcDbEntity
  8
dzialka
100
AcDbVertex
100
AcDb2dVertex
 10
7571325.5
 20
5714564.53000000026
  0
VERTEX
  5
576
100
AcDbEntity
  8
dzialka
100
AcDbVertex
100
AcDb2dVertex
 10
7571364.50999999978
 20
5714682.87999999989
  0
VERTEX
  5
577
100
AcDbEntity
  8
dzialka
100
AcDbVertex
100
AcDb2dVertex
 10
7571455.25999999978
 20
5714965.45999999996
  0
SEQEND
  5
578
100
AcDbEntity
  8
dzialka
  0
POLYLINE
  5
579
100
AcDbEntity
  8
dzialka
  6
CONTINUOUS
370
18
100
AcDb2dPolyline
 66
1
 70
129
  0
VERTEX
  5
57A
100
AcDbEntity
  8
dzialka
100
AcDbVertex
100
AcDb2dVertex
 10
7571288.0
 20
5715002.6799999997
  0
VERTEX
  5
57B
100
AcDbEntity
  8
dzialka
100
AcDbVertex
100
AcDb2dVertex
 10
7571312.41000000015
 20
5714999.46999999974
  0
VERTEX
  5
57C
100
AcDbEntity
  8
dzialka
100
AcDbVertex
100
AcDb2dVertex
 10
7571183.50999999978
 20
5714610.88999999966
  0
VERTEX
  5
57D
100
AcDbEntity
  8
dzialka
100
AcDbVertex
100
AcDb2dVertex
 10
7571160.50999999978
 20
5714618.40000000037
  0
VERTEX
  5
57E
100
AcDbEntity
  8
dzialka
100
AcDbVertex
100
AcDb2dVertex
 10
7571248.13999999966
 20
5714882.51999999955
  0
SEQEND
  5
57F
100
AcDbEntity
  8
dzialka
  0
POLYLINE
  5
580
100
AcDbEntity
  8
dzialka
  6
CONTINUOUS
370
18
100
AcDb2dPolyline
 66
1
 70
129
  0
VERTEX
  5
581
100
AcDbEntity
  8
dzialka
100
AcDbVertex
100
AcDb2dVertex
 10
7571329.50999999978
 20
5715010.6799999997
  0
VERTEX
  5
582
100
AcDbEntity
  8
dzialka
100
AcDbVertex
100
AcDb2dVertex
 10
7571350.0700000003
 20
5715075.80999999959
  0
VERTEX
  5
583
100
AcDbEntity
  8
dzialka
100
AcDbVertex
100
AcDb2dVertex
 10
7571371.78000000026
 20
5715076.45000000019
  0
VERTEX
  5
584
100
AcDbEntity
  8
dzialka
100
AcDbVertex
100
AcDb2dVertex
 10
7571367.95000000019
 20
5715065.44000000041
  0
VERTEX
  5
585
100
AcDbEntity
  8
dzialka
100
AcDbVertex
100
AcDb2dVertex
 10
7571346.91999999992
 20
5715005.0
  0
SEQEND
  5
586
100
AcDbEntity
  8
dzialka
  0
POLYLINE
  5
587
100
AcDbEntity
  8
dzialka
  6
CONTINUOUS
370
18
100
AcDb2dPolyline
 66
1
 70
129
  0
VERTEX
  5
588
100
AcDbEntity
  8
dzialka
100
AcDbVertex
100
AcDb2dVertex
 10
7571368.05999999959
 20
5715000.83000000007
  0
VERTEX
  5
589
100
AcDbEntity
  8
dzialka
100
AcDbVertex
100
AcDb2dVertex
 10
7571357.53000000026
 20
5715001.75999999978
  0
VERTEX
  5
58A
100
AcDbEntity
  8
dzialka
100
AcDbVertex
100
AcDb2dVertex
 10
7571379.29999999981
 20
5715064.62999999989
  0
VERTEX
  5
58B
100
AcDbEntity
  8
dzialka
100
AcDbVertex
100
AcDb2dVertex
 10
7571383.3200000003
 20
5715076.24000000022
  0
VERTEX
  5
58C
100
AcDbEntity
  8
dzialka
100
AcDbVertex
100
AcDb2dVertex
 10
7571392.95999999996
 20
5715076.05999999959
  0
SEQEND
  5
58D
100
AcDbEntity
  8
dzialka
  0
POLYLINE
  5
58E
100
AcDbEntity
  8
dzialka
  6
CONTINUOUS
370
18
100
AcDb2dPolyline
 66
1
 70
129
  0
VERTEX
  5
58F
100
AcDbEntity
  8
dzialka
100
AcDbVertex
100
AcDb2dVertex
 10
7571371.78000000026
 20
5715076.45000000019
  0
VERTEX
  5
590
100
AcDbEntity
  8
dzialka
100
AcDbVertex
100
AcDb2dVertex
 10
7571383.3200000003
 20
5715076.24000000022
  0
VERTEX
  5
591
100
AcDbEntity
  8
dzialka
100
AcDbVertex
100
AcDb2dVertex
 10
7571379.29999999981
 20
5715064.62999999989
  0
VERTEX
  5
592
100
AcDbEntity
  8
dzialka
100
AcDbVertex
100
AcDb2dVertex
 10
7571357.53000000026
 20
5715001.75999999978
  0
VERTEX
  5
593
100
AcDbEntity
  8
dzialka
100
AcDbVertex
100
AcDb2dVertex
 10
7571356.54000000004
 20
5715001.86000000034
  0
VERTEX
  5
594
100
AcDbEntity
  8
dzialka
100
AcDbVertex
100
AcDb2dVertex
 10
7571346.91999999992
 20
5715005.0
  0
VERTEX
  5
595
100
AcDbEntity
  8
dzialka
100
AcDbVertex
100
AcDb2dVertex
 10
7571367.95000000019
 20
5715065.44000000041
  0
SEQEND
  5
596
100
AcDbEntity
  8
dzialka
  0
MTEXT
  5
597
100
AcDbEntity
  8
dzialka
370
25
100
AcDbMText
 10
7571277.10500000045
 20
5715058.27500000037
 40
1.2500
 41
0.0
 71
5
 72
1
  1
\W0.6563x;81
  7
STANDARD
 11
1.00000000
 21
0.00000000
 44
0.90
 90
3
 63
0
 45
1.0
  0
MTEXT
  5
598
100
AcDbEntity
  8
dzialka
370
25
100
AcDbMText
 10
7571298.04499999993
 20
5715051.56499999948
 40
1.2500
 41
0.0
 71
5
 72
1
  1
\W0.6563x;82/1
  7
STANDARD
 11
1.00000000
 21
0.00000000
 44
0.90
 90
3
 63
0
 45
1.0
  0
MTEXT
  5
599
100
AcDbEntity
  8
dzialka
370
25
100
AcDbMText
 10
7571316.37000000011
 20
5715046.4299999997
 40
1.2500
 41
0.0
 71
5
 72
1
  1
\W0.6563x;83
  7
STANDARD
 11
1.00000000
 21
0.00000000
 44
0.90
 90
3
 63
0
 45
1.0
  0
MTEXT
  5
59A
100
AcDbEntity
  8
dzialka
370
25
100
AcDbMText
 10
7571332.5700000003
 20
5715043.40499999933
 40
1.2500
 41
0.0
 71
5
 72
1
  1
\W0.6563x;84
  7
STANDARD
 11
1.00000000
 21
0.00000000
 44
0.90
 90
3
 63
0
 45
1.0
  0
MTEXT
  5
59B
100
AcDbEntity
  8
dzialka
370
25
100
AcDbMText
 10
7571383.22499999963
 20
5715038.24499999918
 40
1.2500
 41
0.0
 71
5
 72
1
  1
\W0.6563x;87/1
  7
STANDARD
 11
1.00000000
 21
0.00000000
 44
0.90
 90
3
 63
0
 45
1.0
  0
MTEXT
  5
59C
100
AcDbEntity
  8
dzialka
370
25
100
AcDbMText
 10
7571389.33999999985
 20
5715037.87999999989
 40
1.2500
 41
0.0
 71
5
 72
1
  1
\W0.6563x;87/2
  7
STANDARD
 11
1.00000000
 21
0.00000000
 44
0.90
 90
3
 63
0
 45
1.0
  0
MTEXT
  5
59D
100
AcDbEntity
  8
dzialka
370
25
100
AcDbMText
 10
7571396.73000000045
 20
5715037.50499999989
 40
1.2500
 41
0.0
 71
5
 72
1
  1
\W0.6563x;87/3
  7
STANDARD
 11
1.00000000
 21
0.00000000
 44
0.90
 90
3
 63
0
 45
1.0
  0
MTEXT
  5
59E
100
AcDbEntity
  8
dzialka
370
25
100
AcDbMText
 10
7571409.56000000052
 20
5715037.83499999996
 40
1.2500
 41
0.0
 71
5
 72
1
  1
\W0.6563x;88/1
  7
STANDARD
 11
1.00000000
 21
0.00000000
 44
0.90
 90
3
 63
0
 45
1.0
  0
MTEXT
  5
59F
100
AcDbEntity
  8
dzialka
370
25
100
AcDbMText
 10
7571400.99500000011
 20
5714987.70500000007
 40
1.2500
 41
0.0
 71
5
 72
1
  1
\W0.6563x;89/1
  7
STANDARD
 11
1.00000000
 21
0.00000000
 44
0.90
 90
3
 63
0
 45
1.0
  0
MTEXT
  5
5A0
100
AcDbEntity
  8
dzialka
370
25
100
AcDbMText
 10
7571425.15000000037
 20
5715037.77500000037
 40
1.2500
 41
0.0
 71
5
 72
1
  1
\W0.6563x;89/2
  7
STANDARD
 11
1.00000000
 21
0.00000000
 44
0.90
 90
3
 63
0
 45
1.0
  0
MTEXT
  5
5A1
100
AcDbEntity
  8
dzialka
370
25
100
AcDbMText
 10
7571424.12000000011
 20
5714983.56499999948
 40
1.2500
 41
0.0
 71
5
 72
1
  1
\W0.6563x;90/1
  7
STANDARD
 11
1.00000000
 21
0.00000000
 44
0.90
 90
3
 63
0
 45
1.0
  0
MTEXT
  5
5A2
100
AcDbEntity
  8
dzialka
370
25
100
AcDbMText
 10
7571442.58499999996
 20
5715041.33499999996
 40
1.2500
 41
0.0
 71
5
 72
1
  1
\W0.6563x;90/2
  7
STANDARD
 11
1.00000000
 21
0.00000000
 44
0.90
 90
3
 63
0
 45
1.0
  0
MTEXT
  5
5A3
100
AcDbEntity
  8
dzialka
370
25
100
AcDbMText
 10
7571441.25999999978
 20
5714980.24500000011
 40
1.2500
 41
0.0
 71
5
 72
1
  1
\W0.6563x;91/1
  7
STANDARD
 11
1.00000000
 21
0.00000000
 44
0.90
 90
3
 63
0
 45
1.0
  0
MTEXT
  5
5A4
100
AcDbEntity
  8
dzialka
370
25
100
AcDbMText
 10
7571462.3200000003
 20
5715046.86000000034
 40
1.2500
 41
0.0
 71
5
 72
1
  1
\W0.6563x;91/2
  7
STANDARD
 11
1.00000000
 21
0.00000000
 44
0.90
 90
3
 63
0
 45
1.0
  0
MTEXT
  5
5A5
100
AcDbEntity
  8
dzialka
370
25
100
AcDbMText
 10
7571457.49500000011
 20
5714977.03000000026
 40
1.2500
 41
0.0
 71
5
 72
1
  1
\W0.6563x;92/1
  7
STANDARD
 11
1.00000000
 21
0.00000000
 44
0.90
 90
3
 63
0
 45
1.0
  0
MTEXT
  5
5A6
100
AcDbEntity
  8
dzialka
370
25
100
AcDbMText
 10
7571484.47499999963
 20
5715059.88499999978
 40
1.2500
 41
0.0
 71
5
 72
1
  1
\W0.6563x;92/2
  7
STANDARD
 11
1.00000000
 21
0.00000000
 44
0.90
 90
3
 63
0
 45
1.0
  0
MTEXT
  5
5A7
100
AcDbEntity
  8
dzialka
370
25
100
AcDbMText
 10
7571279.38499999978
 20
5715017.71999999974
 40
1.2500
 41
0.0
 71
5
 72
1
  1
\W0.6563x;94/1
  7
STANDARD
 11
1.00000000
 21
0.00000000
 44
0.90
 90
3
 63
0
 45
1.0
  0
MTEXT
  5
5A8
100
AcDbEntity
  8
dzialka
370
25
100
AcDbMText
 10
7571313.7650000006
 20
5715011.125
 40
1.2500
 41
0.0
 71
5
 72
1
  1
\W0.6563x;95/1
  7
STANDARD
 11
1.00000000
 21
0.00000000
 44
0.90
 90
3
 63
0
 45
1.0
  0
MTEXT
  5
5A9
100
AcDbEntity
  8
dzialka
370
25
100
AcDbMText
 10
7571284.16999999993
 20
5714797.17499999981
 40
1.2500
 41
0.0
 71
5
 72
1
  1
\W0.6563x;96/1
  7
STANDARD
 11
1.00000000
 21
0.00000000
 44
0.90
 90
3
 63
0
 45
1.0
  0
MTEXT
  5
5AA
100
AcDbEntity
  8
dzialka
370
25
100
AcDbMText
 10
7571277.63499999978
 20
5714798.61999999918
 40
1.2500
 41
0.0
 71
5
 72
1
  1
\W0.6563x;96/2
  7
STANDARD
 11
1.00000000
 21
0.00000000
 44
0.90
 90
3
 63
0
 45
1.0
  0
MTEXT
  5
5AB
100
AcDbEntity
  8
dzialka
370
25
100
AcDbMText
 10
7571271.16000000015
 20
5714799.8599999994
 40
1.2500
 41
0.0
 71
5
 72
1
  1
\W0.6563x;96/3
  7
STANDARD
 11
1.00000000
 21
0.00000000
 44
0.90
 90
3
 63
0
 45
1.0
  0
MTEXT
  5
5AC
100
AcDbEntity
  8
dzialka
370
25
100
AcDbMText
 10
7571264.73000000045
 20
5714801.29499999993
 40
1.2500
 41
0.0
 71
5
 72
1
  1
\W0.6563x;96/4
  7
STANDARD
 11
1.00000000
 21
0.00000000
 44
0.90
 90
3
 63
0
 45
1.0
  0
MTEXT
  5
5AD
100
AcDbEntity
  8
dzialka
370
25
100
AcDbMText
 10
7571318.09999999963
 20
5714852.64499999955
 40
1.2500
 41
0.0
 71
5
 72
1
  1
\W0.6563x;97
  7
STANDARD
 11
1.00000000
 21
0.00000000
 44
0.90
 90
3
 63
0
 45
1.0
  0
MTEXT
  5
5AE
100
AcDbEntity
  8
dzialka
370
25
100
AcDbMText
 10
7571340.11500000022
 20
5714846.96999999974
 40
1.2500
 41
0.0
 71
5
 72
1
  1
\W0.6563x;98
  7
STANDARD
 11
1.00000000
 21
0.00000000
 44
0.90
 90
3
 63
0
 45
1.0
  0
MTEXT
  5
5AF
100
AcDbEntity
  8
dzialka
370
25
100
AcDbMText
 10
7571361.3900000006
 20
5714840.0150000006
 40
1.2500
 41
0.0
 71
5
 72
1
  1
\W0.6563x;99
  7
STANDARD
 11
1.00000000
 21
0.00000000
 44
0.90
 90
3
 63
0
 45
1.0
  0
MTEXT
  5
5B0
100
AcDbEntity
  8
dzialka
370
25
100
AcDbMText
 10
7571380.17500000074
 20
5714833.87999999989
 40
1.2500
 41
0.0
 71
5
 72
1
  1
\W0.6563x;100
  7
STANDARD
 11
1.00000000
 21
0.00000000
 44
0.90
 90
3
 63
0
 45
1.0
  0
MTEXT
  5
5B1
100
AcDbEntity
  8
dzialka
370
25
100
AcDbMText
 10
7571399.0
 20
5714827.28500000015
 40
1.2500
 41
0.0
 71
5
 72
1
  1
\W0.6563x;101
  7
STANDARD
 11
1.00000000
 21
0.00000000
 44
0.90
 90
3
 63
0
 45
1.0
  0
MTEXT
  5
5B2
100
AcDbEntity
  8
dzialka
370
25
100
AcDbMText
 10
7571412.2650000006
 20
5714979.6799999997
 40
1.2500
 41
0.0
 71
5
 72
1
  1
\W0.6563x;242/2
  7
STANDARD
 11
1.00000000
 21
0.00000000
 44
0.90
 90
3
 63
0
 45
1.0
  0
MTEXT
  5
5B3
100
AcDbEntity
  8
dzialka
370
25
100
AcDbMText
 10
7571455.3049999997
 20
5714931.16999999993
 40
1.2500
 41
0.0
 71
5
 72
1
  1
\W0.6563x;33
  7
STANDARD
 11
1.00000000
 21
0.00000000
 44
0.90
 90
3
 63
0
 45
1.0
  0
MTEXT
  5
5B4
100
AcDbEntity
  8
dzialka
370
25
100
AcDbMText
 10
7571486.82499999926
 20
5715030.04499999993
 40
1.2500
 41
0.0
 71
5
 72
1
  1
\W0.6563x;34
  7
STANDARD
 11
1.00000000
 21
0.00000000
 44
0.90
 90
3
 63
0
 45
1.0
  0
MTEXT
  5
5B5
100
AcDbEntity
  8
dzialka
370
25
100
AcDbMText
 10
7571529.66999999993
 20
5715158.58999999985
 40
1.2500
 41
0.0
 71
5
 72
1
  1
\W0.6563x;35
  7
STANDARD
 11
1.00000000
 21
0.00000000
 44
0.90
 90
3
 63
0
 45
1.0
  0
MTEXT
  5
5B6
100
AcDbEntity
  8
dzialka
370
25
100
AcDbMText
 10
7571463.6799999997
 20
5714924.6400000006
 40
1.2500
 41
0.0
 71
5
 72
1
  1
\W0.6563x;36
  7
STANDARD
 11
1.00000000
 21
0.00000000
 44
0.90
 90
3
 63
0
 45
1.0
  0
MTEXT
  5
5B7
100
AcDbEntity
  8
dzialka
370
25
100
AcDbMText
 10
7571526.04000000004
 20
5715119.49000000022
 40
1.2500
 41
0.0
 71
5
 72
1
  1
\W0.6563x;37
  7
STANDARD
 11
1.00000000
 21
0.00000000
 44
0.90
 90
3
 63
0
 45
1.0
  0
MTEXT
  5
5B8
100
AcDbEntity
  8
dzialka
370
25
100
AcDbMText
 10
7571473.79000000004
 20
5714919.59499999974
 40
1.2500
 41
0.0
 71
5
 72
1
  1
\W0.6563x;38
  7
STANDARD
 11
1.00000000
 21
0.00000000
 44
0.90
 90
3
 63
0
 45
1.0
  0
MTEXT
  5
5B9
100
AcDbEntity
  8
dzialka
370
25
100
AcDbMText
 10
7571537.2349999994
 20
5715117.53000000026
 40
1.2500
 41
0.0
 71
5
 72
1
  1
\W0.6563x;39
  7
STANDARD
 11
1.00000000
 21
0.00000000
 44
0.90
 90
3
 63
0
 45
1.0
  0
MTEXT
  5
5BA
100
AcDbEntity
  8
dzialka
370
25
100
AcDbMText
 10
7571472.87999999989
 20
5714877.81000000052
 40
1.2500
 41
0.0
 71
5
 72
1
  1
\W0.6563x;40
  7
STANDARD
 11
1.00000000
 21
0.00000000
 44
0.90
 90
3
 63
0
 45
1.0
  0
MTEXT
  5
5BB
100
AcDbEntity
  8
dzialka
370
25
100
AcDbMText
 10
7571492.41500000004
 20
5714940.97499999963
 40
1.2500
 41
0.0
 71
5
 72
1
  1
\W0.6563x;41
  7
STANDARD
 11
1.00000000
 21
0.00000000
 44
0.90
 90
3
 63
0
 45
1.0
  0
MTEXT
  5
5BC
100
AcDbEntity
  8
dzialka
370
25
100
AcDbMText
 10
7571549.82500000019
 20
5715115.48000000045
 40
1.2500
 41
0.0
 71
5
 72
1
  1
\W0.6563x;42
  7
STANDARD
 11
1.00000000
 21
0.00000000
 44
0.90
 90
3
 63
0
 45
1.0
  0
MTEXT
  5
5BD
100
AcDbEntity
  8
dzialka
370
25
100
AcDbMText
 10
7571491.54499999993
 20
5714883.14499999955
 40
1.2500
 41
0.0
 71
5
 72
1
  1
\W0.6563x;43
  7
STANDARD
 11
1.00000000
 21
0.00000000
 44
0.90
 90
3
 63
0
 45
1.0
  0
MTEXT
  5
5BE
100
AcDbEntity
  8
dzialka
370
25
100
AcDbMText
 10
7571511.45500000007
 20
5714948.41000000015
 40
1.2500
 41
0.0
 71
5
 72
1
  1
\W0.6563x;44
  7
STANDARD
 11
1.00000000
 21
0.00000000
 44
0.90
 90
3
 63
0
 45
1.0
  0
MTEXT
  5
5BF
100
AcDbEntity
  8
dzialka
370
25
100
AcDbMText
 10
7571565.75
 20
5715112.95500000007
 40
1.2500
 41
0.0
 71
5
 72
1
  1
\W0.6563x;45
  7
STANDARD
 11
1.00000000
 21
0.00000000
 44
0.90
 90
3
 63
0
 45
1.0
  0
MTEXT
  5
5C0
100
AcDbEntity
  8
dzialka
370
25
100
AcDbMText
 10
7571514.4849999994
 20
5714869.59999999963
 40
1.2500
 41
0.0
 71
5
 72
1
  1
\W0.6563x;46
  7
STANDARD
 11
1.00000000
 21
0.00000000
 44
0.90
 90
3
 63
0
 45
1.0
  0
MTEXT
  5
5C1
100
AcDbEntity
  8
dzialka
370
25
100
AcDbMText
 10
7571537.7349999994
 20
5714952.22000000067
 40
1.2500
 41
0.0
 71
5
 72
1
  1
\W0.6563x;47
  7
STANDARD
 11
1.00000000
 21
0.00000000
 44
0.90
 90
3
 63
0
 45
1.0
  0
MTEXT
  5
5C2
100
AcDbEntity
  8
dzialka
370
25
100
AcDbMText
 10
7571588.8200000003
 20
5715109.12000000011
 40
1.2500
 41
0.0
 71
5
 72
1
  1
\W0.6563x;48
  7
STANDARD
 11
1.00000000
 21
0.00000000
 44
0.90
 90
3
 63
0
 45
1.0
  0
MTEXT
  5
5C3
100
AcDbEntity
  8
dzialka
370
25
100
AcDbMText
 10
7571527.03500000015
 20
5714868.1799999997
 40
1.2500
 41
0.0
 71
5
 72
1
  1
\W0.6563x;49
  7
STANDARD
 11
1.00000000
 21
0.00000000
 44
0.90
 90
3
 63
0
 45
1.0
  0
MTEXT
  5
5C4
100
AcDbEntity
  8
dzialka
370
25
100
AcDbMText
 10
7571554.72000000067
 20
5714950.12999999989
 40
1.2500
 41
0.0
 71
5
 72
1
  1
\W0.6563x;50
  7
STANDARD
 11
1.00000000
 21
0.00000000
 44
0.90
 90
3
 63
0
 45
1.0
  0
MTEXT
  5
5C5
100
AcDbEntity
  8
dzialka
370
25
100
AcDbMText
 10
7571606.15499999933
 20
5715105.39499999955
 40
1.2500
 41
0.0
 71
5
 72
1
  1
\W0.6563x;51
  7
STANDARD
 11
1.00000000
 21
0.00000000
 44
0.90
 90
3
 63
0
 45
1.0
  0
MTEXT
  5
5C6
100
AcDbEntity
  8
dzialka
370
25
100
AcDbMText
 10
7571535.96499999985
 20
5714868.01499999966
 40
1.2500
 41
0.0
 71
5
 72
1
  1
\W0.6563x;52
  7
STANDARD
 11
1.00000000
 21
0.00000000
 44
0.90
 90
3
 63
0
 45
1.0
  0
MTEXT
  5
5C7
100
AcDbEntity
  8
dzialka
370
25
100
AcDbMText
 10
7571563.63499999978
 20
5714948.13999999966
 40
1.2500
 41
0.0
 71
5
 72
1
  1
\W0.6563x;53
  7
STANDARD
 11
1.00000000
 21
0.00000000
 44
0.90
 90
3
 63
0
 45
1.0
  0
MTEXT
  5
5C8
100
AcDbEntity
  8
dzialka
370
25
100
AcDbMText
 10
7571614.56000000052
 20
5715103.90500000026
 40
1.2500
 41
0.0
 71
5
 72
1
  1
\W0.6563x;54
  7
STANDARD
 11
1.00000000
 21
0.00000000
 44
0.90
 90
3
 63
0
 45
1.0
  0
MTEXT
  5
5C9
100
AcDbEntity
  8
dzialka
370
25
100
AcDbMText
 10
7571547.24499999918
 20
5714870.43999999948
 40
1.2500
 41
0.0
 71
5
 72
1
  1
\W0.6563x;55
  7
STANDARD
 11
1.00000000
 21
0.00000000
 44
0.90
 90
3
 63
0
 45
1.0
  0
MTEXT
  5
5CA
100
AcDbEntity
  8
dzialka
370
25
100
AcDbMText
 10
7571572.68999999948
 20
5714946.66500000004
 40
1.2500
 41
0.0
 71
5
 72
1
  1
\W0.6563x;56
  7
STANDARD
 11
1.00000000
 21
0.00000000
 44
0.90
 90
3
 63
0
 45
1.0
  0
MTEXT
  5
5CB
100
AcDbEntity
  8
dzialka
370
25
100
AcDbMText
 10
7571623.6799999997
 20
5715102.24000000022
 40
1.2500
 41
0.0
 71
5
 72
1
  1
\W0.6563x;57
  7
STANDARD
 11
1.00000000
 21
0.00000000
 44
0.90
 90
3
 63
0
 45
1.0
  0
MTEXT
  5
5CC
100
AcDbEntity
  8
dzialka
370
25
100
AcDbMText
 10
7571557.61500000022
 20
5714867.77999999933
 40
1.2500
 41
0.0
 71
5
 72
1
  1
\W0.6563x;58
  7
STANDARD
 11
1.00000000
 21
0.00000000
 44
0.90
 90
3
 63
0
 45
1.0
  0
MTEXT
  5
5CD
100
AcDbEntity
  8
dzialka
370
25
100
AcDbMText
 10
7571582.8200000003
 20
5714946.00999999978
 40
1.2500
 41
0.0
 71
5
 72
1
  1
\W0.6563x;59
  7
STANDARD
 11
1.00000000
 21
0.00000000
 44
0.90
 90
3
 63
0
 45
1.0
  0
MTEXT
  5
5CE
100
AcDbEntity
  8
dzialka
370
25
100
AcDbMText
 10
7571633.625
 20
5715100.78500000015
 40
1.2500
 41
0.0
 71
5
 72
1
  1
\W0.6563x;60
  7
STANDARD
 11
1.00000000
 21
0.00000000
 44
0.90
 90
3
 63
0
 45
1.0
  0
MTEXT
  5
5CF
100
AcDbEntity
  8
dzialka
370
25
100
AcDbMText
 10
7571567.45000000019
 20
5714867.2349999994
 40
1.2500
 41
0.0
 71
5
 72
1
  1
\W0.6563x;61
  7
STANDARD
 11
1.00000000
 21
0.00000000
 44
0.90
 90
3
 63
0
 45
1.0
  0
MTEXT
  5
5D0
100
AcDbEntity
  8
dzialka
370
25
100
AcDbMText
 10
7571593.0700000003
 20
5714945.83999999985
 40
1.2500
 41
0.0
 71
5
 72
1
  1
\W0.6563x;62
  7
STANDARD
 11
1.00000000
 21
0.00000000
 44
0.90
 90
3
 63
0
 45
1.0
  0
MTEXT
  5
5D1
100
AcDbEntity
  8
dzialka
370
25
100
AcDbMText
 10
7571643.46999999974
 20
5715098.75500000082
 40
1.2500
 41
0.0
 71
5
 72
1
  1
\W0.6563x;63
  7
STANDARD
 11
1.00000000
 21
0.00000000
 44
0.90
 90
3
 63
0
 45
1.0
  0
MTEXT
  5
5D2
100
AcDbEntity
  8
dzialka
370
25
100
AcDbMText
 10
7571573.58499999996
 20
5714865.84500000067
 40
1.2500
 41
0.0
 71
5
 72
1
  1
\W0.6563x;64
  7
STANDARD
 11
1.00000000
 21
0.00000000
 44
0.90
 90
3
 63
0
 45
1.0
  0
MTEXT
  5
5D3
100
AcDbEntity
  8
dzialka
370
25
100
AcDbMText
 10
7571599.3599999994
 20
5714945.8200000003
 40
1.2500
 41
0.0
 71
5
 72
1
  1
\W0.6563x;65
  7
STANDARD
 11
1.00000000
 21
0.00000000
 44
0.90
 90
3
 63
0
 45
1.0
  0
MTEXT
  5
5D4
100
AcDbEntity
  8
dzialka
370
25
100
AcDbMText
 10
7571622.48000000045
 20
5715016.20500000007
 40
1.2500
 41
0.0
 71
5
 72
1
  1
\W0.6563x;66
  7
STANDARD
 11
1.00000000
 21
0.00000000
 44
0.90
 90
3
 63
0
 45
1.0
  0
MTEXT
  5
5D5
100
AcDbEntity
  8
dzialka
370
25
100
AcDbMText
 10
7571643.83499999996
 20
5715080.25999999978
 40
1.2500
 41
0.0
 71
5
 72
1
  1
\W0.6563x;67
  7
STANDARD
 11
1.00000000
 21
0.00000000
 44
0.90
 90
3
 63
0
 45
1.0
  0
MTEXT
  5
5D6
100
AcDbEntity
  8
dzialka
370
25
100
AcDbMText
 10
7571670.78500000015
 20
5715161.7650000006
 40
1.2500
 41
0.0
 71
5
 72
1
  1
\W0.6563x;68
  7
STANDARD
 11
1.00000000
 21
0.00000000
 44
0.90
 90
3
 63
0
 45
1.0
  0
MTEXT
  5
5D7
100
AcDbEntity
  8
dzialka
370
25
100
AcDbMText
 10
7571579.37999999989
 20
5714865.65000000037
 40
1.2500
 41
0.0
 71
5
 72
1
  1
\W0.6563x;69
  7
STANDARD
 11
1.00000000
 21
0.00000000
 44
0.90
 90
3
 63
0
 45
1.0
  0
MTEXT
  5
5D8
100
AcDbEntity
  8
dzialka
370
25
100
AcDbMText
 10
7571605.59999999963
 20
5714945.79000000004
 40
1.2500
 41
0.0
 71
5
 72
1
  1
\W0.6563x;70
  7
STANDARD
 11
1.00000000
 21
0.00000000
 44
0.90
 90
3
 63
0
 45
1.0
  0
MTEXT
  5
5D9
100
AcDbEntity
  8
dzialka
370
25
100
AcDbMText
 10
7571655.32500000019
 20
5715096.67500000075
 40
1.2500
 41
0.0
 71
5
 72
1
  1
\W0.6563x;71
  7
STANDARD
 11
1.00000000
 21
0.00000000
 44
0.90
 90
3
 63
0
 45
1.0
  0
MTEXT
  5
5DA
100
AcDbEntity
  8
dzialka
370
25
100
AcDbMText
 10
7571586.67500000074
 20
5714866.38499999978
 40
1.2500
 41
0.0
 71
5
 72
1
  1
\W0.6563x;72
  7
STANDARD
 11
1.00000000
 21
0.00000000
 44
0.90
 90
3
 63
0
 45
1.0
  0
MTEXT
  5
5DB
100
AcDbEntity
  8
dzialka
370
25
100
AcDbMText
 10
7571612.75499999989
 20
5714945.75999999978
 40
1.2500
 41
0.0
 71
5
 72
1
  1
\W0.6563x;73
  7
STANDARD
 11
1.00000000
 21
0.00000000
 44
0.90
 90
3
 63
0
 45
1.0
  0
MTEXT
  5
5DC
100
AcDbEntity
  8
dzialka
370
25
100
AcDbMText
 10
7571662.08499999996
 20
5715095.5700000003
 40
1.2500
 41
0.0
 71
5
 72
1
  1
\W0.6563x;74
  7
STANDARD
 11
1.00000000
 21
0.00000000
 44
0.90
 90
3
 63
0
 45
1.0
  0
MTEXT
  5
5DD
100
AcDbEntity
  8
dzialka
370
25
100
AcDbMText
 10
7571592.97499999963
 20
5714867.54000000004
 40
1.2500
 41
0.0
 71
5
 72
1
  1
\W0.6563x;75
  7
STANDARD
 11
1.00000000
 21
0.00000000
 44
0.90
 90
3
 63
0
 45
1.0
  0
MTEXT
  5
5DE
100
AcDbEntity
  8
dzialka
370
25
100
AcDbMText
 10
7571618.83499999996
 20
5714945.99499999918
 40
1.2500
 41
0.0
 71
5
 72
1
  1
\W0.6563x;76
  7
STANDARD
 11
1.00000000
 21
0.00000000
 44
0.90
 90
3
 63
0
 45
1.0
  0
MTEXT
  5
5DF
100
AcDbEntity
  8
dzialka
370
25
100
AcDbMText
 10
7571667.75499999989
 20
5715094.40500000026
 40
1.2500
 41
0.0
 71
5
 72
1
  1
\W0.6563x;77
  7
STANDARD
 11
1.00000000
 21
0.00000000
 44
0.90
 90
3
 63
0
 45
1.0
  0
MTEXT
  5
5E0
100
AcDbEntity
  8
dzialka
370
25
100
AcDbMText
 10
7571601.91000000015
 20
5714870.2650000006
 40
1.2500
 41
0.0
 71
5
 72
1
  1
\W0.6563x;78
  7
STANDARD
 11
1.00000000
 21
0.00000000
 44
0.90
 90
3
 63
0
 45
1.0
  0
MTEXT
  5
5E1
100
AcDbEntity
  8
dzialka
370
25
100
AcDbMText
 10
7571625.38499999978
 20
5714946.59500000067
 40
1.2500
 41
0.0
 71
5
 72
1
  1
\W0.6563x;79
  7
STANDARD
 11
1.00000000
 21
0.00000000
 44
0.90
 90
3
 63
0
 45
1.0
  0
MTEXT
  5
5E2
100
AcDbEntity
  8
dzialka
370
25
100
AcDbMText
 10
7571673.74500000011
 20
5715093.5700000003
 40
1.2500
 41
0.0
 71
5
 72
1
  1
\W0.6563x;80
  7
STANDARD
 11
1.00000000
 21
0.00000000
 44
0.90
 90
3
 63
0
 45
1.0
  0
MTEXT
  5
5E3
100
AcDbEntity
  8
dzialka
370
25
100
AcDbMText
 10
7571613.91999999993
 20
5714866.4299999997
 40
1.2500
 41
0.0
 71
5
 72
1
  1
\W0.6563x;81
  7
STANDARD
 11
1.00000000
 21
0.00000000
 44
0.90
 90
3
 63
0
 45
1.0
  0
MTEXT
  5
5E4
100
AcDbEntity
  8
dzialka
370
25
100
AcDbMText
 10
7571637.50999999978
 20
5714947.5549999997
 40
1.2500
 41
0.0
 71
5
 72
1
  1
\W0.6563x;82
  7
STANDARD
 11
1.00000000
 21
0.00000000
 44
0.90
 90
3
 63
0
 45
1.0
  0
MTEXT
  5
5E5
100
AcDbEntity
  8
dzialka
370
25
100
AcDbMText
 10
7571658.92500000074
 20
5715014.50499999989
 40
1.2500
 41
0.0
 71
5
 72
1
  1
\W0.6563x;83
  7
STANDARD
 11
1.00000000
 21
0.00000000
 44
0.90
 90
3
 63
0
 45
1.0
  0
MTEXT
  5
5E6
100
AcDbEntity
  8
dzialka
370
25
100
AcDbMText
 10
7571624.96499999985
 20
5714861.20999999996
 40
1.2500
 41
0.0
 71
5
 72
1
  1
\W0.6563x;84
  7
STANDARD
 11
1.00000000
 21
0.00000000
 44
0.90
 90
3
 63
0
 45
1.0
  0
MTEXT
  5
5E7
100
AcDbEntity
  8
dzialka
370
25
100
AcDbMText
 10
7571649.79499999993
 20
5714945.90499999933
 40
1.2500
 41
0.0
 71
5
 72
1
  1
\W0.6563x;85
  7
STANDARD
 11
1.00000000
 21
0.00000000
 44
0.90
 90
3
 63
0
 45
1.0
  0
MTEXT
  5
5E8
100
AcDbEntity
  8
dzialka
370
25
100
AcDbMText
 10
7571669.1950000003
 20
5715013.1950000003
 40
1.2500
 41
0.0
 71
5
 72
1
  1
\W0.6563x;87/1
  7
STANDARD
 11
1.00000000
 21
0.00000000
 44
0.90
 90
3
 63
0
 45
1.0
  0
MTEXT
  5
5E9
100
AcDbEntity
  8
dzialka
370
25
100
AcDbMText
 10
7571640.67499999981
 20
5714850.50500000082
 40
1.2500
 41
0.0
 71
5
 72
1
  1
\W0.6563x;88
  7
STANDARD
 11
1.00000000
 21
0.00000000
 44
0.90
 90
3
 63
0
 45
1.0
  0
MTEXT
  5
5EA
100
AcDbEntity
  8
dzialka
370
25
100
AcDbMText
 10
7571665.74000000022
 20
5714939.70999999996
 40
1.2500
 41
0.0
 71
5
 72
1
  1
\W0.6563x;89
  7
STANDARD
 11
1.00000000
 21
0.00000000
 44
0.90
 90
3
 63
0
 45
1.0
  0
MTEXT
  5
5EB
100
AcDbEntity
  8
dzialka
370
25
100
AcDbMText
 10
7571683.18999999948
 20
5715010.82500000019
 40
1.2500
 41
0.0
 71
5
 72
1
  1
\W0.6563x;90
  7
STANDARD
 11
1.00000000
 21
0.00000000
 44
0.90
 90
3
 63
0
 45
1.0
  0
MTEXT
  5
5EC
100
AcDbEntity
  8
dzialka
370
25
100
AcDbMText
 10
7571696.83999999985
 20
5715109.61500000022
 40
1.2500
 41
0.0
 71
5
 72
1
  1
\W0.6563x;91/1
  7
STANDARD
 11
1.00000000
 21
0.00000000
 44
0.90
 90
3
 63
0
 45
1.0
  0
MTEXT
  5
5ED
100
AcDbEntity
  8
dzialka
370
25
100
AcDbMText
 10
7571716.32499999926
 20
5715069.81499999948
 40
1.2500
 41
0.0
 71
5
 72
1
  1
\W0.6563x;94/1
  7
STANDARD
 11
1.00000000
 21
0.00000000
 44
0.90
 90
3
 63
0
 45
1.0
  0
MTEXT
  5
5EE
100
AcDbEntity
  8
dzialka
370
25
100
AcDbMText
 10
7571657.83499999996
 20
5714839.1099999994
 40
1.2500
 41
0.0
 71
5
 72
1
  1
\W0.6563x;95
  7
STANDARD
 11
1.00000000
 21
0.00000000
 44
0.90
 90
3
 63
0
 45
1.0
  0
MTEXT
  5
5EF
100
AcDbEntity
  8
dzialka
370
25
100
AcDbMText
 10
7571682.66000000015
 20
5714936.375
 40
1.2500
 41
0.0
 71
5
 72
1
  1
\W0.6563x;96
  7
STANDARD
 11
1.00000000
 21
0.00000000
 44
0.90
 90
3
 63
0
 45
1.0
  0
MTEXT
  5
5F0
100
AcDbEntity
  8
dzialka
370
25
100
AcDbMText
 10
7571684.38999999966
 20
5714830.83000000007
 40
1.2500
 41
0.0
 71
5
 72
1
  1
\W0.6563x;97
  7
STANDARD
 11
1.00000000
 21
0.00000000
 44
0.90
 90
3
 63
0
 45
1.0
  0
MTEXT
  5
5F1
100
AcDbEntity
  8
dzialka
370
25
100
AcDbMText
 10
7571709.65000000037
 20
5714934.125
 40
1.2500
 41
0.0
 71
5
 72
1
  1
\W0.6563x;98
  7
STANDARD
 11
1.00000000
 21
0.00000000
 44
0.90
 90
3
 63
0
 45
1.0
  0
MTEXT
  5
5F2
100
AcDbEntity
  8
dzialka
370
25
100
AcDbMText
 10
7571743.09500000067
 20
5715064.16999999993
 40
1.2500
 41
0.0
 71
5
 72
1
  1
\W0.6563x;99
  7
STANDARD
 11
1.00000000
 21
0.00000000
 44
0.90
 90
3
 63
0
 45
1.0
  0
MTEXT
  5
5F3
100
AcDbEntity
  8
dzialka
370
25
100
AcDbMText
 10
7571718.40499999933
 20
5714829.89499999955
 40
1.2500
 41
0.0
 71
5
 72
1
  1
\W0.6563x;100
  7
STANDARD
 11
1.00000000
 21
0.00000000
 44
0.90
 90
3
 63
0
 45
1.0
  0
MTEXT
  5
5F4
100
AcDbEntity
  8
dzialka
370
25
100
AcDbMText
 10
7571743.61500000022
 20
5714931.16000000015
 40
1.2500
 41
0.0
 71
5
 72
1
  1
\W0.6563x;101
  7
STANDARD
 11
1.00000000
 21
0.00000000
 44
0.90
 90
3
 63
0
 45
1.0
  0
MTEXT
  5
5F5
100
AcDbEntity
  8
dzialka
370
25
100
AcDbMText
 10
7571776.50499999989
 20
5715055.77500000037
 40
1.2500
 41
0.0
 71
5
 72
1
  1
\W0.6563x;102
  7
STANDARD
 11
1.00000000
 21
0.00000000
 44
0.90
 90
3
 63
0
 45
1.0
  0
MTEXT
  5
5F6
100
AcDbEntity
  8
dzialka
370
25
100
AcDbMText
 10
7571746.58999999985
 20
5714825.91000000015
 40
1.2500
 41
0.0
 71
5
 72
1
  1
\W0.6563x;103
  7
STANDARD
 11
1.00000000
 21
0.00000000
 44
0.90
 90
3
 63
0
 45
1.0
  0
MTEXT
  5
5F7
100
AcDbEntity
  8
dzialka
370
25
100
AcDbMText
 10
7571770.79000000004
 20
5714926.4849999994
 40
1.2500
 41
0.0
 71
5
 72
1
  1
\W0.6563x;104
  7
STANDARD
 11
1.00000000
 21
0.00000000
 44
0.90
 90
3
 63
0
 45
1.0
  0
MTEXT
  5
5F8
100
AcDbEntity
  8
dzialka
370
25
100
AcDbMText
 10
7571803.3900000006
 20
5715047.5700000003
 40
1.2500
 41
0.0
 71
5
 72
1
  1
\W0.6563x;105
  7
STANDARD
 11
1.00000000
 21
0.00000000
 44
0.90
 90
3
 63
0
 45
1.0
  0
MTEXT
  5
5F9
100
AcDbEntity
  8
dzialka
370
25
100
AcDbMText
 10
7571773.14499999955
 20
5714825.18500000052
 40
1.2500
 41
0.0
 71
5
 72
1
  1
\W0.6563x;106
  7
STANDARD
 11
1.00000000
 21
0.00000000
 44
0.90
 90
3
 63
0
 45
1.0
  0
MTEXT
  5
5FA
100
AcDbEntity
  8
dzialka
370
25
100
AcDbMText
 10
7571797.56000000052
 20
5714918.39499999955
 40
1.2500
 41
0.0
 71
5
 72
1
  1
\W0.6563x;107
  7
STANDARD
 11
1.00000000
 21
0.00000000
 44
0.90
 90
3
 63
0
 45
1.0
  0
MTEXT
  5
5FB
100
AcDbEntity
  8
dzialka
370
25
100
AcDbMText
 10
7571830.10500000045
 20
5715039.18500000052
 40
1.2500
 41
0.0
 71
5
 72
1
  1
\W0.6563x;108
  7
STANDARD
 11
1.00000000
 21
0.00000000
 44
0.90
 90
3
 63
0
 45
1.0
  0
MTEXT
  5
5FC
100
AcDbEntity
  8
dzialka
370
25
100
AcDbMText
 10
7571794.25999999978
 20
5714822.87999999989
 40
1.2500
 41
0.0
 71
5
 72
1
  1
\W0.6563x;109
  7
STANDARD
 11
1.00000000
 21
0.00000000
 44
0.90
 90
3
 63
0
 45
1.0
  0
MTEXT
  5
5FD
100
AcDbEntity
  8
dzialka
370
25
100
AcDbMText
 10
7571817.45999999996
 20
5714911.90500000026
 40
1.2500
 41
0.0
 71
5
 72
1
  1
\W0.6563x;110
  7
STANDARD
 11
1.00000000
 21
0.00000000
 44
0.90
 90
3
 63
0
 45
1.0
  0
MTEXT
  5
5FE
100
AcDbEntity
  8
dzialka
370
25
100
AcDbMText
 10
7571849.65499999933
 20
5715032.78500000015
 40
1.2500
 41
0.0
 71
5
 72
1
  1
\W0.6563x;111
  7
STANDARD
 11
1.00000000
 21
0.00000000
 44
0.90
 90
3
 63
0
 45
1.0
  0
MTEXT
  5
5FF
100
AcDbEntity
  8
dzialka
370
25
100
AcDbMText
 10
7571809.1099999994
 20
5714820.16999999993
 40
1.2500
 41
0.0
 71
5
 72
1
  1
\W0.6563x;112
  7
STANDARD
 11
1.00000000
 21
0.00000000
 44
0.90
 90
3
 63
0
 45
1.0
  0
MTEXT
  5
600
100
AcDbEntity
  8
dzialka
370
25
100
AcDbMText
 10
7571831.47000000067
 20
5714907.47000000067
 40
1.2500
 41
0.0
 71
5
 72
1
  1
\W0.6563x;113
  7
STANDARD
 11
1.00000000
 21
0.00000000
 44
0.90
 90
3
 63
0
 45
1.0
  0
MTEXT
  5
601
100
AcDbEntity
  8
dzialka
370
25
100
AcDbMText
 10
7571863.26499999966
 20
5715028.08000000007
 40
1.2500
 41
0.0
 71
5
 72
1
  1
\W0.6563x;114
  7
STANDARD
 11
1.00000000
 21
0.00000000
 44
0.90
 90
3
 63
0
 45
1.0
  0
MTEXT
  5
602
100
AcDbEntity
  8
dzialka
370
25
100
AcDbMText
 10
7571824.0549999997
 20
5714809.92499999981
 40
1.2500
 41
0.0
 71
5
 72
1
  1
\W0.6563x;115
  7
STANDARD
 11
1.00000000
 21
0.00000000
 44
0.90
 90
3
 63
0
 45
1.0
  0
MTEXT
  5
603
100
AcDbEntity
  8
dzialka
370
25
100
AcDbMText
 10
7571845.7349999994
 20
5714902.96499999985
 40
1.2500
 41
0.0
 71
5
 72
1
  1
\W0.6563x;116
  7
STANDARD
 11
1.00000000
 21
0.00000000
 44
0.90
 90
3
 63
0
 45
1.0
  0
MTEXT
  5
604
100
AcDbEntity
  8
dzialka
370
25
100
AcDbMText
 10
7571877.48000000045
 20
5715023.21999999974
 40
1.2500
 41
0.0
 71
5
 72
1
  1
\W0.6563x;117
  7
STANDARD
 11
1.00000000
 21
0.00000000
 44
0.90
 90
3
 63
0
 45
1.0
  0
MTEXT
  5
605
100
AcDbEntity
  8
dzialka
370
25
100
AcDbMText
 10
7571836.3049999997
 20
5714807.95999999996
 40
1.2500
 41
0.0
 71
5
 72
1
  1
\W0.6563x;118
  7
STANDARD
 11
1.00000000
 21
0.00000000
 44
0.90
 90
3
 63
0
 45
1.0
  0
MTEXT
  5
606
100
AcDbEntity
  8
dzialka
370
25
100
AcDbMText
 10
7571859.40500000026
 20
5714898.18500000052
 40
1.2500
 41
0.0
 71
5
 72
1
  1
\W0.6563x;119
  7
STANDARD
 11
1.00000000
 21
0.00000000
 44
0.90
 90
3
 63
0
 45
1.0
  0
MTEXT
  5
607
100
AcDbEntity
  8
dzialka
370
25
100
AcDbMText
 10
7571891.08499999996
 20
5715018.62000000011
 40
1.2500
 41
0.0
 71
5
 72
1
  1
\W0.6563x;120
  7
STANDARD
 11
1.00000000
 21
0.00000000
 44
0.90
 90
3
 63
0
 45
1.0
  0
MTEXT
  5
608
100
AcDbEntity
  8
dzialka
370
25
100
AcDbMText
 10
7571857.02999999933
 20
5714805.43999999948
 40
1.2500
 41
0.0
 71
5
 72
1
  1
\W0.6563x;121
  7
STANDARD
 11
1.00000000
 21
0.00000000
 44
0.90
 90
3
 63
0
 45
1.0
  0
MTEXT
  5
609
100
AcDbEntity
  8
dzialka
370
25
100
AcDbMText
 10
7571878.84500000067
 20
5714892.97499999963
 40
1.2500
 41
0.0
 71
5
 72
1
  1
\W0.6563x;122
  7
STANDARD
 11
1.00000000
 21
0.00000000
 44
0.90
 90
3
 63
0
 45
1.0
  0
MTEXT
  5
60A
100
AcDbEntity
  8
dzialka
370
25
100
AcDbMText
 10
7571637.93607580941
 20
5714769.65000000037
 40
1.2500
 41
0.0
 71
5
 72
1
  1
\W0.6563x;143
  7
STANDARD
 11
1.00000000
 21
0.00000000
 44
0.90
 90
3
 63
0
 45
1.0
  0
MTEXT
  5
60B
100
AcDbEntity
  8
dzialka
370
25
100
AcDbMText
 10
7571348.4450000003
 20
5714602.63499999978
 40
1.2500
 41
0.0
 71
5
 72
1
  1
\W0.6563x;144
  7
STANDARD
 11
1.00000000
 21
0.00000000
 44
0.90
 90
3
 63
0
 45
1.0
  0
MTEXT
  5
60C
100
AcDbEntity
  8
dzialka
370
25
100
AcDbMText
 10
7571364.29999999981
 20
5714590.15000000037
 40
1.2500
 41
0.0
 71
5
 72
1
  1
\W0.6563x;145
  7
STANDARD
 11
1.00000000
 21
0.00000000
 44
0.90
 90
3
 63
0
 45
1.0
  0
MTEXT
  5
60D
100
AcDbEntity
  8
dzialka
370
25
100
AcDbMText
 10
7571459.99500000011
 20
5714846.41500000004
 40
1.2500
 41
0.0
 71
5
 72
1
  1
\W0.6563x;146
  7
STANDARD
 11
1.00000000
 21
0.00000000
 44
0.90
 90
3
 63
0
 45
1.0
  0
MTEXT
  5
60E
100
AcDbEntity
  8
dzialka
370
25
100
AcDbMText
 10
7571466.02500000037
 20
5714837.19000000041
 40
1.2500
 41
0.0
 71
5
 72
1
  1
\W0.6563x;148
  7
STANDARD
 11
1.00000000
 21
0.00000000
 44
0.90
 90
3
 63
0
 45
1.0
  0
MTEXT
  5
60F
100
AcDbEntity
  8
dzialka
370
25
100
AcDbMText
 10
7571679.65000000037
 20
5715092.3049999997
 40
1.2500
 41
0.0
 71
5
 72
1
  1
\W0.6563x;442
  7
STANDARD
 11
1.00000000
 21
0.00000000
 44
0.90
 90
3
 63
0
 45
1.0
  0
MTEXT
  5
610
100
AcDbEntity
  8
dzialka
370
25
100
AcDbMText
 10
7571901.30077047553
 20
5714896.90499999933
 40
1.2500
 41
0.0
 71
5
 72
1
  1
\W0.6563x;506
  7
STANDARD
 11
1.00000000
 21
0.00000000
 44
0.90
 90
3
 63
0
 45
1.0
  0
MTEXT
  5
611
100
AcDbEntity
  8
dzialka
370
25
100
AcDbMText
 10
7571819.03170454502
 20
5714889.66000000015
 40
1.2500
 41
0.0
 71
5
 72
1
  1
\W0.6563x;507
  7
STANDARD
 11
1.00000000
 21
0.00000000
 44
0.90
 90
3
 63
0
 45
1.0
  0
MTEXT
  5
612
100
AcDbEntity
  8
dzialka
370
25
100
AcDbMText
 10
7571632.12999999989
 20
5714948.09999999963
 40
1.2500
 41
0.0
 71
5
 72
1
  1
\W0.6563x;508
  7
STANDARD
 11
1.00000000
 21
0.00000000
 44
0.90
 90
3
 63
0
 45
1.0
  0
MTEXT
  5
613
100
AcDbEntity
  8
dzialka
370
25
100
AcDbMText
 10
7571485.36209918186
 20
5714775.49499999918
 40
1.2500
 41
0.0
 71
5
 72
1
  1
\W0.6563x;510
  7
STANDARD
 11
1.00000000
 21
0.00000000
 44
0.90
 90
3
 63
0
 45
1.0
  0
MTEXT
  5
614
100
AcDbEntity
  8
dzialka
370
25
100
AcDbMText
 10
7571928.72499999963
 20
5715197.11999999918
 40
1.2500
 41
0.0
 71
5
 72
1
  1
\W0.6563x;599
  7
STANDARD
 11
1.00000000
 21
0.00000000
 44
0.90
 90
3
 63
0
 45
1.0
  0
MTEXT
  5
615
100
AcDbEntity
  8
dzialka
370
25
100
AcDbMText
 10
7571470.7806215426
 20
5715173.41499999911
 40
1.2500
 41
0.0
 71
5
 72
1
  1
\W0.6563x;240
  7
STANDARD
 11
1.00000000
 21
0.00000000
 44
0.90
 90
3
 63
0
 45
1.0
  0
MTEXT
  5
616
100
AcDbEntity
  8
dzialka
370
25
100
AcDbMText
 10
7571287.0150000006
 20
5715024.4299999997
 40
1.2500
 41
0.0
 71
5
 72
1
  1
\W0.6563x;242/1
  7
STANDARD
 11
1.00000000
 21
0.00000000
 44
0.90
 90
3
 63
0
 45
1.0
  0
MTEXT
  5
617
100
AcDbEntity
  8
dzialka
370
25
100
AcDbMText
 10
7571262.21778710559
 20
5715011.15499999933
 40
1.2500
 41
0.0
 71
5
 72
1
  1
\W0.6563x;244
  7
STANDARD
 11
1.00000000
 21
0.00000000
 44
0.90
 90
3
 63
0
 45
1.0
  0
MTEXT
  5
618
100
AcDbEntity
  8
dzialka
370
25
100
AcDbMText
 10
7571256.16500000004
 20
5714944.48000000045
 40
1.2500
 41
0.0
 71
5
 72
1
  1
\W0.6563x;94/4
  7
STANDARD
 11
1.00000000
 21
0.00000000
 44
0.90
 90
3
 63
0
 45
1.0
  0
MTEXT
  5
619
100
AcDbEntity
  8
dzialka
370
25
100
AcDbMText
 10
7571255.01499999966
 20
5714803.00499999989
 40
1.2500
 41
0.0
 71
5
 72
1
  1
\W0.6563x;96/10
  7
STANDARD
 11
1.00000000
 21
0.00000000
 44
0.90
 90
3
 63
0
 45
1.0
  0
MTEXT
  5
61A
100
AcDbEntity
  8
dzialka
370
25
100
AcDbMText
 10
7571392.57502822392
 20
5714763.58000000007
 40
1.2500
 41
0.0
 71
5
 72
1
  1
\W0.6563x;246
  7
STANDARD
 11
1.00000000
 21
0.00000000
 44
0.90
 90
3
 63
0
 45
1.0
  0
MTEXT
  5
61B
100
AcDbEntity
  8
dzialka
370
25
100
AcDbMText
 10
7571236.45999999996
 20
5714806.78500000015
 40
1.2500
 41
0.0
 71
5
 72
1
  1
\W0.6563x;95/2
  7
STANDARD
 11
1.00000000
 21
0.00000000
 44
0.90
 90
3
 63
0
 45
1.0
  0
MTEXT
  5
61C
100
AcDbEntity
  8
dzialka
370
25
100
AcDbMText
 10
7571350.64499999955
 20
5715040.72499999963
 40
1.2500
 41
0.0
 71
5
 72
1
  1
\W0.6563x;85
  7
STANDARD
 11
1.00000000
 21
0.00000000
 44
0.90
 90
3
 63
0
 45
1.0
  0
MTEXT
  5
61D
100
AcDbEntity
  8
dzialka
370
25
100
AcDbMText
 10
7571375.24500000011
 20
5715038.53500000015
 40
1.2500
 41
0.0
 71
5
 72
1
  1
\W0.6563x;86/2
  7
STANDARD
 11
1.00000000
 21
0.00000000
 44
0.90
 90
3
 63
0
 45
1.0
  0
MTEXT
  5
61E
100
AcDbEntity
  8
dzialka
370
25
100
AcDbMText
 10
7571365.12000000011
 20
5715039.10500000045
 40
1.2500
 41
0.0
 71
5
 72
1
  1
\W0.6563x;86/1
  7
STANDARD
 11
1.00000000
 21
0.00000000
 44
0.90
 90
3
 63
0
 45
1.0
  0
ENDSEC
  0
SECTION
  2
OBJECTS
  0
DICTIONARY
  5
61F
330
0
100
AcDbDictionary
280
0
281
1
  3
ACAD_GROUP
350
620
  3
ACAD_LAYOUT
350
621
  3
ACAD_MLINESTYLE
350
622
  3
ACAD_PLOTSETTINGS
350
623
  3
ACAD_PLOTSTYLENAME
350
624
  0
DICTIONARY
  5
620
102
{ACAD_REACTORS
330
61F
102
}
330
61F
100
AcDbDictionary
280
0
281
1
  0
DICTIONARY
  5
621
102
{ACAD_REACTORS
330
61F
102
}
330
61F
100
AcDbDictionary
280
0
281
1
  3
Layout
350
20
  3
Model
350
1E
  0
DICTIONARY
  5
622
102
{ACAD_REACTORS
330
61F
102
}
330
61F
100
AcDbDictionary
280
0
281
1
  3
Standard
350
625
  3
L_0_02
350
7
  3
L_0_E3
350
C
  0
DICTIONARY
  5
623
102
{ACAD_REACTORS
330
61F
102
}
330
61F
100
AcDbDictionary
280
0
281
1
  0
ACDBDICTIONARYWDFLT
  5
624
102
{ACAD_REACTORS
330
61F
102
}
330
61F
100
AcDbDictionary
281
1
  3
Normal
350
11
100
AcDbDictionaryWithDefault
340
11
  0
LAYOUT
  5
20
100
AcDbPlotSettings
  1

  2

  4

  6

 40
0.0
 41
0.0
 42
0.0
 43
0.0
 44
0.0
 45
0.0
 46
0.0
 47
0.0
 48
0.0
 49
0.0
140
0.0
141
0.0
142
1.0
143
1.0
 70
688
 72
1
 73
0
 74
5
  7

 75
0
147
1.0
148
0.0
149
0.0
100
AcDbLayout
  1
Layout
 70
1
 71
1
 10
0.0
 20
0.0
 11
420.0
 21
297.0
 12
0.0
 22
0.0
 32
0.0
 14
100000000000000000000.0
 24
100000000000000000000.0
 34
100000000000000000000.0
 15
-100000000000000000000.0
 25
-100000000000000000000.0
 35
-100000000000000000000.0
146
0.0
 13
0.0
 23
0.0
 33
0.0
 16
1.0
 26
0.0
 36
0.0
 17
0.0
 27
1.0
 37
0.0
 76
0
330
1F
  0
LAYOUT
  5
1E
100
AcDbPlotSettings
  1

  2

  4

  6

 40
0.0
 41
0.0
 42
0.0
 43
0.0
 44
0.0
 45
0.0
 46
0.0
 47
0.0
 48
0.0
 49
0.0
140
0.0
141
0.0
142
1.0
143
1.0
 70
1712
 72
1
 73
0
 74
0
  7

 75
0
147
1.0
148
0.0
149
0.0
100
AcDbLayout
  1
Model
 70
1
 71
0
 10
0.0
 20
0.0
 11
12.0
 21
9.0
 12
0.0
 22
0.0
 32
0.0
 14
0.0
 24
0.0
 34
0.0
 15
0.0
 25
0.0
 35
0.0
146
0.0
 13
0.0
 23
0.0
 33
0.0
 16
1.0
 26
0.0
 36
0.0
 17
0.0
 27
1.0
 37
0.0
 76
0
330
1D
  0
MLINESTYLE
  5
625
102
{ACAD_REACTORS
330
622
102
}
330
622
100
AcDbMlineStyle
  2
Standard
 70
0
  3

 62
256
 51
90.0
 52
90.0
  2
Standard
 71
2
 49
0.5
 62
256
  6
ByLayer
 49
-0.5
 62
256
  6
ByLayer
  0
MLINESTYLE
  5
7
100
AcDbMlineStyle
  2
L_0_02
 70
0
  3

 51
90.0
 52
90.0
 71
1
 49
0.0
 62
256
  6
CONTINUOUS
  0
MLINESTYLE
  5
C
100
AcDbMlineStyle
  2
L_0_E3
 70
0
  3

 51
90.0
 52
90.0
 71
2
 49
0.0
 62
256
  6
CONTINUOUS
 49
-0.5
 62
256
  6
L_0_E3_00
  0
ACDBPLACEHOLDER
  5
11
  0
ENDSEC
  0
EOF
