  0
SECTION
  2
HEADER
  9
$ACADVER
  1
AC1027
  9
$ACADMAINTVER
 70
     8
  9
$DWGCODEPAGE
  3
ANSI_1250
  9
$REQUIREDVERSIONS
160
                 0
  9
$INSBASE
 10
0.0
 20
0.0
 30
0.0
  9
$EXTMIN
 10
7578597.5
 20
5718147.499999999
 30
0.0
  9
$EXTMAX
 10
7582408.83
 20
5720846.900000001
 30
0.0
  9
$LIMMIN
 10
7578616.190000001
 20
5718164.259999999
  9
$LIMMAX
 10
7582408.83
 20
5720846.900000001
  9
$ORTHOMODE
 70
     0
  9
$REGENMODE
 70
     1
  9
$FILLMODE
 70
     1
  9
$QTEXTMODE
 70
     0
  9
$MIRRTEXT
 70
     0
  9
$LTSCALE
 40
1.0
  9
$ATTMODE
 70
     1
  9
$TEXTSIZE
 40
0.2
  9
$TRACEWID
 40
0.05
  9
$TEXTSTYLE
  7
STANDARD
  9
$CLAYER
  8
0
  9
$CELTYPE
  6
CONTINUOUS
  9
$CECOLOR
 62
   256
  9
$CELTSCALE
 40
1.0
  9
$DISPSILH
 70
     0
  9
$DIMSCALE
 40
1.0
  9
$DIMASZ
 40
2.5
  9
$DIMEXO
 40
0.625
  9
$DIMDLI
 40
0.38
  9
$DIMRND
 40
0.0
  9
$DIMDLE
 40
0.0
  9
$DIMEXE
 40
1.25
  9
$DIMTP
 40
0.0
  9
$DIMTM
 40
0.0
  9
$DIMTXT
 40
2.5
  9
$DIMCEN
 40
0.09
  9
$DIMTSZ
 40
0.0
  9
$DIMTOL
 70
     0
  9
$DIMLIM
 70
     0
  9
$DIMTIH
 70
     1
  9
$DIMTOH
 70
     1
  9
$DIMSE1
 70
     0
  9
$DIMSE2
 70
     0
  9
$DIMTAD
 70
     0
  9
$DIMZIN
 70
     0
  9
$DIMBLK
  1

  9
$DIMASO
 70
     1
  9
$DIMSHO
 70
     1
  9
$DIMPOST
  1

  9
$DIMAPOST
  1

  9
$DIMALT
 70
     0
  9
$DIMALTD
 70
     2
  9
$DIMALTF
 40
25.4
  9
$DIMLFAC
 40
1.0
  9
$DIMTOFL
 70
     0
  9
$DIMTVP
 40
0.0
  9
$DIMTIX
 70
     0
  9
$DIMSOXD
 70
     0
  9
$DIMSAH
 70
     0
  9
$DIMBLK1
  1

  9
$DIMBLK2
  1

  9
$DIMSTYLE
  2
Standard
  9
$DIMCLRD
 70
     0
  9
$DIMCLRE
 70
     0
  9
$DIMCLRT
 70
     0
  9
$DIMTFAC
 40
1.0
  9
$DIMGAP
 40
0.625
  9
$DIMJUST
 70
     0
  9
$DIMSD1
 70
     0
  9
$DIMSD2
 70
     0
  9
$DIMTOLJ
 70
     1
  9
$DIMTZIN
 70
     0
  9
$DIMALTZ
 70
     0
  9
$DIMALTTZ
 70
     0
  9
$DIMUPT
 70
     0
  9
$DIMDEC
 70
     4
  9
$DIMTDEC
 70
     4
  9
$DIMALTU
 70
     2
  9
$DIMALTTD
 70
     2
  9
$DIMTXSTY
  7
STANDARD
  9
$DIMAUNIT
 70
     0
  9
$DIMADEC
 70
     0
  9
$DIMALTRND
 40
0.0
  9
$DIMAZIN
 70
     0
  9
$DIMDSEP
 70
    46
  9
$DIMATFIT
 70
     3
  9
$DIMFRAC
 70
     0
  9
$DIMLDRBLK
  1

  9
$DIMLUNIT
 70
     2
  9
$DIMLWD
 70
    -2
  9
$DIMLWE
 70
    -2
  9
$DIMTMOVE
 70
     0
  9
$DIMFXL
 40
1.0
  9
$DIMFXLON
 70
     0
  9
$DIMJOGANG
 40
0.7853981633974483
  9
$DIMTFILL
 70
     0
  9
$DIMTFILLCLR
 70
     0
  9
$DIMARCSYM
 70
     0
  9
$DIMLTYPE
  6

  9
$DIMLTEX1
  6

  9
$DIMLTEX2
  6

  9
$DIMTXTDIRECTION
 70
     0
  9
$LUNITS
 70
     2
  9
$LUPREC
 70
     4
  9
$SKETCHINC
 40
0.1
  9
$FILLETRAD
 40
0.0
  9
$AUNITS
 70
     0
  9
$AUPREC
 70
     0
  9
$MENU
  1

  9
$ELEVATION
 40
0.0
  9
$PELEVATION
 40
0.0
  9
$THICKNESS
 40
0.0
  9
$LIMCHECK
 70
     0
  9
$CHAMFERA
 40
0.0
  9
$CHAMFERB
 40
0.0
  9
$CHAMFERC
 40
0.0
  9
$CHAMFERD
 40
0.0
  9
$SKPOLY
 70
     0
  9
$TDCREATE
 40
2305814.527273090
  9
$TDUCREATE
 40
44963.485606424
  9
$TDUPDATE
 40
2459982.528346505
  9
$TDUUPDATE
 40
2459982.486679838
  9
$TDINDWG
 40
0.000595995
  9
$TDUSRTIMER
 40
0.000595637
  9
$USRTIMER
 70
     1
  9
$ANGBASE
 50
0.0
  9
$ANGDIR
 70
     0
  9
$PDMODE
 70
     0
  9
$PDSIZE
 40
0.0
  9
$PLINEWID
 40
0.0
  9
$SPLFRAME
 70
     0
  9
$SPLINETYPE
 70
     6
  9
$SPLINESEGS
 70
     8
  9
$HANDSEED
  5
1000524
  9
$SURFTAB1
 70
     6
  9
$SURFTAB2
 70
     6
  9
$SURFTYPE
 70
     6
  9
$SURFU
 70
     6
  9
$SURFV
 70
     6
  9
$UCSBASE
  2

  9
$UCSNAME
  2

  9
$UCSORG
 10
0.0
 20
0.0
 30
0.0
  9
$UCSXDIR
 10
1.0
 20
0.0
 30
0.0
  9
$UCSYDIR
 10
0.0
 20
1.0
 30
0.0
  9
$UCSORTHOREF
  2

  9
$UCSORTHOVIEW
 70
     0
  9
$UCSORGTOP
 10
0.0
 20
0.0
 30
0.0
  9
$UCSORGBOTTOM
 10
0.0
 20
0.0
 30
0.0
  9
$UCSORGLEFT
 10
0.0
 20
0.0
 30
0.0
  9
$UCSORGRIGHT
 10
0.0
 20
0.0
 30
0.0
  9
$UCSORGFRONT
 10
0.0
 20
0.0
 30
0.0
  9
$UCSORGBACK
 10
0.0
 20
0.0
 30
0.0
  9
$PUCSBASE
  2

  9
$PUCSNAME
  2

  9
$PUCSORG
 10
0.0
 20
0.0
 30
0.0
  9
$PUCSXDIR
 10
1.0
 20
0.0
 30
0.0
  9
$PUCSYDIR
 10
0.0
 20
1.0
 30
0.0
  9
$PUCSORTHOREF
  2

  9
$PUCSORTHOVIEW
 70
     0
  9
$PUCSORGTOP
 10
0.0
 20
0.0
 30
0.0
  9
$PUCSORGBOTTOM
 10
0.0
 20
0.0
 30
0.0
  9
$PUCSORGLEFT
 10
0.0
 20
0.0
 30
0.0
  9
$PUCSORGRIGHT
 10
0.0
 20
0.0
 30
0.0
  9
$PUCSORGFRONT
 10
0.0
 20
0.0
 30
0.0
  9
$PUCSORGBACK
 10
0.0
 20
0.0
 30
0.0
  9
$USERI1
 70
     0
  9
$USERI2
 70
     0
  9
$USERI3
 70
     0
  9
$USERI4
 70
     0
  9
$USERI5
 70
     0
  9
$USERR1
 40
0.0
  9
$USERR2
 40
0.0
  9
$USERR3
 40
0.0
  9
$USERR4
 40
0.0
  9
$USERR5
 40
0.0
  9
$WORLDVIEW
 70
     1
  9
$SHADEDGE
 70
     3
  9
$SHADEDIF
 70
    70
  9
$TILEMODE
 70
     1
  9
$MAXACTVP
 70
    64
  9
$PINSBASE
 10
0.0
 20
0.0
 30
0.0
  9
$PLIMCHECK
 70
     0
  9
$PEXTMIN
 10
1.000000000000000E+20
 20
1.000000000000000E+20
 30
1.000000000000000E+20
  9
$PEXTMAX
 10
-1.000000000000000E+20
 20
-1.000000000000000E+20
 30
-1.000000000000000E+20
  9
$PLIMMIN
 10
0.0
 20
0.0
  9
$PLIMMAX
 10
210.0
 20
297.0
  9
$UNITMODE
 70
     0
  9
$VISRETAIN
 70
     1
  9
$PLINEGEN
 70
     0
  9
$PSLTSCALE
 70
     1
  9
$TREEDEPTH
 70
  3020
  9
$CMLSTYLE
  2
Standard
  9
$CMLJUST
 70
     0
  9
$CMLSCALE
 40
1.0
  9
$PROXYGRAPHICS
 70
     1
  9
$MEASUREMENT
 70
     0
  9
$CELWEIGHT
370
    -1
  9
$ENDCAPS
280
     0
  9
$JOINSTYLE
280
     0
  9
$LWDISPLAY
290
     1
  9
$INSUNITS
 70
     6
  9
$HYPERLINKBASE
  1

  9
$STYLESHEET
  1

  9
$XEDIT
290
     0
  9
$CEPSNTYPE
380
     0
  9
$PSTYLEMODE
290
     1
  9
$FINGERPRINTGUID
  2
{17E5670B-2372-47D4-B2F4-AE7D88B76DD5}
  9
$VERSIONGUID
  2
{E395BD10-AA89-4118-92CD-624B8232F378}
  9
$EXTNAMES
290
     1
  9
$PSVPSCALE
 40
0.0
  9
$OLESTARTUP
290
     0
  9
$SORTENTS
280
   127
  9
$INDEXCTL
280
     0
  9
$HIDETEXT
280
     1
  9
$XCLIPFRAME
280
     2
  9
$HALOGAP
280
     0
  9
$OBSCOLOR
 70
   257
  9
$OBSLTYPE
280
     0
  9
$INTERSECTIONDISPLAY
280
     0
  9
$INTERSECTIONCOLOR
 70
   257
  9
$DIMASSOC
280
     2
  9
$PROJECTNAME
  1

  9
$CAMERADISPLAY
290
     0
  9
$LENSLENGTH
 40
50.0
  9
$CAMERAHEIGHT
 40
0.0
  9
$STEPSPERSEC
 40
2.0
  9
$STEPSIZE
 40
6.0
  9
$3DDWFPREC
 40
2.0
  9
$PSOLWIDTH
 40
0.25
  9
$PSOLHEIGHT
 40
4.0
  9
$LOFTANG1
 40
1.570796326794896
  9
$LOFTANG2
 40
1.570796326794896
  9
$LOFTMAG1
 40
0.0
  9
$LOFTMAG2
 40
0.0
  9
$LOFTPARAM
 70
     7
  9
$LOFTNORMALS
280
     1
  9
$LATITUDE
 40
0.0
  9
$LONGITUDE
 40
0.0
  9
$NORTHDIRECTION
 40
0.0
  9
$TIMEZONE
 70
 -8000
  9
$LIGHTGLYPHDISPLAY
280
     1
  9
$TILEMODELIGHTSYNCH
280
     1
  9
$CMATERIAL
347
1000000
  9
$SOLIDHIST
280
     1
  9
$SHOWHIST
280
     1
  9
$DWFFRAME
280
     2
  9
$DGNFRAME
280
     0
  9
$REALWORLDSCALE
290
     1
  9
$INTERFERECOLOR
 62
     1
  9
$CSHADOW
280
     0
  9
$SHADOWPLANELOCATION
 40
0.0
  0
ENDSEC
  0
SECTION
  2
CLASSES
  0
CLASS
  1
ACDBDICTIONARYWDFLT
  2
AcDbDictionaryWithDefault
  3
ObjectDBX Classes
 90
    32768
 91
        1
280
     0
281
     0
  0
CLASS
  1
MATERIAL
  2
AcDbMaterial
  3
ObjectDBX Classes
 90
        0
 91
        3
280
     0
281
     0
  0
CLASS
  1
VISUALSTYLE
  2
AcDbVisualStyle
  3
ObjectDBX Classes
 90
     4095
 91
       24
280
     0
281
     0
  0
CLASS
  1
TABLESTYLE
  2
AcDbTableStyle
  3
ObjectDBX Classes
 90
     2047
 91
        1
280
     0
281
     0
  0
CLASS
  1
MLEADERSTYLE
  2
AcDbMLeaderStyle
  3
ACDB_MLEADERSTYLE_CLASS
 90
     4095
 91
        1
280
     0
281
     0
  0
CLASS
  1
SCALE
  2
AcDbScale
  3
ObjectDBX Classes
 90
     1153
 91
       17
280
     0
281
     0
  0
CLASS
  1
SORTENTSTABLE
  2
AcDbSortentsTable
  3
ObjectDBX Classes
 90
        0
 91
        1
280
     0
281
     0
  0
CLASS
  1
DICTIONARYVAR
  2
AcDbDictionaryVar
  3
ObjectDBX Classes
 90
        0
 91
        4
280
     0
281
     0
  0
ENDSEC
  0
SECTION
  2
TABLES
  0
TABLE
  2
VPORT
  5
1
330
0
100
AcDbSymbolTable
 70
     1
  0
VPORT
  5
2
330
1
100
AcDbSymbolTableRecord
100
AcDbViewportTableRecord
  2
*ACTIVE
 70
     0
 10
0.0
 20
0.0
 11
1.0
 21
1.0
 12
7581009.589309287
 22
5720039.82417586
 13
0.0
 23
0.0
 14
1.0
 24
1.0
 15
0.0
 25
0.0
 16
0.0
 26
0.0
 36
1.0
 17
0.0
 27
0.0
 37
0.0
 40
1953.675011379157
 41
1.762284196547144
 42
50.0
 43
0.0
 44
0.0
 50
0.0
 51
0.0
 71
     0
 72
   100
 73
     1
 74
     1
 75
     0
 76
     0
 77
     0
 78
     0
281
     0
 65
     1
110
0.0
120
0.0
130
0.0
111
1.0
121
0.0
131
0.0
112
0.0
122
1.0
132
0.0
 79
     0
146
0.0
348
1000008
 60
     3
 61
     5
292
     1
282
     1
141
0.0
142
0.0
 63
   256
  0
ENDTAB
  0
TABLE
  2
LTYPE
  5
3
330
0
100
AcDbSymbolTable
 70
     8
  0
LTYPE
  5
4
330
3
100
AcDbSymbolTableRecord
100
AcDbLinetypeTableRecord
  2
ByBlock
 70
     0
  3

 72
    65
 73
     0
 40
0.0
  0
LTYPE
  5
5
330
3
100
AcDbSymbolTableRecord
100
AcDbLinetypeTableRecord
  2
ByLayer
 70
     0
  3

 72
    65
 73
     0
 40
0.0
  0
LTYPE
  5
6
330
3
100
AcDbSymbolTableRecord
100
AcDbLinetypeTableRecord
  2
CONTINUOUS
 70
     0
  3
Solid line
 72
    65
 73
     0
 40
0.0
  0
LTYPE
  5
8
330
3
100
AcDbSymbolTableRecord
100
AcDbLinetypeTableRecord
  2
L_0_02
 70
     0
  3
Dzialka_ewidencyjna (MLineStyle)
 72
    65
 73
     0
 40
0.0
  0
LTYPE
  5
9
330
3
100
AcDbSymbolTableRecord
100
AcDbLinetypeTableRecord
  2
L_0_03
 70
     0
  3
Uzytek_gruntowy
 72
    65
 73
     2
 40
1.0
 49
0.5
 74
     0
 49
-0.5
 74
     0
  0
LTYPE
  5
A
330
3
100
AcDbSymbolTableRecord
100
AcDbLinetypeTableRecord
  2
L_0_04
 70
     0
  3
Budynek_projektowany
 72
    65
 73
     2
 40
1.5
 49
1.0
 74
     0
 49
-0.5
 74
     0
  0
LTYPE
  5
B
330
3
100
AcDbSymbolTableRecord
100
AcDbLinetypeTableRecord
  2
L_0_06
 70
     0
  3
Granica_konturu_klasyfikacyjnego_Krawedz_chodnika
 72
    65
 73
     2
 40
2.0
 49
1.5
 74
     0
 49
-0.5
 74
     0
  0
LTYPE
  5
C
330
3
100
AcDbSymbolTableRecord
100
AcDbLinetypeTableRecord
  2
L_0_09
 70
     0
  3
Obrys_budynku_ognioodpornego_Obrys_budynku_nieognioodp___0_18__0_18__0_18__0_13_
 72
    65
 73
     2
 40
2.5
 49
2.0
 74
     0
 49
-0.5
 74
     0
  0
LTYPE
  5
D
330
3
100
AcDbSymbolTableRecord
100
AcDbLinetypeTableRecord
  2
L_0_15_SHX
 70
     0
  3
Ogrodzenie_trwale
 72
    65
 73
    12
 40
7.5
 49
0.0
 74
     0
 49
-0.375
 74
     0
 49
-0.75
 74
     0
 49
-0.75
 74
     0
 49
-0.75
 74
     0
 49
-0.75
 74
     0
 49
-0.75
 74
     4
 75
     1
340
E
 46
0.05
 50
0.0
 44
0.0
 45
0.0
 49
-0.75
 74
     0
 49
-0.75
 74
     0
 49
-0.75
 74
     0
 49
-0.75
 74
     0
 49
-0.375
 74
     0
  0
LTYPE
  5
10
330
3
100
AcDbSymbolTableRecord
100
AcDbLinetypeTableRecord
  2
L_0_15
 70
     0
  3
Ogrodzenie_trwale (MLineStyle)
 72
    65
 73
     0
 40
0.0
  0
ENDTAB
  0
TABLE
  2
LAYER
  5
11
330
0
100
AcDbSymbolTable
 70
     3
  0
LAYER
  5
12
330
11
100
AcDbSymbolTableRecord
100
AcDbLayerTableRecord
  2
0
 70
     0
 62
    18
420
        0
  6
CONTINUOUS
370
    18
390
13
347
1000002
348
0
  0
LAYER
  5
14
330
11
100
AcDbSymbolTableRecord
100
AcDbLayerTableRecord
  2
dzialki_ewns
 70
     0
 62
    18
420
        0
  6
CONTINUOUS
370
    18
390
13
347
1000002
348
0
  0
LAYER
  5
15
330
11
100
AcDbSymbolTableRecord
100
AcDbLayerTableRecord
  2
siatka
 70
     0
 62
    18
420
        0
  6
CONTINUOUS
370
    18
390
13
347
1000002
348
0
  0
ENDTAB
  0
TABLE
  2
STYLE
  5
16
330
0
100
AcDbSymbolTable
 70
     4
  0
STYLE
  5
17
330
16
100
AcDbSymbolTableRecord
100
AcDbTextStyleTableRecord
  2
STANDARD
 70
     0
 40
0.0
 41
1.0
 50
0.0
 71
     0
 42
0.2
  3
simplex.shx
  4

  0
STYLE
  5
18
330
16
100
AcDbSymbolTableRecord
100
AcDbTextStyleTableRecord
  2
STANDARD_ITALIC
 70
     0
 40
0.0
 41
1.0
 50
15.0
 71
     0
 42
0.2
  3
simplex.shx
  4

  0
STYLE
  5
E
330
16
100
AcDbSymbolTableRecord
100
AcDbTextStyleTableRecord
  2

 70
     1
 40
0.0
 41
0.05
 50
0.0
 71
     0
 42
0.2
  3
Sobieszyn-dzialki.shx
  4

  0
STYLE
  5
19
330
16
100
AcDbSymbolTableRecord
100
AcDbTextStyleTableRecord
  2
Arial
 70
     0
 40
0.0
 41
1.0
 50
0.0
 71
     0
 42
0.2
  3
Arial.ttf
  4

  0
ENDTAB
  0
TABLE
  2
VIEW
  5
1A
330
0
100
AcDbSymbolTable
 70
     0
  0
ENDTAB
  0
TABLE
  2
UCS
  5
1B
330
0
100
AcDbSymbolTable
 70
     0
  0
ENDTAB
  0
TABLE
  2
APPID
  5
1C
330
0
100
AcDbSymbolTable
 70
     1
  0
APPID
  5
1D
330
1C
100
AcDbSymbolTableRecord
100
AcDbRegAppTableRecord
  2
ACAD
 70
     0
  0
ENDTAB
  0
TABLE
  2
DIMSTYLE
  5
1E
330
0
100
AcDbSymbolTable
 70
     1
100
AcDbDimStyleTable
 71
     0
  0
DIMSTYLE
105
1F
330
1E
100
AcDbSymbolTableRecord
100
AcDbDimStyleTableRecord
  2
Standard
 70
     0
340
17
  0
ENDTAB
  0
TABLE
  2
BLOCK_RECORD
  5
20
330
0
100
AcDbSymbolTable
 70
    10
  0
BLOCK_RECORD
  5
21
102
{ACAD_XDICTIONARY
360
1000034
102
}
330
20
100
AcDbSymbolTableRecord
100
AcDbBlockTableRecord
  2
*MODEL_SPACE
340
22
 70
     0
280
     1
281
     0
  0
BLOCK_RECORD
  5
23
330
20
100
AcDbSymbolTableRecord
100
AcDbBlockTableRecord
  2
*PAPER_SPACE
340
24
 70
     0
280
     1
281
     0
  0
BLOCK_RECORD
  5
25
330
20
100
AcDbSymbolTableRecord
100
AcDbBlockTableRecord
  2
SUPP
340
0
 70
     0
280
     1
281
     0
  0
BLOCK_RECORD
  5
27
330
20
100
AcDbSymbolTableRecord
100
AcDbBlockTableRecord
  2
OTZL
340
0
 70
     0
280
     1
281
     0
  0
BLOCK_RECORD
  5
29
330
20
100
AcDbSymbolTableRecord
100
AcDbBlockTableRecord
  2
OTZG
340
0
 70
     0
280
     1
281
     0
  0
BLOCK_RECORD
  5
2B
330
20
100
AcDbSymbolTableRecord
100
AcDbBlockTableRecord
  2
OTRS
340
0
 70
     0
280
     1
281
     0
  0
BLOCK_RECORD
  5
2D
330
20
100
AcDbSymbolTableRecord
100
AcDbBlockTableRecord
  2
OTRN
340
0
 70
     0
280
     1
281
     0
  0
BLOCK_RECORD
  5
2F
330
20
100
AcDbSymbolTableRecord
100
AcDbBlockTableRecord
  2
OTZZ_2
340
0
 70
     0
280
     1
281
     0
  0
BLOCK_RECORD
  5
31
330
20
100
AcDbSymbolTableRecord
100
AcDbBlockTableRecord
  2
OTZZ_1
340
0
 70
     0
280
     1
281
     0
  0
BLOCK_RECORD
  5
33
330
20
100
AcDbSymbolTableRecord
100
AcDbBlockTableRecord
  2
pikieta
340
0
 70
     0
280
     1
281
     0
  0
BLOCK_RECORD
  5
35
330
20
100
AcDbSymbolTableRecord
100
AcDbBlockTableRecord
  2
L_0_02_1
340
0
 70
     0
280
     1
281
     0
  0
BLOCK_RECORD
  5
37
330
20
100
AcDbSymbolTableRecord
100
AcDbBlockTableRecord
  2
L_0_02_2
340
0
 70
     0
280
     1
281
     0
  0
ENDTAB
  0
ENDSEC
  0
SECTION
  2
BLOCKS
  0
BLOCK
  5
39
330
21
100
AcDbEntity
  8
0
100
AcDbBlockBegin
  2
*MODEL_SPACE
 70
     0
 10
0.0
 20
0.0
 30
0.0
  3
*MODEL_SPACE
  1

  0
ENDBLK
  5
3A
330
21
100
AcDbEntity
  8
0
100
AcDbBlockEnd
  0
BLOCK
  5
3B
330
23
100
AcDbEntity
 67
     1
  8
0
100
AcDbBlockBegin
  2
*PAPER_SPACE
 70
     0
 10
0.0
 20
0.0
 30
0.0
  3
*PAPER_SPACE
  1

  0
ENDBLK
  5
3C
330
23
100
AcDbEntity
 67
     1
  8
0
100
AcDbBlockEnd
  0
BLOCK
  5
26
330
25
100
AcDbEntity
  8
0
 62
     0
370
    13
100
AcDbBlockBegin
  2
SUPP
 70
     0
 10
0.0
 20
0.0
 30
0.0
  3
SUPP
  1

  0
HATCH
  5
3D
330
25
100
AcDbEntity
  8
0
  6
Continuous
 62
     7
420
 16777215
370
    18
100
AcDbHatch
 10
0.0
 20
0.0
 30
0.0
210
0.0
220
0.0
230
1.0
  2
SOLID
 70
     1
 71
     1
 91
        1
 92
        3
 72
     1
 73
     1
 93
        2
 10
0.0
 20
-0.5
 42
1.0
 10
0.0
 20
0.5
 42
1.0
 97
        0
 75
     0
 76
     1
 98
        1
 10
0.0
 20
0.0
  0
CIRCLE
  5
3E
330
25
100
AcDbEntity
  8
0
  6
Continuous
 62
     0
370
    18
100
AcDbCircle
 10
0.0
 20
0.0
 30
0.0
 40
0.5
  0
ENDBLK
  5
3F
330
25
100
AcDbEntity
  8
0
100
AcDbBlockEnd
  0
BLOCK
  5
28
330
27
100
AcDbEntity
  8
0
 62
     0
370
    13
100
AcDbBlockBegin
  2
OTZL
 70
     0
 10
0.0
 20
0.0
 30
0.0
  3
OTZL
  1

  0
ARC
  5
40
330
27
100
AcDbEntity
  8
0
  6
Continuous
 62
     0
370
    18
100
AcDbCircle
 10
0.0
 20
0.8
 30
0.0
 40
0.7
100
AcDbArc
 50
29.8459319497
 51
150.1540680503
  0
ARC
  5
41
330
27
100
AcDbEntity
  8
0
  6
Continuous
 62
     0
370
    18
100
AcDbCircle
 10
0.7700000000000001
 20
0.25
 30
0.0
 40
0.7
100
AcDbArc
 50
317.3373058591
 51
78.36636600109999
  0
ARC
  5
42
330
27
100
AcDbEntity
  8
0
  6
Continuous
 62
     0
370
    18
100
AcDbCircle
 10
0.4600000000000001
 20
-0.6400000000000001
 30
0.0
 40
0.71
100
AcDbArc
 50
247.4427533653
 51
5.630682757599999
  0
ARC
  5
43
330
27
100
AcDbEntity
  8
0
  6
Continuous
 62
     0
370
    18
100
AcDbCircle
 10
-0.4600000000000001
 20
-0.6400000000000001
 30
0.0
 40
0.71
100
AcDbArc
 50
174.3693172424
 51
292.5572466347
  0
ARC
  5
44
330
27
100
AcDbEntity
  8
0
  6
Continuous
 62
     0
370
    18
100
AcDbCircle
 10
-0.7700000000000001
 20
0.25
 30
0.0
 40
0.7
100
AcDbArc
 50
101.6336339989
 51
222.6626941409
  0
HATCH
  5
45
330
27
100
AcDbEntity
  8
0
  6
Continuous
 62
     0
370
    18
100
AcDbHatch
 10
0.0
 20
0.0
 30
0.0
210
0.0
220
0.0
230
1.0
  2
SOLID
 70
     1
 71
     1
 91
        1
 92
        3
 72
     1
 73
     1
 93
        2
 10
0.0
 20
-0.1
 42
1.0
 10
0.0
 20
0.1
 42
1.0
 97
        0
 75
     0
 76
     1
 98
        1
 10
0.0
 20
0.0
  0
CIRCLE
  5
46
330
27
100
AcDbEntity
  8
0
  6
Continuous
 62
     0
370
    18
100
AcDbCircle
 10
0.0
 20
0.0
 30
0.0
 40
0.1
  0
ENDBLK
  5
47
330
27
100
AcDbEntity
  8
0
100
AcDbBlockEnd
  0
BLOCK
  5
2A
330
29
100
AcDbEntity
  8
0
 62
     0
370
    13
100
AcDbBlockBegin
  2
OTZG
 70
     0
 10
0.0
 20
0.0
 30
0.0
  3
OTZG
  1

  0
HATCH
  5
48
330
29
100
AcDbEntity
  8
0
  6
Continuous
 62
     7
420
 16777215
370
    13
100
AcDbHatch
 10
0.0
 20
0.0
 30
0.0
210
0.0
220
0.0
230
1.0
  2
SOLID
 70
     1
 71
     1
 91
        1
 92
        3
 72
     0
 73
     1
 93
       11
 10
0.0
 20
-1.7
 10
-0.4
 20
-0.6
 10
-1.6
 20
-0.6
 10
-0.6
 20
0.1
 10
-1.1
 20
1.399999999999999
 10
0.0
 20
0.6
 10
1.1
 20
1.399999999999999
 10
0.6
 20
0.1
 10
1.5
 20
-0.6
 10
0.4
 20
-0.6
 10
0.0
 20
-1.8
 97
        0
 75
     0
 76
     1
 98
        1
 10
0.0
 20
0.0
  0
POLYLINE
  5
49
330
29
100
AcDbEntity
  8
0
  6
Continuous
 62
     0
370
    13
100
AcDb2dPolyline
 66
     1
 10
0.0
 20
0.0
 30
0.0
 70
   129
  0
VERTEX
  5
4A
330
49
100
AcDbEntity
  8
0
100
AcDbVertex
100
AcDb2dVertex
 10
0.0
 20
-1.7
 30
0.0
  0
VERTEX
  5
4B
330
49
100
AcDbEntity
  8
0
100
AcDbVertex
100
AcDb2dVertex
 10
-0.4
 20
-0.6
 30
0.0
  0
VERTEX
  5
4C
330
49
100
AcDbEntity
  8
0
100
AcDbVertex
100
AcDb2dVertex
 10
-1.6
 20
-0.6
 30
0.0
  0
VERTEX
  5
4D
330
49
100
AcDbEntity
  8
0
100
AcDbVertex
100
AcDb2dVertex
 10
-0.6
 20
0.1
 30
0.0
  0
VERTEX
  5
4E
330
49
100
AcDbEntity
  8
0
100
AcDbVertex
100
AcDb2dVertex
 10
-1.1
 20
1.399999999999999
 30
0.0
  0
VERTEX
  5
4F
330
49
100
AcDbEntity
  8
0
100
AcDbVertex
100
AcDb2dVertex
 10
0.0
 20
0.6
 30
0.0
  0
VERTEX
  5
50
330
49
100
AcDbEntity
  8
0
100
AcDbVertex
100
AcDb2dVertex
 10
1.1
 20
1.399999999999999
 30
0.0
  0
VERTEX
  5
51
330
49
100
AcDbEntity
  8
0
100
AcDbVertex
100
AcDb2dVertex
 10
0.6
 20
0.1
 30
0.0
  0
VERTEX
  5
52
330
49
100
AcDbEntity
  8
0
100
AcDbVertex
100
AcDb2dVertex
 10
1.5
 20
-0.6
 30
0.0
  0
VERTEX
  5
53
330
49
100
AcDbEntity
  8
0
100
AcDbVertex
100
AcDb2dVertex
 10
0.4
 20
-0.6
 30
0.0
  0
VERTEX
  5
54
330
49
100
AcDbEntity
  8
0
100
AcDbVertex
100
AcDb2dVertex
 10
0.0
 20
-1.8
 30
0.0
  0
SEQEND
  5
55
330
0
100
AcDbEntity
  8
0
  0
HATCH
  5
56
330
29
100
AcDbEntity
  8
0
  6
Continuous
 62
     0
370
    13
100
AcDbHatch
 10
0.0
 20
0.0
 30
0.0
210
0.0
220
0.0
230
1.0
  2
SOLID
 70
     1
 71
     1
 91
        1
 92
        3
 72
     1
 73
     1
 93
        2
 10
0.0
 20
-0.1
 42
1.0
 10
0.0
 20
0.1
 42
1.0
 97
        0
 75
     0
 76
     1
 98
        1
 10
0.0
 20
0.0
  0
CIRCLE
  5
57
330
29
100
AcDbEntity
  8
0
  6
Continuous
 62
     0
370
    13
100
AcDbCircle
 10
0.0
 20
0.0
 30
0.0
 40
0.1
  0
ENDBLK
  5
58
330
29
100
AcDbEntity
  8
0
100
AcDbBlockEnd
  0
BLOCK
  5
2C
330
2B
100
AcDbEntity
  8
0
 62
     0
370
    13
100
AcDbBlockBegin
  2
OTRS
 70
     0
 10
0.0
 20
0.0
 30
0.0
  3
OTRS
  1

  0
HATCH
  5
59
330
2B
100
AcDbEntity
  8
0
  6
Continuous
 62
     0
370
    13
100
AcDbHatch
 10
0.0
 20
0.0
 30
0.0
210
0.0
220
0.0
230
1.0
  2
SOLID
 70
     1
 71
     1
 91
        1
 92
        3
 72
     1
 73
     1
 93
        2
 10
0.0
 20
-0.090553851381
 42
1.0
 10
0.0
 20
0.090553851381
 42
1.0
 97
        0
 75
     0
 76
     1
 98
        1
 10
0.0
 20
0.0
  0
CIRCLE
  5
5A
330
2B
100
AcDbEntity
  8
0
  6
Continuous
 62
     0
370
    13
100
AcDbCircle
 10
0.0
 20
0.0
 30
0.0
 40
0.090553851381
  0
ENDBLK
  5
5B
330
2B
100
AcDbEntity
  8
0
100
AcDbBlockEnd
  0
BLOCK
  5
2E
330
2D
100
AcDbEntity
  8
0
 62
     0
370
    13
100
AcDbBlockBegin
  2
OTRN
 70
     0
 10
0.0
 20
0.0
 30
0.0
  3
OTRN
  1

  0
HATCH
  5
5C
330
2D
100
AcDbEntity
  8
0
  6
Continuous
 62
     0
370
    13
100
AcDbHatch
 10
0.0
 20
0.0
 30
0.0
210
0.0
220
0.0
230
1.0
  2
SOLID
 70
     1
 71
     1
 91
        1
 92
        3
 72
     1
 73
     1
 93
        2
 10
0.0
 20
-0.090553851381
 42
1.0
 10
0.0
 20
0.090553851381
 42
1.0
 97
        0
 75
     0
 76
     1
 98
        1
 10
0.0
 20
0.0
  0
CIRCLE
  5
5D
330
2D
100
AcDbEntity
  8
0
  6
Continuous
 62
     0
370
    13
100
AcDbCircle
 10
0.0
 20
0.0
 30
0.0
 40
0.090553851381
  0
ENDBLK
  5
5E
330
2D
100
AcDbEntity
  8
0
100
AcDbBlockEnd
  0
BLOCK
  5
30
330
2F
100
AcDbEntity
  8
0
 62
     0
370
    13
100
AcDbBlockBegin
  2
OTZZ_2
 70
     0
 10
0.0
 20
0.0
 30
0.0
  3
OTZZ_2
  1

  0
CIRCLE
  5
5F
330
2F
100
AcDbEntity
  8
0
  6
Continuous
 62
     0
370
    18
100
AcDbCircle
 10
0.0
 20
0.0
 30
0.0
 40
1.0
  0
ENDBLK
  5
60
330
2F
100
AcDbEntity
  8
0
100
AcDbBlockEnd
  0
BLOCK
  5
32
330
31
100
AcDbEntity
  8
0
 62
     0
370
    13
100
AcDbBlockBegin
  2
OTZZ_1
 70
     0
 10
0.0
 20
0.0
 30
0.0
  3
OTZZ_1
  1

  0
POLYLINE
  5
61
330
31
100
AcDbEntity
  8
0
  6
Continuous
 62
     0
370
    18
100
AcDb2dPolyline
 66
     1
 10
0.0
 20
0.0
 30
0.0
 70
   128
  0
VERTEX
  5
62
330
61
100
AcDbEntity
  8
0
100
AcDbVertex
100
AcDb2dVertex
 10
-1.0
 20
-0.7
 30
0.0
  0
VERTEX
  5
63
330
61
100
AcDbEntity
  8
0
100
AcDbVertex
100
AcDb2dVertex
 10
0.0
 20
1.3
 30
0.0
  0
VERTEX
  5
64
330
61
100
AcDbEntity
  8
0
100
AcDbVertex
100
AcDb2dVertex
 10
1.0
 20
-0.7
 30
0.0
  0
SEQEND
  5
65
330
0
100
AcDbEntity
  8
0
  0
ENDBLK
  5
66
330
31
100
AcDbEntity
  8
0
100
AcDbBlockEnd
  0
BLOCK
  5
34
330
33
100
AcDbEntity
  8
0
 62
     0
370
    13
100
AcDbBlockBegin
  2
pikieta
 70
     0
 10
0.0
 20
0.0
 30
0.0
  3
pikieta
  1

  0
POINT
  5
67
330
33
100
AcDbEntity
  8
0
 62
     0
100
AcDbPoint
 10
0.0
 20
0.0
 30
0.0
  0
ENDBLK
  5
68
330
33
100
AcDbEntity
  8
0
100
AcDbBlockEnd
  0
BLOCK
  5
36
330
35
100
AcDbEntity
  8
0
 62
     0
370
    13
100
AcDbBlockBegin
  2
L_0_02_1
 70
     0
 10
0.0
 20
0.0
 30
0.0
  3
L_0_02_1
  1

  0
POINT
  5
69
330
35
100
AcDbEntity
  8
0
 62
     0
100
AcDbPoint
 10
0.0
 20
0.0
 30
0.0
  0
ENDBLK
  5
6A
330
35
100
AcDbEntity
  8
0
100
AcDbBlockEnd
  0
BLOCK
  5
38
330
37
100
AcDbEntity
  8
0
 62
     0
370
    13
100
AcDbBlockBegin
  2
L_0_02_2
 70
     0
 10
0.0
 20
0.0
 30
0.0
  3
L_0_02_2
  1

  0
POINT
  5
6B
330
37
100
AcDbEntity
  8
0
 62
     0
100
AcDbPoint
 10
0.0
 20
0.0
 30
0.0
  0
ENDBLK
  5
6C
330
37
100
AcDbEntity
  8
0
100
AcDbBlockEnd
  0
ENDSEC
  0
SECTION
  2
ENTITIES
  0
TEXT
  5
87CC
330
21
100
AcDbEntity
  8
dzialki_ewns
100
AcDbText
 10
7581508.299999996
 20
5719745.86271032
 30
0.0
 40
1.0
  1
9-1368/11
 41
0.7800000000000001
  7
Arial
 11
7581508.299999996
 21
5719745.566666664
 31
0.0
100
AcDbText
 73
     1
  0
TEXT
  5
87CD
330
21
100
AcDbEntity
  8
dzialki_ewns
100
AcDbText
 10
7581431.499999999
 20
5719751.962710321
 30
0.0
 40
1.0
  1
9-1368/10
 41
0.7800000000000001
  7
Arial
 11
7581431.499999999
 21
5719751.666666665
 31
0.0
100
AcDbText
 73
     1
  0
TEXT
  5
87CE
330
21
100
AcDbEntity
  8
dzialki_ewns
100
AcDbText
 10
7581361.999999996
 20
5719754.46271032
 30
0.0
 40
1.0
  1
9-1368/9
 41
0.7800000000000001
  7
Arial
 11
7581361.999999996
 21
5719754.166666665
 31
0.0
100
AcDbText
 73
     1
  0
TEXT
  5
87CF
330
21
100
AcDbEntity
  8
dzialki_ewns
100
AcDbText
 10
7581295.099999998
 20
5719759.06271032
 30
0.0
 40
1.0
  1
9-1368/8
 41
0.7800000000000001
  7
Arial
 11
7581295.099999998
 21
5719758.766666664
 31
0.0
100
AcDbText
 73
     1
  0
TEXT
  5
87D0
330
21
100
AcDbEntity
  8
dzialki_ewns
100
AcDbText
 10
7581229.099999999
 20
5719769.36271032
 30
0.0
 40
1.0
  1
9-1368/7
 41
0.7800000000000001
  7
Arial
 11
7581229.099999999
 21
5719769.066666665
 31
0.0
100
AcDbText
 73
     1
  0
TEXT
  5
87D1
330
21
100
AcDbEntity
  8
dzialki_ewns
100
AcDbText
 10
7581283.599999999
 20
5719831.962710322
 30
0.0
 40
1.0
  1
9-1368/5
 41
0.7800000000000001
  7
Arial
 11
7581283.599999999
 21
5719831.666666665
 31
0.0
100
AcDbText
 73
     1
  0
TEXT
  5
87D2
330
21
100
AcDbEntity
  8
dzialki_ewns
100
AcDbText
 10
7581481.099999998
 20
5719885.86271032
 30
0.0
 40
1.0
  1
9-1368/4
 41
0.7800000000000001
  7
Arial
 11
7581481.099999998
 21
5719885.566666664
 31
0.0
100
AcDbText
 73
     1
  0
TEXT
  5
87D3
330
21
100
AcDbEntity
  8
dzialki_ewns
100
AcDbText
 10
7581325.399999998
 20
5719892.662710321
 30
0.0
 40
1.0
  1
9-1368/3
 41
0.7800000000000001
  7
Arial
 11
7581325.399999998
 21
5719892.366666665
 31
0.0
100
AcDbText
 73
     1
  0
TEXT
  5
87D4
330
21
100
AcDbEntity
  8
dzialki_ewns
100
AcDbText
 10
7581229.899999998
 20
5719899.362710321
 30
0.0
 40
1.0
  1
9-1368/2
 41
0.7800000000000001
  7
Arial
 11
7581229.899999998
 21
5719899.066666664
 31
0.0
100
AcDbText
 73
     1
  0
TEXT
  5
87D5
330
21
100
AcDbEntity
  8
dzialki_ewns
100
AcDbText
 10
7581371.699999998
 20
5719964.462710321
 30
0.0
 40
1.0
  1
9-86
 41
0.7800000000000001
  7
Arial
 11
7581371.699999998
 21
5719964.166666665
 31
0.0
100
AcDbText
 73
     1
  0
LINE
  5
1000036
330
21
100
AcDbEntity
  8
dzialki_ewns
  6
Continuous
370
    18
100
AcDbLine
 10
7580697.96
 20
5719629.29
 30
0.0
 11
7580721.16
 21
5719622.79
 31
0.0
  0
LINE
  5
1000037
330
21
100
AcDbEntity
  8
dzialki_ewns
  6
Continuous
370
    18
100
AcDbLine
 10
7580721.16
 20
5719622.79
 30
0.0
 11
7580812.830000001
 21
5719597.019999999
 31
0.0
  0
LINE
  5
1000038
330
21
100
AcDbEntity
  8
dzialki_ewns
  6
Continuous
370
    18
100
AcDbLine
 10
7580812.830000001
 20
5719597.019999999
 30
0.0
 11
7580820.969999999
 21
5719402.38
 31
0.0
  0
LINE
  5
1000039
330
21
100
AcDbEntity
  8
dzialki_ewns
  6
Continuous
370
    18
100
AcDbLine
 10
7580820.969999999
 20
5719402.38
 30
0.0
 11
7580710.0
 21
5719379.990000001
 31
0.0
  0
LINE
  5
100003A
330
21
100
AcDbEntity
  8
dzialki_ewns
  6
Continuous
370
    18
100
AcDbLine
 10
7580710.0
 20
5719379.990000001
 30
0.0
 11
7580697.96
 21
5719629.29
 31
0.0
  0
LINE
  5
100003B
330
21
100
AcDbEntity
  8
dzialki_ewns
  6
Continuous
370
    18
100
AcDbLine
 10
7580820.969999999
 20
5719402.38
 30
0.0
 11
7580812.830000001
 21
5719597.019999999
 31
0.0
  0
LINE
  5
100003C
330
21
100
AcDbEntity
  8
dzialki_ewns
  6
Continuous
370
    18
100
AcDbLine
 10
7580812.830000001
 20
5719597.019999999
 30
0.0
 11
7580831.63
 21
5719591.730000001
 31
0.0
  0
LINE
  5
100003D
330
21
100
AcDbEntity
  8
dzialki_ewns
  6
Continuous
370
    18
100
AcDbLine
 10
7580831.63
 20
5719591.730000001
 30
0.0
 11
7580838.940000001
 21
5719406.019999999
 31
0.0
  0
LINE
  5
100003E
330
21
100
AcDbEntity
  8
dzialki_ewns
  6
Continuous
370
    18
100
AcDbLine
 10
7580838.940000001
 20
5719406.019999999
 30
0.0
 11
7580820.969999999
 21
5719402.38
 31
0.0
  0
LINE
  5
100003F
330
21
100
AcDbEntity
  8
dzialki_ewns
  6
Continuous
370
    18
100
AcDbLine
 10
7580838.940000001
 20
5719406.019999999
 30
0.0
 11
7580831.63
 21
5719591.730000001
 31
0.0
  0
LINE
  5
1000040
330
21
100
AcDbEntity
  8
dzialki_ewns
  6
Continuous
370
    18
100
AcDbLine
 10
7580831.63
 20
5719591.730000001
 30
0.0
 11
7580852.25
 21
5719585.94
 31
0.0
  0
LINE
  5
1000041
330
21
100
AcDbEntity
  8
dzialki_ewns
  6
Continuous
370
    18
100
AcDbLine
 10
7580852.25
 20
5719585.94
 30
0.0
 11
7580858.44
 21
5719409.95
 31
0.0
  0
LINE
  5
1000042
330
21
100
AcDbEntity
  8
dzialki_ewns
  6
Continuous
370
    18
100
AcDbLine
 10
7580858.44
 20
5719409.95
 30
0.0
 11
7580838.940000001
 21
5719406.019999999
 31
0.0
  0
LINE
  5
1000043
330
21
100
AcDbEntity
  8
dzialki_ewns
  6
Continuous
370
    18
100
AcDbLine
 10
7580858.44
 20
5719409.95
 30
0.0
 11
7580852.25
 21
5719585.94
 31
0.0
  0
LINE
  5
1000044
330
21
100
AcDbEntity
  8
dzialki_ewns
  6
Continuous
370
    18
100
AcDbLine
 10
7580852.25
 20
5719585.94
 30
0.0
 11
7580857.57
 21
5719584.440000001
 31
0.0
  0
LINE
  5
1000045
330
21
100
AcDbEntity
  8
dzialki_ewns
  6
Continuous
370
    18
100
AcDbLine
 10
7580857.57
 20
5719584.440000001
 30
0.0
 11
7580865.650000001
 21
5719411.41
 31
0.0
  0
LINE
  5
1000046
330
21
100
AcDbEntity
  8
dzialki_ewns
  6
Continuous
370
    18
100
AcDbLine
 10
7580865.650000001
 20
5719411.41
 30
0.0
 11
7580858.44
 21
5719409.95
 31
0.0
  0
LINE
  5
1000047
330
21
100
AcDbEntity
  8
dzialki_ewns
  6
Continuous
370
    18
100
AcDbLine
 10
7580865.650000001
 20
5719411.41
 30
0.0
 11
7580857.57
 21
5719584.440000001
 31
0.0
  0
LINE
  5
1000048
330
21
100
AcDbEntity
  8
dzialki_ewns
  6
Continuous
370
    18
100
AcDbLine
 10
7580857.57
 20
5719584.440000001
 30
0.0
 11
7580859.38
 21
5719583.929999999
 31
0.0
  0
LINE
  5
1000049
330
21
100
AcDbEntity
  8
dzialki_ewns
  6
Continuous
370
    18
100
AcDbLine
 10
7580859.38
 20
5719583.929999999
 30
0.0
 11
7580867.58
 21
5719411.789999999
 31
0.0
  0
LINE
  5
100004A
330
21
100
AcDbEntity
  8
dzialki_ewns
  6
Continuous
370
    18
100
AcDbLine
 10
7580867.58
 20
5719411.789999999
 30
0.0
 11
7580865.650000001
 21
5719411.41
 31
0.0
  0
LINE
  5
100004B
330
21
100
AcDbEntity
  8
dzialki_ewns
  6
Continuous
370
    18
100
AcDbLine
 10
7580859.38
 20
5719583.929999999
 30
0.0
 11
7580874.25
 21
5719579.740000001
 31
0.0
  0
LINE
  5
100004C
330
21
100
AcDbEntity
  8
dzialki_ewns
  6
Continuous
370
    18
100
AcDbLine
 10
7580874.25
 20
5719579.740000001
 30
0.0
 11
7580879.88
 21
5719414.280000002
 31
0.0
  0
LINE
  5
100004D
330
21
100
AcDbEntity
  8
dzialki_ewns
  6
Continuous
370
    18
100
AcDbLine
 10
7580879.88
 20
5719414.280000002
 30
0.0
 11
7580867.58
 21
5719411.789999999
 31
0.0
  0
LINE
  5
100004E
330
21
100
AcDbEntity
  8
dzialki_ewns
  6
Continuous
370
    18
100
AcDbLine
 10
7580867.58
 20
5719411.789999999
 30
0.0
 11
7580859.38
 21
5719583.929999999
 31
0.0
  0
LINE
  5
100004F
330
21
100
AcDbEntity
  8
dzialki_ewns
  6
Continuous
370
    18
100
AcDbLine
 10
7580879.88
 20
5719414.280000002
 30
0.0
 11
7580874.25
 21
5719579.740000001
 31
0.0
  0
LINE
  5
1000050
330
21
100
AcDbEntity
  8
dzialki_ewns
  6
Continuous
370
    18
100
AcDbLine
 10
7580874.25
 20
5719579.740000001
 30
0.0
 11
7580896.889999999
 21
5719573.38
 31
0.0
  0
LINE
  5
1000051
330
21
100
AcDbEntity
  8
dzialki_ewns
  6
Continuous
370
    18
100
AcDbLine
 10
7580896.889999999
 20
5719573.38
 30
0.0
 11
7580902.71
 21
5719418.889999999
 31
0.0
  0
LINE
  5
1000052
330
21
100
AcDbEntity
  8
dzialki_ewns
  6
Continuous
370
    18
100
AcDbLine
 10
7580902.71
 20
5719418.889999999
 30
0.0
 11
7580879.88
 21
5719414.280000002
 31
0.0
  0
LINE
  5
1000053
330
21
100
AcDbEntity
  8
dzialki_ewns
  6
Continuous
370
    18
100
AcDbLine
 10
7580902.71
 20
5719418.889999999
 30
0.0
 11
7580896.889999999
 21
5719573.38
 31
0.0
  0
LINE
  5
1000054
330
21
100
AcDbEntity
  8
dzialki_ewns
  6
Continuous
370
    18
100
AcDbLine
 10
7580896.889999999
 20
5719573.38
 30
0.0
 11
7580922.440000001
 21
5719566.179999999
 31
0.0
  0
LINE
  5
1000055
330
21
100
AcDbEntity
  8
dzialki_ewns
  6
Continuous
370
    18
100
AcDbLine
 10
7580922.440000001
 20
5719566.179999999
 30
0.0
 11
7580927.13
 21
5719423.730000001
 31
0.0
  0
LINE
  5
1000056
330
21
100
AcDbEntity
  8
dzialki_ewns
  6
Continuous
370
    18
100
AcDbLine
 10
7580927.13
 20
5719423.730000001
 30
0.0
 11
7580902.71
 21
5719418.889999999
 31
0.0
  0
LINE
  5
1000057
330
21
100
AcDbEntity
  8
dzialki_ewns
  6
Continuous
370
    18
100
AcDbLine
 10
7580927.13
 20
5719423.730000001
 30
0.0
 11
7580922.440000001
 21
5719566.179999999
 31
0.0
  0
LINE
  5
1000058
330
21
100
AcDbEntity
  8
dzialki_ewns
  6
Continuous
370
    18
100
AcDbLine
 10
7580922.440000001
 20
5719566.179999999
 30
0.0
 11
7580941.769999999
 21
5719560.759999999
 31
0.0
  0
LINE
  5
1000059
330
21
100
AcDbEntity
  8
dzialki_ewns
  6
Continuous
370
    18
100
AcDbLine
 10
7580941.769999999
 20
5719560.759999999
 30
0.0
 11
7580947.459999999
 21
5719427.929999999
 31
0.0
  0
LINE
  5
100005A
330
21
100
AcDbEntity
  8
dzialki_ewns
  6
Continuous
370
    18
100
AcDbLine
 10
7580947.459999999
 20
5719427.929999999
 30
0.0
 11
7580927.13
 21
5719423.730000001
 31
0.0
  0
LINE
  5
100005B
330
21
100
AcDbEntity
  8
dzialki_ewns
  6
Continuous
370
    18
100
AcDbLine
 10
7580947.459999999
 20
5719427.929999999
 30
0.0
 11
7580941.769999999
 21
5719560.759999999
 31
0.0
  0
LINE
  5
100005C
330
21
100
AcDbEntity
  8
dzialki_ewns
  6
Continuous
370
    18
100
AcDbLine
 10
7580941.769999999
 20
5719560.759999999
 30
0.0
 11
7580946.43
 21
5719559.46
 31
0.0
  0
LINE
  5
100005D
330
21
100
AcDbEntity
  8
dzialki_ewns
  6
Continuous
370
    18
100
AcDbLine
 10
7580946.43
 20
5719559.46
 30
0.0
 11
7580951.96
 21
5719428.88
 31
0.0
  0
LINE
  5
100005E
330
21
100
AcDbEntity
  8
dzialki_ewns
  6
Continuous
370
    18
100
AcDbLine
 10
7580951.96
 20
5719428.88
 30
0.0
 11
7580947.459999999
 21
5719427.929999999
 31
0.0
  0
LINE
  5
100005F
330
21
100
AcDbEntity
  8
dzialki_ewns
  6
Continuous
370
    18
100
AcDbLine
 10
7580951.96
 20
5719428.88
 30
0.0
 11
7580946.43
 21
5719559.46
 31
0.0
  0
LINE
  5
1000060
330
21
100
AcDbEntity
  8
dzialki_ewns
  6
Continuous
370
    18
100
AcDbLine
 10
7580946.43
 20
5719559.46
 30
0.0
 11
7580959.710000001
 21
5719555.719999999
 31
0.0
  0
LINE
  5
1000061
330
21
100
AcDbEntity
  8
dzialki_ewns
  6
Continuous
370
    18
100
AcDbLine
 10
7580959.710000001
 20
5719555.719999999
 30
0.0
 11
7580965.110000001
 21
5719431.480000001
 31
0.0
  0
LINE
  5
1000062
330
21
100
AcDbEntity
  8
dzialki_ewns
  6
Continuous
370
    18
100
AcDbLine
 10
7580965.110000001
 20
5719431.480000001
 30
0.0
 11
7580951.96
 21
5719428.88
 31
0.0
  0
LINE
  5
1000063
330
21
100
AcDbEntity
  8
dzialki_ewns
  6
Continuous
370
    18
100
AcDbLine
 10
7580965.110000001
 20
5719431.480000001
 30
0.0
 11
7580959.710000001
 21
5719555.719999999
 31
0.0
  0
LINE
  5
1000064
330
21
100
AcDbEntity
  8
dzialki_ewns
  6
Continuous
370
    18
100
AcDbLine
 10
7580959.710000001
 20
5719555.719999999
 30
0.0
 11
7580973.97
 21
5719551.710000001
 31
0.0
  0
LINE
  5
1000065
330
21
100
AcDbEntity
  8
dzialki_ewns
  6
Continuous
370
    18
100
AcDbLine
 10
7580973.97
 20
5719551.710000001
 30
0.0
 11
7580977.389999999
 21
5719433.969999999
 31
0.0
  0
LINE
  5
1000066
330
21
100
AcDbEntity
  8
dzialki_ewns
  6
Continuous
370
    18
100
AcDbLine
 10
7580977.389999999
 20
5719433.969999999
 30
0.0
 11
7580965.110000001
 21
5719431.480000001
 31
0.0
  0
LINE
  5
1000067
330
21
100
AcDbEntity
  8
dzialki_ewns
  6
Continuous
370
    18
100
AcDbLine
 10
7580977.389999999
 20
5719433.969999999
 30
0.0
 11
7580973.97
 21
5719551.710000001
 31
0.0
  0
LINE
  5
1000068
330
21
100
AcDbEntity
  8
dzialki_ewns
  6
Continuous
370
    18
100
AcDbLine
 10
7580973.97
 20
5719551.710000001
 30
0.0
 11
7580981.2
 21
5719549.68
 31
0.0
  0
LINE
  5
1000069
330
21
100
AcDbEntity
  8
dzialki_ewns
  6
Continuous
370
    18
100
AcDbLine
 10
7580981.2
 20
5719549.68
 30
0.0
 11
7580984.739999999
 21
5719435.45
 31
0.0
  0
LINE
  5
100006A
330
21
100
AcDbEntity
  8
dzialki_ewns
  6
Continuous
370
    18
100
AcDbLine
 10
7580984.739999999
 20
5719435.45
 30
0.0
 11
7580977.389999999
 21
5719433.969999999
 31
0.0
  0
LINE
  5
100006B
330
21
100
AcDbEntity
  8
dzialki_ewns
  6
Continuous
370
    18
100
AcDbLine
 10
7580984.739999999
 20
5719435.45
 30
0.0
 11
7580981.2
 21
5719549.68
 31
0.0
  0
LINE
  5
100006C
330
21
100
AcDbEntity
  8
dzialki_ewns
  6
Continuous
370
    18
100
AcDbLine
 10
7580981.2
 20
5719549.68
 30
0.0
 11
7581009.129999999
 21
5719541.83
 31
0.0
  0
LINE
  5
100006D
330
21
100
AcDbEntity
  8
dzialki_ewns
  6
Continuous
370
    18
100
AcDbLine
 10
7581009.129999999
 20
5719541.83
 30
0.0
 11
7581023.190000002
 21
5719443.209999999
 31
0.0
  0
LINE
  5
100006E
330
21
100
AcDbEntity
  8
dzialki_ewns
  6
Continuous
370
    18
100
AcDbLine
 10
7581023.190000002
 20
5719443.209999999
 30
0.0
 11
7580984.739999999
 21
5719435.45
 31
0.0
  0
LINE
  5
100006F
330
21
100
AcDbEntity
  8
dzialki_ewns
  6
Continuous
370
    18
100
AcDbLine
 10
7581615.04
 20
5719572.349999999
 30
0.0
 11
7581597.93
 21
5719568.88
 31
0.0
  0
LINE
  5
1000070
330
21
100
AcDbEntity
  8
dzialki_ewns
  6
Continuous
370
    18
100
AcDbLine
 10
7581597.93
 20
5719568.88
 30
0.0
 11
7581601.88
 21
5719834.179999999
 31
0.0
  0
LINE
  5
1000071
330
21
100
AcDbEntity
  8
dzialki_ewns
  6
Continuous
370
    18
100
AcDbLine
 10
7581601.88
 20
5719834.179999999
 30
0.0
 11
7581601.79
 21
5719937.69
 31
0.0
  0
LINE
  5
1000072
330
21
100
AcDbEntity
  8
dzialki_ewns
  6
Continuous
370
    18
100
AcDbLine
 10
7581601.79
 20
5719937.69
 30
0.0
 11
7581620.650000001
 21
5719936.030000001
 31
0.0
  0
LINE
  5
1000073
330
21
100
AcDbEntity
  8
dzialki_ewns
  6
Continuous
370
    18
100
AcDbLine
 10
7581620.650000001
 20
5719936.030000001
 30
0.0
 11
7581619.42
 21
5719820.09
 31
0.0
  0
LINE
  5
1000074
330
21
100
AcDbEntity
  8
dzialki_ewns
  6
Continuous
370
    18
100
AcDbLine
 10
7581619.42
 20
5719820.09
 30
0.0
 11
7581615.04
 21
5719572.349999999
 31
0.0
  0
LINE
  5
1000075
330
21
100
AcDbEntity
  8
dzialki_ewns
  6
Continuous
370
    18
100
AcDbLine
 10
7581615.04
 20
5719572.349999999
 30
0.0
 11
7581619.42
 21
5719820.09
 31
0.0
  0
LINE
  5
1000076
330
21
100
AcDbEntity
  8
dzialki_ewns
  6
Continuous
370
    18
100
AcDbLine
 10
7581619.42
 20
5719820.09
 30
0.0
 11
7581620.650000001
 21
5719936.030000001
 31
0.0
  0
LINE
  5
1000077
330
21
100
AcDbEntity
  8
dzialki_ewns
  6
Continuous
370
    18
100
AcDbLine
 10
7581620.650000001
 20
5719936.030000001
 30
0.0
 11
7581635.059999999
 21
5719934.769999999
 31
0.0
  0
LINE
  5
1000078
330
21
100
AcDbEntity
  8
dzialki_ewns
  6
Continuous
370
    18
100
AcDbLine
 10
7581635.059999999
 20
5719934.769999999
 30
0.0
 11
7581628.799999999
 21
5719575.139999999
 31
0.0
  0
LINE
  5
1000079
330
21
100
AcDbEntity
  8
dzialki_ewns
  6
Continuous
370
    18
100
AcDbLine
 10
7581628.799999999
 20
5719575.139999999
 30
0.0
 11
7581615.04
 21
5719572.349999999
 31
0.0
  0
LINE
  5
100007A
330
21
100
AcDbEntity
  8
dzialki_ewns
  6
Continuous
370
    18
100
AcDbLine
 10
7581628.799999999
 20
5719575.139999999
 30
0.0
 11
7581635.059999999
 21
5719934.769999999
 31
0.0
  0
LINE
  5
100007B
330
21
100
AcDbEntity
  8
dzialki_ewns
  6
Continuous
370
    18
100
AcDbLine
 10
7581635.059999999
 20
5719934.769999999
 30
0.0
 11
7581654.22
 21
5719933.070000002
 31
0.0
  0
LINE
  5
100007C
330
21
100
AcDbEntity
  8
dzialki_ewns
  6
Continuous
370
    18
100
AcDbLine
 10
7581654.22
 20
5719933.070000002
 30
0.0
 11
7581651.559999999
 21
5719811.749999999
 31
0.0
  0
LINE
  5
100007D
330
21
100
AcDbEntity
  8
dzialki_ewns
  6
Continuous
370
    18
100
AcDbLine
 10
7581651.559999999
 20
5719811.749999999
 30
0.0
 11
7581648.32
 21
5719575.070000001
 31
0.0
  0
LINE
  5
100007E
330
21
100
AcDbEntity
  8
dzialki_ewns
  6
Continuous
370
    18
100
AcDbLine
 10
7581648.32
 20
5719575.070000001
 30
0.0
 11
7581632.45
 21
5719575.879999999
 31
0.0
  0
LINE
  5
100007F
330
21
100
AcDbEntity
  8
dzialki_ewns
  6
Continuous
370
    18
100
AcDbLine
 10
7581632.45
 20
5719575.879999999
 30
0.0
 11
7581628.799999999
 21
5719575.139999999
 31
0.0
  0
LINE
  5
1000080
330
21
100
AcDbEntity
  8
dzialki_ewns
  6
Continuous
370
    18
100
AcDbLine
 10
7581648.32
 20
5719575.070000001
 30
0.0
 11
7581651.559999999
 21
5719811.749999999
 31
0.0
  0
LINE
  5
1000081
330
21
100
AcDbEntity
  8
dzialki_ewns
  6
Continuous
370
    18
100
AcDbLine
 10
7581651.559999999
 20
5719811.749999999
 30
0.0
 11
7581654.22
 21
5719933.070000002
 31
0.0
  0
LINE
  5
1000082
330
21
100
AcDbEntity
  8
dzialki_ewns
  6
Continuous
370
    18
100
AcDbLine
 10
7581654.22
 20
5719933.070000002
 30
0.0
 11
7581684.44
 21
5719930.41
 31
0.0
  0
LINE
  5
1000083
330
21
100
AcDbEntity
  8
dzialki_ewns
  6
Continuous
370
    18
100
AcDbLine
 10
7581684.44
 20
5719930.41
 30
0.0
 11
7581677.24
 21
5719654.139999999
 31
0.0
  0
LINE
  5
1000084
330
21
100
AcDbEntity
  8
dzialki_ewns
  6
Continuous
370
    18
100
AcDbLine
 10
7581677.24
 20
5719654.139999999
 30
0.0
 11
7581676.919999999
 21
5719573.599999998
 31
0.0
  0
LINE
  5
1000085
330
21
100
AcDbEntity
  8
dzialki_ewns
  6
Continuous
370
    18
100
AcDbLine
 10
7581676.919999999
 20
5719573.599999998
 30
0.0
 11
7581648.32
 21
5719575.070000001
 31
0.0
  0
LINE
  5
1000086
330
21
100
AcDbEntity
  8
dzialki_ewns
  6
Continuous
370
    18
100
AcDbLine
 10
7581677.24
 20
5719654.139999999
 30
0.0
 11
7581684.44
 21
5719930.41
 31
0.0
  0
LINE
  5
1000087
330
21
100
AcDbEntity
  8
dzialki_ewns
  6
Continuous
370
    18
100
AcDbLine
 10
7581684.44
 20
5719930.41
 30
0.0
 11
7581711.66
 21
5719928.009999998
 31
0.0
  0
LINE
  5
1000088
330
21
100
AcDbEntity
  8
dzialki_ewns
  6
Continuous
370
    18
100
AcDbLine
 10
7581711.66
 20
5719928.009999998
 30
0.0
 11
7581692.99
 21
5719572.76
 31
0.0
  0
LINE
  5
1000089
330
21
100
AcDbEntity
  8
dzialki_ewns
  6
Continuous
370
    18
100
AcDbLine
 10
7581692.99
 20
5719572.76
 30
0.0
 11
7581676.919999999
 21
5719573.599999998
 31
0.0
  0
LINE
  5
100008A
330
21
100
AcDbEntity
  8
dzialki_ewns
  6
Continuous
370
    18
100
AcDbLine
 10
7581676.919999999
 20
5719573.599999998
 30
0.0
 11
7581677.24
 21
5719654.139999999
 31
0.0
  0
LINE
  5
100008B
330
21
100
AcDbEntity
  8
dzialki_ewns
  6
Continuous
370
    18
100
AcDbLine
 10
7581692.99
 20
5719572.76
 30
0.0
 11
7581711.66
 21
5719928.009999998
 31
0.0
  0
LINE
  5
100008C
330
21
100
AcDbEntity
  8
dzialki_ewns
  6
Continuous
370
    18
100
AcDbLine
 10
7581711.66
 20
5719928.009999998
 30
0.0
 11
7581757.83
 21
5719922.969999999
 31
0.0
  0
LINE
  5
100008D
330
21
100
AcDbEntity
  8
dzialki_ewns
  6
Continuous
370
    18
100
AcDbLine
 10
7581757.83
 20
5719922.969999999
 30
0.0
 11
7581754.190000001
 21
5719825.61
 31
0.0
  0
LINE
  5
100008E
330
21
100
AcDbEntity
  8
dzialki_ewns
  6
Continuous
370
    18
100
AcDbLine
 10
7581754.190000001
 20
5719825.61
 30
0.0
 11
7581748.82
 21
5719681.9
 31
0.0
  0
LINE
  5
100008F
330
21
100
AcDbEntity
  8
dzialki_ewns
  6
Continuous
370
    18
100
AcDbLine
 10
7581748.82
 20
5719681.9
 30
0.0
 11
7581743.499999999
 21
5719570.17
 31
0.0
  0
LINE
  5
1000090
330
21
100
AcDbEntity
  8
dzialki_ewns
  6
Continuous
370
    18
100
AcDbLine
 10
7581743.499999999
 20
5719570.17
 30
0.0
 11
7581692.99
 21
5719572.76
 31
0.0
  0
LINE
  5
1000091
330
21
100
AcDbEntity
  8
dzialki_ewns
  6
Continuous
370
    18
100
AcDbLine
 10
7581748.82
 20
5719681.9
 30
0.0
 11
7581754.190000001
 21
5719825.61
 31
0.0
  0
LINE
  5
1000092
330
21
100
AcDbEntity
  8
dzialki_ewns
  6
Continuous
370
    18
100
AcDbLine
 10
7581754.190000001
 20
5719825.61
 30
0.0
 11
7581757.83
 21
5719922.969999999
 31
0.0
  0
LINE
  5
1000093
330
21
100
AcDbEntity
  8
dzialki_ewns
  6
Continuous
370
    18
100
AcDbLine
 10
7581757.83
 20
5719922.969999999
 30
0.0
 11
7581801.63
 21
5719918.200000002
 31
0.0
  0
LINE
  5
1000094
330
21
100
AcDbEntity
  8
dzialki_ewns
  6
Continuous
370
    18
100
AcDbLine
 10
7581801.63
 20
5719918.200000002
 30
0.0
 11
7581798.490000001
 21
5719845.63
 31
0.0
  0
LINE
  5
1000095
330
21
100
AcDbEntity
  8
dzialki_ewns
  6
Continuous
370
    18
100
AcDbLine
 10
7581798.490000001
 20
5719845.63
 30
0.0
 11
7581794.030000001
 21
5719671.53
 31
0.0
  0
LINE
  5
1000096
330
21
100
AcDbEntity
  8
dzialki_ewns
  6
Continuous
370
    18
100
AcDbLine
 10
7581794.030000001
 20
5719671.53
 30
0.0
 11
7581789.8
 21
5719567.780000001
 31
0.0
  0
LINE
  5
1000097
330
21
100
AcDbEntity
  8
dzialki_ewns
  6
Continuous
370
    18
100
AcDbLine
 10
7581789.8
 20
5719567.780000001
 30
0.0
 11
7581743.499999999
 21
5719570.17
 31
0.0
  0
LINE
  5
1000098
330
21
100
AcDbEntity
  8
dzialki_ewns
  6
Continuous
370
    18
100
AcDbLine
 10
7581743.499999999
 20
5719570.17
 30
0.0
 11
7581748.82
 21
5719681.9
 31
0.0
  0
LINE
  5
1000099
330
21
100
AcDbEntity
  8
dzialki_ewns
  6
Continuous
370
    18
100
AcDbLine
 10
7581794.030000001
 20
5719671.53
 30
0.0
 11
7581798.490000001
 21
5719845.63
 31
0.0
  0
LINE
  5
100009A
330
21
100
AcDbEntity
  8
dzialki_ewns
  6
Continuous
370
    18
100
AcDbLine
 10
7581798.490000001
 20
5719845.63
 30
0.0
 11
7581801.63
 21
5719918.200000002
 31
0.0
  0
LINE
  5
100009B
330
21
100
AcDbEntity
  8
dzialki_ewns
  6
Continuous
370
    18
100
AcDbLine
 10
7581801.63
 20
5719918.200000002
 30
0.0
 11
7581822.92
 21
5719915.88
 31
0.0
  0
LINE
  5
100009C
330
21
100
AcDbEntity
  8
dzialki_ewns
  6
Continuous
370
    18
100
AcDbLine
 10
7581822.92
 20
5719915.88
 30
0.0
 11
7581818.05
 21
5719691.76
 31
0.0
  0
LINE
  5
100009D
330
21
100
AcDbEntity
  8
dzialki_ewns
  6
Continuous
370
    18
100
AcDbLine
 10
7581818.05
 20
5719691.76
 30
0.0
 11
7581813.56
 21
5719564.830000002
 31
0.0
  0
LINE
  5
100009E
330
21
100
AcDbEntity
  8
dzialki_ewns
  6
Continuous
370
    18
100
AcDbLine
 10
7581813.56
 20
5719564.830000002
 30
0.0
 11
7581789.8
 21
5719567.780000001
 31
0.0
  0
LINE
  5
100009F
330
21
100
AcDbEntity
  8
dzialki_ewns
  6
Continuous
370
    18
100
AcDbLine
 10
7581789.8
 20
5719567.780000001
 30
0.0
 11
7581794.030000001
 21
5719671.53
 31
0.0
  0
LINE
  5
10000A0
330
21
100
AcDbEntity
  8
dzialki_ewns
  6
Continuous
370
    18
100
AcDbLine
 10
7581818.05
 20
5719691.76
 30
0.0
 11
7581822.92
 21
5719915.88
 31
0.0
  0
LINE
  5
10000A1
330
21
100
AcDbEntity
  8
dzialki_ewns
  6
Continuous
370
    18
100
AcDbLine
 10
7581822.92
 20
5719915.88
 30
0.0
 11
7581844.99
 21
5719913.47
 31
0.0
  0
LINE
  5
10000A2
330
21
100
AcDbEntity
  8
dzialki_ewns
  6
Continuous
370
    18
100
AcDbLine
 10
7581844.99
 20
5719913.47
 30
0.0
 11
7581842.110000001
 21
5719671.370000001
 31
0.0
  0
LINE
  5
10000A3
330
21
100
AcDbEntity
  8
dzialki_ewns
  6
Continuous
370
    18
100
AcDbLine
 10
7581842.110000001
 20
5719671.370000001
 30
0.0
 11
7581838.230000002
 21
5719561.759999999
 31
0.0
  0
LINE
  5
10000A4
330
21
100
AcDbEntity
  8
dzialki_ewns
  6
Continuous
370
    18
100
AcDbLine
 10
7581838.230000002
 20
5719561.759999999
 30
0.0
 11
7581813.56
 21
5719564.830000002
 31
0.0
  0
LINE
  5
10000A5
330
21
100
AcDbEntity
  8
dzialki_ewns
  6
Continuous
370
    18
100
AcDbLine
 10
7581813.56
 20
5719564.830000002
 30
0.0
 11
7581818.05
 21
5719691.76
 31
0.0
  0
LINE
  5
10000A6
330
21
100
AcDbEntity
  8
dzialki_ewns
  6
Continuous
370
    18
100
AcDbLine
 10
7581842.110000001
 20
5719671.370000001
 30
0.0
 11
7581844.99
 21
5719913.47
 31
0.0
  0
LINE
  5
10000A7
330
21
100
AcDbEntity
  8
dzialki_ewns
  6
Continuous
370
    18
100
AcDbLine
 10
7581844.99
 20
5719913.47
 30
0.0
 11
7581873.340000001
 21
5719911.179999999
 31
0.0
  0
LINE
  5
10000A8
330
21
100
AcDbEntity
  8
dzialki_ewns
  6
Continuous
370
    18
100
AcDbLine
 10
7581873.340000001
 20
5719911.179999999
 30
0.0
 11
7581869.95
 21
5719670.28
 31
0.0
  0
LINE
  5
10000A9
330
21
100
AcDbEntity
  8
dzialki_ewns
  6
Continuous
370
    18
100
AcDbLine
 10
7581869.95
 20
5719670.28
 30
0.0
 11
7581866.179999999
 21
5719558.28
 31
0.0
  0
LINE
  5
10000AA
330
21
100
AcDbEntity
  8
dzialki_ewns
  6
Continuous
370
    18
100
AcDbLine
 10
7581866.179999999
 20
5719558.28
 30
0.0
 11
7581838.230000002
 21
5719561.759999999
 31
0.0
  0
LINE
  5
10000AB
330
21
100
AcDbEntity
  8
dzialki_ewns
  6
Continuous
370
    18
100
AcDbLine
 10
7581838.230000002
 20
5719561.759999999
 30
0.0
 11
7581842.110000001
 21
5719671.370000001
 31
0.0
  0
LINE
  5
10000AC
330
21
100
AcDbEntity
  8
dzialki_ewns
  6
Continuous
370
    18
100
AcDbLine
 10
7581869.95
 20
5719670.28
 30
0.0
 11
7581873.340000001
 21
5719911.179999999
 31
0.0
  0
LINE
  5
10000AD
330
21
100
AcDbEntity
  8
dzialki_ewns
  6
Continuous
370
    18
100
AcDbLine
 10
7581873.340000001
 20
5719911.179999999
 30
0.0
 11
7581887.05
 21
5719910.059999998
 31
0.0
  0
LINE
  5
10000AE
330
21
100
AcDbEntity
  8
dzialki_ewns
  6
Continuous
370
    18
100
AcDbLine
 10
7581887.05
 20
5719910.059999998
 30
0.0
 11
7581880.030000002
 21
5719556.56
 31
0.0
  0
LINE
  5
10000AF
330
21
100
AcDbEntity
  8
dzialki_ewns
  6
Continuous
370
    18
100
AcDbLine
 10
7581880.030000002
 20
5719556.56
 30
0.0
 11
7581866.179999999
 21
5719558.28
 31
0.0
  0
LINE
  5
10000B0
330
21
100
AcDbEntity
  8
dzialki_ewns
  6
Continuous
370
    18
100
AcDbLine
 10
7581866.179999999
 20
5719558.28
 30
0.0
 11
7581869.95
 21
5719670.28
 31
0.0
  0
LINE
  5
10000B1
330
21
100
AcDbEntity
  8
dzialki_ewns
  6
Continuous
370
    18
100
AcDbLine
 10
7581880.030000002
 20
5719556.56
 30
0.0
 11
7581887.05
 21
5719910.059999998
 31
0.0
  0
LINE
  5
10000B2
330
21
100
AcDbEntity
  8
dzialki_ewns
  6
Continuous
370
    18
100
AcDbLine
 10
7581887.05
 20
5719910.059999998
 30
0.0
 11
7581900.67
 21
5719908.96
 31
0.0
  0
LINE
  5
10000B3
330
21
100
AcDbEntity
  8
dzialki_ewns
  6
Continuous
370
    18
100
AcDbLine
 10
7581900.67
 20
5719908.96
 30
0.0
 11
7581893.889999999
 21
5719554.839999999
 31
0.0
  0
LINE
  5
10000B4
330
21
100
AcDbEntity
  8
dzialki_ewns
  6
Continuous
370
    18
100
AcDbLine
 10
7581893.889999999
 20
5719554.839999999
 30
0.0
 11
7581880.030000002
 21
5719556.56
 31
0.0
  0
LINE
  5
10000B5
330
21
100
AcDbEntity
  8
dzialki_ewns
  6
Continuous
370
    18
100
AcDbLine
 10
7581893.889999999
 20
5719554.839999999
 30
0.0
 11
7581900.67
 21
5719908.96
 31
0.0
  0
LINE
  5
10000B6
330
21
100
AcDbEntity
  8
dzialki_ewns
  6
Continuous
370
    18
100
AcDbLine
 10
7581900.67
 20
5719908.96
 30
0.0
 11
7581958.32
 21
5719904.280000001
 31
0.0
  0
LINE
  5
10000B7
330
21
100
AcDbEntity
  8
dzialki_ewns
  6
Continuous
370
    18
100
AcDbLine
 10
7581958.32
 20
5719904.280000001
 30
0.0
 11
7581951.88
 21
5719547.63
 31
0.0
  0
LINE
  5
10000B8
330
21
100
AcDbEntity
  8
dzialki_ewns
  6
Continuous
370
    18
100
AcDbLine
 10
7581951.88
 20
5719547.63
 30
0.0
 11
7581893.889999999
 21
5719554.839999999
 31
0.0
  0
LINE
  5
10000B9
330
21
100
AcDbEntity
  8
dzialki_ewns
  6
Continuous
370
    18
100
AcDbLine
 10
7581958.32
 20
5719904.280000001
 30
0.0
 11
7581973.23
 21
5719903.069999999
 31
0.0
  0
LINE
  5
10000BA
330
21
100
AcDbEntity
  8
dzialki_ewns
  6
Continuous
370
    18
100
AcDbLine
 10
7581973.23
 20
5719903.069999999
 30
0.0
 11
7581966.22
 21
5719545.849999999
 31
0.0
  0
LINE
  5
10000BB
330
21
100
AcDbEntity
  8
dzialki_ewns
  6
Continuous
370
    18
100
AcDbLine
 10
7581966.22
 20
5719545.849999999
 30
0.0
 11
7581951.88
 21
5719547.63
 31
0.0
  0
LINE
  5
10000BC
330
21
100
AcDbEntity
  8
dzialki_ewns
  6
Continuous
370
    18
100
AcDbLine
 10
7581951.88
 20
5719547.63
 30
0.0
 11
7581958.32
 21
5719904.280000001
 31
0.0
  0
LINE
  5
10000BD
330
21
100
AcDbEntity
  8
dzialki_ewns
  6
Continuous
370
    18
100
AcDbLine
 10
7581966.22
 20
5719545.849999999
 30
0.0
 11
7581973.23
 21
5719903.069999999
 31
0.0
  0
LINE
  5
10000BE
330
21
100
AcDbEntity
  8
dzialki_ewns
  6
Continuous
370
    18
100
AcDbLine
 10
7581973.23
 20
5719903.069999999
 30
0.0
 11
7581988.940000001
 21
5719901.8
 31
0.0
  0
LINE
  5
10000BF
330
21
100
AcDbEntity
  8
dzialki_ewns
  6
Continuous
370
    18
100
AcDbLine
 10
7581988.940000001
 20
5719901.8
 30
0.0
 11
7581986.349999998
 21
5719801.400000001
 31
0.0
  0
LINE
  5
10000C0
330
21
100
AcDbEntity
  8
dzialki_ewns
  6
Continuous
370
    18
100
AcDbLine
 10
7581986.349999998
 20
5719801.400000001
 30
0.0
 11
7581984.769999999
 21
5719704.89
 31
0.0
  0
LINE
  5
10000C1
330
21
100
AcDbEntity
  8
dzialki_ewns
  6
Continuous
370
    18
100
AcDbLine
 10
7581984.769999999
 20
5719704.89
 30
0.0
 11
7581981.65
 21
5719557.660000001
 31
0.0
  0
LINE
  5
10000C2
330
21
100
AcDbEntity
  8
dzialki_ewns
  6
Continuous
370
    18
100
AcDbLine
 10
7581981.65
 20
5719557.660000001
 30
0.0
 11
7581981.360000001
 21
5719543.96
 31
0.0
  0
LINE
  5
10000C3
330
21
100
AcDbEntity
  8
dzialki_ewns
  6
Continuous
370
    18
100
AcDbLine
 10
7581981.360000001
 20
5719543.96
 30
0.0
 11
7581966.22
 21
5719545.849999999
 31
0.0
  0
LINE
  5
10000C4
330
21
100
AcDbEntity
  8
dzialki_ewns
  6
Continuous
370
    18
100
AcDbLine
 10
7581984.769999999
 20
5719704.89
 30
0.0
 11
7581986.349999998
 21
5719801.400000001
 31
0.0
  0
LINE
  5
10000C5
330
21
100
AcDbEntity
  8
dzialki_ewns
  6
Continuous
370
    18
100
AcDbLine
 10
7581986.349999998
 20
5719801.400000001
 30
0.0
 11
7581988.940000001
 21
5719901.8
 31
0.0
  0
LINE
  5
10000C6
330
21
100
AcDbEntity
  8
dzialki_ewns
  6
Continuous
370
    18
100
AcDbLine
 10
7581988.940000001
 20
5719901.8
 30
0.0
 11
7582027.38
 21
5719898.68
 31
0.0
  0
LINE
  5
10000C7
330
21
100
AcDbEntity
  8
dzialki_ewns
  6
Continuous
370
    18
100
AcDbLine
 10
7582027.38
 20
5719898.68
 30
0.0
 11
7582025.39
 21
5719771.82
 31
0.0
  0
LINE
  5
10000C8
330
21
100
AcDbEntity
  8
dzialki_ewns
  6
Continuous
370
    18
100
AcDbLine
 10
7582025.39
 20
5719771.82
 30
0.0
 11
7582024.76
 21
5719676.699999999
 31
0.0
  0
LINE
  5
10000C9
330
21
100
AcDbEntity
  8
dzialki_ewns
  6
Continuous
370
    18
100
AcDbLine
 10
7582024.76
 20
5719676.699999999
 30
0.0
 11
7582022.32
 21
5719545.5
 31
0.0
  0
LINE
  5
10000CA
330
21
100
AcDbEntity
  8
dzialki_ewns
  6
Continuous
370
    18
100
AcDbLine
 10
7582022.32
 20
5719545.5
 30
0.0
 11
7582022.209999999
 21
5719538.879999999
 31
0.0
  0
LINE
  5
10000CB
330
21
100
AcDbEntity
  8
dzialki_ewns
  6
Continuous
370
    18
100
AcDbLine
 10
7582022.209999999
 20
5719538.879999999
 30
0.0
 11
7581981.360000001
 21
5719543.96
 31
0.0
  0
LINE
  5
10000CC
330
21
100
AcDbEntity
  8
dzialki_ewns
  6
Continuous
370
    18
100
AcDbLine
 10
7581981.360000001
 20
5719543.96
 30
0.0
 11
7581981.65
 21
5719557.660000001
 31
0.0
  0
LINE
  5
10000CD
330
21
100
AcDbEntity
  8
dzialki_ewns
  6
Continuous
370
    18
100
AcDbLine
 10
7581981.65
 20
5719557.660000001
 30
0.0
 11
7581984.769999999
 21
5719704.89
 31
0.0
  0
LINE
  5
10000CE
330
21
100
AcDbEntity
  8
dzialki_ewns
  6
Continuous
370
    18
100
AcDbLine
 10
7582024.76
 20
5719676.699999999
 30
0.0
 11
7582025.39
 21
5719771.82
 31
0.0
  0
LINE
  5
10000CF
330
21
100
AcDbEntity
  8
dzialki_ewns
  6
Continuous
370
    18
100
AcDbLine
 10
7582025.39
 20
5719771.82
 30
0.0
 11
7582027.38
 21
5719898.68
 31
0.0
  0
LINE
  5
10000D0
330
21
100
AcDbEntity
  8
dzialki_ewns
  6
Continuous
370
    18
100
AcDbLine
 10
7582027.38
 20
5719898.68
 30
0.0
 11
7582044.24
 21
5719892.83
 31
0.0
  0
LINE
  5
10000D1
330
21
100
AcDbEntity
  8
dzialki_ewns
  6
Continuous
370
    18
100
AcDbLine
 10
7582044.24
 20
5719892.83
 30
0.0
 11
7582045.95
 21
5719831.660000001
 31
0.0
  0
LINE
  5
10000D2
330
21
100
AcDbEntity
  8
dzialki_ewns
  6
Continuous
370
    18
100
AcDbLine
 10
7582045.95
 20
5719831.660000001
 30
0.0
 11
7582079.49
 21
5719812.410000001
 31
0.0
  0
LINE
  5
10000D3
330
21
100
AcDbEntity
  8
dzialki_ewns
  6
Continuous
370
    18
100
AcDbLine
 10
7582079.49
 20
5719812.410000001
 30
0.0
 11
7582082.1
 21
5719760.610000001
 31
0.0
  0
LINE
  5
10000D4
330
21
100
AcDbEntity
  8
dzialki_ewns
  6
Continuous
370
    18
100
AcDbLine
 10
7582082.1
 20
5719760.610000001
 30
0.0
 11
7582043.51
 21
5719536.23
 31
0.0
  0
LINE
  5
10000D5
330
21
100
AcDbEntity
  8
dzialki_ewns
  6
Continuous
370
    18
100
AcDbLine
 10
7582043.51
 20
5719536.23
 30
0.0
 11
7582022.209999999
 21
5719538.879999999
 31
0.0
  0
LINE
  5
10000D6
330
21
100
AcDbEntity
  8
dzialki_ewns
  6
Continuous
370
    18
100
AcDbLine
 10
7582022.209999999
 20
5719538.879999999
 30
0.0
 11
7582022.32
 21
5719545.5
 31
0.0
  0
LINE
  5
10000D7
330
21
100
AcDbEntity
  8
dzialki_ewns
  6
Continuous
370
    18
100
AcDbLine
 10
7582022.32
 20
5719545.5
 30
0.0
 11
7582024.76
 21
5719676.699999999
 31
0.0
  0
LINE
  5
10000D8
330
21
100
AcDbEntity
  8
dzialki_ewns
  6
Continuous
370
    18
100
AcDbLine
 10
7582079.49
 20
5719812.410000001
 30
0.0
 11
7582045.95
 21
5719831.660000001
 31
0.0
  0
LINE
  5
10000D9
330
21
100
AcDbEntity
  8
dzialki_ewns
  6
Continuous
370
    18
100
AcDbLine
 10
7582045.95
 20
5719831.660000001
 30
0.0
 11
7582044.24
 21
5719892.83
 31
0.0
  0
LINE
  5
10000DA
330
21
100
AcDbEntity
  8
dzialki_ewns
  6
Continuous
370
    18
100
AcDbLine
 10
7582044.24
 20
5719892.83
 30
0.0
 11
7582083.93
 21
5719873.12
 31
0.0
  0
LINE
  5
10000DB
330
21
100
AcDbEntity
  8
dzialki_ewns
  6
Continuous
370
    18
100
AcDbLine
 10
7582083.93
 20
5719873.12
 30
0.0
 11
7582082.1
 21
5719760.610000001
 31
0.0
  0
LINE
  5
10000DC
330
21
100
AcDbEntity
  8
dzialki_ewns
  6
Continuous
370
    18
100
AcDbLine
 10
7582082.1
 20
5719760.610000001
 30
0.0
 11
7582079.49
 21
5719812.410000001
 31
0.0
  0
LINE
  5
10000DD
330
21
100
AcDbEntity
  8
dzialki_ewns
  6
Continuous
370
    18
100
AcDbLine
 10
7582082.1
 20
5719760.610000001
 30
0.0
 11
7582092.42
 21
5719754.089999999
 31
0.0
  0
LINE
  5
10000DE
330
21
100
AcDbEntity
  8
dzialki_ewns
  6
Continuous
370
    18
100
AcDbLine
 10
7582092.42
 20
5719754.089999999
 30
0.0
 11
7582088.27
 21
5719729.099999998
 31
0.0
  0
LINE
  5
10000DF
330
21
100
AcDbEntity
  8
dzialki_ewns
  6
Continuous
370
    18
100
AcDbLine
 10
7582088.27
 20
5719729.099999998
 30
0.0
 11
7582080.53
 21
5719682.519999999
 31
0.0
  0
LINE
  5
10000E0
330
21
100
AcDbEntity
  8
dzialki_ewns
  6
Continuous
370
    18
100
AcDbLine
 10
7582080.53
 20
5719682.519999999
 30
0.0
 11
7582076.04
 21
5719655.440000001
 31
0.0
  0
LINE
  5
10000E1
330
21
100
AcDbEntity
  8
dzialki_ewns
  6
Continuous
370
    18
100
AcDbLine
 10
7582076.04
 20
5719655.440000001
 30
0.0
 11
7582065.710000001
 21
5719593.299999998
 31
0.0
  0
LINE
  5
10000E2
330
21
100
AcDbEntity
  8
dzialki_ewns
  6
Continuous
370
    18
100
AcDbLine
 10
7582065.710000001
 20
5719593.299999998
 30
0.0
 11
7582055.63
 21
5719532.61
 31
0.0
  0
LINE
  5
10000E3
330
21
100
AcDbEntity
  8
dzialki_ewns
  6
Continuous
370
    18
100
AcDbLine
 10
7582055.63
 20
5719532.61
 30
0.0
 11
7582043.51
 21
5719536.23
 31
0.0
  0
LINE
  5
10000E4
330
21
100
AcDbEntity
  8
dzialki_ewns
  6
Continuous
370
    18
100
AcDbLine
 10
7582043.51
 20
5719536.23
 30
0.0
 11
7582082.1
 21
5719760.610000001
 31
0.0
  0
LINE
  5
10000E5
330
21
100
AcDbEntity
  8
dzialki_ewns
  6
Continuous
370
    18
100
AcDbLine
 10
7582065.710000001
 20
5719593.299999998
 30
0.0
 11
7582391.230000001
 21
5719557.29
 31
0.0
  0
LINE
  5
10000E6
330
21
100
AcDbEntity
  8
dzialki_ewns
  6
Continuous
370
    18
100
AcDbLine
 10
7582391.230000001
 20
5719557.29
 30
0.0
 11
7582390.59
 21
5719541.41
 31
0.0
  0
LINE
  5
10000E7
330
21
100
AcDbEntity
  8
dzialki_ewns
  6
Continuous
370
    18
100
AcDbLine
 10
7582390.59
 20
5719541.41
 30
0.0
 11
7582383.509999999
 21
5719514.06
 31
0.0
  0
LINE
  5
10000E8
330
21
100
AcDbEntity
  8
dzialki_ewns
  6
Continuous
370
    18
100
AcDbLine
 10
7582383.509999999
 20
5719514.06
 30
0.0
 11
7582384.55
 21
5719494.5
 31
0.0
  0
LINE
  5
10000E9
330
21
100
AcDbEntity
  8
dzialki_ewns
  6
Continuous
370
    18
100
AcDbLine
 10
7582384.55
 20
5719494.5
 30
0.0
 11
7582345.97
 21
5719499.190000001
 31
0.0
  0
LINE
  5
10000EA
330
21
100
AcDbEntity
  8
dzialki_ewns
  6
Continuous
370
    18
100
AcDbLine
 10
7582345.97
 20
5719499.190000001
 30
0.0
 11
7582232.85
 21
5719512.360000001
 31
0.0
  0
LINE
  5
10000EB
330
21
100
AcDbEntity
  8
dzialki_ewns
  6
Continuous
370
    18
100
AcDbLine
 10
7582232.85
 20
5719512.360000001
 30
0.0
 11
7582122.599999999
 21
5719524.96
 31
0.0
  0
LINE
  5
10000EC
330
21
100
AcDbEntity
  8
dzialki_ewns
  6
Continuous
370
    18
100
AcDbLine
 10
7582122.599999999
 20
5719524.96
 30
0.0
 11
7582055.63
 21
5719532.61
 31
0.0
  0
LINE
  5
10000ED
330
21
100
AcDbEntity
  8
dzialki_ewns
  6
Continuous
370
    18
100
AcDbLine
 10
7582055.63
 20
5719532.61
 30
0.0
 11
7582065.710000001
 21
5719593.299999998
 31
0.0
  0
LINE
  5
10000EE
330
21
100
AcDbEntity
  8
dzialki_ewns
  6
Continuous
370
    18
100
AcDbLine
 10
7580563.59
 20
5720242.24
 30
0.0
 11
7580579.440000001
 21
5720231.240000002
 31
0.0
  0
LINE
  5
10000EF
330
21
100
AcDbEntity
  8
dzialki_ewns
  6
Continuous
370
    18
100
AcDbLine
 10
7580579.440000001
 20
5720231.240000002
 30
0.0
 11
7580602.88
 21
5720233.990000001
 31
0.0
  0
LINE
  5
10000F0
330
21
100
AcDbEntity
  8
dzialki_ewns
  6
Continuous
370
    18
100
AcDbLine
 10
7580602.88
 20
5720233.990000001
 30
0.0
 11
7580605.41
 21
5720248.7
 31
0.0
  0
LINE
  5
10000F1
330
21
100
AcDbEntity
  8
dzialki_ewns
  6
Continuous
370
    18
100
AcDbLine
 10
7580605.41
 20
5720248.7
 30
0.0
 11
7580623.06
 21
5720246.75
 31
0.0
  0
LINE
  5
10000F2
330
21
100
AcDbEntity
  8
dzialki_ewns
  6
Continuous
370
    18
100
AcDbLine
 10
7580623.06
 20
5720246.75
 30
0.0
 11
7580628.7
 21
5720251.04
 31
0.0
  0
LINE
  5
10000F3
330
21
100
AcDbEntity
  8
dzialki_ewns
  6
Continuous
370
    18
100
AcDbLine
 10
7580628.7
 20
5720251.04
 30
0.0
 11
7580623.83
 21
5720260.55
 31
0.0
  0
LINE
  5
10000F4
330
21
100
AcDbEntity
  8
dzialki_ewns
  6
Continuous
370
    18
100
AcDbLine
 10
7580623.83
 20
5720260.55
 30
0.0
 11
7580661.980000001
 21
5720295.329999999
 31
0.0
  0
LINE
  5
10000F5
330
21
100
AcDbEntity
  8
dzialki_ewns
  6
Continuous
370
    18
100
AcDbLine
 10
7580661.980000001
 20
5720295.329999999
 30
0.0
 11
7580670.31
 21
5720312.28
 31
0.0
  0
LINE
  5
10000F6
330
21
100
AcDbEntity
  8
dzialki_ewns
  6
Continuous
370
    18
100
AcDbLine
 10
7580670.31
 20
5720312.28
 30
0.0
 11
7580705.309999999
 21
5720351.46
 31
0.0
  0
LINE
  5
10000F7
330
21
100
AcDbEntity
  8
dzialki_ewns
  6
Continuous
370
    18
100
AcDbLine
 10
7580705.309999999
 20
5720351.46
 30
0.0
 11
7580716.92
 21
5720357.480000001
 31
0.0
  0
LINE
  5
10000F8
330
21
100
AcDbEntity
  8
dzialki_ewns
  6
Continuous
370
    18
100
AcDbLine
 10
7580716.92
 20
5720357.480000001
 30
0.0
 11
7580763.940000001
 21
5720377.28
 31
0.0
  0
LINE
  5
10000F9
330
21
100
AcDbEntity
  8
dzialki_ewns
  6
Continuous
370
    18
100
AcDbLine
 10
7580763.940000001
 20
5720377.28
 30
0.0
 11
7580777.259999999
 21
5720386.570000001
 31
0.0
  0
LINE
  5
10000FA
330
21
100
AcDbEntity
  8
dzialki_ewns
  6
Continuous
370
    18
100
AcDbLine
 10
7580777.259999999
 20
5720386.570000001
 30
0.0
 11
7580820.519999999
 21
5720346.929999999
 31
0.0
  0
LINE
  5
10000FB
330
21
100
AcDbEntity
  8
dzialki_ewns
  6
Continuous
370
    18
100
AcDbLine
 10
7580820.519999999
 20
5720346.929999999
 30
0.0
 11
7580850.05
 21
5720304.36
 31
0.0
  0
LINE
  5
10000FC
330
21
100
AcDbEntity
  8
dzialki_ewns
  6
Continuous
370
    18
100
AcDbLine
 10
7580850.05
 20
5720304.36
 30
0.0
 11
7580905.219999999
 21
5720194.769999999
 31
0.0
  0
LINE
  5
10000FD
330
21
100
AcDbEntity
  8
dzialki_ewns
  6
Continuous
370
    18
100
AcDbLine
 10
7580905.219999999
 20
5720194.769999999
 30
0.0
 11
7580933.269999999
 21
5720098.44
 31
0.0
  0
LINE
  5
10000FE
330
21
100
AcDbEntity
  8
dzialki_ewns
  6
Continuous
370
    18
100
AcDbLine
 10
7580933.269999999
 20
5720098.44
 30
0.0
 11
7580943.28
 21
5719997.789999999
 31
0.0
  0
LINE
  5
10000FF
330
21
100
AcDbEntity
  8
dzialki_ewns
  6
Continuous
370
    18
100
AcDbLine
 10
7580943.28
 20
5719997.789999999
 30
0.0
 11
7580785.480000001
 21
5720066.019999999
 31
0.0
  0
LINE
  5
1000100
330
21
100
AcDbEntity
  8
dzialki_ewns
  6
Continuous
370
    18
100
AcDbLine
 10
7580785.480000001
 20
5720066.019999999
 30
0.0
 11
7580617.780000001
 21
5720134.45
 31
0.0
  0
LINE
  5
1000101
330
21
100
AcDbEntity
  8
dzialki_ewns
  6
Continuous
370
    18
100
AcDbLine
 10
7580617.780000001
 20
5720134.45
 30
0.0
 11
7580609.11
 21
5720133.41
 31
0.0
  0
LINE
  5
1000102
330
21
100
AcDbEntity
  8
dzialki_ewns
  6
Continuous
370
    18
100
AcDbLine
 10
7580609.11
 20
5720133.41
 30
0.0
 11
7580560.37
 21
5720133.400000001
 31
0.0
  0
LINE
  5
1000103
330
21
100
AcDbEntity
  8
dzialki_ewns
  6
Continuous
370
    18
100
AcDbLine
 10
7580560.37
 20
5720133.400000001
 30
0.0
 11
7580443.83
 21
5720105.64
 31
0.0
  0
LINE
  5
1000104
330
21
100
AcDbEntity
  8
dzialki_ewns
  6
Continuous
370
    18
100
AcDbLine
 10
7580443.83
 20
5720105.64
 30
0.0
 11
7580271.42
 21
5720066.509999999
 31
0.0
  0
LINE
  5
1000105
330
21
100
AcDbEntity
  8
dzialki_ewns
  6
Continuous
370
    18
100
AcDbLine
 10
7580271.42
 20
5720066.509999999
 30
0.0
 11
7580225.49
 21
5720041.849999999
 31
0.0
  0
LINE
  5
1000106
330
21
100
AcDbEntity
  8
dzialki_ewns
  6
Continuous
370
    18
100
AcDbLine
 10
7580225.49
 20
5720041.849999999
 30
0.0
 11
7580207.85
 21
5720065.440000001
 31
0.0
  0
LINE
  5
1000107
330
21
100
AcDbEntity
  8
dzialki_ewns
  6
Continuous
370
    18
100
AcDbLine
 10
7580207.85
 20
5720065.440000001
 30
0.0
 11
7580153.46
 21
5720259.2
 31
0.0
  0
LINE
  5
1000108
330
21
100
AcDbEntity
  8
dzialki_ewns
  6
Continuous
370
    18
100
AcDbLine
 10
7580153.46
 20
5720259.2
 30
0.0
 11
7580128.57
 21
5720358.120000001
 31
0.0
  0
LINE
  5
1000109
330
21
100
AcDbEntity
  8
dzialki_ewns
  6
Continuous
370
    18
100
AcDbLine
 10
7580128.57
 20
5720358.120000001
 30
0.0
 11
7580111.46
 21
5720422.779999999
 31
0.0
  0
LINE
  5
100010A
330
21
100
AcDbEntity
  8
dzialki_ewns
  6
Continuous
370
    18
100
AcDbLine
 10
7580111.46
 20
5720422.779999999
 30
0.0
 11
7580103.56
 21
5720424.469999999
 31
0.0
  0
LINE
  5
100010B
330
21
100
AcDbEntity
  8
dzialki_ewns
  6
Continuous
370
    18
100
AcDbLine
 10
7580103.56
 20
5720424.469999999
 30
0.0
 11
7579995.059999999
 21
5720428.080000001
 31
0.0
  0
LINE
  5
100010C
330
21
100
AcDbEntity
  8
dzialki_ewns
  6
Continuous
370
    18
100
AcDbLine
 10
7579995.059999999
 20
5720428.080000001
 30
0.0
 11
7580002.010000001
 21
5720542.360000002
 31
0.0
  0
LINE
  5
100010D
330
21
100
AcDbEntity
  8
dzialki_ewns
  6
Continuous
370
    18
100
AcDbLine
 10
7580002.010000001
 20
5720542.360000002
 30
0.0
 11
7580051.019999999
 21
5720513.009999999
 31
0.0
  0
LINE
  5
100010E
330
21
100
AcDbEntity
  8
dzialki_ewns
  6
Continuous
370
    18
100
AcDbLine
 10
7580051.019999999
 20
5720513.009999999
 30
0.0
 11
7580120.46
 21
5720467.63
 31
0.0
  0
LINE
  5
100010F
330
21
100
AcDbEntity
  8
dzialki_ewns
  6
Continuous
370
    18
100
AcDbLine
 10
7580120.46
 20
5720467.63
 30
0.0
 11
7580220.88
 21
5720401.97
 31
0.0
  0
LINE
  5
1000110
330
21
100
AcDbEntity
  8
dzialki_ewns
  6
Continuous
370
    18
100
AcDbLine
 10
7580220.88
 20
5720401.97
 30
0.0
 11
7580238.76
 21
5720392.65
 31
0.0
  0
LINE
  5
1000111
330
21
100
AcDbEntity
  8
dzialki_ewns
  6
Continuous
370
    18
100
AcDbLine
 10
7580238.76
 20
5720392.65
 30
0.0
 11
7580283.38
 21
5720375.759999999
 31
0.0
  0
LINE
  5
1000112
330
21
100
AcDbEntity
  8
dzialki_ewns
  6
Continuous
370
    18
100
AcDbLine
 10
7580283.38
 20
5720375.759999999
 30
0.0
 11
7580328.980000001
 21
5720363.730000001
 31
0.0
  0
LINE
  5
1000113
330
21
100
AcDbEntity
  8
dzialki_ewns
  6
Continuous
370
    18
100
AcDbLine
 10
7580328.980000001
 20
5720363.730000001
 30
0.0
 11
7580385.16
 21
5720362.51
 31
0.0
  0
LINE
  5
1000114
330
21
100
AcDbEntity
  8
dzialki_ewns
  6
Continuous
370
    18
100
AcDbLine
 10
7580385.16
 20
5720362.51
 30
0.0
 11
7580414.1
 21
5720358.980000001
 31
0.0
  0
LINE
  5
1000115
330
21
100
AcDbEntity
  8
dzialki_ewns
  6
Continuous
370
    18
100
AcDbLine
 10
7580414.1
 20
5720358.980000001
 30
0.0
 11
7580490.81
 21
5720358.820000001
 31
0.0
  0
LINE
  5
1000116
330
21
100
AcDbEntity
  8
dzialki_ewns
  6
Continuous
370
    18
100
AcDbLine
 10
7580490.81
 20
5720358.820000001
 30
0.0
 11
7580551.7
 21
5720334.230000002
 31
0.0
  0
LINE
  5
1000117
330
21
100
AcDbEntity
  8
dzialki_ewns
  6
Continuous
370
    18
100
AcDbLine
 10
7580551.7
 20
5720334.230000002
 30
0.0
 11
7580561.969999999
 21
5720300.13
 31
0.0
  0
LINE
  5
1000118
330
21
100
AcDbEntity
  8
dzialki_ewns
  6
Continuous
370
    18
100
AcDbLine
 10
7580561.969999999
 20
5720300.13
 30
0.0
 11
7580557.480000001
 21
5720265.769999998
 31
0.0
  0
LINE
  5
1000119
330
21
100
AcDbEntity
  8
dzialki_ewns
  6
Continuous
370
    18
100
AcDbLine
 10
7580557.480000001
 20
5720265.769999998
 30
0.0
 11
7580563.59
 21
5720242.24
 31
0.0
  0
LINE
  5
100011A
330
21
100
AcDbEntity
  8
dzialki_ewns
  6
Continuous
370
    18
100
AcDbLine
 10
7579486.000000001
 20
5719931.42
 30
0.0
 11
7579496.54
 21
5720112.63
 31
0.0
  0
LINE
  5
100011B
330
21
100
AcDbEntity
  8
dzialki_ewns
  6
Continuous
370
    18
100
AcDbLine
 10
7579496.54
 20
5720112.63
 30
0.0
 11
7579751.23
 21
5720100.08
 31
0.0
  0
LINE
  5
100011C
330
21
100
AcDbEntity
  8
dzialki_ewns
  6
Continuous
370
    18
100
AcDbLine
 10
7579751.23
 20
5720100.08
 30
0.0
 11
7579761.94
 21
5720170.870000002
 31
0.0
  0
LINE
  5
100011D
330
21
100
AcDbEntity
  8
dzialki_ewns
  6
Continuous
370
    18
100
AcDbLine
 10
7579761.94
 20
5720170.870000002
 30
0.0
 11
7579937.27
 21
5720163.19
 31
0.0
  0
LINE
  5
100011E
330
21
100
AcDbEntity
  8
dzialki_ewns
  6
Continuous
370
    18
100
AcDbLine
 10
7579937.27
 20
5720163.19
 30
0.0
 11
7579944.650000002
 21
5720262.190000002
 31
0.0
  0
LINE
  5
100011F
330
21
100
AcDbEntity
  8
dzialki_ewns
  6
Continuous
370
    18
100
AcDbLine
 10
7579944.650000002
 20
5720262.190000002
 30
0.0
 11
7579945.24
 21
5720270.17
 31
0.0
  0
LINE
  5
1000120
330
21
100
AcDbEntity
  8
dzialki_ewns
  6
Continuous
370
    18
100
AcDbLine
 10
7579945.24
 20
5720270.17
 30
0.0
 11
7579954.28
 21
5720381.339999999
 31
0.0
  0
LINE
  5
1000121
330
21
100
AcDbEntity
  8
dzialki_ewns
  6
Continuous
370
    18
100
AcDbLine
 10
7579954.28
 20
5720381.339999999
 30
0.0
 11
7579986.179999999
 21
5720378.839999999
 31
0.0
  0
LINE
  5
1000122
330
21
100
AcDbEntity
  8
dzialki_ewns
  6
Continuous
370
    18
100
AcDbLine
 10
7579986.179999999
 20
5720378.839999999
 30
0.0
 11
7579985.860000001
 21
5720398.63
 31
0.0
  0
LINE
  5
1000123
330
21
100
AcDbEntity
  8
dzialki_ewns
  6
Continuous
370
    18
100
AcDbLine
 10
7579985.860000001
 20
5720398.63
 30
0.0
 11
7579895.86
 21
5720398.81
 31
0.0
  0
LINE
  5
1000124
330
21
100
AcDbEntity
  8
dzialki_ewns
  6
Continuous
370
    18
100
AcDbLine
 10
7579895.86
 20
5720398.81
 30
0.0
 11
7579898.09
 21
5720423.519999999
 31
0.0
  0
LINE
  5
1000125
330
21
100
AcDbEntity
  8
dzialki_ewns
  6
Continuous
370
    18
100
AcDbLine
 10
7579898.09
 20
5720423.519999999
 30
0.0
 11
7579737.01
 21
5720433.79
 31
0.0
  0
LINE
  5
1000126
330
21
100
AcDbEntity
  8
dzialki_ewns
  6
Continuous
370
    18
100
AcDbLine
 10
7579737.01
 20
5720433.79
 30
0.0
 11
7579753.57
 21
5720650.969999999
 31
0.0
  0
LINE
  5
1000127
330
21
100
AcDbEntity
  8
dzialki_ewns
  6
Continuous
370
    18
100
AcDbLine
 10
7579753.57
 20
5720650.969999999
 30
0.0
 11
7579755.38
 21
5720650.400000001
 31
0.0
  0
LINE
  5
1000128
330
21
100
AcDbEntity
  8
dzialki_ewns
  6
Continuous
370
    18
100
AcDbLine
 10
7579755.38
 20
5720650.400000001
 30
0.0
 11
7579786.21
 21
5720641.330000001
 31
0.0
  0
LINE
  5
1000129
330
21
100
AcDbEntity
  8
dzialki_ewns
  6
Continuous
370
    18
100
AcDbLine
 10
7579786.21
 20
5720641.330000001
 30
0.0
 11
7579817.41
 21
5720632.410000002
 31
0.0
  0
LINE
  5
100012A
330
21
100
AcDbEntity
  8
dzialki_ewns
  6
Continuous
370
    18
100
AcDbLine
 10
7579817.41
 20
5720632.410000002
 30
0.0
 11
7579859.690000001
 21
5720612.190000001
 31
0.0
  0
LINE
  5
100012B
330
21
100
AcDbEntity
  8
dzialki_ewns
  6
Continuous
370
    18
100
AcDbLine
 10
7579859.690000001
 20
5720612.190000001
 30
0.0
 11
7579941.490000001
 21
5720572.450000002
 31
0.0
  0
LINE
  5
100012C
330
21
100
AcDbEntity
  8
dzialki_ewns
  6
Continuous
370
    18
100
AcDbLine
 10
7579941.490000001
 20
5720572.450000002
 30
0.0
 11
7580002.010000001
 21
5720542.360000002
 31
0.0
  0
LINE
  5
100012D
330
21
100
AcDbEntity
  8
dzialki_ewns
  6
Continuous
370
    18
100
AcDbLine
 10
7580002.010000001
 20
5720542.360000002
 30
0.0
 11
7579995.059999999
 21
5720428.080000001
 31
0.0
  0
LINE
  5
100012E
330
21
100
AcDbEntity
  8
dzialki_ewns
  6
Continuous
370
    18
100
AcDbLine
 10
7579995.059999999
 20
5720428.080000001
 30
0.0
 11
7580103.56
 21
5720424.469999999
 31
0.0
  0
LINE
  5
100012F
330
21
100
AcDbEntity
  8
dzialki_ewns
  6
Continuous
370
    18
100
AcDbLine
 10
7580103.56
 20
5720424.469999999
 30
0.0
 11
7580111.46
 21
5720422.779999999
 31
0.0
  0
LINE
  5
1000130
330
21
100
AcDbEntity
  8
dzialki_ewns
  6
Continuous
370
    18
100
AcDbLine
 10
7580111.46
 20
5720422.779999999
 30
0.0
 11
7580128.57
 21
5720358.120000001
 31
0.0
  0
LINE
  5
1000131
330
21
100
AcDbEntity
  8
dzialki_ewns
  6
Continuous
370
    18
100
AcDbLine
 10
7580128.57
 20
5720358.120000001
 30
0.0
 11
7580153.46
 21
5720259.2
 31
0.0
  0
LINE
  5
1000132
330
21
100
AcDbEntity
  8
dzialki_ewns
  6
Continuous
370
    18
100
AcDbLine
 10
7580153.46
 20
5720259.2
 30
0.0
 11
7580207.85
 21
5720065.440000001
 31
0.0
  0
LINE
  5
1000133
330
21
100
AcDbEntity
  8
dzialki_ewns
  6
Continuous
370
    18
100
AcDbLine
 10
7580207.85
 20
5720065.440000001
 30
0.0
 11
7580225.49
 21
5720041.849999999
 31
0.0
  0
LINE
  5
1000134
330
21
100
AcDbEntity
  8
dzialki_ewns
  6
Continuous
370
    18
100
AcDbLine
 10
7580225.49
 20
5720041.849999999
 30
0.0
 11
7580271.42
 21
5720066.509999999
 31
0.0
  0
LINE
  5
1000135
330
21
100
AcDbEntity
  8
dzialki_ewns
  6
Continuous
370
    18
100
AcDbLine
 10
7580271.42
 20
5720066.509999999
 30
0.0
 11
7580443.83
 21
5720105.64
 31
0.0
  0
LINE
  5
1000136
330
21
100
AcDbEntity
  8
dzialki_ewns
  6
Continuous
370
    18
100
AcDbLine
 10
7580443.83
 20
5720105.64
 30
0.0
 11
7580560.37
 21
5720133.400000001
 31
0.0
  0
LINE
  5
1000137
330
21
100
AcDbEntity
  8
dzialki_ewns
  6
Continuous
370
    18
100
AcDbLine
 10
7580560.37
 20
5720133.400000001
 30
0.0
 11
7580609.11
 21
5720133.41
 31
0.0
  0
LINE
  5
1000138
330
21
100
AcDbEntity
  8
dzialki_ewns
  6
Continuous
370
    18
100
AcDbLine
 10
7580609.11
 20
5720133.41
 30
0.0
 11
7580617.780000001
 21
5720134.45
 31
0.0
  0
LINE
  5
1000139
330
21
100
AcDbEntity
  8
dzialki_ewns
  6
Continuous
370
    18
100
AcDbLine
 10
7580617.780000001
 20
5720134.45
 30
0.0
 11
7580785.480000001
 21
5720066.019999999
 31
0.0
  0
LINE
  5
100013A
330
21
100
AcDbEntity
  8
dzialki_ewns
  6
Continuous
370
    18
100
AcDbLine
 10
7580785.480000001
 20
5720066.019999999
 30
0.0
 11
7580943.28
 21
5719997.789999999
 31
0.0
  0
LINE
  5
100013B
330
21
100
AcDbEntity
  8
dzialki_ewns
  6
Continuous
370
    18
100
AcDbLine
 10
7580943.28
 20
5719997.789999999
 30
0.0
 11
7580957.070000001
 21
5719870.429999998
 31
0.0
  0
LINE
  5
100013C
330
21
100
AcDbEntity
  8
dzialki_ewns
  6
Continuous
370
    18
100
AcDbLine
 10
7580957.070000001
 20
5719870.429999998
 30
0.0
 11
7580957.469999999
 21
5719857.070000001
 31
0.0
  0
LINE
  5
100013D
330
21
100
AcDbEntity
  8
dzialki_ewns
  6
Continuous
370
    18
100
AcDbLine
 10
7580957.469999999
 20
5719857.070000001
 30
0.0
 11
7580971.370000001
 21
5719761.16
 31
0.0
  0
LINE
  5
100013E
330
21
100
AcDbEntity
  8
dzialki_ewns
  6
Continuous
370
    18
100
AcDbLine
 10
7580971.370000001
 20
5719761.16
 30
0.0
 11
7580986.38
 21
5719660.59
 31
0.0
  0
LINE
  5
100013F
330
21
100
AcDbEntity
  8
dzialki_ewns
  6
Continuous
370
    18
100
AcDbLine
 10
7580986.38
 20
5719660.59
 30
0.0
 11
7581009.129999999
 21
5719541.83
 31
0.0
  0
LINE
  5
1000140
330
21
100
AcDbEntity
  8
dzialki_ewns
  6
Continuous
370
    18
100
AcDbLine
 10
7581009.129999999
 20
5719541.83
 30
0.0
 11
7580981.2
 21
5719549.68
 31
0.0
  0
LINE
  5
1000141
330
21
100
AcDbEntity
  8
dzialki_ewns
  6
Continuous
370
    18
100
AcDbLine
 10
7580981.2
 20
5719549.68
 30
0.0
 11
7580973.97
 21
5719551.710000001
 31
0.0
  0
LINE
  5
1000142
330
21
100
AcDbEntity
  8
dzialki_ewns
  6
Continuous
370
    18
100
AcDbLine
 10
7580973.97
 20
5719551.710000001
 30
0.0
 11
7580959.710000001
 21
5719555.719999999
 31
0.0
  0
LINE
  5
1000143
330
21
100
AcDbEntity
  8
dzialki_ewns
  6
Continuous
370
    18
100
AcDbLine
 10
7580959.710000001
 20
5719555.719999999
 30
0.0
 11
7580946.43
 21
5719559.46
 31
0.0
  0
LINE
  5
1000144
330
21
100
AcDbEntity
  8
dzialki_ewns
  6
Continuous
370
    18
100
AcDbLine
 10
7580946.43
 20
5719559.46
 30
0.0
 11
7580941.769999999
 21
5719560.759999999
 31
0.0
  0
LINE
  5
1000145
330
21
100
AcDbEntity
  8
dzialki_ewns
  6
Continuous
370
    18
100
AcDbLine
 10
7580941.769999999
 20
5719560.759999999
 30
0.0
 11
7580922.440000001
 21
5719566.179999999
 31
0.0
  0
LINE
  5
1000146
330
21
100
AcDbEntity
  8
dzialki_ewns
  6
Continuous
370
    18
100
AcDbLine
 10
7580922.440000001
 20
5719566.179999999
 30
0.0
 11
7580896.889999999
 21
5719573.38
 31
0.0
  0
LINE
  5
1000147
330
21
100
AcDbEntity
  8
dzialki_ewns
  6
Continuous
370
    18
100
AcDbLine
 10
7580896.889999999
 20
5719573.38
 30
0.0
 11
7580874.25
 21
5719579.740000001
 31
0.0
  0
LINE
  5
1000148
330
21
100
AcDbEntity
  8
dzialki_ewns
  6
Continuous
370
    18
100
AcDbLine
 10
7580874.25
 20
5719579.740000001
 30
0.0
 11
7580859.38
 21
5719583.929999999
 31
0.0
  0
LINE
  5
1000149
330
21
100
AcDbEntity
  8
dzialki_ewns
  6
Continuous
370
    18
100
AcDbLine
 10
7580859.38
 20
5719583.929999999
 30
0.0
 11
7580857.57
 21
5719584.440000001
 31
0.0
  0
LINE
  5
100014A
330
21
100
AcDbEntity
  8
dzialki_ewns
  6
Continuous
370
    18
100
AcDbLine
 10
7580857.57
 20
5719584.440000001
 30
0.0
 11
7580852.25
 21
5719585.94
 31
0.0
  0
LINE
  5
100014B
330
21
100
AcDbEntity
  8
dzialki_ewns
  6
Continuous
370
    18
100
AcDbLine
 10
7580852.25
 20
5719585.94
 30
0.0
 11
7580831.63
 21
5719591.730000001
 31
0.0
  0
LINE
  5
100014C
330
21
100
AcDbEntity
  8
dzialki_ewns
  6
Continuous
370
    18
100
AcDbLine
 10
7580831.63
 20
5719591.730000001
 30
0.0
 11
7580812.830000001
 21
5719597.019999999
 31
0.0
  0
LINE
  5
100014D
330
21
100
AcDbEntity
  8
dzialki_ewns
  6
Continuous
370
    18
100
AcDbLine
 10
7580812.830000001
 20
5719597.019999999
 30
0.0
 11
7580721.16
 21
5719622.79
 31
0.0
  0
LINE
  5
100014E
330
21
100
AcDbEntity
  8
dzialki_ewns
  6
Continuous
370
    18
100
AcDbLine
 10
7580721.16
 20
5719622.79
 30
0.0
 11
7580697.96
 21
5719629.29
 31
0.0
  0
LINE
  5
100014F
330
21
100
AcDbEntity
  8
dzialki_ewns
  6
Continuous
370
    18
100
AcDbLine
 10
7580697.96
 20
5719629.29
 30
0.0
 11
7580674.8
 21
5719635.78
 31
0.0
  0
LINE
  5
1000150
330
21
100
AcDbEntity
  8
dzialki_ewns
  6
Continuous
370
    18
100
AcDbLine
 10
7580674.8
 20
5719635.78
 30
0.0
 11
7580630.38
 21
5719648.22
 31
0.0
  0
LINE
  5
1000151
330
21
100
AcDbEntity
  8
dzialki_ewns
  6
Continuous
370
    18
100
AcDbLine
 10
7580630.38
 20
5719648.22
 30
0.0
 11
7580586.3
 21
5719660.570000001
 31
0.0
  0
LINE
  5
1000152
330
21
100
AcDbEntity
  8
dzialki_ewns
  6
Continuous
370
    18
100
AcDbLine
 10
7580586.3
 20
5719660.570000001
 30
0.0
 11
7580535.38
 21
5719674.84
 31
0.0
  0
LINE
  5
1000153
330
21
100
AcDbEntity
  8
dzialki_ewns
  6
Continuous
370
    18
100
AcDbLine
 10
7580535.38
 20
5719674.84
 30
0.0
 11
7580440.19
 21
5719701.51
 31
0.0
  0
LINE
  5
1000154
330
21
100
AcDbEntity
  8
dzialki_ewns
  6
Continuous
370
    18
100
AcDbLine
 10
7580440.19
 20
5719701.51
 30
0.0
 11
7580435.409999999
 21
5719702.85
 31
0.0
  0
LINE
  5
1000155
330
21
100
AcDbEntity
  8
dzialki_ewns
  6
Continuous
370
    18
100
AcDbLine
 10
7580435.409999999
 20
5719702.85
 30
0.0
 11
7580420.91
 21
5719706.829999999
 31
0.0
  0
LINE
  5
1000156
330
21
100
AcDbEntity
  8
dzialki_ewns
  6
Continuous
370
    18
100
AcDbLine
 10
7580420.91
 20
5719706.829999999
 30
0.0
 11
7580352.13
 21
5719725.730000001
 31
0.0
  0
LINE
  5
1000157
330
21
100
AcDbEntity
  8
dzialki_ewns
  6
Continuous
370
    18
100
AcDbLine
 10
7580352.13
 20
5719725.730000001
 30
0.0
 11
7580352.36
 21
5719725.990000001
 31
0.0
  0
LINE
  5
1000158
330
21
100
AcDbEntity
  8
dzialki_ewns
  6
Continuous
370
    18
100
AcDbLine
 10
7580352.36
 20
5719725.990000001
 30
0.0
 11
7580365.35
 21
5719784.639999999
 31
0.0
  0
LINE
  5
1000159
330
21
100
AcDbEntity
  8
dzialki_ewns
  6
Continuous
370
    18
100
AcDbLine
 10
7580365.35
 20
5719784.639999999
 30
0.0
 11
7580351.49
 21
5719792.25
 31
0.0
  0
LINE
  5
100015A
330
21
100
AcDbEntity
  8
dzialki_ewns
  6
Continuous
370
    18
100
AcDbLine
 10
7580351.49
 20
5719792.25
 30
0.0
 11
7580332.78
 21
5719801.78
 31
0.0
  0
LINE
  5
100015B
330
21
100
AcDbEntity
  8
dzialki_ewns
  6
Continuous
370
    18
100
AcDbLine
 10
7580332.78
 20
5719801.78
 30
0.0
 11
7580321.8
 21
5719807.04
 31
0.0
  0
LINE
  5
100015C
330
21
100
AcDbEntity
  8
dzialki_ewns
  6
Continuous
370
    18
100
AcDbLine
 10
7580321.8
 20
5719807.04
 30
0.0
 11
7580316.099999999
 21
5719808.79
 31
0.0
  0
LINE
  5
100015D
330
21
100
AcDbEntity
  8
dzialki_ewns
  6
Continuous
370
    18
100
AcDbLine
 10
7580316.099999999
 20
5719808.79
 30
0.0
 11
7580298.13
 21
5719811.13
 31
0.0
  0
LINE
  5
100015E
330
21
100
AcDbEntity
  8
dzialki_ewns
  6
Continuous
370
    18
100
AcDbLine
 10
7580298.13
 20
5719811.13
 30
0.0
 11
7580288.94
 21
5719811.789999998
 31
0.0
  0
LINE
  5
100015F
330
21
100
AcDbEntity
  8
dzialki_ewns
  6
Continuous
370
    18
100
AcDbLine
 10
7580288.94
 20
5719811.789999998
 30
0.0
 11
7580231.88
 21
5719810.080000001
 31
0.0
  0
LINE
  5
1000160
330
21
100
AcDbEntity
  8
dzialki_ewns
  6
Continuous
370
    18
100
AcDbLine
 10
7580231.88
 20
5719810.080000001
 30
0.0
 11
7580233.780000001
 21
5719777.09
 31
0.0
  0
LINE
  5
1000161
330
21
100
AcDbEntity
  8
dzialki_ewns
  6
Continuous
370
    18
100
AcDbLine
 10
7580233.780000001
 20
5719777.09
 30
0.0
 11
7580234.53
 21
5719764.740000001
 31
0.0
  0
LINE
  5
1000162
330
21
100
AcDbEntity
  8
dzialki_ewns
  6
Continuous
370
    18
100
AcDbLine
 10
7580234.53
 20
5719764.740000001
 30
0.0
 11
7580234.900000001
 21
5719758.679999999
 31
0.0
  0
LINE
  5
1000163
330
21
100
AcDbEntity
  8
dzialki_ewns
  6
Continuous
370
    18
100
AcDbLine
 10
7580234.900000001
 20
5719758.679999999
 30
0.0
 11
7580234.38
 21
5719759.040000001
 31
0.0
  0
LINE
  5
1000164
330
21
100
AcDbEntity
  8
dzialki_ewns
  6
Continuous
370
    18
100
AcDbLine
 10
7580234.38
 20
5719759.040000001
 30
0.0
 11
7580224.59
 21
5719762.839999999
 31
0.0
  0
LINE
  5
1000165
330
21
100
AcDbEntity
  8
dzialki_ewns
  6
Continuous
370
    18
100
AcDbLine
 10
7580224.59
 20
5719762.839999999
 30
0.0
 11
7580169.860000002
 21
5719784.11
 31
0.0
  0
LINE
  5
1000166
330
21
100
AcDbEntity
  8
dzialki_ewns
  6
Continuous
370
    18
100
AcDbLine
 10
7580169.860000002
 20
5719784.11
 30
0.0
 11
7580121.730000001
 21
5719802.82
 31
0.0
  0
LINE
  5
1000167
330
21
100
AcDbEntity
  8
dzialki_ewns
  6
Continuous
370
    18
100
AcDbLine
 10
7580121.730000001
 20
5719802.82
 30
0.0
 11
7580111.54
 21
5719806.779999999
 31
0.0
  0
LINE
  5
1000168
330
21
100
AcDbEntity
  8
dzialki_ewns
  6
Continuous
370
    18
100
AcDbLine
 10
7580111.54
 20
5719806.779999999
 30
0.0
 11
7580098.86
 21
5719811.7
 31
0.0
  0
LINE
  5
1000169
330
21
100
AcDbEntity
  8
dzialki_ewns
  6
Continuous
370
    18
100
AcDbLine
 10
7580098.86
 20
5719811.7
 30
0.0
 11
7580086.839999999
 21
5719816.370000001
 31
0.0
  0
LINE
  5
100016A
330
21
100
AcDbEntity
  8
dzialki_ewns
  6
Continuous
370
    18
100
AcDbLine
 10
7580086.839999999
 20
5719816.370000001
 30
0.0
 11
7580084.669999999
 21
5719817.209999998
 31
0.0
  0
LINE
  5
100016B
330
21
100
AcDbEntity
  8
dzialki_ewns
  6
Continuous
370
    18
100
AcDbLine
 10
7580084.669999999
 20
5719817.209999998
 30
0.0
 11
7580049.75
 21
5719839.290000001
 31
0.0
  0
LINE
  5
100016C
330
21
100
AcDbEntity
  8
dzialki_ewns
  6
Continuous
370
    18
100
AcDbLine
 10
7580049.75
 20
5719839.290000001
 30
0.0
 11
7580015.37
 21
5719861.030000002
 31
0.0
  0
LINE
  5
100016D
330
21
100
AcDbEntity
  8
dzialki_ewns
  6
Continuous
370
    18
100
AcDbLine
 10
7580015.37
 20
5719861.030000002
 30
0.0
 11
7579981.44
 21
5719882.480000001
 31
0.0
  0
LINE
  5
100016E
330
21
100
AcDbEntity
  8
dzialki_ewns
  6
Continuous
370
    18
100
AcDbLine
 10
7579981.44
 20
5719882.480000001
 30
0.0
 11
7579938.379999999
 21
5719891.66
 31
0.0
  0
LINE
  5
100016F
330
21
100
AcDbEntity
  8
dzialki_ewns
  6
Continuous
370
    18
100
AcDbLine
 10
7579938.379999999
 20
5719891.66
 30
0.0
 11
7579854.250000001
 21
5719909.620000001
 31
0.0
  0
LINE
  5
1000170
330
21
100
AcDbEntity
  8
dzialki_ewns
  6
Continuous
370
    18
100
AcDbLine
 10
7579854.250000001
 20
5719909.620000001
 30
0.0
 11
7579815.500000001
 21
5719917.889999999
 31
0.0
  0
LINE
  5
1000171
330
21
100
AcDbEntity
  8
dzialki_ewns
  6
Continuous
370
    18
100
AcDbLine
 10
7579815.500000001
 20
5719917.889999999
 30
0.0
 11
7579792.68
 21
5719922.769999999
 31
0.0
  0
LINE
  5
1000172
330
21
100
AcDbEntity
  8
dzialki_ewns
  6
Continuous
370
    18
100
AcDbLine
 10
7579792.68
 20
5719922.769999999
 30
0.0
 11
7579774.099999999
 21
5719926.73
 31
0.0
  0
LINE
  5
1000173
330
21
100
AcDbEntity
  8
dzialki_ewns
  6
Continuous
370
    18
100
AcDbLine
 10
7579774.099999999
 20
5719926.73
 30
0.0
 11
7579769.06
 21
5719927.81
 31
0.0
  0
LINE
  5
1000174
330
21
100
AcDbEntity
  8
dzialki_ewns
  6
Continuous
370
    18
100
AcDbLine
 10
7579769.06
 20
5719927.81
 30
0.0
 11
7579740.730000001
 21
5719931.589999999
 31
0.0
  0
LINE
  5
1000175
330
21
100
AcDbEntity
  8
dzialki_ewns
  6
Continuous
370
    18
100
AcDbLine
 10
7579740.730000001
 20
5719931.589999999
 30
0.0
 11
7579707.030000001
 21
5719936.09
 31
0.0
  0
LINE
  5
1000176
330
21
100
AcDbEntity
  8
dzialki_ewns
  6
Continuous
370
    18
100
AcDbLine
 10
7579707.030000001
 20
5719936.09
 30
0.0
 11
7579678.88
 21
5719939.860000001
 31
0.0
  0
LINE
  5
1000177
330
21
100
AcDbEntity
  8
dzialki_ewns
  6
Continuous
370
    18
100
AcDbLine
 10
7579678.88
 20
5719939.860000001
 30
0.0
 11
7579669.66
 21
5719941.089999999
 31
0.0
  0
LINE
  5
1000178
330
21
100
AcDbEntity
  8
dzialki_ewns
  6
Continuous
370
    18
100
AcDbLine
 10
7579669.66
 20
5719941.089999999
 30
0.0
 11
7579622.96
 21
5719947.33
 31
0.0
  0
LINE
  5
1000179
330
21
100
AcDbEntity
  8
dzialki_ewns
  6
Continuous
370
    18
100
AcDbLine
 10
7579622.96
 20
5719947.33
 30
0.0
 11
7579594.9
 21
5719951.08
 31
0.0
  0
LINE
  5
100017A
330
21
100
AcDbEntity
  8
dzialki_ewns
  6
Continuous
370
    18
100
AcDbLine
 10
7579594.9
 20
5719951.08
 30
0.0
 11
7579595.290000001
 21
5719937.65
 31
0.0
  0
LINE
  5
100017B
330
21
100
AcDbEntity
  8
dzialki_ewns
  6
Continuous
370
    18
100
AcDbLine
 10
7579595.290000001
 20
5719937.65
 30
0.0
 11
7579524.23
 21
5719933.599999999
 31
0.0
  0
LINE
  5
100017C
330
21
100
AcDbEntity
  8
dzialki_ewns
  6
Continuous
370
    18
100
AcDbLine
 10
7579524.23
 20
5719933.599999999
 30
0.0
 11
7579486.000000001
 21
5719931.42
 31
0.0
  0
LINE
  5
100017D
330
21
100
AcDbEntity
  8
dzialki_ewns
  6
Continuous
370
    18
100
AcDbLine
 10
7581837.759999999
 20
5719463.57
 30
0.0
 11
7581839.12
 21
5719231.490000001
 31
0.0
  0
LINE
  5
100017E
330
21
100
AcDbEntity
  8
dzialki_ewns
  6
Continuous
370
    18
100
AcDbLine
 10
7581839.12
 20
5719231.490000001
 30
0.0
 11
7581790.17
 21
5719236.099999999
 31
0.0
  0
LINE
  5
100017F
330
21
100
AcDbEntity
  8
dzialki_ewns
  6
Continuous
370
    18
100
AcDbLine
 10
7581790.17
 20
5719236.099999999
 30
0.0
 11
7581772.530000001
 21
5719374.52
 31
0.0
  0
LINE
  5
1000180
330
21
100
AcDbEntity
  8
dzialki_ewns
  6
Continuous
370
    18
100
AcDbLine
 10
7581772.530000001
 20
5719374.52
 30
0.0
 11
7581756.469999999
 21
5719534.389999999
 31
0.0
  0
LINE
  5
1000181
330
21
100
AcDbEntity
  8
dzialki_ewns
  6
Continuous
370
    18
100
AcDbLine
 10
7581756.469999999
 20
5719534.389999999
 30
0.0
 11
7581837.39
 21
5719525.559999998
 31
0.0
  0
LINE
  5
1000182
330
21
100
AcDbEntity
  8
dzialki_ewns
  6
Continuous
370
    18
100
AcDbLine
 10
7581837.39
 20
5719525.559999998
 30
0.0
 11
7581837.49
 21
5719509.069999999
 31
0.0
  0
LINE
  5
1000183
330
21
100
AcDbEntity
  8
dzialki_ewns
  6
Continuous
370
    18
100
AcDbLine
 10
7581837.49
 20
5719509.069999999
 30
0.0
 11
7581837.759999999
 21
5719463.57
 31
0.0
  0
LINE
  5
1000184
330
21
100
AcDbEntity
  8
dzialki_ewns
  6
Continuous
370
    18
100
AcDbLine
 10
7581837.49
 20
5719509.069999999
 30
0.0
 11
7581902.87
 21
5719484.27
 31
0.0
  0
LINE
  5
1000185
330
21
100
AcDbEntity
  8
dzialki_ewns
  6
Continuous
370
    18
100
AcDbLine
 10
7581902.87
 20
5719484.27
 30
0.0
 11
7581901.280000001
 21
5719456.309999999
 31
0.0
  0
LINE
  5
1000186
330
21
100
AcDbEntity
  8
dzialki_ewns
  6
Continuous
370
    18
100
AcDbLine
 10
7581901.280000001
 20
5719456.309999999
 30
0.0
 11
7581837.759999999
 21
5719463.57
 31
0.0
  0
LINE
  5
1000187
330
21
100
AcDbEntity
  8
dzialki_ewns
  6
Continuous
370
    18
100
AcDbLine
 10
7581837.759999999
 20
5719463.57
 30
0.0
 11
7581837.49
 21
5719509.069999999
 31
0.0
  0
LINE
  5
1000188
330
21
100
AcDbEntity
  8
dzialki_ewns
  6
Continuous
370
    18
100
AcDbLine
 10
7581837.49
 20
5719509.069999999
 30
0.0
 11
7581837.39
 21
5719525.559999998
 31
0.0
  0
LINE
  5
1000189
330
21
100
AcDbEntity
  8
dzialki_ewns
  6
Continuous
370
    18
100
AcDbLine
 10
7581837.39
 20
5719525.559999998
 30
0.0
 11
7581904.790000001
 21
5719518.219999998
 31
0.0
  0
LINE
  5
100018A
330
21
100
AcDbEntity
  8
dzialki_ewns
  6
Continuous
370
    18
100
AcDbLine
 10
7581904.790000001
 20
5719518.219999998
 30
0.0
 11
7581902.87
 21
5719484.27
 31
0.0
  0
LINE
  5
100018B
330
21
100
AcDbEntity
  8
dzialki_ewns
  6
Continuous
370
    18
100
AcDbLine
 10
7581902.87
 20
5719484.27
 30
0.0
 11
7581837.49
 21
5719509.069999999
 31
0.0
  0
LINE
  5
100018C
330
21
100
AcDbEntity
  8
dzialki_ewns
  6
Continuous
370
    18
100
AcDbLine
 10
7581901.280000001
 20
5719456.309999999
 30
0.0
 11
7581902.87
 21
5719484.27
 31
0.0
  0
LINE
  5
100018D
330
21
100
AcDbEntity
  8
dzialki_ewns
  6
Continuous
370
    18
100
AcDbLine
 10
7581902.87
 20
5719484.27
 30
0.0
 11
7581904.790000001
 21
5719518.219999998
 31
0.0
  0
LINE
  5
100018E
330
21
100
AcDbEntity
  8
dzialki_ewns
  6
Continuous
370
    18
100
AcDbLine
 10
7581904.790000001
 20
5719518.219999998
 30
0.0
 11
7581950.07
 21
5719513.280000001
 31
0.0
  0
LINE
  5
100018F
330
21
100
AcDbEntity
  8
dzialki_ewns
  6
Continuous
370
    18
100
AcDbLine
 10
7581950.07
 20
5719513.280000001
 30
0.0
 11
7581921.25
 21
5719223.76
 31
0.0
  0
LINE
  5
1000190
330
21
100
AcDbEntity
  8
dzialki_ewns
  6
Continuous
370
    18
100
AcDbLine
 10
7581921.25
 20
5719223.76
 30
0.0
 11
7581888.280000001
 21
5719226.86
 31
0.0
  0
LINE
  5
1000191
330
21
100
AcDbEntity
  8
dzialki_ewns
  6
Continuous
370
    18
100
AcDbLine
 10
7581888.280000001
 20
5719226.86
 30
0.0
 11
7581901.280000001
 21
5719456.309999999
 31
0.0
  0
LINE
  5
1000192
330
21
100
AcDbEntity
  8
dzialki_ewns
  6
Continuous
370
    18
100
AcDbLine
 10
7581921.25
 20
5719223.76
 30
0.0
 11
7581950.07
 21
5719513.280000001
 31
0.0
  0
LINE
  5
1000193
330
21
100
AcDbEntity
  8
dzialki_ewns
  6
Continuous
370
    18
100
AcDbLine
 10
7581950.07
 20
5719513.280000001
 30
0.0
 11
7581986.54
 21
5719508.889999998
 31
0.0
  0
LINE
  5
1000194
330
21
100
AcDbEntity
  8
dzialki_ewns
  6
Continuous
370
    18
100
AcDbLine
 10
7581986.54
 20
5719508.889999998
 30
0.0
 11
7581958.63
 21
5719220.230000002
 31
0.0
  0
LINE
  5
1000195
330
21
100
AcDbEntity
  8
dzialki_ewns
  6
Continuous
370
    18
100
AcDbLine
 10
7581958.63
 20
5719220.230000002
 30
0.0
 11
7581921.25
 21
5719223.76
 31
0.0
  0
LINE
  5
1000196
330
21
100
AcDbEntity
  8
dzialki_ewns
  6
Continuous
370
    18
100
AcDbLine
 10
7581958.63
 20
5719220.230000002
 30
0.0
 11
7581986.54
 21
5719508.889999998
 31
0.0
  0
LINE
  5
1000197
330
21
100
AcDbEntity
  8
dzialki_ewns
  6
Continuous
370
    18
100
AcDbLine
 10
7581986.54
 20
5719508.889999998
 30
0.0
 11
7582037.259999999
 21
5719504.389999999
 31
0.0
  0
LINE
  5
1000198
330
21
100
AcDbEntity
  8
dzialki_ewns
  6
Continuous
370
    18
100
AcDbLine
 10
7582037.259999999
 20
5719504.389999999
 30
0.0
 11
7581993.74
 21
5719216.929999999
 31
0.0
  0
LINE
  5
1000199
330
21
100
AcDbEntity
  8
dzialki_ewns
  6
Continuous
370
    18
100
AcDbLine
 10
7581993.74
 20
5719216.929999999
 30
0.0
 11
7581958.63
 21
5719220.230000002
 31
0.0
  0
LINE
  5
100019A
330
21
100
AcDbEntity
  8
dzialki_ewns
  6
Continuous
370
    18
100
AcDbLine
 10
7581842.320000001
 20
5718824.929999999
 30
0.0
 11
7581919.809999999
 21
5718929.13
 31
0.0
  0
LINE
  5
100019B
330
21
100
AcDbEntity
  8
dzialki_ewns
  6
Continuous
370
    18
100
AcDbLine
 10
7581919.809999999
 20
5718929.13
 30
0.0
 11
7581955.63
 21
5718977.29
 31
0.0
  0
LINE
  5
100019C
330
21
100
AcDbEntity
  8
dzialki_ewns
  6
Continuous
370
    18
100
AcDbLine
 10
7581955.63
 20
5718977.29
 30
0.0
 11
7581960.969999999
 21
5719010.809999998
 31
0.0
  0
LINE
  5
100019D
330
21
100
AcDbEntity
  8
dzialki_ewns
  6
Continuous
370
    18
100
AcDbLine
 10
7581960.969999999
 20
5719010.809999998
 30
0.0
 11
7581962.83
 21
5719022.54
 31
0.0
  0
LINE
  5
100019E
330
21
100
AcDbEntity
  8
dzialki_ewns
  6
Continuous
370
    18
100
AcDbLine
 10
7581962.83
 20
5719022.54
 30
0.0
 11
7581968.92
 21
5719060.799999998
 31
0.0
  0
LINE
  5
100019F
330
21
100
AcDbEntity
  8
dzialki_ewns
  6
Continuous
370
    18
100
AcDbLine
 10
7581968.92
 20
5719060.799999998
 30
0.0
 11
7581976.29
 21
5719107.139999998
 31
0.0
  0
LINE
  5
10001A0
330
21
100
AcDbEntity
  8
dzialki_ewns
  6
Continuous
370
    18
100
AcDbLine
 10
7581976.29
 20
5719107.139999998
 30
0.0
 11
7581983.32
 21
5719151.33
 31
0.0
  0
LINE
  5
10001A1
330
21
100
AcDbEntity
  8
dzialki_ewns
  6
Continuous
370
    18
100
AcDbLine
 10
7581983.32
 20
5719151.33
 30
0.0
 11
7581993.74
 21
5719216.929999999
 31
0.0
  0
LINE
  5
10001A2
330
21
100
AcDbEntity
  8
dzialki_ewns
  6
Continuous
370
    18
100
AcDbLine
 10
7581993.74
 20
5719216.929999999
 30
0.0
 11
7582037.259999999
 21
5719504.389999999
 31
0.0
  0
LINE
  5
10001A3
330
21
100
AcDbEntity
  8
dzialki_ewns
  6
Continuous
370
    18
100
AcDbLine
 10
7582037.259999999
 20
5719504.389999999
 30
0.0
 11
7582049.22
 21
5719503.33
 31
0.0
  0
LINE
  5
10001A4
330
21
100
AcDbEntity
  8
dzialki_ewns
  6
Continuous
370
    18
100
AcDbLine
 10
7582049.22
 20
5719503.33
 30
0.0
 11
7582042.150000001
 21
5719458.63
 31
0.0
  0
LINE
  5
10001A5
330
21
100
AcDbEntity
  8
dzialki_ewns
  6
Continuous
370
    18
100
AcDbLine
 10
7582042.150000001
 20
5719458.63
 30
0.0
 11
7582033.33
 21
5719402.809999999
 31
0.0
  0
LINE
  5
10001A6
330
21
100
AcDbEntity
  8
dzialki_ewns
  6
Continuous
370
    18
100
AcDbLine
 10
7582033.33
 20
5719402.809999999
 30
0.0
 11
7582029.39
 21
5719377.87
 31
0.0
  0
LINE
  5
10001A7
330
21
100
AcDbEntity
  8
dzialki_ewns
  6
Continuous
370
    18
100
AcDbLine
 10
7582029.39
 20
5719377.87
 30
0.0
 11
7582026.49
 21
5719359.53
 31
0.0
  0
LINE
  5
10001A8
330
21
100
AcDbEntity
  8
dzialki_ewns
  6
Continuous
370
    18
100
AcDbLine
 10
7582026.49
 20
5719359.53
 30
0.0
 11
7582024.36
 21
5719346.040000001
 31
0.0
  0
LINE
  5
10001A9
330
21
100
AcDbEntity
  8
dzialki_ewns
  6
Continuous
370
    18
100
AcDbLine
 10
7582024.36
 20
5719346.040000001
 30
0.0
 11
7582023.44
 21
5719340.219999999
 31
0.0
  0
LINE
  5
10001AA
330
21
100
AcDbEntity
  8
dzialki_ewns
  6
Continuous
370
    18
100
AcDbLine
 10
7582023.44
 20
5719340.219999999
 30
0.0
 11
7582016.19
 21
5719292.249999999
 31
0.0
  0
LINE
  5
10001AB
330
21
100
AcDbEntity
  8
dzialki_ewns
  6
Continuous
370
    18
100
AcDbLine
 10
7582016.19
 20
5719292.249999999
 30
0.0
 11
7582008.400000001
 21
5719240.63
 31
0.0
  0
LINE
  5
10001AC
330
21
100
AcDbEntity
  8
dzialki_ewns
  6
Continuous
370
    18
100
AcDbLine
 10
7582008.400000001
 20
5719240.63
 30
0.0
 11
7582000.440000001
 21
5719191.669999999
 31
0.0
  0
LINE
  5
10001AD
330
21
100
AcDbEntity
  8
dzialki_ewns
  6
Continuous
370
    18
100
AcDbLine
 10
7582000.440000001
 20
5719191.669999999
 30
0.0
 11
7581996.42
 21
5719166.980000001
 31
0.0
  0
LINE
  5
10001AE
330
21
100
AcDbEntity
  8
dzialki_ewns
  6
Continuous
370
    18
100
AcDbLine
 10
7581996.42
 20
5719166.980000001
 30
0.0
 11
7581992.28
 21
5719141.519999999
 31
0.0
  0
LINE
  5
10001AF
330
21
100
AcDbEntity
  8
dzialki_ewns
  6
Continuous
370
    18
100
AcDbLine
 10
7581992.28
 20
5719141.519999999
 30
0.0
 11
7581983.66
 21
5719086.790000001
 31
0.0
  0
LINE
  5
10001B0
330
21
100
AcDbEntity
  8
dzialki_ewns
  6
Continuous
370
    18
100
AcDbLine
 10
7581983.66
 20
5719086.790000001
 30
0.0
 11
7581973.95
 21
5719025.219999999
 31
0.0
  0
LINE
  5
10001B1
330
21
100
AcDbEntity
  8
dzialki_ewns
  6
Continuous
370
    18
100
AcDbLine
 10
7581973.95
 20
5719025.219999999
 30
0.0
 11
7581964.27
 21
5718963.78
 31
0.0
  0
LINE
  5
10001B2
330
21
100
AcDbEntity
  8
dzialki_ewns
  6
Continuous
370
    18
100
AcDbLine
 10
7581964.27
 20
5718963.78
 30
0.0
 11
7581930.090000001
 21
5718919.400000002
 31
0.0
  0
LINE
  5
10001B3
330
21
100
AcDbEntity
  8
dzialki_ewns
  6
Continuous
370
    18
100
AcDbLine
 10
7581930.090000001
 20
5718919.400000002
 30
0.0
 11
7581910.33
 21
5718893.740000001
 31
0.0
  0
LINE
  5
10001B4
330
21
100
AcDbEntity
  8
dzialki_ewns
  6
Continuous
370
    18
100
AcDbLine
 10
7581910.33
 20
5718893.740000001
 30
0.0
 11
7581890.37
 21
5718867.820000001
 31
0.0
  0
LINE
  5
10001B5
330
21
100
AcDbEntity
  8
dzialki_ewns
  6
Continuous
370
    18
100
AcDbLine
 10
7581890.37
 20
5718867.820000001
 30
0.0
 11
7581878.18
 21
5718851.980000001
 31
0.0
  0
LINE
  5
10001B6
330
21
100
AcDbEntity
  8
dzialki_ewns
  6
Continuous
370
    18
100
AcDbLine
 10
7581878.18
 20
5718851.980000001
 30
0.0
 11
7581865.22
 21
5718832.72
 31
0.0
  0
LINE
  5
10001B7
330
21
100
AcDbEntity
  8
dzialki_ewns
  6
Continuous
370
    18
100
AcDbLine
 10
7581865.22
 20
5718832.72
 30
0.0
 11
7581846.790000001
 21
5718805.349999999
 31
0.0
  0
LINE
  5
10001B8
330
21
100
AcDbEntity
  8
dzialki_ewns
  6
Continuous
370
    18
100
AcDbLine
 10
7581846.790000001
 20
5718805.349999999
 30
0.0
 11
7581845.11
 21
5718802.849999998
 31
0.0
  0
LINE
  5
10001B9
330
21
100
AcDbEntity
  8
dzialki_ewns
  6
Continuous
370
    18
100
AcDbLine
 10
7581845.11
 20
5718802.849999998
 30
0.0
 11
7581842.320000001
 21
5718824.929999999
 31
0.0
  0
LINE
  5
10001BA
330
21
100
AcDbEntity
  8
dzialki_ewns
  6
Continuous
370
    18
100
AcDbLine
 10
7582042.150000001
 20
5719458.63
 30
0.0
 11
7582049.22
 21
5719503.33
 31
0.0
  0
LINE
  5
10001BB
330
21
100
AcDbEntity
  8
dzialki_ewns
  6
Continuous
370
    18
100
AcDbLine
 10
7582049.22
 20
5719503.33
 30
0.0
 11
7582244.82
 21
5719480.030000002
 31
0.0
  0
LINE
  5
10001BC
330
21
100
AcDbEntity
  8
dzialki_ewns
  6
Continuous
370
    18
100
AcDbLine
 10
7582244.82
 20
5719480.030000002
 30
0.0
 11
7582240.58
 21
5719452.349999999
 31
0.0
  0
LINE
  5
10001BD
330
21
100
AcDbEntity
  8
dzialki_ewns
  6
Continuous
370
    18
100
AcDbLine
 10
7582240.58
 20
5719452.349999999
 30
0.0
 11
7582111.11
 21
5719462.319999999
 31
0.0
  0
LINE
  5
10001BE
330
21
100
AcDbEntity
  8
dzialki_ewns
  6
Continuous
370
    18
100
AcDbLine
 10
7582111.11
 20
5719462.319999999
 30
0.0
 11
7582109.700000001
 21
5719452.2
 31
0.0
  0
LINE
  5
10001BF
330
21
100
AcDbEntity
  8
dzialki_ewns
  6
Continuous
370
    18
100
AcDbLine
 10
7582109.700000001
 20
5719452.2
 30
0.0
 11
7582042.150000001
 21
5719458.63
 31
0.0
  0
LINE
  5
10001C0
330
21
100
AcDbEntity
  8
dzialki_ewns
  6
Continuous
370
    18
100
AcDbLine
 10
7581009.129999999
 20
5719541.83
 30
0.0
 11
7580986.38
 21
5719660.59
 31
0.0
  0
LINE
  5
10001C1
330
21
100
AcDbEntity
  8
dzialki_ewns
  6
Continuous
370
    18
100
AcDbLine
 10
7580986.38
 20
5719660.59
 30
0.0
 11
7580971.370000001
 21
5719761.16
 31
0.0
  0
LINE
  5
10001C2
330
21
100
AcDbEntity
  8
dzialki_ewns
  6
Continuous
370
    18
100
AcDbLine
 10
7580971.370000001
 20
5719761.16
 30
0.0
 11
7580957.469999999
 21
5719857.070000001
 31
0.0
  0
LINE
  5
10001C3
330
21
100
AcDbEntity
  8
dzialki_ewns
  6
Continuous
370
    18
100
AcDbLine
 10
7580957.469999999
 20
5719857.070000001
 30
0.0
 11
7580957.070000001
 21
5719870.429999998
 31
0.0
  0
LINE
  5
10001C4
330
21
100
AcDbEntity
  8
dzialki_ewns
  6
Continuous
370
    18
100
AcDbLine
 10
7580957.070000001
 20
5719870.429999998
 30
0.0
 11
7580943.28
 21
5719997.789999999
 31
0.0
  0
LINE
  5
10001C5
330
21
100
AcDbEntity
  8
dzialki_ewns
  6
Continuous
370
    18
100
AcDbLine
 10
7580943.28
 20
5719997.789999999
 30
0.0
 11
7580933.269999999
 21
5720098.44
 31
0.0
  0
LINE
  5
10001C6
330
21
100
AcDbEntity
  8
dzialki_ewns
  6
Continuous
370
    18
100
AcDbLine
 10
7580933.269999999
 20
5720098.44
 30
0.0
 11
7580905.219999999
 21
5720194.769999999
 31
0.0
  0
LINE
  5
10001C7
330
21
100
AcDbEntity
  8
dzialki_ewns
  6
Continuous
370
    18
100
AcDbLine
 10
7580905.219999999
 20
5720194.769999999
 30
0.0
 11
7580850.05
 21
5720304.36
 31
0.0
  0
LINE
  5
10001C8
330
21
100
AcDbEntity
  8
dzialki_ewns
  6
Continuous
370
    18
100
AcDbLine
 10
7580850.05
 20
5720304.36
 30
0.0
 11
7580820.519999999
 21
5720346.929999999
 31
0.0
  0
LINE
  5
10001C9
330
21
100
AcDbEntity
  8
dzialki_ewns
  6
Continuous
370
    18
100
AcDbLine
 10
7580820.519999999
 20
5720346.929999999
 30
0.0
 11
7580777.259999999
 21
5720386.570000001
 31
0.0
  0
LINE
  5
10001CA
330
21
100
AcDbEntity
  8
dzialki_ewns
  6
Continuous
370
    18
100
AcDbLine
 10
7580777.259999999
 20
5720386.570000001
 30
0.0
 11
7580789.450000001
 21
5720394.51
 31
0.0
  0
LINE
  5
10001CB
330
21
100
AcDbEntity
  8
dzialki_ewns
  6
Continuous
370
    18
100
AcDbLine
 10
7580789.450000001
 20
5720394.51
 30
0.0
 11
7580831.719999999
 21
5720355.519999999
 31
0.0
  0
LINE
  5
10001CC
330
21
100
AcDbEntity
  8
dzialki_ewns
  6
Continuous
370
    18
100
AcDbLine
 10
7580831.719999999
 20
5720355.519999999
 30
0.0
 11
7580860.65
 21
5720309.92
 31
0.0
  0
LINE
  5
10001CD
330
21
100
AcDbEntity
  8
dzialki_ewns
  6
Continuous
370
    18
100
AcDbLine
 10
7580860.65
 20
5720309.92
 30
0.0
 11
7580916.139999999
 21
5720199.33
 31
0.0
  0
LINE
  5
10001CE
330
21
100
AcDbEntity
  8
dzialki_ewns
  6
Continuous
370
    18
100
AcDbLine
 10
7580916.139999999
 20
5720199.33
 30
0.0
 11
7580944.83
 21
5720102.179999998
 31
0.0
  0
LINE
  5
10001CF
330
21
100
AcDbEntity
  8
dzialki_ewns
  6
Continuous
370
    18
100
AcDbLine
 10
7580944.83
 20
5720102.179999998
 30
0.0
 11
7580958.63
 21
5719996.389999998
 31
0.0
  0
LINE
  5
10001D0
330
21
100
AcDbEntity
  8
dzialki_ewns
  6
Continuous
370
    18
100
AcDbLine
 10
7580958.63
 20
5719996.389999998
 30
0.0
 11
7580970.24
 21
5719930.809999998
 31
0.0
  0
LINE
  5
10001D1
330
21
100
AcDbEntity
  8
dzialki_ewns
  6
Continuous
370
    18
100
AcDbLine
 10
7580970.24
 20
5719930.809999998
 30
0.0
 11
7580974.139999999
 21
5719886.660000001
 31
0.0
  0
LINE
  5
10001D2
330
21
100
AcDbEntity
  8
dzialki_ewns
  6
Continuous
370
    18
100
AcDbLine
 10
7580974.139999999
 20
5719886.660000001
 30
0.0
 11
7580974.549999999
 21
5719883.690000001
 31
0.0
  0
LINE
  5
10001D3
330
21
100
AcDbEntity
  8
dzialki_ewns
  6
Continuous
370
    18
100
AcDbLine
 10
7580974.549999999
 20
5719883.690000001
 30
0.0
 11
7580978.530000001
 21
5719854.96
 31
0.0
  0
LINE
  5
10001D4
330
21
100
AcDbEntity
  8
dzialki_ewns
  6
Continuous
370
    18
100
AcDbLine
 10
7580978.530000001
 20
5719854.96
 30
0.0
 11
7580980.889999999
 21
5719837.950000001
 31
0.0
  0
LINE
  5
10001D5
330
21
100
AcDbEntity
  8
dzialki_ewns
  6
Continuous
370
    18
100
AcDbLine
 10
7580980.889999999
 20
5719837.950000001
 30
0.0
 11
7580985.599999999
 21
5719806.769999999
 31
0.0
  0
LINE
  5
10001D6
330
21
100
AcDbEntity
  8
dzialki_ewns
  6
Continuous
370
    18
100
AcDbLine
 10
7580985.599999999
 20
5719806.769999999
 30
0.0
 11
7580990.08
 21
5719767.820000002
 31
0.0
  0
LINE
  5
10001D7
330
21
100
AcDbEntity
  8
dzialki_ewns
  6
Continuous
370
    18
100
AcDbLine
 10
7580990.08
 20
5719767.820000002
 30
0.0
 11
7580990.63
 21
5719763.150000001
 31
0.0
  0
LINE
  5
10001D8
330
21
100
AcDbEntity
  8
dzialki_ewns
  6
Continuous
370
    18
100
AcDbLine
 10
7580990.63
 20
5719763.150000001
 30
0.0
 11
7580993.09
 21
5719747.349999998
 31
0.0
  0
LINE
  5
10001D9
330
21
100
AcDbEntity
  8
dzialki_ewns
  6
Continuous
370
    18
100
AcDbLine
 10
7580993.09
 20
5719747.349999998
 30
0.0
 11
7581007.469999999
 21
5719655.309999999
 31
0.0
  0
LINE
  5
10001DA
330
21
100
AcDbEntity
  8
dzialki_ewns
  6
Continuous
370
    18
100
AcDbLine
 10
7581007.469999999
 20
5719655.309999999
 30
0.0
 11
7581021.809999998
 21
5719554.879999999
 31
0.0
  0
LINE
  5
10001DB
330
21
100
AcDbEntity
  8
dzialki_ewns
  6
Continuous
370
    18
100
AcDbLine
 10
7581021.809999998
 20
5719554.879999999
 30
0.0
 11
7581039.16
 21
5719448.429999999
 31
0.0
  0
LINE
  5
10001DC
330
21
100
AcDbEntity
  8
dzialki_ewns
  6
Continuous
370
    18
100
AcDbLine
 10
7581039.16
 20
5719448.429999999
 30
0.0
 11
7581023.190000002
 21
5719443.209999999
 31
0.0
  0
LINE
  5
10001DD
330
21
100
AcDbEntity
  8
dzialki_ewns
  6
Continuous
370
    18
100
AcDbLine
 10
7581023.190000002
 20
5719443.209999999
 30
0.0
 11
7581009.129999999
 21
5719541.83
 31
0.0
  0
LINE
  5
10001DE
330
21
100
AcDbEntity
  8
dzialki_ewns
  6
Continuous
370
    18
100
AcDbLine
 10
7580974.549999999
 20
5719883.690000001
 30
0.0
 11
7580974.139999999
 21
5719886.660000001
 31
0.0
  0
LINE
  5
10001DF
330
21
100
AcDbEntity
  8
dzialki_ewns
  6
Continuous
370
    18
100
AcDbLine
 10
7580974.139999999
 20
5719886.660000001
 30
0.0
 11
7580970.24
 21
5719930.809999998
 31
0.0
  0
LINE
  5
10001E0
330
21
100
AcDbEntity
  8
dzialki_ewns
  6
Continuous
370
    18
100
AcDbLine
 10
7580970.24
 20
5719930.809999998
 30
0.0
 11
7580958.63
 21
5719996.389999998
 31
0.0
  0
LINE
  5
10001E1
330
21
100
AcDbEntity
  8
dzialki_ewns
  6
Continuous
370
    18
100
AcDbLine
 10
7580958.63
 20
5719996.389999998
 30
0.0
 11
7581107.019999999
 21
5719982.900000001
 31
0.0
  0
LINE
  5
10001E2
330
21
100
AcDbEntity
  8
dzialki_ewns
  6
Continuous
370
    18
100
AcDbLine
 10
7581107.019999999
 20
5719982.900000001
 30
0.0
 11
7581146.87
 21
5719979.280000001
 31
0.0
  0
LINE
  5
10001E3
330
21
100
AcDbEntity
  8
dzialki_ewns
  6
Continuous
370
    18
100
AcDbLine
 10
7581146.87
 20
5719979.280000001
 30
0.0
 11
7581122.97
 21
5719858.04
 31
0.0
  0
LINE
  5
10001E4
330
21
100
AcDbEntity
  8
dzialki_ewns
  6
Continuous
370
    18
100
AcDbLine
 10
7581122.97
 20
5719858.04
 30
0.0
 11
7580987.6
 21
5719874.099999998
 31
0.0
  0
LINE
  5
10001E5
330
21
100
AcDbEntity
  8
dzialki_ewns
  6
Continuous
370
    18
100
AcDbLine
 10
7580987.6
 20
5719874.099999998
 30
0.0
 11
7580974.549999999
 21
5719883.690000001
 31
0.0
  0
LINE
  5
10001E6
330
21
100
AcDbEntity
  8
dzialki_ewns
  6
Continuous
370
    18
100
AcDbLine
 10
7581394.87
 20
5719957.13
 30
0.0
 11
7581394.05
 21
5719825.860000001
 31
0.0
  0
LINE
  5
10001E7
330
21
100
AcDbEntity
  8
dzialki_ewns
  6
Continuous
370
    18
100
AcDbLine
 10
7581394.05
 20
5719825.860000001
 30
0.0
 11
7581265.55
 21
5719841.119999999
 31
0.0
  0
LINE
  5
10001E8
330
21
100
AcDbEntity
  8
dzialki_ewns
  6
Continuous
370
    18
100
AcDbLine
 10
7581265.55
 20
5719841.119999999
 30
0.0
 11
7581266.37
 21
5719968.450000001
 31
0.0
  0
LINE
  5
10001E9
330
21
100
AcDbEntity
  8
dzialki_ewns
  6
Continuous
370
    18
100
AcDbLine
 10
7581266.37
 20
5719968.450000001
 30
0.0
 11
7581394.87
 21
5719957.13
 31
0.0
  0
LINE
  5
10001EA
330
21
100
AcDbEntity
  8
dzialki_ewns
  6
Continuous
370
    18
100
AcDbLine
 10
7580974.549999999
 20
5719883.690000001
 30
0.0
 11
7580987.6
 21
5719874.099999998
 31
0.0
  0
LINE
  5
10001EB
330
21
100
AcDbEntity
  8
dzialki_ewns
  6
Continuous
370
    18
100
AcDbLine
 10
7580987.6
 20
5719874.099999998
 30
0.0
 11
7581122.97
 21
5719858.04
 31
0.0
  0
LINE
  5
10001EC
330
21
100
AcDbEntity
  8
dzialki_ewns
  6
Continuous
370
    18
100
AcDbLine
 10
7581122.97
 20
5719858.04
 30
0.0
 11
7581265.55
 21
5719841.119999999
 31
0.0
  0
LINE
  5
10001ED
330
21
100
AcDbEntity
  8
dzialki_ewns
  6
Continuous
370
    18
100
AcDbLine
 10
7581265.55
 20
5719841.119999999
 30
0.0
 11
7581394.05
 21
5719825.860000001
 31
0.0
  0
LINE
  5
10001EE
330
21
100
AcDbEntity
  8
dzialki_ewns
  6
Continuous
370
    18
100
AcDbLine
 10
7581394.05
 20
5719825.860000001
 30
0.0
 11
7581443.660000001
 21
5719819.969999998
 31
0.0
  0
LINE
  5
10001EF
330
21
100
AcDbEntity
  8
dzialki_ewns
  6
Continuous
370
    18
100
AcDbLine
 10
7581443.660000001
 20
5719819.969999998
 30
0.0
 11
7581546.769999999
 21
5719816.459999999
 31
0.0
  0
LINE
  5
10001F0
330
21
100
AcDbEntity
  8
dzialki_ewns
  6
Continuous
370
    18
100
AcDbLine
 10
7581546.769999999
 20
5719816.459999999
 30
0.0
 11
7581546.429999999
 21
5719804.46
 31
0.0
  0
LINE
  5
10001F1
330
21
100
AcDbEntity
  8
dzialki_ewns
  6
Continuous
370
    18
100
AcDbLine
 10
7581546.429999999
 20
5719804.46
 30
0.0
 11
7581471.940000001
 21
5719807.009999999
 31
0.0
  0
LINE
  5
10001F2
330
21
100
AcDbEntity
  8
dzialki_ewns
  6
Continuous
370
    18
100
AcDbLine
 10
7581471.940000001
 20
5719807.009999999
 30
0.0
 11
7581442.759999999
 21
5719807.999999999
 31
0.0
  0
LINE
  5
10001F3
330
21
100
AcDbEntity
  8
dzialki_ewns
  6
Continuous
370
    18
100
AcDbLine
 10
7581442.759999999
 20
5719807.999999999
 30
0.0
 11
7581400.43
 21
5719813.019999999
 31
0.0
  0
LINE
  5
10001F4
330
21
100
AcDbEntity
  8
dzialki_ewns
  6
Continuous
370
    18
100
AcDbLine
 10
7581400.43
 20
5719813.019999999
 30
0.0
 11
7581331.46
 21
5719821.2
 31
0.0
  0
LINE
  5
10001F5
330
21
100
AcDbEntity
  8
dzialki_ewns
  6
Continuous
370
    18
100
AcDbLine
 10
7581331.46
 20
5719821.2
 30
0.0
 11
7581265.469999999
 21
5719829.030000002
 31
0.0
  0
LINE
  5
10001F6
330
21
100
AcDbEntity
  8
dzialki_ewns
  6
Continuous
370
    18
100
AcDbLine
 10
7581265.469999999
 20
5719829.030000002
 30
0.0
 11
7581120.650000001
 21
5719846.219999999
 31
0.0
  0
LINE
  5
10001F7
330
21
100
AcDbEntity
  8
dzialki_ewns
  6
Continuous
370
    18
100
AcDbLine
 10
7581120.650000001
 20
5719846.219999999
 30
0.0
 11
7580987.65
 21
5719862.01
 31
0.0
  0
LINE
  5
10001F8
330
21
100
AcDbEntity
  8
dzialki_ewns
  6
Continuous
370
    18
100
AcDbLine
 10
7580987.65
 20
5719862.01
 30
0.0
 11
7580978.530000001
 21
5719854.96
 31
0.0
  0
LINE
  5
10001F9
330
21
100
AcDbEntity
  8
dzialki_ewns
  6
Continuous
370
    18
100
AcDbLine
 10
7580978.530000001
 20
5719854.96
 30
0.0
 11
7580974.549999999
 21
5719883.690000001
 31
0.0
  0
LINE
  5
10001FA
330
21
100
AcDbEntity
  8
dzialki_ewns
  6
Continuous
370
    18
100
AcDbLine
 10
7580980.889999999
 20
5719837.950000001
 30
0.0
 11
7580978.530000001
 21
5719854.96
 31
0.0
  0
LINE
  5
10001FB
330
21
100
AcDbEntity
  8
dzialki_ewns
  6
Continuous
370
    18
100
AcDbLine
 10
7580978.530000001
 20
5719854.96
 30
0.0
 11
7580987.65
 21
5719862.01
 31
0.0
  0
LINE
  5
10001FC
330
21
100
AcDbEntity
  8
dzialki_ewns
  6
Continuous
370
    18
100
AcDbLine
 10
7580987.65
 20
5719862.01
 30
0.0
 11
7581120.650000001
 21
5719846.219999999
 31
0.0
  0
LINE
  5
10001FD
330
21
100
AcDbEntity
  8
dzialki_ewns
  6
Continuous
370
    18
100
AcDbLine
 10
7581120.650000001
 20
5719846.219999999
 30
0.0
 11
7581100.35
 21
5719743.2
 31
0.0
  0
LINE
  5
10001FE
330
21
100
AcDbEntity
  8
dzialki_ewns
  6
Continuous
370
    18
100
AcDbLine
 10
7581100.35
 20
5719743.2
 30
0.0
 11
7580996.219999999
 21
5719762.92
 31
0.0
  0
LINE
  5
10001FF
330
21
100
AcDbEntity
  8
dzialki_ewns
  6
Continuous
370
    18
100
AcDbLine
 10
7580996.219999999
 20
5719762.92
 30
0.0
 11
7580990.08
 21
5719767.820000002
 31
0.0
  0
LINE
  5
1000200
330
21
100
AcDbEntity
  8
dzialki_ewns
  6
Continuous
370
    18
100
AcDbLine
 10
7580990.08
 20
5719767.820000002
 30
0.0
 11
7580985.599999999
 21
5719806.769999999
 31
0.0
  0
LINE
  5
1000201
330
21
100
AcDbEntity
  8
dzialki_ewns
  6
Continuous
370
    18
100
AcDbLine
 10
7580985.599999999
 20
5719806.769999999
 30
0.0
 11
7580980.889999999
 21
5719837.950000001
 31
0.0
  0
LINE
  5
1000202
330
21
100
AcDbEntity
  8
dzialki_ewns
  6
Continuous
370
    18
100
AcDbLine
 10
7581120.650000001
 20
5719846.219999999
 30
0.0
 11
7581265.469999999
 21
5719829.030000002
 31
0.0
  0
LINE
  5
1000203
330
21
100
AcDbEntity
  8
dzialki_ewns
  6
Continuous
370
    18
100
AcDbLine
 10
7581265.469999999
 20
5719829.030000002
 30
0.0
 11
7581264.509999999
 21
5719699.59
 31
0.0
  0
LINE
  5
1000204
330
21
100
AcDbEntity
  8
dzialki_ewns
  6
Continuous
370
    18
100
AcDbLine
 10
7581264.509999999
 20
5719699.59
 30
0.0
 11
7581176.83
 21
5719719.559999999
 31
0.0
  0
LINE
  5
1000205
330
21
100
AcDbEntity
  8
dzialki_ewns
  6
Continuous
370
    18
100
AcDbLine
 10
7581176.83
 20
5719719.559999999
 30
0.0
 11
7581178.49
 21
5719728.4
 31
0.0
  0
LINE
  5
1000206
330
21
100
AcDbEntity
  8
dzialki_ewns
  6
Continuous
370
    18
100
AcDbLine
 10
7581178.49
 20
5719728.4
 30
0.0
 11
7581100.35
 21
5719743.2
 31
0.0
  0
LINE
  5
1000207
330
21
100
AcDbEntity
  8
dzialki_ewns
  6
Continuous
370
    18
100
AcDbLine
 10
7581100.35
 20
5719743.2
 30
0.0
 11
7581120.650000001
 21
5719846.219999999
 31
0.0
  0
LINE
  5
1000208
330
21
100
AcDbEntity
  8
dzialki_ewns
  6
Continuous
370
    18
100
AcDbLine
 10
7581265.469999999
 20
5719829.030000002
 30
0.0
 11
7581331.46
 21
5719821.2
 31
0.0
  0
LINE
  5
1000209
330
21
100
AcDbEntity
  8
dzialki_ewns
  6
Continuous
370
    18
100
AcDbLine
 10
7581331.46
 20
5719821.2
 30
0.0
 11
7581330.54
 21
5719697.44
 31
0.0
  0
LINE
  5
100020A
330
21
100
AcDbEntity
  8
dzialki_ewns
  6
Continuous
370
    18
100
AcDbLine
 10
7581330.54
 20
5719697.44
 30
0.0
 11
7581264.509999999
 21
5719699.59
 31
0.0
  0
LINE
  5
100020B
330
21
100
AcDbEntity
  8
dzialki_ewns
  6
Continuous
370
    18
100
AcDbLine
 10
7581264.509999999
 20
5719699.59
 30
0.0
 11
7581265.469999999
 21
5719829.030000002
 31
0.0
  0
LINE
  5
100020C
330
21
100
AcDbEntity
  8
dzialki_ewns
  6
Continuous
370
    18
100
AcDbLine
 10
7581331.46
 20
5719821.2
 30
0.0
 11
7581400.43
 21
5719813.019999999
 31
0.0
  0
LINE
  5
100020D
330
21
100
AcDbEntity
  8
dzialki_ewns
  6
Continuous
370
    18
100
AcDbLine
 10
7581400.43
 20
5719813.019999999
 30
0.0
 11
7581399.55
 21
5719695.190000001
 31
0.0
  0
LINE
  5
100020E
330
21
100
AcDbEntity
  8
dzialki_ewns
  6
Continuous
370
    18
100
AcDbLine
 10
7581399.55
 20
5719695.190000001
 30
0.0
 11
7581330.54
 21
5719697.44
 31
0.0
  0
LINE
  5
100020F
330
21
100
AcDbEntity
  8
dzialki_ewns
  6
Continuous
370
    18
100
AcDbLine
 10
7581330.54
 20
5719697.44
 30
0.0
 11
7581331.46
 21
5719821.2
 31
0.0
  0
LINE
  5
1000210
330
21
100
AcDbEntity
  8
dzialki_ewns
  6
Continuous
370
    18
100
AcDbLine
 10
7581400.43
 20
5719813.019999999
 30
0.0
 11
7581442.759999999
 21
5719807.999999999
 31
0.0
  0
LINE
  5
1000211
330
21
100
AcDbEntity
  8
dzialki_ewns
  6
Continuous
370
    18
100
AcDbLine
 10
7581442.759999999
 20
5719807.999999999
 30
0.0
 11
7581471.940000001
 21
5719807.009999999
 31
0.0
  0
LINE
  5
1000212
330
21
100
AcDbEntity
  8
dzialki_ewns
  6
Continuous
370
    18
100
AcDbLine
 10
7581471.940000001
 20
5719807.009999999
 30
0.0
 11
7581471.099999999
 21
5719692.849999999
 31
0.0
  0
LINE
  5
1000213
330
21
100
AcDbEntity
  8
dzialki_ewns
  6
Continuous
370
    18
100
AcDbLine
 10
7581471.099999999
 20
5719692.849999999
 30
0.0
 11
7581399.55
 21
5719695.190000001
 31
0.0
  0
LINE
  5
1000214
330
21
100
AcDbEntity
  8
dzialki_ewns
  6
Continuous
370
    18
100
AcDbLine
 10
7581399.55
 20
5719695.190000001
 30
0.0
 11
7581400.43
 21
5719813.019999999
 31
0.0
  0
LINE
  5
1000215
330
21
100
AcDbEntity
  8
dzialki_ewns
  6
Continuous
370
    18
100
AcDbLine
 10
7581471.940000001
 20
5719807.009999999
 30
0.0
 11
7581546.429999999
 21
5719804.46
 31
0.0
  0
LINE
  5
1000216
330
21
100
AcDbEntity
  8
dzialki_ewns
  6
Continuous
370
    18
100
AcDbLine
 10
7581546.429999999
 20
5719804.46
 30
0.0
 11
7581543.179999999
 21
5719690.490000001
 31
0.0
  0
LINE
  5
1000217
330
21
100
AcDbEntity
  8
dzialki_ewns
  6
Continuous
370
    18
100
AcDbLine
 10
7581543.179999999
 20
5719690.490000001
 30
0.0
 11
7581471.099999999
 21
5719692.849999999
 31
0.0
  0
LINE
  5
1000218
330
21
100
AcDbEntity
  8
dzialki_ewns
  6
Continuous
370
    18
100
AcDbLine
 10
7581471.099999999
 20
5719692.849999999
 30
0.0
 11
7581471.940000001
 21
5719807.009999999
 31
0.0
  0
LINE
  5
1000219
330
21
100
AcDbEntity
  8
dzialki_ewns
  6
Continuous
370
    18
100
AcDbLine
 10
7580993.09
 20
5719747.349999998
 30
0.0
 11
7580990.63
 21
5719763.150000001
 31
0.0
  0
LINE
  5
100021A
330
21
100
AcDbEntity
  8
dzialki_ewns
  6
Continuous
370
    18
100
AcDbLine
 10
7580990.63
 20
5719763.150000001
 30
0.0
 11
7580990.08
 21
5719767.820000002
 31
0.0
  0
LINE
  5
100021B
330
21
100
AcDbEntity
  8
dzialki_ewns
  6
Continuous
370
    18
100
AcDbLine
 10
7580990.08
 20
5719767.820000002
 30
0.0
 11
7580996.219999999
 21
5719762.92
 31
0.0
  0
LINE
  5
100021C
330
21
100
AcDbEntity
  8
dzialki_ewns
  6
Continuous
370
    18
100
AcDbLine
 10
7580996.219999999
 20
5719762.92
 30
0.0
 11
7581100.35
 21
5719743.2
 31
0.0
  0
LINE
  5
100021D
330
21
100
AcDbEntity
  8
dzialki_ewns
  6
Continuous
370
    18
100
AcDbLine
 10
7581100.35
 20
5719743.2
 30
0.0
 11
7581178.49
 21
5719728.4
 31
0.0
  0
LINE
  5
100021E
330
21
100
AcDbEntity
  8
dzialki_ewns
  6
Continuous
370
    18
100
AcDbLine
 10
7581178.49
 20
5719728.4
 30
0.0
 11
7581176.83
 21
5719719.559999999
 31
0.0
  0
LINE
  5
100021F
330
21
100
AcDbEntity
  8
dzialki_ewns
  6
Continuous
370
    18
100
AcDbLine
 10
7581176.83
 20
5719719.559999999
 30
0.0
 11
7581175.55
 21
5719712.679999999
 31
0.0
  0
LINE
  5
1000220
330
21
100
AcDbEntity
  8
dzialki_ewns
  6
Continuous
370
    18
100
AcDbLine
 10
7581175.55
 20
5719712.679999999
 30
0.0
 11
7581163.780000001
 21
5719714.97
 31
0.0
  0
LINE
  5
1000221
330
21
100
AcDbEntity
  8
dzialki_ewns
  6
Continuous
370
    18
100
AcDbLine
 10
7581163.780000001
 20
5719714.97
 30
0.0
 11
7581161.42
 21
5719721.4
 31
0.0
  0
LINE
  5
1000222
330
21
100
AcDbEntity
  8
dzialki_ewns
  6
Continuous
370
    18
100
AcDbLine
 10
7581161.42
 20
5719721.4
 30
0.0
 11
7580997.35
 21
5719752.54
 31
0.0
  0
LINE
  5
1000223
330
21
100
AcDbEntity
  8
dzialki_ewns
  6
Continuous
370
    18
100
AcDbLine
 10
7580997.35
 20
5719752.54
 30
0.0
 11
7580993.09
 21
5719747.349999998
 31
0.0
  0
LINE
  5
1000224
330
21
100
AcDbEntity
  8
dzialki_ewns
  6
Continuous
370
    18
100
AcDbLine
 10
7581601.79
 20
5719937.69
 30
0.0
 11
7581544.530000001
 21
5719942.750000001
 31
0.0
  0
LINE
  5
1000225
330
21
100
AcDbEntity
  8
dzialki_ewns
  6
Continuous
370
    18
100
AcDbLine
 10
7581544.530000001
 20
5719942.750000001
 30
0.0
 11
7581427.809999999
 21
5719954.230000001
 31
0.0
  0
LINE
  5
1000226
330
21
100
AcDbEntity
  8
dzialki_ewns
  6
Continuous
370
    18
100
AcDbLine
 10
7581427.809999999
 20
5719954.230000001
 30
0.0
 11
7581394.87
 21
5719957.13
 31
0.0
  0
LINE
  5
1000227
330
21
100
AcDbEntity
  8
dzialki_ewns
  6
Continuous
370
    18
100
AcDbLine
 10
7581394.87
 20
5719957.13
 30
0.0
 11
7581266.37
 21
5719968.450000001
 31
0.0
  0
LINE
  5
1000228
330
21
100
AcDbEntity
  8
dzialki_ewns
  6
Continuous
370
    18
100
AcDbLine
 10
7581266.37
 20
5719968.450000001
 30
0.0
 11
7581256.41
 21
5719969.320000001
 31
0.0
  0
LINE
  5
1000229
330
21
100
AcDbEntity
  8
dzialki_ewns
  6
Continuous
370
    18
100
AcDbLine
 10
7581256.41
 20
5719969.320000001
 30
0.0
 11
7581146.87
 21
5719979.280000001
 31
0.0
  0
LINE
  5
100022A
330
21
100
AcDbEntity
  8
dzialki_ewns
  6
Continuous
370
    18
100
AcDbLine
 10
7581146.87
 20
5719979.280000001
 30
0.0
 11
7581107.019999999
 21
5719982.900000001
 31
0.0
  0
LINE
  5
100022B
330
21
100
AcDbEntity
  8
dzialki_ewns
  6
Continuous
370
    18
100
AcDbLine
 10
7581107.019999999
 20
5719982.900000001
 30
0.0
 11
7580958.63
 21
5719996.389999998
 31
0.0
  0
LINE
  5
100022C
330
21
100
AcDbEntity
  8
dzialki_ewns
  6
Continuous
370
    18
100
AcDbLine
 10
7580958.63
 20
5719996.389999998
 30
0.0
 11
7580944.83
 21
5720102.179999998
 31
0.0
  0
LINE
  5
100022D
330
21
100
AcDbEntity
  8
dzialki_ewns
  6
Continuous
370
    18
100
AcDbLine
 10
7580944.83
 20
5720102.179999998
 30
0.0
 11
7580916.139999999
 21
5720199.33
 31
0.0
  0
LINE
  5
100022E
330
21
100
AcDbEntity
  8
dzialki_ewns
  6
Continuous
370
    18
100
AcDbLine
 10
7580916.139999999
 20
5720199.33
 30
0.0
 11
7580860.65
 21
5720309.92
 31
0.0
  0
LINE
  5
100022F
330
21
100
AcDbEntity
  8
dzialki_ewns
  6
Continuous
370
    18
100
AcDbLine
 10
7580860.65
 20
5720309.92
 30
0.0
 11
7580831.719999999
 21
5720355.519999999
 31
0.0
  0
LINE
  5
1000230
330
21
100
AcDbEntity
  8
dzialki_ewns
  6
Continuous
370
    18
100
AcDbLine
 10
7580831.719999999
 20
5720355.519999999
 30
0.0
 11
7580938.78
 21
5720403.139999998
 31
0.0
  0
LINE
  5
1000231
330
21
100
AcDbEntity
  8
dzialki_ewns
  6
Continuous
370
    18
100
AcDbLine
 10
7580938.78
 20
5720403.139999998
 30
0.0
 11
7580935.95
 21
5720358.44
 31
0.0
  0
LINE
  5
1000232
330
21
100
AcDbEntity
  8
dzialki_ewns
  6
Continuous
370
    18
100
AcDbLine
 10
7580935.95
 20
5720358.44
 30
0.0
 11
7581002.29
 21
5720344.419999999
 31
0.0
  0
LINE
  5
1000233
330
21
100
AcDbEntity
  8
dzialki_ewns
  6
Continuous
370
    18
100
AcDbLine
 10
7581002.29
 20
5720344.419999999
 30
0.0
 11
7581006.09
 21
5720387.259999999
 31
0.0
  0
LINE
  5
1000234
330
21
100
AcDbEntity
  8
dzialki_ewns
  6
Continuous
370
    18
100
AcDbLine
 10
7581006.09
 20
5720387.259999999
 30
0.0
 11
7581148.0
 21
5720362.219999999
 31
0.0
  0
LINE
  5
1000235
330
21
100
AcDbEntity
  8
dzialki_ewns
  6
Continuous
370
    18
100
AcDbLine
 10
7581148.0
 20
5720362.219999999
 30
0.0
 11
7581221.769999999
 21
5720336.289999998
 31
0.0
  0
LINE
  5
1000236
330
21
100
AcDbEntity
  8
dzialki_ewns
  6
Continuous
370
    18
100
AcDbLine
 10
7581221.769999999
 20
5720336.289999998
 30
0.0
 11
7581373.059999999
 21
5720287.360000002
 31
0.0
  0
LINE
  5
1000237
330
21
100
AcDbEntity
  8
dzialki_ewns
  6
Continuous
370
    18
100
AcDbLine
 10
7581373.059999999
 20
5720287.360000002
 30
0.0
 11
7581559.320000001
 21
5720205.400000001
 31
0.0
  0
LINE
  5
1000238
330
21
100
AcDbEntity
  8
dzialki_ewns
  6
Continuous
370
    18
100
AcDbLine
 10
7581559.320000001
 20
5720205.400000001
 30
0.0
 11
7581596.79
 21
5720169.07
 31
0.0
  0
LINE
  5
1000239
330
21
100
AcDbEntity
  8
dzialki_ewns
  6
Continuous
370
    18
100
AcDbLine
 10
7581596.79
 20
5720169.07
 30
0.0
 11
7581718.54
 21
5720054.769999999
 31
0.0
  0
LINE
  5
100023A
330
21
100
AcDbEntity
  8
dzialki_ewns
  6
Continuous
370
    18
100
AcDbLine
 10
7581718.54
 20
5720054.769999999
 30
0.0
 11
7581823.380000001
 21
5720008.169999999
 31
0.0
  0
LINE
  5
100023B
330
21
100
AcDbEntity
  8
dzialki_ewns
  6
Continuous
370
    18
100
AcDbLine
 10
7581823.380000001
 20
5720008.169999999
 30
0.0
 11
7581867.150000001
 21
5719966.259999998
 31
0.0
  0
LINE
  5
100023C
330
21
100
AcDbEntity
  8
dzialki_ewns
  6
Continuous
370
    18
100
AcDbLine
 10
7581867.150000001
 20
5719966.259999998
 30
0.0
 11
7582027.38
 21
5719898.68
 31
0.0
  0
LINE
  5
100023D
330
21
100
AcDbEntity
  8
dzialki_ewns
  6
Continuous
370
    18
100
AcDbLine
 10
7582027.38
 20
5719898.68
 30
0.0
 11
7581988.940000001
 21
5719901.8
 31
0.0
  0
LINE
  5
100023E
330
21
100
AcDbEntity
  8
dzialki_ewns
  6
Continuous
370
    18
100
AcDbLine
 10
7581988.940000001
 20
5719901.8
 30
0.0
 11
7581973.23
 21
5719903.069999999
 31
0.0
  0
LINE
  5
100023F
330
21
100
AcDbEntity
  8
dzialki_ewns
  6
Continuous
370
    18
100
AcDbLine
 10
7581973.23
 20
5719903.069999999
 30
0.0
 11
7581958.32
 21
5719904.280000001
 31
0.0
  0
LINE
  5
1000240
330
21
100
AcDbEntity
  8
dzialki_ewns
  6
Continuous
370
    18
100
AcDbLine
 10
7581958.32
 20
5719904.280000001
 30
0.0
 11
7581900.67
 21
5719908.96
 31
0.0
  0
LINE
  5
1000241
330
21
100
AcDbEntity
  8
dzialki_ewns
  6
Continuous
370
    18
100
AcDbLine
 10
7581900.67
 20
5719908.96
 30
0.0
 11
7581887.05
 21
5719910.059999998
 31
0.0
  0
LINE
  5
1000242
330
21
100
AcDbEntity
  8
dzialki_ewns
  6
Continuous
370
    18
100
AcDbLine
 10
7581887.05
 20
5719910.059999998
 30
0.0
 11
7581873.340000001
 21
5719911.179999999
 31
0.0
  0
LINE
  5
1000243
330
21
100
AcDbEntity
  8
dzialki_ewns
  6
Continuous
370
    18
100
AcDbLine
 10
7581873.340000001
 20
5719911.179999999
 30
0.0
 11
7581844.99
 21
5719913.47
 31
0.0
  0
LINE
  5
1000244
330
21
100
AcDbEntity
  8
dzialki_ewns
  6
Continuous
370
    18
100
AcDbLine
 10
7581844.99
 20
5719913.47
 30
0.0
 11
7581822.92
 21
5719915.88
 31
0.0
  0
LINE
  5
1000245
330
21
100
AcDbEntity
  8
dzialki_ewns
  6
Continuous
370
    18
100
AcDbLine
 10
7581822.92
 20
5719915.88
 30
0.0
 11
7581801.63
 21
5719918.200000002
 31
0.0
  0
LINE
  5
1000246
330
21
100
AcDbEntity
  8
dzialki_ewns
  6
Continuous
370
    18
100
AcDbLine
 10
7581801.63
 20
5719918.200000002
 30
0.0
 11
7581757.83
 21
5719922.969999999
 31
0.0
  0
LINE
  5
1000247
330
21
100
AcDbEntity
  8
dzialki_ewns
  6
Continuous
370
    18
100
AcDbLine
 10
7581757.83
 20
5719922.969999999
 30
0.0
 11
7581711.66
 21
5719928.009999998
 31
0.0
  0
LINE
  5
1000248
330
21
100
AcDbEntity
  8
dzialki_ewns
  6
Continuous
370
    18
100
AcDbLine
 10
7581711.66
 20
5719928.009999998
 30
0.0
 11
7581684.44
 21
5719930.41
 31
0.0
  0
LINE
  5
1000249
330
21
100
AcDbEntity
  8
dzialki_ewns
  6
Continuous
370
    18
100
AcDbLine
 10
7581684.44
 20
5719930.41
 30
0.0
 11
7581654.22
 21
5719933.070000002
 31
0.0
  0
LINE
  5
100024A
330
21
100
AcDbEntity
  8
dzialki_ewns
  6
Continuous
370
    18
100
AcDbLine
 10
7581654.22
 20
5719933.070000002
 30
0.0
 11
7581635.059999999
 21
5719934.769999999
 31
0.0
  0
LINE
  5
100024B
330
21
100
AcDbEntity
  8
dzialki_ewns
  6
Continuous
370
    18
100
AcDbLine
 10
7581635.059999999
 20
5719934.769999999
 30
0.0
 11
7581620.650000001
 21
5719936.030000001
 31
0.0
  0
LINE
  5
100024C
330
21
100
AcDbEntity
  8
dzialki_ewns
  6
Continuous
370
    18
100
AcDbLine
 10
7581620.650000001
 20
5719936.030000001
 30
0.0
 11
7581601.79
 21
5719937.69
 31
0.0
  0
LINE
  5
100024D
330
21
100
AcDbEntity
  8
dzialki_ewns
  6
Continuous
370
    18
100
AcDbLine
 10
7581601.88
 20
5719834.179999999
 30
0.0
 11
7581597.93
 21
5719568.88
 31
0.0
  0
LINE
  5
100024E
330
21
100
AcDbEntity
  8
dzialki_ewns
  6
Continuous
370
    18
100
AcDbLine
 10
7581597.93
 20
5719568.88
 30
0.0
 11
7581539.81
 21
5719557.070000002
 31
0.0
  0
LINE
  5
100024F
330
21
100
AcDbEntity
  8
dzialki_ewns
  6
Continuous
370
    18
100
AcDbLine
 10
7581539.81
 20
5719557.070000002
 30
0.0
 11
7581542.67
 21
5719672.45
 31
0.0
  0
LINE
  5
1000250
330
21
100
AcDbEntity
  8
dzialki_ewns
  6
Continuous
370
    18
100
AcDbLine
 10
7581542.67
 20
5719672.45
 30
0.0
 11
7581543.179999999
 21
5719690.490000001
 31
0.0
  0
LINE
  5
1000251
330
21
100
AcDbEntity
  8
dzialki_ewns
  6
Continuous
370
    18
100
AcDbLine
 10
7581543.179999999
 20
5719690.490000001
 30
0.0
 11
7581546.429999999
 21
5719804.46
 31
0.0
  0
LINE
  5
1000252
330
21
100
AcDbEntity
  8
dzialki_ewns
  6
Continuous
370
    18
100
AcDbLine
 10
7581546.429999999
 20
5719804.46
 30
0.0
 11
7581546.769999999
 21
5719816.459999999
 31
0.0
  0
LINE
  5
1000253
330
21
100
AcDbEntity
  8
dzialki_ewns
  6
Continuous
370
    18
100
AcDbLine
 10
7581546.769999999
 20
5719816.459999999
 30
0.0
 11
7581549.31
 21
5719905.54
 31
0.0
  0
LINE
  5
1000254
330
21
100
AcDbEntity
  8
dzialki_ewns
  6
Continuous
370
    18
100
AcDbLine
 10
7581549.31
 20
5719905.54
 30
0.0
 11
7581544.530000001
 21
5719942.750000001
 31
0.0
  0
LINE
  5
1000255
330
21
100
AcDbEntity
  8
dzialki_ewns
  6
Continuous
370
    18
100
AcDbLine
 10
7581544.530000001
 20
5719942.750000001
 30
0.0
 11
7581601.79
 21
5719937.69
 31
0.0
  0
LINE
  5
1000256
330
21
100
AcDbEntity
  8
dzialki_ewns
  6
Continuous
370
    18
100
AcDbLine
 10
7581601.79
 20
5719937.69
 30
0.0
 11
7581601.88
 21
5719834.179999999
 31
0.0
  0
LINE
  5
1000257
330
21
100
AcDbEntity
  8
dzialki_ewns
  6
Continuous
370
    18
100
AcDbLine
 10
7581146.87
 20
5719979.280000001
 30
0.0
 11
7581256.41
 21
5719969.320000001
 31
0.0
  0
LINE
  5
1000258
330
21
100
AcDbEntity
  8
dzialki_ewns
  6
Continuous
370
    18
100
AcDbLine
 10
7581256.41
 20
5719969.320000001
 30
0.0
 11
7581266.37
 21
5719968.450000001
 31
0.0
  0
LINE
  5
1000259
330
21
100
AcDbEntity
  8
dzialki_ewns
  6
Continuous
370
    18
100
AcDbLine
 10
7581266.37
 20
5719968.450000001
 30
0.0
 11
7581265.55
 21
5719841.119999999
 31
0.0
  0
LINE
  5
100025A
330
21
100
AcDbEntity
  8
dzialki_ewns
  6
Continuous
370
    18
100
AcDbLine
 10
7581265.55
 20
5719841.119999999
 30
0.0
 11
7581122.97
 21
5719858.04
 31
0.0
  0
LINE
  5
100025B
330
21
100
AcDbEntity
  8
dzialki_ewns
  6
Continuous
370
    18
100
AcDbLine
 10
7581122.97
 20
5719858.04
 30
0.0
 11
7581146.87
 21
5719979.280000001
 31
0.0
  0
LINE
  5
100025C
330
21
100
AcDbEntity
  8
dzialki_ewns
  6
Continuous
370
    18
100
AcDbLine
 10
7581394.87
 20
5719957.13
 30
0.0
 11
7581427.809999999
 21
5719954.230000001
 31
0.0
  0
LINE
  5
100025D
330
21
100
AcDbEntity
  8
dzialki_ewns
  6
Continuous
370
    18
100
AcDbLine
 10
7581427.809999999
 20
5719954.230000001
 30
0.0
 11
7581544.530000001
 21
5719942.750000001
 31
0.0
  0
LINE
  5
100025E
330
21
100
AcDbEntity
  8
dzialki_ewns
  6
Continuous
370
    18
100
AcDbLine
 10
7581544.530000001
 20
5719942.750000001
 30
0.0
 11
7581549.31
 21
5719905.54
 31
0.0
  0
LINE
  5
100025F
330
21
100
AcDbEntity
  8
dzialki_ewns
  6
Continuous
370
    18
100
AcDbLine
 10
7581549.31
 20
5719905.54
 30
0.0
 11
7581546.769999999
 21
5719816.459999999
 31
0.0
  0
LINE
  5
1000260
330
21
100
AcDbEntity
  8
dzialki_ewns
  6
Continuous
370
    18
100
AcDbLine
 10
7581546.769999999
 20
5719816.459999999
 30
0.0
 11
7581443.660000001
 21
5719819.969999998
 31
0.0
  0
LINE
  5
1000261
330
21
100
AcDbEntity
  8
dzialki_ewns
  6
Continuous
370
    18
100
AcDbLine
 10
7581443.660000001
 20
5719819.969999998
 30
0.0
 11
7581394.05
 21
5719825.860000001
 31
0.0
  0
LINE
  5
1000262
330
21
100
AcDbEntity
  8
dzialki_ewns
  6
Continuous
370
    18
100
AcDbLine
 10
7581394.05
 20
5719825.860000001
 30
0.0
 11
7581394.87
 21
5719957.13
 31
0.0
  0
LINE
  5
1000263
330
21
100
AcDbEntity
  8
dzialki_ewns
  6
Continuous
370
    18
100
AcDbLine
 10
7581039.16
 20
5719448.429999999
 30
0.0
 11
7581021.809999998
 21
5719554.879999999
 31
0.0
  0
LINE
  5
1000264
330
21
100
AcDbEntity
  8
dzialki_ewns
  6
Continuous
370
    18
100
AcDbLine
 10
7581021.809999998
 20
5719554.879999999
 30
0.0
 11
7581007.469999999
 21
5719655.309999999
 31
0.0
  0
LINE
  5
1000265
330
21
100
AcDbEntity
  8
dzialki_ewns
  6
Continuous
370
    18
100
AcDbLine
 10
7581007.469999999
 20
5719655.309999999
 30
0.0
 11
7580993.09
 21
5719747.349999998
 31
0.0
  0
LINE
  5
1000266
330
21
100
AcDbEntity
  8
dzialki_ewns
  6
Continuous
370
    18
100
AcDbLine
 10
7580993.09
 20
5719747.349999998
 30
0.0
 11
7580997.35
 21
5719752.54
 31
0.0
  0
LINE
  5
1000267
330
21
100
AcDbEntity
  8
dzialki_ewns
  6
Continuous
370
    18
100
AcDbLine
 10
7580997.35
 20
5719752.54
 30
0.0
 11
7581161.42
 21
5719721.4
 31
0.0
  0
LINE
  5
1000268
330
21
100
AcDbEntity
  8
dzialki_ewns
  6
Continuous
370
    18
100
AcDbLine
 10
7581161.42
 20
5719721.4
 30
0.0
 11
7581163.780000001
 21
5719714.97
 31
0.0
  0
LINE
  5
1000269
330
21
100
AcDbEntity
  8
dzialki_ewns
  6
Continuous
370
    18
100
AcDbLine
 10
7581163.780000001
 20
5719714.97
 30
0.0
 11
7581175.55
 21
5719712.679999999
 31
0.0
  0
LINE
  5
100026A
330
21
100
AcDbEntity
  8
dzialki_ewns
  6
Continuous
370
    18
100
AcDbLine
 10
7581175.55
 20
5719712.679999999
 30
0.0
 11
7581176.83
 21
5719719.559999999
 31
0.0
  0
LINE
  5
100026B
330
21
100
AcDbEntity
  8
dzialki_ewns
  6
Continuous
370
    18
100
AcDbLine
 10
7581176.83
 20
5719719.559999999
 30
0.0
 11
7581264.509999999
 21
5719699.59
 31
0.0
  0
LINE
  5
100026C
330
21
100
AcDbEntity
  8
dzialki_ewns
  6
Continuous
370
    18
100
AcDbLine
 10
7581264.509999999
 20
5719699.59
 30
0.0
 11
7581330.54
 21
5719697.44
 31
0.0
  0
LINE
  5
100026D
330
21
100
AcDbEntity
  8
dzialki_ewns
  6
Continuous
370
    18
100
AcDbLine
 10
7581330.54
 20
5719697.44
 30
0.0
 11
7581399.55
 21
5719695.190000001
 31
0.0
  0
LINE
  5
100026E
330
21
100
AcDbEntity
  8
dzialki_ewns
  6
Continuous
370
    18
100
AcDbLine
 10
7581399.55
 20
5719695.190000001
 30
0.0
 11
7581471.099999999
 21
5719692.849999999
 31
0.0
  0
LINE
  5
100026F
330
21
100
AcDbEntity
  8
dzialki_ewns
  6
Continuous
370
    18
100
AcDbLine
 10
7581471.099999999
 20
5719692.849999999
 30
0.0
 11
7581543.179999999
 21
5719690.490000001
 31
0.0
  0
LINE
  5
1000270
330
21
100
AcDbEntity
  8
dzialki_ewns
  6
Continuous
370
    18
100
AcDbLine
 10
7581543.179999999
 20
5719690.490000001
 30
0.0
 11
7581542.67
 21
5719672.45
 31
0.0
  0
LINE
  5
1000271
330
21
100
AcDbEntity
  8
dzialki_ewns
  6
Continuous
370
    18
100
AcDbLine
 10
7581542.67
 20
5719672.45
 30
0.0
 11
7581539.81
 21
5719557.070000002
 31
0.0
  0
LINE
  5
1000272
330
21
100
AcDbEntity
  8
dzialki_ewns
  6
Continuous
370
    18
100
AcDbLine
 10
7581539.81
 20
5719557.070000002
 30
0.0
 11
7581483.09
 21
5719545.71
 31
0.0
  0
LINE
  5
1000273
330
21
100
AcDbEntity
  8
dzialki_ewns
  6
Continuous
370
    18
100
AcDbLine
 10
7581483.09
 20
5719545.71
 30
0.0
 11
7581404.610000001
 21
5719527.52
 31
0.0
  0
LINE
  5
1000274
330
21
100
AcDbEntity
  8
dzialki_ewns
  6
Continuous
370
    18
100
AcDbLine
 10
7581404.610000001
 20
5719527.52
 30
0.0
 11
7581310.940000001
 21
5719506.099999998
 31
0.0
  0
LINE
  5
1000275
330
21
100
AcDbEntity
  8
dzialki_ewns
  6
Continuous
370
    18
100
AcDbLine
 10
7581310.940000001
 20
5719506.099999998
 30
0.0
 11
7581272.14
 21
5719497.179999998
 31
0.0
  0
LINE
  5
1000276
330
21
100
AcDbEntity
  8
dzialki_ewns
  6
Continuous
370
    18
100
AcDbLine
 10
7581272.14
 20
5719497.179999998
 30
0.0
 11
7581207.1
 21
5719484.839999999
 31
0.0
  0
LINE
  5
1000277
330
21
100
AcDbEntity
  8
dzialki_ewns
  6
Continuous
370
    18
100
AcDbLine
 10
7581207.1
 20
5719484.839999999
 30
0.0
 11
7581125.11
 21
5719466.839999999
 31
0.0
  0
LINE
  5
1000278
330
21
100
AcDbEntity
  8
dzialki_ewns
  6
Continuous
370
    18
100
AcDbLine
 10
7581125.11
 20
5719466.839999999
 30
0.0
 11
7581039.16
 21
5719448.429999999
 31
0.0
  0
LINE
  5
1000279
330
21
100
AcDbEntity
  8
dzialki_ewns
  6
Continuous
370
    18
100
AcDbLine
 10
7581443.53
 20
5720787.030000001
 30
0.0
 11
7581449.67
 21
5720795.28
 31
0.0
  0
LINE
  5
100027A
330
21
100
AcDbEntity
  8
dzialki_ewns
  6
Continuous
370
    18
100
AcDbLine
 10
7581449.67
 20
5720795.28
 30
0.0
 11
7581465.11
 21
5720798.22
 31
0.0
  0
LINE
  5
100027B
330
21
100
AcDbEntity
  8
dzialki_ewns
  6
Continuous
370
    18
100
AcDbLine
 10
7581465.11
 20
5720798.22
 30
0.0
 11
7581485.639999999
 21
5720801.69
 31
0.0
  0
LINE
  5
100027C
330
21
100
AcDbEntity
  8
dzialki_ewns
  6
Continuous
370
    18
100
AcDbLine
 10
7581485.639999999
 20
5720801.69
 30
0.0
 11
7581511.21
 21
5720805.179999998
 31
0.0
  0
LINE
  5
100027D
330
21
100
AcDbEntity
  8
dzialki_ewns
  6
Continuous
370
    18
100
AcDbLine
 10
7581511.21
 20
5720805.179999998
 30
0.0
 11
7581525.83
 21
5720801.040000001
 31
0.0
  0
LINE
  5
100027E
330
21
100
AcDbEntity
  8
dzialki_ewns
  6
Continuous
370
    18
100
AcDbLine
 10
7581525.83
 20
5720801.040000001
 30
0.0
 11
7581557.75
 21
5720785.9
 31
0.0
  0
LINE
  5
100027F
330
21
100
AcDbEntity
  8
dzialki_ewns
  6
Continuous
370
    18
100
AcDbLine
 10
7581557.75
 20
5720785.9
 30
0.0
 11
7581596.03
 21
5720771.139999999
 31
0.0
  0
LINE
  5
1000280
330
21
100
AcDbEntity
  8
dzialki_ewns
  6
Continuous
370
    18
100
AcDbLine
 10
7581596.03
 20
5720771.139999999
 30
0.0
 11
7581648.73
 21
5720749.469999999
 31
0.0
  0
LINE
  5
1000281
330
21
100
AcDbEntity
  8
dzialki_ewns
  6
Continuous
370
    18
100
AcDbLine
 10
7581648.73
 20
5720749.469999999
 30
0.0
 11
7581704.400000001
 21
5720726.900000001
 31
0.0
  0
LINE
  5
1000282
330
21
100
AcDbEntity
  8
dzialki_ewns
  6
Continuous
370
    18
100
AcDbLine
 10
7581704.400000001
 20
5720726.900000001
 30
0.0
 11
7581767.139999999
 21
5720700.679999999
 31
0.0
  0
LINE
  5
1000283
330
21
100
AcDbEntity
  8
dzialki_ewns
  6
Continuous
370
    18
100
AcDbLine
 10
7581767.139999999
 20
5720700.679999999
 30
0.0
 11
7581770.139999999
 21
5720700.030000001
 31
0.0
  0
LINE
  5
1000284
330
21
100
AcDbEntity
  8
dzialki_ewns
  6
Continuous
370
    18
100
AcDbLine
 10
7581770.139999999
 20
5720700.030000001
 30
0.0
 11
7581793.23
 21
5720704.95
 31
0.0
  0
LINE
  5
1000285
330
21
100
AcDbEntity
  8
dzialki_ewns
  6
Continuous
370
    18
100
AcDbLine
 10
7581793.23
 20
5720704.95
 30
0.0
 11
7581799.89
 21
5720707.879999999
 31
0.0
  0
LINE
  5
1000286
330
21
100
AcDbEntity
  8
dzialki_ewns
  6
Continuous
370
    18
100
AcDbLine
 10
7581799.89
 20
5720707.879999999
 30
0.0
 11
7581817.38
 21
5720718.87
 31
0.0
  0
LINE
  5
1000287
330
21
100
AcDbEntity
  8
dzialki_ewns
  6
Continuous
370
    18
100
AcDbLine
 10
7581817.38
 20
5720718.87
 30
0.0
 11
7581824.730000001
 21
5720715.81
 31
0.0
  0
LINE
  5
1000288
330
21
100
AcDbEntity
  8
dzialki_ewns
  6
Continuous
370
    18
100
AcDbLine
 10
7581824.730000001
 20
5720715.81
 30
0.0
 11
7581836.68
 21
5720716.009999998
 31
0.0
  0
LINE
  5
1000289
330
21
100
AcDbEntity
  8
dzialki_ewns
  6
Continuous
370
    18
100
AcDbLine
 10
7581836.68
 20
5720716.009999998
 30
0.0
 11
7581845.059999999
 21
5720706.030000001
 31
0.0
  0
LINE
  5
100028A
330
21
100
AcDbEntity
  8
dzialki_ewns
  6
Continuous
370
    18
100
AcDbLine
 10
7581845.059999999
 20
5720706.030000001
 30
0.0
 11
7581827.849999999
 21
5720704.589999999
 31
0.0
  0
LINE
  5
100028B
330
21
100
AcDbEntity
  8
dzialki_ewns
  6
Continuous
370
    18
100
AcDbLine
 10
7581827.849999999
 20
5720704.589999999
 30
0.0
 11
7581818.389999999
 21
5720712.049999999
 31
0.0
  0
LINE
  5
100028C
330
21
100
AcDbEntity
  8
dzialki_ewns
  6
Continuous
370
    18
100
AcDbLine
 10
7581818.389999999
 20
5720712.049999999
 30
0.0
 11
7581800.7
 21
5720703.76
 31
0.0
  0
LINE
  5
100028D
330
21
100
AcDbEntity
  8
dzialki_ewns
  6
Continuous
370
    18
100
AcDbLine
 10
7581800.7
 20
5720703.76
 30
0.0
 11
7581794.19
 21
5720700.039999999
 31
0.0
  0
LINE
  5
100028E
330
21
100
AcDbEntity
  8
dzialki_ewns
  6
Continuous
370
    18
100
AcDbLine
 10
7581794.19
 20
5720700.039999999
 30
0.0
 11
7581771.11
 21
5720695.13
 31
0.0
  0
LINE
  5
100028F
330
21
100
AcDbEntity
  8
dzialki_ewns
  6
Continuous
370
    18
100
AcDbLine
 10
7581771.11
 20
5720695.13
 30
0.0
 11
7581764.95
 21
5720695.530000001
 31
0.0
  0
LINE
  5
1000290
330
21
100
AcDbEntity
  8
dzialki_ewns
  6
Continuous
370
    18
100
AcDbLine
 10
7581764.95
 20
5720695.530000001
 30
0.0
 11
7581702.45
 21
5720722.290000001
 31
0.0
  0
LINE
  5
1000291
330
21
100
AcDbEntity
  8
dzialki_ewns
  6
Continuous
370
    18
100
AcDbLine
 10
7581702.45
 20
5720722.290000001
 30
0.0
 11
7581646.799999999
 21
5720744.86
 31
0.0
  0
LINE
  5
1000292
330
21
100
AcDbEntity
  8
dzialki_ewns
  6
Continuous
370
    18
100
AcDbLine
 10
7581646.799999999
 20
5720744.86
 30
0.0
 11
7581594.480000001
 21
5720767.460000001
 31
0.0
  0
LINE
  5
1000293
330
21
100
AcDbEntity
  8
dzialki_ewns
  6
Continuous
370
    18
100
AcDbLine
 10
7581594.480000001
 20
5720767.460000001
 30
0.0
 11
7581556.33
 21
5720782.490000001
 31
0.0
  0
LINE
  5
1000294
330
21
100
AcDbEntity
  8
dzialki_ewns
  6
Continuous
370
    18
100
AcDbLine
 10
7581556.33
 20
5720782.490000001
 30
0.0
 11
7581524.389999999
 21
5720797.63
 31
0.0
  0
LINE
  5
1000295
330
21
100
AcDbEntity
  8
dzialki_ewns
  6
Continuous
370
    18
100
AcDbLine
 10
7581524.389999999
 20
5720797.63
 30
0.0
 11
7581511.730000002
 21
5720801.01
 31
0.0
  0
LINE
  5
1000296
330
21
100
AcDbEntity
  8
dzialki_ewns
  6
Continuous
370
    18
100
AcDbLine
 10
7581511.730000002
 20
5720801.01
 30
0.0
 11
7581486.19
 21
5720797.33
 31
0.0
  0
LINE
  5
1000297
330
21
100
AcDbEntity
  8
dzialki_ewns
  6
Continuous
370
    18
100
AcDbLine
 10
7581486.19
 20
5720797.33
 30
0.0
 11
7581465.67
 21
5720793.769999999
 31
0.0
  0
LINE
  5
1000298
330
21
100
AcDbEntity
  8
dzialki_ewns
  6
Continuous
370
    18
100
AcDbLine
 10
7581465.67
 20
5720793.769999999
 30
0.0
 11
7581453.91
 21
5720793.469999998
 31
0.0
  0
LINE
  5
1000299
330
21
100
AcDbEntity
  8
dzialki_ewns
  6
Continuous
370
    18
100
AcDbLine
 10
7581453.91
 20
5720793.469999998
 30
0.0
 11
7581447.13
 21
5720785.49
 31
0.0
  0
LINE
  5
100029A
330
21
100
AcDbEntity
  8
dzialki_ewns
  6
Continuous
370
    18
100
AcDbLine
 10
7581447.13
 20
5720785.49
 30
0.0
 11
7581440.230000001
 21
5720756.900000001
 31
0.0
  0
LINE
  5
100029B
330
21
100
AcDbEntity
  8
dzialki_ewns
  6
Continuous
370
    18
100
AcDbLine
 10
7581440.230000001
 20
5720756.900000001
 30
0.0
 11
7581430.669999999
 21
5720737.059999999
 31
0.0
  0
LINE
  5
100029C
330
21
100
AcDbEntity
  8
dzialki_ewns
  6
Continuous
370
    18
100
AcDbLine
 10
7581430.669999999
 20
5720737.059999999
 30
0.0
 11
7581421.989999999
 21
5720723.37
 31
0.0
  0
LINE
  5
100029D
330
21
100
AcDbEntity
  8
dzialki_ewns
  6
Continuous
370
    18
100
AcDbLine
 10
7581421.989999999
 20
5720723.37
 30
0.0
 11
7581419.24
 21
5720710.320000001
 31
0.0
  0
LINE
  5
100029E
330
21
100
AcDbEntity
  8
dzialki_ewns
  6
Continuous
370
    18
100
AcDbLine
 10
7581419.24
 20
5720710.320000001
 30
0.0
 11
7581414.18
 21
5720699.910000002
 31
0.0
  0
LINE
  5
100029F
330
21
100
AcDbEntity
  8
dzialki_ewns
  6
Continuous
370
    18
100
AcDbLine
 10
7581414.18
 20
5720699.910000002
 30
0.0
 11
7581411.58
 21
5720694.410000001
 31
0.0
  0
LINE
  5
10002A0
330
21
100
AcDbEntity
  8
dzialki_ewns
  6
Continuous
370
    18
100
AcDbLine
 10
7581411.58
 20
5720694.410000001
 30
0.0
 11
7581406.54
 21
5720682.530000001
 31
0.0
  0
LINE
  5
10002A1
330
21
100
AcDbEntity
  8
dzialki_ewns
  6
Continuous
370
    18
100
AcDbLine
 10
7581406.54
 20
5720682.530000001
 30
0.0
 11
7581397.380000001
 21
5720661.429999999
 31
0.0
  0
LINE
  5
10002A2
330
21
100
AcDbEntity
  8
dzialki_ewns
  6
Continuous
370
    18
100
AcDbLine
 10
7581397.380000001
 20
5720661.429999999
 30
0.0
 11
7581388.42
 21
5720646.79
 31
0.0
  0
LINE
  5
10002A3
330
21
100
AcDbEntity
  8
dzialki_ewns
  6
Continuous
370
    18
100
AcDbLine
 10
7581388.42
 20
5720646.79
 30
0.0
 11
7581380.700000001
 21
5720623.97
 31
0.0
  0
LINE
  5
10002A4
330
21
100
AcDbEntity
  8
dzialki_ewns
  6
Continuous
370
    18
100
AcDbLine
 10
7581380.700000001
 20
5720623.97
 30
0.0
 11
7581374.54
 21
5720610.29
 31
0.0
  0
LINE
  5
10002A5
330
21
100
AcDbEntity
  8
dzialki_ewns
  6
Continuous
370
    18
100
AcDbLine
 10
7581374.54
 20
5720610.29
 30
0.0
 11
7581365.400000001
 21
5720589.19
 31
0.0
  0
LINE
  5
10002A6
330
21
100
AcDbEntity
  8
dzialki_ewns
  6
Continuous
370
    18
100
AcDbLine
 10
7581365.400000001
 20
5720589.19
 30
0.0
 11
7581361.56
 21
5720576.009999998
 31
0.0
  0
LINE
  5
10002A7
330
21
100
AcDbEntity
  8
dzialki_ewns
  6
Continuous
370
    18
100
AcDbLine
 10
7581361.56
 20
5720576.009999998
 30
0.0
 11
7581363.7
 21
5720569.740000001
 31
0.0
  0
LINE
  5
10002A8
330
21
100
AcDbEntity
  8
dzialki_ewns
  6
Continuous
370
    18
100
AcDbLine
 10
7581363.7
 20
5720569.740000001
 30
0.0
 11
7581379.52
 21
5720545.97
 31
0.0
  0
LINE
  5
10002A9
330
21
100
AcDbEntity
  8
dzialki_ewns
  6
Continuous
370
    18
100
AcDbLine
 10
7581379.52
 20
5720545.97
 30
0.0
 11
7581386.650000001
 21
5720529.960000001
 31
0.0
  0
LINE
  5
10002AA
330
21
100
AcDbEntity
  8
dzialki_ewns
  6
Continuous
370
    18
100
AcDbLine
 10
7581386.650000001
 20
5720529.960000001
 30
0.0
 11
7581415.39
 21
5720483.999999999
 31
0.0
  0
LINE
  5
10002AB
330
21
100
AcDbEntity
  8
dzialki_ewns
  6
Continuous
370
    18
100
AcDbLine
 10
7581415.39
 20
5720483.999999999
 30
0.0
 11
7581424.830000001
 21
5720466.360000001
 31
0.0
  0
LINE
  5
10002AC
330
21
100
AcDbEntity
  8
dzialki_ewns
  6
Continuous
370
    18
100
AcDbLine
 10
7581424.830000001
 20
5720466.360000001
 30
0.0
 11
7581448.52
 21
5720423.940000001
 31
0.0
  0
LINE
  5
10002AD
330
21
100
AcDbEntity
  8
dzialki_ewns
  6
Continuous
370
    18
100
AcDbLine
 10
7581448.52
 20
5720423.940000001
 30
0.0
 11
7581469.519999999
 21
5720396.04
 31
0.0
  0
LINE
  5
10002AE
330
21
100
AcDbEntity
  8
dzialki_ewns
  6
Continuous
370
    18
100
AcDbLine
 10
7581469.519999999
 20
5720396.04
 30
0.0
 11
7581512.009999999
 21
5720328.19
 31
0.0
  0
LINE
  5
10002AF
330
21
100
AcDbEntity
  8
dzialki_ewns
  6
Continuous
370
    18
100
AcDbLine
 10
7581512.009999999
 20
5720328.19
 30
0.0
 11
7581519.33
 21
5720311.589999998
 31
0.0
  0
LINE
  5
10002B0
330
21
100
AcDbEntity
  8
dzialki_ewns
  6
Continuous
370
    18
100
AcDbLine
 10
7581519.33
 20
5720311.589999998
 30
0.0
 11
7581526.83
 21
5720301.980000001
 31
0.0
  0
LINE
  5
10002B1
330
21
100
AcDbEntity
  8
dzialki_ewns
  6
Continuous
370
    18
100
AcDbLine
 10
7581526.83
 20
5720301.980000001
 30
0.0
 11
7581557.980000001
 21
5720255.960000001
 31
0.0
  0
LINE
  5
10002B2
330
21
100
AcDbEntity
  8
dzialki_ewns
  6
Continuous
370
    18
100
AcDbLine
 10
7581557.980000001
 20
5720255.960000001
 30
0.0
 11
7581574.58
 21
5720226.259999999
 31
0.0
  0
LINE
  5
10002B3
330
21
100
AcDbEntity
  8
dzialki_ewns
  6
Continuous
370
    18
100
AcDbLine
 10
7581574.58
 20
5720226.259999999
 30
0.0
 11
7581632.07
 21
5720155.540000002
 31
0.0
  0
LINE
  5
10002B4
330
21
100
AcDbEntity
  8
dzialki_ewns
  6
Continuous
370
    18
100
AcDbLine
 10
7581632.07
 20
5720155.540000002
 30
0.0
 11
7581750.75
 21
5720085.219999998
 31
0.0
  0
LINE
  5
10002B5
330
21
100
AcDbEntity
  8
dzialki_ewns
  6
Continuous
370
    18
100
AcDbLine
 10
7581750.75
 20
5720085.219999998
 30
0.0
 11
7581845.059999999
 21
5720032.349999999
 31
0.0
  0
LINE
  5
10002B6
330
21
100
AcDbEntity
  8
dzialki_ewns
  6
Continuous
370
    18
100
AcDbLine
 10
7581845.059999999
 20
5720032.349999999
 30
0.0
 11
7581934.809999999
 21
5719988.17
 31
0.0
  0
LINE
  5
10002B7
330
21
100
AcDbEntity
  8
dzialki_ewns
  6
Continuous
370
    18
100
AcDbLine
 10
7581934.809999999
 20
5719988.17
 30
0.0
 11
7581937.45
 21
5719982.490000001
 31
0.0
  0
LINE
  5
10002B8
330
21
100
AcDbEntity
  8
dzialki_ewns
  6
Continuous
370
    18
100
AcDbLine
 10
7581937.45
 20
5719982.490000001
 30
0.0
 11
7581970.400000001
 21
5719965.769999999
 31
0.0
  0
LINE
  5
10002B9
330
21
100
AcDbEntity
  8
dzialki_ewns
  6
Continuous
370
    18
100
AcDbLine
 10
7581970.400000001
 20
5719965.769999999
 30
0.0
 11
7581995.700000001
 21
5719957.12
 31
0.0
  0
LINE
  5
10002BA
330
21
100
AcDbEntity
  8
dzialki_ewns
  6
Continuous
370
    18
100
AcDbLine
 10
7581995.700000001
 20
5719957.12
 30
0.0
 11
7582004.480000001
 21
5719955.400000001
 31
0.0
  0
LINE
  5
10002BB
330
21
100
AcDbEntity
  8
dzialki_ewns
  6
Continuous
370
    18
100
AcDbLine
 10
7582004.480000001
 20
5719955.400000001
 30
0.0
 11
7582053.7
 21
5719954.990000001
 31
0.0
  0
LINE
  5
10002BC
330
21
100
AcDbEntity
  8
dzialki_ewns
  6
Continuous
370
    18
100
AcDbLine
 10
7582053.7
 20
5719954.990000001
 30
0.0
 11
7582071.04
 21
5719953.400000001
 31
0.0
  0
LINE
  5
10002BD
330
21
100
AcDbEntity
  8
dzialki_ewns
  6
Continuous
370
    18
100
AcDbLine
 10
7582071.04
 20
5719953.400000001
 30
0.0
 11
7582087.65
 21
5719951.44
 31
0.0
  0
LINE
  5
10002BE
330
21
100
AcDbEntity
  8
dzialki_ewns
  6
Continuous
370
    18
100
AcDbLine
 10
7582087.65
 20
5719951.44
 30
0.0
 11
7582100.47
 21
5719947.730000001
 31
0.0
  0
LINE
  5
10002BF
330
21
100
AcDbEntity
  8
dzialki_ewns
  6
Continuous
370
    18
100
AcDbLine
 10
7582100.47
 20
5719947.730000001
 30
0.0
 11
7582117.199999999
 21
5719938.46
 31
0.0
  0
LINE
  5
10002C0
330
21
100
AcDbEntity
  8
dzialki_ewns
  6
Continuous
370
    18
100
AcDbLine
 10
7582117.199999999
 20
5719938.46
 30
0.0
 11
7582120.21
 21
5719931.99
 31
0.0
  0
LINE
  5
10002C1
330
21
100
AcDbEntity
  8
dzialki_ewns
  6
Continuous
370
    18
100
AcDbLine
 10
7582120.21
 20
5719931.99
 30
0.0
 11
7582097.65
 21
5719897.290000001
 31
0.0
  0
LINE
  5
10002C2
330
21
100
AcDbEntity
  8
dzialki_ewns
  6
Continuous
370
    18
100
AcDbLine
 10
7582097.65
 20
5719897.290000001
 30
0.0
 11
7582111.049999999
 21
5719894.379999999
 31
0.0
  0
LINE
  5
10002C3
330
21
100
AcDbEntity
  8
dzialki_ewns
  6
Continuous
370
    18
100
AcDbLine
 10
7582111.049999999
 20
5719894.379999999
 30
0.0
 11
7582121.309999999
 21
5719887.780000001
 31
0.0
  0
LINE
  5
10002C4
330
21
100
AcDbEntity
  8
dzialki_ewns
  6
Continuous
370
    18
100
AcDbLine
 10
7582121.309999999
 20
5719887.780000001
 30
0.0
 11
7582130.809999999
 21
5719880.679999999
 31
0.0
  0
LINE
  5
10002C5
330
21
100
AcDbEntity
  8
dzialki_ewns
  6
Continuous
370
    18
100
AcDbLine
 10
7582130.809999999
 20
5719880.679999999
 30
0.0
 11
7582142.039999999
 21
5719875.200000001
 31
0.0
  0
LINE
  5
10002C6
330
21
100
AcDbEntity
  8
dzialki_ewns
  6
Continuous
370
    18
100
AcDbLine
 10
7582142.039999999
 20
5719875.200000001
 30
0.0
 11
7582160.75
 21
5719868.72
 31
0.0
  0
LINE
  5
10002C7
330
21
100
AcDbEntity
  8
dzialki_ewns
  6
Continuous
370
    18
100
AcDbLine
 10
7582160.75
 20
5719868.72
 30
0.0
 11
7582182.17
 21
5719858.230000002
 31
0.0
  0
LINE
  5
10002C8
330
21
100
AcDbEntity
  8
dzialki_ewns
  6
Continuous
370
    18
100
AcDbLine
 10
7582182.17
 20
5719858.230000002
 30
0.0
 11
7582190.709999999
 21
5719857.110000001
 31
0.0
  0
LINE
  5
10002C9
330
21
100
AcDbEntity
  8
dzialki_ewns
  6
Continuous
370
    18
100
AcDbLine
 10
7582190.709999999
 20
5719857.110000001
 30
0.0
 11
7582210.859999999
 21
5719840.24
 31
0.0
  0
LINE
  5
10002CA
330
21
100
AcDbEntity
  8
dzialki_ewns
  6
Continuous
370
    18
100
AcDbLine
 10
7582210.859999999
 20
5719840.24
 30
0.0
 11
7582230.71
 21
5719824.370000001
 31
0.0
  0
LINE
  5
10002CB
330
21
100
AcDbEntity
  8
dzialki_ewns
  6
Continuous
370
    18
100
AcDbLine
 10
7582230.71
 20
5719824.370000001
 30
0.0
 11
7582249.96
 21
5719808.879999999
 31
0.0
  0
LINE
  5
10002CC
330
21
100
AcDbEntity
  8
dzialki_ewns
  6
Continuous
370
    18
100
AcDbLine
 10
7582249.96
 20
5719808.879999999
 30
0.0
 11
7582287.68
 21
5719785.269999999
 31
0.0
  0
LINE
  5
10002CD
330
21
100
AcDbEntity
  8
dzialki_ewns
  6
Continuous
370
    18
100
AcDbLine
 10
7582287.68
 20
5719785.269999999
 30
0.0
 11
7582318.85
 21
5719767.349999999
 31
0.0
  0
LINE
  5
10002CE
330
21
100
AcDbEntity
  8
dzialki_ewns
  6
Continuous
370
    18
100
AcDbLine
 10
7582318.85
 20
5719767.349999999
 30
0.0
 11
7582335.14
 21
5719749.549999999
 31
0.0
  0
LINE
  5
10002CF
330
21
100
AcDbEntity
  8
dzialki_ewns
  6
Continuous
370
    18
100
AcDbLine
 10
7582335.14
 20
5719749.549999999
 30
0.0
 11
7582373.25
 21
5719724.19
 31
0.0
  0
LINE
  5
10002D0
330
21
100
AcDbEntity
  8
dzialki_ewns
  6
Continuous
370
    18
100
AcDbLine
 10
7582373.25
 20
5719724.19
 30
0.0
 11
7582377.909999999
 21
5719716.480000001
 31
0.0
  0
LINE
  5
10002D1
330
21
100
AcDbEntity
  8
dzialki_ewns
  6
Continuous
370
    18
100
AcDbLine
 10
7582377.909999999
 20
5719716.480000001
 30
0.0
 11
7582389.73
 21
5719699.93
 31
0.0
  0
LINE
  5
10002D2
330
21
100
AcDbEntity
  8
dzialki_ewns
  6
Continuous
370
    18
100
AcDbLine
 10
7582389.73
 20
5719699.93
 30
0.0
 11
7582389.88
 21
5719692.87
 31
0.0
  0
LINE
  5
10002D3
330
21
100
AcDbEntity
  8
dzialki_ewns
  6
Continuous
370
    18
100
AcDbLine
 10
7582389.88
 20
5719692.87
 30
0.0
 11
7582388.23
 21
5719671.92
 31
0.0
  0
LINE
  5
10002D4
330
21
100
AcDbEntity
  8
dzialki_ewns
  6
Continuous
370
    18
100
AcDbLine
 10
7582388.23
 20
5719671.92
 30
0.0
 11
7582386.78
 21
5719664.030000001
 31
0.0
  0
LINE
  5
10002D5
330
21
100
AcDbEntity
  8
dzialki_ewns
  6
Continuous
370
    18
100
AcDbLine
 10
7582386.78
 20
5719664.030000001
 30
0.0
 11
7582385.299999999
 21
5719655.940000001
 31
0.0
  0
LINE
  5
10002D6
330
21
100
AcDbEntity
  8
dzialki_ewns
  6
Continuous
370
    18
100
AcDbLine
 10
7582385.299999999
 20
5719655.940000001
 30
0.0
 11
7582379.16
 21
5719651.169999999
 31
0.0
  0
LINE
  5
10002D7
330
21
100
AcDbEntity
  8
dzialki_ewns
  6
Continuous
370
    18
100
AcDbLine
 10
7582379.16
 20
5719651.169999999
 30
0.0
 11
7582374.490000001
 21
5719637.589999998
 31
0.0
  0
LINE
  5
10002D8
330
21
100
AcDbEntity
  8
dzialki_ewns
  6
Continuous
370
    18
100
AcDbLine
 10
7582374.490000001
 20
5719637.589999998
 30
0.0
 11
7582400.69
 21
5719605.22
 31
0.0
  0
LINE
  5
10002D9
330
21
100
AcDbEntity
  8
dzialki_ewns
  6
Continuous
370
    18
100
AcDbLine
 10
7582400.69
 20
5719605.22
 30
0.0
 11
7582408.83
 21
5719577.9
 31
0.0
  0
LINE
  5
10002DA
330
21
100
AcDbEntity
  8
dzialki_ewns
  6
Continuous
370
    18
100
AcDbLine
 10
7582408.83
 20
5719577.9
 30
0.0
 11
7582397.15
 21
5719566.580000002
 31
0.0
  0
LINE
  5
10002DB
330
21
100
AcDbEntity
  8
dzialki_ewns
  6
Continuous
370
    18
100
AcDbLine
 10
7582397.15
 20
5719566.580000002
 30
0.0
 11
7582396.019999999
 21
5719543.769999999
 31
0.0
  0
LINE
  5
10002DC
330
21
100
AcDbEntity
  8
dzialki_ewns
  6
Continuous
370
    18
100
AcDbLine
 10
7582396.019999999
 20
5719543.769999999
 30
0.0
 11
7582396.099999999
 21
5719540.75
 31
0.0
  0
LINE
  5
10002DD
330
21
100
AcDbEntity
  8
dzialki_ewns
  6
Continuous
370
    18
100
AcDbLine
 10
7582396.099999999
 20
5719540.75
 30
0.0
 11
7582389.05
 21
5719513.44
 31
0.0
  0
LINE
  5
10002DE
330
21
100
AcDbEntity
  8
dzialki_ewns
  6
Continuous
370
    18
100
AcDbLine
 10
7582389.05
 20
5719513.44
 30
0.0
 11
7582390.070000001
 21
5719493.82
 31
0.0
  0
LINE
  5
10002DF
330
21
100
AcDbEntity
  8
dzialki_ewns
  6
Continuous
370
    18
100
AcDbLine
 10
7582390.070000001
 20
5719493.82
 30
0.0
 11
7582391.29
 21
5719487.499999998
 31
0.0
  0
LINE
  5
10002E0
330
21
100
AcDbEntity
  8
dzialki_ewns
  6
Continuous
370
    18
100
AcDbLine
 10
7582391.29
 20
5719487.499999998
 30
0.0
 11
7582383.74
 21
5719488.959999998
 31
0.0
  0
LINE
  5
10002E1
330
21
100
AcDbEntity
  8
dzialki_ewns
  6
Continuous
370
    18
100
AcDbLine
 10
7582383.74
 20
5719488.959999998
 30
0.0
 11
7582379.889999999
 21
5719514.309999998
 31
0.0
  0
LINE
  5
10002E2
330
21
100
AcDbEntity
  8
dzialki_ewns
  6
Continuous
370
    18
100
AcDbLine
 10
7582379.889999999
 20
5719514.309999998
 30
0.0
 11
7582387.18
 21
5719542.210000001
 31
0.0
  0
LINE
  5
10002E3
330
21
100
AcDbEntity
  8
dzialki_ewns
  6
Continuous
370
    18
100
AcDbLine
 10
7582387.18
 20
5719542.210000001
 30
0.0
 11
7582388.730000001
 21
5719568.09
 31
0.0
  0
LINE
  5
10002E4
330
21
100
AcDbEntity
  8
dzialki_ewns
  6
Continuous
370
    18
100
AcDbLine
 10
7582388.730000001
 20
5719568.09
 30
0.0
 11
7582399.87
 21
5719579.94
 31
0.0
  0
LINE
  5
10002E5
330
21
100
AcDbEntity
  8
dzialki_ewns
  6
Continuous
370
    18
100
AcDbLine
 10
7582399.87
 20
5719579.94
 30
0.0
 11
7582391.980000001
 21
5719605.460000001
 31
0.0
  0
LINE
  5
10002E6
330
21
100
AcDbEntity
  8
dzialki_ewns
  6
Continuous
370
    18
100
AcDbLine
 10
7582391.980000001
 20
5719605.460000001
 30
0.0
 11
7582366.320000001
 21
5719637.570000001
 31
0.0
  0
LINE
  5
10002E7
330
21
100
AcDbEntity
  8
dzialki_ewns
  6
Continuous
370
    18
100
AcDbLine
 10
7582366.320000001
 20
5719637.570000001
 30
0.0
 11
7582371.700000001
 21
5719652.83
 31
0.0
  0
LINE
  5
10002E8
330
21
100
AcDbEntity
  8
dzialki_ewns
  6
Continuous
370
    18
100
AcDbLine
 10
7582371.700000001
 20
5719652.83
 30
0.0
 11
7582376.660000001
 21
5719662.559999999
 31
0.0
  0
LINE
  5
10002E9
330
21
100
AcDbEntity
  8
dzialki_ewns
  6
Continuous
370
    18
100
AcDbLine
 10
7582376.660000001
 20
5719662.559999999
 30
0.0
 11
7582378.08
 21
5719664.97
 31
0.0
  0
LINE
  5
10002EA
330
21
100
AcDbEntity
  8
dzialki_ewns
  6
Continuous
370
    18
100
AcDbLine
 10
7582378.08
 20
5719664.97
 30
0.0
 11
7582379.879999999
 21
5719672.820000002
 31
0.0
  0
LINE
  5
10002EB
330
21
100
AcDbEntity
  8
dzialki_ewns
  6
Continuous
370
    18
100
AcDbLine
 10
7582379.879999999
 20
5719672.820000002
 30
0.0
 11
7582379.93
 21
5719693.94
 31
0.0
  0
LINE
  5
10002EC
330
21
100
AcDbEntity
  8
dzialki_ewns
  6
Continuous
370
    18
100
AcDbLine
 10
7582379.93
 20
5719693.94
 30
0.0
 11
7582378.789999999
 21
5719701.099999999
 31
0.0
  0
LINE
  5
10002ED
330
21
100
AcDbEntity
  8
dzialki_ewns
  6
Continuous
370
    18
100
AcDbLine
 10
7582378.789999999
 20
5719701.099999999
 30
0.0
 11
7582376.619999999
 21
5719704.349999999
 31
0.0
  0
LINE
  5
10002EE
330
21
100
AcDbEntity
  8
dzialki_ewns
  6
Continuous
370
    18
100
AcDbLine
 10
7582376.619999999
 20
5719704.349999999
 30
0.0
 11
7582366.57
 21
5719718.320000001
 31
0.0
  0
LINE
  5
10002EF
330
21
100
AcDbEntity
  8
dzialki_ewns
  6
Continuous
370
    18
100
AcDbLine
 10
7582366.57
 20
5719718.320000001
 30
0.0
 11
7582330.63
 21
5719745.589999998
 31
0.0
  0
LINE
  5
10002F0
330
21
100
AcDbEntity
  8
dzialki_ewns
  6
Continuous
370
    18
100
AcDbLine
 10
7582330.63
 20
5719745.589999998
 30
0.0
 11
7582322.05
 21
5719750.83
 31
0.0
  0
LINE
  5
10002F1
330
21
100
AcDbEntity
  8
dzialki_ewns
  6
Continuous
370
    18
100
AcDbLine
 10
7582322.05
 20
5719750.83
 30
0.0
 11
7582311.559999999
 21
5719760.950000001
 31
0.0
  0
LINE
  5
10002F2
330
21
100
AcDbEntity
  8
dzialki_ewns
  6
Continuous
370
    18
100
AcDbLine
 10
7582311.559999999
 20
5719760.950000001
 30
0.0
 11
7582283.089999999
 21
5719777.759999999
 31
0.0
  0
LINE
  5
10002F3
330
21
100
AcDbEntity
  8
dzialki_ewns
  6
Continuous
370
    18
100
AcDbLine
 10
7582283.089999999
 20
5719777.759999999
 30
0.0
 11
7582246.150000001
 21
5719802.65
 31
0.0
  0
LINE
  5
10002F4
330
21
100
AcDbEntity
  8
dzialki_ewns
  6
Continuous
370
    18
100
AcDbLine
 10
7582246.150000001
 20
5719802.65
 30
0.0
 11
7582227.110000001
 21
5719818.490000001
 31
0.0
  0
LINE
  5
10002F5
330
21
100
AcDbEntity
  8
dzialki_ewns
  6
Continuous
370
    18
100
AcDbLine
 10
7582227.110000001
 20
5719818.490000001
 30
0.0
 11
7582206.540000001
 21
5719833.150000002
 31
0.0
  0
LINE
  5
10002F6
330
21
100
AcDbEntity
  8
dzialki_ewns
  6
Continuous
370
    18
100
AcDbLine
 10
7582206.540000001
 20
5719833.150000002
 30
0.0
 11
7582186.32
 21
5719849.940000001
 31
0.0
  0
LINE
  5
10002F7
330
21
100
AcDbEntity
  8
dzialki_ewns
  6
Continuous
370
    18
100
AcDbLine
 10
7582186.32
 20
5719849.940000001
 30
0.0
 11
7582177.53
 21
5719850.62
 31
0.0
  0
LINE
  5
10002F8
330
21
100
AcDbEntity
  8
dzialki_ewns
  6
Continuous
370
    18
100
AcDbLine
 10
7582177.53
 20
5719850.62
 30
0.0
 11
7582157.37
 21
5719858.990000001
 31
0.0
  0
LINE
  5
10002F9
330
21
100
AcDbEntity
  8
dzialki_ewns
  6
Continuous
370
    18
100
AcDbLine
 10
7582157.37
 20
5719858.990000001
 30
0.0
 11
7582136.889999999
 21
5719860.37
 31
0.0
  0
LINE
  5
10002FA
330
21
100
AcDbEntity
  8
dzialki_ewns
  6
Continuous
370
    18
100
AcDbLine
 10
7582136.889999999
 20
5719860.37
 30
0.0
 11
7582126.53
 21
5719868.3
 31
0.0
  0
LINE
  5
10002FB
330
21
100
AcDbEntity
  8
dzialki_ewns
  6
Continuous
370
    18
100
AcDbLine
 10
7582126.53
 20
5719868.3
 30
0.0
 11
7582116.37
 21
5719873.519999999
 31
0.0
  0
LINE
  5
10002FC
330
21
100
AcDbEntity
  8
dzialki_ewns
  6
Continuous
370
    18
100
AcDbLine
 10
7582116.37
 20
5719873.519999999
 30
0.0
 11
7582106.85
 21
5719888.269999999
 31
0.0
  0
LINE
  5
10002FD
330
21
100
AcDbEntity
  8
dzialki_ewns
  6
Continuous
370
    18
100
AcDbLine
 10
7582106.85
 20
5719888.269999999
 30
0.0
 11
7582094.8
 21
5719893.13
 31
0.0
  0
LINE
  5
10002FE
330
21
100
AcDbEntity
  8
dzialki_ewns
  6
Continuous
370
    18
100
AcDbLine
 10
7582094.8
 20
5719893.13
 30
0.0
 11
7582092.45
 21
5719889.450000001
 31
0.0
  0
LINE
  5
10002FF
330
21
100
AcDbEntity
  8
dzialki_ewns
  6
Continuous
370
    18
100
AcDbLine
 10
7582092.45
 20
5719889.450000001
 30
0.0
 11
7582083.030000001
 21
5719895.909999999
 31
0.0
  0
LINE
  5
1000300
330
21
100
AcDbEntity
  8
dzialki_ewns
  6
Continuous
370
    18
100
AcDbLine
 10
7582083.030000001
 20
5719895.909999999
 30
0.0
 11
7582064.33
 21
5719896.099999999
 31
0.0
  0
LINE
  5
1000301
330
21
100
AcDbEntity
  8
dzialki_ewns
  6
Continuous
370
    18
100
AcDbLine
 10
7582064.33
 20
5719896.099999999
 30
0.0
 11
7582056.33
 21
5719899.309999999
 31
0.0
  0
LINE
  5
1000302
330
21
100
AcDbEntity
  8
dzialki_ewns
  6
Continuous
370
    18
100
AcDbLine
 10
7582056.33
 20
5719899.309999999
 30
0.0
 11
7582053.400000001
 21
5719904.740000002
 31
0.0
  0
LINE
  5
1000303
330
21
100
AcDbEntity
  8
dzialki_ewns
  6
Continuous
370
    18
100
AcDbLine
 10
7582053.400000001
 20
5719904.740000002
 30
0.0
 11
7582036.690000002
 21
5719915.860000001
 31
0.0
  0
LINE
  5
1000304
330
21
100
AcDbEntity
  8
dzialki_ewns
  6
Continuous
370
    18
100
AcDbLine
 10
7582036.690000002
 20
5719915.860000001
 30
0.0
 11
7582026.610000001
 21
5719920.530000002
 31
0.0
  0
LINE
  5
1000305
330
21
100
AcDbEntity
  8
dzialki_ewns
  6
Continuous
370
    18
100
AcDbLine
 10
7582026.610000001
 20
5719920.530000002
 30
0.0
 11
7582014.240000001
 21
5719927.099999998
 31
0.0
  0
LINE
  5
1000306
330
21
100
AcDbEntity
  8
dzialki_ewns
  6
Continuous
370
    18
100
AcDbLine
 10
7582014.240000001
 20
5719927.099999998
 30
0.0
 11
7582005.570000001
 21
5719933.349999999
 31
0.0
  0
LINE
  5
1000307
330
21
100
AcDbEntity
  8
dzialki_ewns
  6
Continuous
370
    18
100
AcDbLine
 10
7582005.570000001
 20
5719933.349999999
 30
0.0
 11
7581993.660000001
 21
5719938.559999999
 31
0.0
  0
LINE
  5
1000308
330
21
100
AcDbEntity
  8
dzialki_ewns
  6
Continuous
370
    18
100
AcDbLine
 10
7581993.660000001
 20
5719938.559999999
 30
0.0
 11
7581979.66
 21
5719943.97
 31
0.0
  0
LINE
  5
1000309
330
21
100
AcDbEntity
  8
dzialki_ewns
  6
Continuous
370
    18
100
AcDbLine
 10
7581979.66
 20
5719943.97
 30
0.0
 11
7581970.15
 21
5719947.129999999
 31
0.0
  0
LINE
  5
100030A
330
21
100
AcDbEntity
  8
dzialki_ewns
  6
Continuous
370
    18
100
AcDbLine
 10
7581970.15
 20
5719947.129999999
 30
0.0
 11
7581959.230000002
 21
5719953.45
 31
0.0
  0
LINE
  5
100030B
330
21
100
AcDbEntity
  8
dzialki_ewns
  6
Continuous
370
    18
100
AcDbLine
 10
7581959.230000002
 20
5719953.45
 30
0.0
 11
7581934.74
 21
5719966.2
 31
0.0
  0
LINE
  5
100030C
330
21
100
AcDbEntity
  8
dzialki_ewns
  6
Continuous
370
    18
100
AcDbLine
 10
7581934.74
 20
5719966.2
 30
0.0
 11
7581917.259999999
 21
5719976.29
 31
0.0
  0
LINE
  5
100030D
330
21
100
AcDbEntity
  8
dzialki_ewns
  6
Continuous
370
    18
100
AcDbLine
 10
7581917.259999999
 20
5719976.29
 30
0.0
 11
7581908.309999999
 21
5719980.82
 31
0.0
  0
LINE
  5
100030E
330
21
100
AcDbEntity
  8
dzialki_ewns
  6
Continuous
370
    18
100
AcDbLine
 10
7581908.309999999
 20
5719980.82
 30
0.0
 11
7581899.059999999
 21
5719984.619999999
 31
0.0
  0
LINE
  5
100030F
330
21
100
AcDbEntity
  8
dzialki_ewns
  6
Continuous
370
    18
100
AcDbLine
 10
7581899.059999999
 20
5719984.619999999
 30
0.0
 11
7581879.79
 21
5719992.799999999
 31
0.0
  0
LINE
  5
1000310
330
21
100
AcDbEntity
  8
dzialki_ewns
  6
Continuous
370
    18
100
AcDbLine
 10
7581879.79
 20
5719992.799999999
 30
0.0
 11
7581872.38
 21
5719992.299999999
 31
0.0
  0
LINE
  5
1000311
330
21
100
AcDbEntity
  8
dzialki_ewns
  6
Continuous
370
    18
100
AcDbLine
 10
7581872.38
 20
5719992.299999999
 30
0.0
 11
7581863.95
 21
5719996.509999998
 31
0.0
  0
LINE
  5
1000312
330
21
100
AcDbEntity
  8
dzialki_ewns
  6
Continuous
370
    18
100
AcDbLine
 10
7581863.95
 20
5719996.509999998
 30
0.0
 11
7581845.820000002
 21
5720007.67
 31
0.0
  0
LINE
  5
1000313
330
21
100
AcDbEntity
  8
dzialki_ewns
  6
Continuous
370
    18
100
AcDbLine
 10
7581845.820000002
 20
5720007.67
 30
0.0
 11
7581847.530000001
 21
5720011.17
 31
0.0
  0
LINE
  5
1000314
330
21
100
AcDbEntity
  8
dzialki_ewns
  6
Continuous
370
    18
100
AcDbLine
 10
7581847.530000001
 20
5720011.17
 30
0.0
 11
7581839.389999999
 21
5720014.269999999
 31
0.0
  0
LINE
  5
1000315
330
21
100
AcDbEntity
  8
dzialki_ewns
  6
Continuous
370
    18
100
AcDbLine
 10
7581839.389999999
 20
5720014.269999999
 30
0.0
 11
7581825.71
 21
5720018.879999998
 31
0.0
  0
LINE
  5
1000316
330
21
100
AcDbEntity
  8
dzialki_ewns
  6
Continuous
370
    18
100
AcDbLine
 10
7581825.71
 20
5720018.879999998
 30
0.0
 11
7581810.389999999
 21
5720026.26
 31
0.0
  0
LINE
  5
1000317
330
21
100
AcDbEntity
  8
dzialki_ewns
  6
Continuous
370
    18
100
AcDbLine
 10
7581810.389999999
 20
5720026.26
 30
0.0
 11
7581795.690000001
 21
5720032.58
 31
0.0
  0
LINE
  5
1000318
330
21
100
AcDbEntity
  8
dzialki_ewns
  6
Continuous
370
    18
100
AcDbLine
 10
7581795.690000001
 20
5720032.58
 30
0.0
 11
7581783.39
 21
5720039.370000001
 31
0.0
  0
LINE
  5
1000319
330
21
100
AcDbEntity
  8
dzialki_ewns
  6
Continuous
370
    18
100
AcDbLine
 10
7581783.39
 20
5720039.370000001
 30
0.0
 11
7581769.05
 21
5720046.519999998
 31
0.0
  0
LINE
  5
100031A
330
21
100
AcDbEntity
  8
dzialki_ewns
  6
Continuous
370
    18
100
AcDbLine
 10
7581769.05
 20
5720046.519999998
 30
0.0
 11
7581759.18
 21
5720050.150000002
 31
0.0
  0
LINE
  5
100031B
330
21
100
AcDbEntity
  8
dzialki_ewns
  6
Continuous
370
    18
100
AcDbLine
 10
7581759.18
 20
5720050.150000002
 30
0.0
 11
7581746.09
 21
5720056.41
 31
0.0
  0
LINE
  5
100031C
330
21
100
AcDbEntity
  8
dzialki_ewns
  6
Continuous
370
    18
100
AcDbLine
 10
7581746.09
 20
5720056.41
 30
0.0
 11
7581737.63
 21
5720059.530000001
 31
0.0
  0
LINE
  5
100031D
330
21
100
AcDbEntity
  8
dzialki_ewns
  6
Continuous
370
    18
100
AcDbLine
 10
7581737.63
 20
5720059.530000001
 30
0.0
 11
7581723.52
 21
5720069.639999999
 31
0.0
  0
LINE
  5
100031E
330
21
100
AcDbEntity
  8
dzialki_ewns
  6
Continuous
370
    18
100
AcDbLine
 10
7581723.52
 20
5720069.639999999
 30
0.0
 11
7581718.56
 21
5720069.55
 31
0.0
  0
LINE
  5
100031F
330
21
100
AcDbEntity
  8
dzialki_ewns
  6
Continuous
370
    18
100
AcDbLine
 10
7581718.56
 20
5720069.55
 30
0.0
 11
7581706.45
 21
5720081.480000001
 31
0.0
  0
LINE
  5
1000320
330
21
100
AcDbEntity
  8
dzialki_ewns
  6
Continuous
370
    18
100
AcDbLine
 10
7581706.45
 20
5720081.480000001
 30
0.0
 11
7581695.83
 21
5720092.08
 31
0.0
  0
LINE
  5
1000321
330
21
100
AcDbEntity
  8
dzialki_ewns
  6
Continuous
370
    18
100
AcDbLine
 10
7581695.83
 20
5720092.08
 30
0.0
 11
7581686.099999999
 21
5720097.16
 31
0.0
  0
LINE
  5
1000322
330
21
100
AcDbEntity
  8
dzialki_ewns
  6
Continuous
370
    18
100
AcDbLine
 10
7581686.099999999
 20
5720097.16
 30
0.0
 11
7581672.369999999
 21
5720108.160000001
 31
0.0
  0
LINE
  5
1000323
330
21
100
AcDbEntity
  8
dzialki_ewns
  6
Continuous
370
    18
100
AcDbLine
 10
7581672.369999999
 20
5720108.160000001
 30
0.0
 11
7581662.97
 21
5720115.709999999
 31
0.0
  0
LINE
  5
1000324
330
21
100
AcDbEntity
  8
dzialki_ewns
  6
Continuous
370
    18
100
AcDbLine
 10
7581662.97
 20
5720115.709999999
 30
0.0
 11
7581658.22
 21
5720118.3
 31
0.0
  0
LINE
  5
1000325
330
21
100
AcDbEntity
  8
dzialki_ewns
  6
Continuous
370
    18
100
AcDbLine
 10
7581658.22
 20
5720118.3
 30
0.0
 11
7581644.480000001
 21
5720129.72
 31
0.0
  0
LINE
  5
1000326
330
21
100
AcDbEntity
  8
dzialki_ewns
  6
Continuous
370
    18
100
AcDbLine
 10
7581644.480000001
 20
5720129.72
 30
0.0
 11
7581633.73
 21
5720138.19
 31
0.0
  0
LINE
  5
1000327
330
21
100
AcDbEntity
  8
dzialki_ewns
  6
Continuous
370
    18
100
AcDbLine
 10
7581633.73
 20
5720138.19
 30
0.0
 11
7581621.7
 21
5720148.629999999
 31
0.0
  0
LINE
  5
1000328
330
21
100
AcDbEntity
  8
dzialki_ewns
  6
Continuous
370
    18
100
AcDbLine
 10
7581621.7
 20
5720148.629999999
 30
0.0
 11
7581614.769999999
 21
5720157.980000001
 31
0.0
  0
LINE
  5
1000329
330
21
100
AcDbEntity
  8
dzialki_ewns
  6
Continuous
370
    18
100
AcDbLine
 10
7581614.769999999
 20
5720157.980000001
 30
0.0
 11
7581600.739999999
 21
5720172.559999999
 31
0.0
  0
LINE
  5
100032A
330
21
100
AcDbEntity
  8
dzialki_ewns
  6
Continuous
370
    18
100
AcDbLine
 10
7581600.739999999
 20
5720172.559999999
 30
0.0
 11
7581584.650000002
 21
5720184.910000001
 31
0.0
  0
LINE
  5
100032B
330
21
100
AcDbEntity
  8
dzialki_ewns
  6
Continuous
370
    18
100
AcDbLine
 10
7581584.650000002
 20
5720184.910000001
 30
0.0
 11
7581580.46
 21
5720186.63
 31
0.0
  0
LINE
  5
100032C
330
21
100
AcDbEntity
  8
dzialki_ewns
  6
Continuous
370
    18
100
AcDbLine
 10
7581580.46
 20
5720186.63
 30
0.0
 11
7581576.599999999
 21
5720203.190000002
 31
0.0
  0
LINE
  5
100032D
330
21
100
AcDbEntity
  8
dzialki_ewns
  6
Continuous
370
    18
100
AcDbLine
 10
7581576.599999999
 20
5720203.190000002
 30
0.0
 11
7581568.389999999
 21
5720214.379999999
 31
0.0
  0
LINE
  5
100032E
330
21
100
AcDbEntity
  8
dzialki_ewns
  6
Continuous
370
    18
100
AcDbLine
 10
7581568.389999999
 20
5720214.379999999
 30
0.0
 11
7581558.63
 21
5720226.539999999
 31
0.0
  0
LINE
  5
100032F
330
21
100
AcDbEntity
  8
dzialki_ewns
  6
Continuous
370
    18
100
AcDbLine
 10
7581558.63
 20
5720226.539999999
 30
0.0
 11
7581548.809999999
 21
5720236.950000001
 31
0.0
  0
LINE
  5
1000330
330
21
100
AcDbEntity
  8
dzialki_ewns
  6
Continuous
370
    18
100
AcDbLine
 10
7581548.809999999
 20
5720236.950000001
 30
0.0
 11
7581542.58
 21
5720256.26
 31
0.0
  0
LINE
  5
1000331
330
21
100
AcDbEntity
  8
dzialki_ewns
  6
Continuous
370
    18
100
AcDbLine
 10
7581542.58
 20
5720256.26
 30
0.0
 11
7581503.539999999
 21
5720313.16
 31
0.0
  0
LINE
  5
1000332
330
21
100
AcDbEntity
  8
dzialki_ewns
  6
Continuous
370
    18
100
AcDbLine
 10
7581503.539999999
 20
5720313.16
 30
0.0
 11
7581476.769999999
 21
5720367.65
 31
0.0
  0
LINE
  5
1000333
330
21
100
AcDbEntity
  8
dzialki_ewns
  6
Continuous
370
    18
100
AcDbLine
 10
7581476.769999999
 20
5720367.65
 30
0.0
 11
7581443.690000001
 21
5720417.940000002
 31
0.0
  0
LINE
  5
1000334
330
21
100
AcDbEntity
  8
dzialki_ewns
  6
Continuous
370
    18
100
AcDbLine
 10
7581443.690000001
 20
5720417.940000002
 30
0.0
 11
7581391.7
 21
5720508.740000001
 31
0.0
  0
LINE
  5
1000335
330
21
100
AcDbEntity
  8
dzialki_ewns
  6
Continuous
370
    18
100
AcDbLine
 10
7581391.7
 20
5720508.740000001
 30
0.0
 11
7581343.709999999
 21
5720575.86
 31
0.0
  0
LINE
  5
1000336
330
21
100
AcDbEntity
  8
dzialki_ewns
  6
Continuous
370
    18
100
AcDbLine
 10
7581343.709999999
 20
5720575.86
 30
0.0
 11
7581351.040000001
 21
5720579.97
 31
0.0
  0
LINE
  5
1000337
330
21
100
AcDbEntity
  8
dzialki_ewns
  6
Continuous
370
    18
100
AcDbLine
 10
7581351.040000001
 20
5720579.97
 30
0.0
 11
7581404.58
 21
5720698.95
 31
0.0
  0
LINE
  5
1000338
330
21
100
AcDbEntity
  8
dzialki_ewns
  6
Continuous
370
    18
100
AcDbLine
 10
7581404.58
 20
5720698.95
 30
0.0
 11
7581409.030000001
 21
5720703.349999999
 31
0.0
  0
LINE
  5
1000339
330
21
100
AcDbEntity
  8
dzialki_ewns
  6
Continuous
370
    18
100
AcDbLine
 10
7581409.030000001
 20
5720703.349999999
 30
0.0
 11
7581410.48
 21
5720718.150000001
 31
0.0
  0
LINE
  5
100033A
330
21
100
AcDbEntity
  8
dzialki_ewns
  6
Continuous
370
    18
100
AcDbLine
 10
7581410.48
 20
5720718.150000001
 30
0.0
 11
7581433.699999999
 21
5720766.679999999
 31
0.0
  0
LINE
  5
100033B
330
21
100
AcDbEntity
  8
dzialki_ewns
  6
Continuous
370
    18
100
AcDbLine
 10
7581433.699999999
 20
5720766.679999999
 30
0.0
 11
7581443.53
 21
5720787.030000001
 31
0.0
  0
LINE
  5
100033C
330
21
100
AcDbEntity
  8
dzialki_ewns
  6
Continuous
370
    18
100
AcDbLine
 10
7581597.93
 20
5719568.88
 30
0.0
 11
7581615.04
 21
5719572.349999999
 31
0.0
  0
LINE
  5
100033D
330
21
100
AcDbEntity
  8
dzialki_ewns
  6
Continuous
370
    18
100
AcDbLine
 10
7581615.04
 20
5719572.349999999
 30
0.0
 11
7581628.799999999
 21
5719575.139999999
 31
0.0
  0
LINE
  5
100033E
330
21
100
AcDbEntity
  8
dzialki_ewns
  6
Continuous
370
    18
100
AcDbLine
 10
7581628.799999999
 20
5719575.139999999
 30
0.0
 11
7581632.45
 21
5719575.879999999
 31
0.0
  0
LINE
  5
100033F
330
21
100
AcDbEntity
  8
dzialki_ewns
  6
Continuous
370
    18
100
AcDbLine
 10
7581632.45
 20
5719575.879999999
 30
0.0
 11
7581648.32
 21
5719575.070000001
 31
0.0
  0
LINE
  5
1000340
330
21
100
AcDbEntity
  8
dzialki_ewns
  6
Continuous
370
    18
100
AcDbLine
 10
7581648.32
 20
5719575.070000001
 30
0.0
 11
7581676.919999999
 21
5719573.599999998
 31
0.0
  0
LINE
  5
1000341
330
21
100
AcDbEntity
  8
dzialki_ewns
  6
Continuous
370
    18
100
AcDbLine
 10
7581676.919999999
 20
5719573.599999998
 30
0.0
 11
7581692.99
 21
5719572.76
 31
0.0
  0
LINE
  5
1000342
330
21
100
AcDbEntity
  8
dzialki_ewns
  6
Continuous
370
    18
100
AcDbLine
 10
7581692.99
 20
5719572.76
 30
0.0
 11
7581743.499999999
 21
5719570.17
 31
0.0
  0
LINE
  5
1000343
330
21
100
AcDbEntity
  8
dzialki_ewns
  6
Continuous
370
    18
100
AcDbLine
 10
7581743.499999999
 20
5719570.17
 30
0.0
 11
7581789.8
 21
5719567.780000001
 31
0.0
  0
LINE
  5
1000344
330
21
100
AcDbEntity
  8
dzialki_ewns
  6
Continuous
370
    18
100
AcDbLine
 10
7581789.8
 20
5719567.780000001
 30
0.0
 11
7581813.56
 21
5719564.830000002
 31
0.0
  0
LINE
  5
1000345
330
21
100
AcDbEntity
  8
dzialki_ewns
  6
Continuous
370
    18
100
AcDbLine
 10
7581813.56
 20
5719564.830000002
 30
0.0
 11
7581838.230000002
 21
5719561.759999999
 31
0.0
  0
LINE
  5
1000346
330
21
100
AcDbEntity
  8
dzialki_ewns
  6
Continuous
370
    18
100
AcDbLine
 10
7581838.230000002
 20
5719561.759999999
 30
0.0
 11
7581866.179999999
 21
5719558.28
 31
0.0
  0
LINE
  5
1000347
330
21
100
AcDbEntity
  8
dzialki_ewns
  6
Continuous
370
    18
100
AcDbLine
 10
7581866.179999999
 20
5719558.28
 30
0.0
 11
7581880.030000002
 21
5719556.56
 31
0.0
  0
LINE
  5
1000348
330
21
100
AcDbEntity
  8
dzialki_ewns
  6
Continuous
370
    18
100
AcDbLine
 10
7581880.030000002
 20
5719556.56
 30
0.0
 11
7581893.889999999
 21
5719554.839999999
 31
0.0
  0
LINE
  5
1000349
330
21
100
AcDbEntity
  8
dzialki_ewns
  6
Continuous
370
    18
100
AcDbLine
 10
7581893.889999999
 20
5719554.839999999
 30
0.0
 11
7581951.88
 21
5719547.63
 31
0.0
  0
LINE
  5
100034A
330
21
100
AcDbEntity
  8
dzialki_ewns
  6
Continuous
370
    18
100
AcDbLine
 10
7581951.88
 20
5719547.63
 30
0.0
 11
7581966.22
 21
5719545.849999999
 31
0.0
  0
LINE
  5
100034B
330
21
100
AcDbEntity
  8
dzialki_ewns
  6
Continuous
370
    18
100
AcDbLine
 10
7581966.22
 20
5719545.849999999
 30
0.0
 11
7581981.360000001
 21
5719543.96
 31
0.0
  0
LINE
  5
100034C
330
21
100
AcDbEntity
  8
dzialki_ewns
  6
Continuous
370
    18
100
AcDbLine
 10
7581981.360000001
 20
5719543.96
 30
0.0
 11
7582022.209999999
 21
5719538.879999999
 31
0.0
  0
LINE
  5
100034D
330
21
100
AcDbEntity
  8
dzialki_ewns
  6
Continuous
370
    18
100
AcDbLine
 10
7582022.209999999
 20
5719538.879999999
 30
0.0
 11
7582043.51
 21
5719536.23
 31
0.0
  0
LINE
  5
100034E
330
21
100
AcDbEntity
  8
dzialki_ewns
  6
Continuous
370
    18
100
AcDbLine
 10
7582043.51
 20
5719536.23
 30
0.0
 11
7582055.63
 21
5719532.61
 31
0.0
  0
LINE
  5
100034F
330
21
100
AcDbEntity
  8
dzialki_ewns
  6
Continuous
370
    18
100
AcDbLine
 10
7582055.63
 20
5719532.61
 30
0.0
 11
7582122.599999999
 21
5719524.96
 31
0.0
  0
LINE
  5
1000350
330
21
100
AcDbEntity
  8
dzialki_ewns
  6
Continuous
370
    18
100
AcDbLine
 10
7582122.599999999
 20
5719524.96
 30
0.0
 11
7582232.85
 21
5719512.360000001
 31
0.0
  0
LINE
  5
1000351
330
21
100
AcDbEntity
  8
dzialki_ewns
  6
Continuous
370
    18
100
AcDbLine
 10
7582232.85
 20
5719512.360000001
 30
0.0
 11
7582345.97
 21
5719499.190000001
 31
0.0
  0
LINE
  5
1000352
330
21
100
AcDbEntity
  8
dzialki_ewns
  6
Continuous
370
    18
100
AcDbLine
 10
7582345.97
 20
5719499.190000001
 30
0.0
 11
7582384.55
 21
5719494.5
 31
0.0
  0
LINE
  5
1000353
330
21
100
AcDbEntity
  8
dzialki_ewns
  6
Continuous
370
    18
100
AcDbLine
 10
7582384.55
 20
5719494.5
 30
0.0
 11
7582384.12
 21
5719464.110000001
 31
0.0
  0
LINE
  5
1000354
330
21
100
AcDbEntity
  8
dzialki_ewns
  6
Continuous
370
    18
100
AcDbLine
 10
7582384.12
 20
5719464.110000001
 30
0.0
 11
7582363.68
 21
5719466.409999999
 31
0.0
  0
LINE
  5
1000355
330
21
100
AcDbEntity
  8
dzialki_ewns
  6
Continuous
370
    18
100
AcDbLine
 10
7582363.68
 20
5719466.409999999
 30
0.0
 11
7582277.59
 21
5719476.120000002
 31
0.0
  0
LINE
  5
1000356
330
21
100
AcDbEntity
  8
dzialki_ewns
  6
Continuous
370
    18
100
AcDbLine
 10
7582277.59
 20
5719476.120000002
 30
0.0
 11
7582244.82
 21
5719480.030000002
 31
0.0
  0
LINE
  5
1000357
330
21
100
AcDbEntity
  8
dzialki_ewns
  6
Continuous
370
    18
100
AcDbLine
 10
7582244.82
 20
5719480.030000002
 30
0.0
 11
7582049.22
 21
5719503.33
 31
0.0
  0
LINE
  5
1000358
330
21
100
AcDbEntity
  8
dzialki_ewns
  6
Continuous
370
    18
100
AcDbLine
 10
7582049.22
 20
5719503.33
 30
0.0
 11
7582037.259999999
 21
5719504.389999999
 31
0.0
  0
LINE
  5
1000359
330
21
100
AcDbEntity
  8
dzialki_ewns
  6
Continuous
370
    18
100
AcDbLine
 10
7582037.259999999
 20
5719504.389999999
 30
0.0
 11
7581986.54
 21
5719508.889999998
 31
0.0
  0
LINE
  5
100035A
330
21
100
AcDbEntity
  8
dzialki_ewns
  6
Continuous
370
    18
100
AcDbLine
 10
7581986.54
 20
5719508.889999998
 30
0.0
 11
7581950.07
 21
5719513.280000001
 31
0.0
  0
LINE
  5
100035B
330
21
100
AcDbEntity
  8
dzialki_ewns
  6
Continuous
370
    18
100
AcDbLine
 10
7581950.07
 20
5719513.280000001
 30
0.0
 11
7581904.790000001
 21
5719518.219999998
 31
0.0
  0
LINE
  5
100035C
330
21
100
AcDbEntity
  8
dzialki_ewns
  6
Continuous
370
    18
100
AcDbLine
 10
7581904.790000001
 20
5719518.219999998
 30
0.0
 11
7581837.39
 21
5719525.559999998
 31
0.0
  0
LINE
  5
100035D
330
21
100
AcDbEntity
  8
dzialki_ewns
  6
Continuous
370
    18
100
AcDbLine
 10
7581837.39
 20
5719525.559999998
 30
0.0
 11
7581756.469999999
 21
5719534.389999999
 31
0.0
  0
LINE
  5
100035E
330
21
100
AcDbEntity
  8
dzialki_ewns
  6
Continuous
370
    18
100
AcDbLine
 10
7581756.469999999
 20
5719534.389999999
 30
0.0
 11
7581676.55
 21
5719543.11
 31
0.0
  0
LINE
  5
100035F
330
21
100
AcDbEntity
  8
dzialki_ewns
  6
Continuous
370
    18
100
AcDbLine
 10
7581676.55
 20
5719543.11
 30
0.0
 11
7581627.929999999
 21
5719541.709999999
 31
0.0
  0
LINE
  5
1000360
330
21
100
AcDbEntity
  8
dzialki_ewns
  6
Continuous
370
    18
100
AcDbLine
 10
7581627.929999999
 20
5719541.709999999
 30
0.0
 11
7581539.81
 21
5719557.070000002
 31
0.0
  0
LINE
  5
1000361
330
21
100
AcDbEntity
  8
dzialki_ewns
  6
Continuous
370
    18
100
AcDbLine
 10
7581539.81
 20
5719557.070000002
 30
0.0
 11
7581597.93
 21
5719568.88
 31
0.0
  0
LINE
  5
1000362
330
21
100
AcDbEntity
  8
dzialki_ewns
  6
Continuous
370
    18
100
AcDbLine
 10
7578694.46
 20
5719599.55
 30
0.0
 11
7578730.52
 21
5719595.679999998
 31
0.0
  0
LINE
  5
1000363
330
21
100
AcDbEntity
  8
dzialki_ewns
  6
Continuous
370
    18
100
AcDbLine
 10
7578730.52
 20
5719595.679999998
 30
0.0
 11
7578735.89
 21
5719595.11
 31
0.0
  0
LINE
  5
1000364
330
21
100
AcDbEntity
  8
dzialki_ewns
  6
Continuous
370
    18
100
AcDbLine
 10
7578735.89
 20
5719595.11
 30
0.0
 11
7578766.679999999
 21
5719592.079999999
 31
0.0
  0
LINE
  5
1000365
330
21
100
AcDbEntity
  8
dzialki_ewns
  6
Continuous
370
    18
100
AcDbLine
 10
7578766.679999999
 20
5719592.079999999
 30
0.0
 11
7578803.47
 21
5719588.459999999
 31
0.0
  0
LINE
  5
1000366
330
21
100
AcDbEntity
  8
dzialki_ewns
  6
Continuous
370
    18
100
AcDbLine
 10
7578803.47
 20
5719588.459999999
 30
0.0
 11
7578840.84
 21
5719584.769999999
 31
0.0
  0
LINE
  5
1000367
330
21
100
AcDbEntity
  8
dzialki_ewns
  6
Continuous
370
    18
100
AcDbLine
 10
7578840.84
 20
5719584.769999999
 30
0.0
 11
7578900.2
 21
5719577.089999999
 31
0.0
  0
LINE
  5
1000368
330
21
100
AcDbEntity
  8
dzialki_ewns
  6
Continuous
370
    18
100
AcDbLine
 10
7578900.2
 20
5719577.089999999
 30
0.0
 11
7578921.08
 21
5719574.39
 31
0.0
  0
LINE
  5
1000369
330
21
100
AcDbEntity
  8
dzialki_ewns
  6
Continuous
370
    18
100
AcDbLine
 10
7578921.08
 20
5719574.39
 30
0.0
 11
7578947.309999998
 21
5719570.990000001
 31
0.0
  0
LINE
  5
100036A
330
21
100
AcDbEntity
  8
dzialki_ewns
  6
Continuous
370
    18
100
AcDbLine
 10
7578947.309999998
 20
5719570.990000001
 30
0.0
 11
7578961.22
 21
5719569.389999999
 31
0.0
  0
LINE
  5
100036B
330
21
100
AcDbEntity
  8
dzialki_ewns
  6
Continuous
370
    18
100
AcDbLine
 10
7578961.22
 20
5719569.389999999
 30
0.0
 11
7578994.7
 21
5719565.530000001
 31
0.0
  0
LINE
  5
100036C
330
21
100
AcDbEntity
  8
dzialki_ewns
  6
Continuous
370
    18
100
AcDbLine
 10
7578994.7
 20
5719565.530000001
 30
0.0
 11
7579027.969999999
 21
5719561.68
 31
0.0
  0
LINE
  5
100036D
330
21
100
AcDbEntity
  8
dzialki_ewns
  6
Continuous
370
    18
100
AcDbLine
 10
7579027.969999999
 20
5719561.68
 30
0.0
 11
7579043.87
 21
5719559.849999999
 31
0.0
  0
LINE
  5
100036E
330
21
100
AcDbEntity
  8
dzialki_ewns
  6
Continuous
370
    18
100
AcDbLine
 10
7579043.87
 20
5719559.849999999
 30
0.0
 11
7579090.65
 21
5719554.639999999
 31
0.0
  0
LINE
  5
100036F
330
21
100
AcDbEntity
  8
dzialki_ewns
  6
Continuous
370
    18
100
AcDbLine
 10
7579090.65
 20
5719554.639999999
 30
0.0
 11
7579159.279999999
 21
5719546.990000001
 31
0.0
  0
LINE
  5
1000370
330
21
100
AcDbEntity
  8
dzialki_ewns
  6
Continuous
370
    18
100
AcDbLine
 10
7579159.279999999
 20
5719546.990000001
 30
0.0
 11
7579173.429999999
 21
5719545.230000002
 31
0.0
  0
LINE
  5
1000371
330
21
100
AcDbEntity
  8
dzialki_ewns
  6
Continuous
370
    18
100
AcDbLine
 10
7579173.429999999
 20
5719545.230000002
 30
0.0
 11
7579213.83
 21
5719540.209999999
 31
0.0
  0
LINE
  5
1000372
330
21
100
AcDbEntity
  8
dzialki_ewns
  6
Continuous
370
    18
100
AcDbLine
 10
7579213.83
 20
5719540.209999999
 30
0.0
 11
7579232.59
 21
5719537.89
 31
0.0
  0
LINE
  5
1000373
330
21
100
AcDbEntity
  8
dzialki_ewns
  6
Continuous
370
    18
100
AcDbLine
 10
7579232.59
 20
5719537.89
 30
0.0
 11
7579235.61
 21
5719537.55
 31
0.0
  0
LINE
  5
1000374
330
21
100
AcDbEntity
  8
dzialki_ewns
  6
Continuous
370
    18
100
AcDbLine
 10
7579235.61
 20
5719537.55
 30
0.0
 11
7579259.37
 21
5719534.95
 31
0.0
  0
LINE
  5
1000375
330
21
100
AcDbEntity
  8
dzialki_ewns
  6
Continuous
370
    18
100
AcDbLine
 10
7579259.37
 20
5719534.95
 30
0.0
 11
7579273.330000001
 21
5719533.42
 31
0.0
  0
LINE
  5
1000376
330
21
100
AcDbEntity
  8
dzialki_ewns
  6
Continuous
370
    18
100
AcDbLine
 10
7579273.330000001
 20
5719533.42
 30
0.0
 11
7579296.700000001
 21
5719530.849999999
 31
0.0
  0
LINE
  5
1000377
330
21
100
AcDbEntity
  8
dzialki_ewns
  6
Continuous
370
    18
100
AcDbLine
 10
7579296.700000001
 20
5719530.849999999
 30
0.0
 11
7579312.31
 21
5719529.139999998
 31
0.0
  0
LINE
  5
1000378
330
21
100
AcDbEntity
  8
dzialki_ewns
  6
Continuous
370
    18
100
AcDbLine
 10
7579312.31
 20
5719529.139999998
 30
0.0
 11
7579316.980000002
 21
5719528.62
 31
0.0
  0
LINE
  5
1000379
330
21
100
AcDbEntity
  8
dzialki_ewns
  6
Continuous
370
    18
100
AcDbLine
 10
7579316.980000002
 20
5719528.62
 30
0.0
 11
7579332.74
 21
5719526.89
 31
0.0
  0
LINE
  5
100037A
330
21
100
AcDbEntity
  8
dzialki_ewns
  6
Continuous
370
    18
100
AcDbLine
 10
7579332.74
 20
5719526.89
 30
0.0
 11
7579333.34
 21
5719526.830000001
 31
0.0
  0
LINE
  5
100037B
330
21
100
AcDbEntity
  8
dzialki_ewns
  6
Continuous
370
    18
100
AcDbLine
 10
7579333.34
 20
5719526.830000001
 30
0.0
 11
7579343.490000001
 21
5719525.650000001
 31
0.0
  0
LINE
  5
100037C
330
21
100
AcDbEntity
  8
dzialki_ewns
  6
Continuous
370
    18
100
AcDbLine
 10
7579343.490000001
 20
5719525.650000001
 30
0.0
 11
7579348.509999999
 21
5719525.080000001
 31
0.0
  0
LINE
  5
100037D
330
21
100
AcDbEntity
  8
dzialki_ewns
  6
Continuous
370
    18
100
AcDbLine
 10
7579348.509999999
 20
5719525.080000001
 30
0.0
 11
7579383.79
 21
5719521.009999998
 31
0.0
  0
LINE
  5
100037E
330
21
100
AcDbEntity
  8
dzialki_ewns
  6
Continuous
370
    18
100
AcDbLine
 10
7579383.79
 20
5719521.009999998
 30
0.0
 11
7579406.440000001
 21
5719518.389999999
 31
0.0
  0
LINE
  5
100037F
330
21
100
AcDbEntity
  8
dzialki_ewns
  6
Continuous
370
    18
100
AcDbLine
 10
7579406.440000001
 20
5719518.389999999
 30
0.0
 11
7579415.58
 21
5719517.330000001
 31
0.0
  0
LINE
  5
1000380
330
21
100
AcDbEntity
  8
dzialki_ewns
  6
Continuous
370
    18
100
AcDbLine
 10
7579415.58
 20
5719517.330000001
 30
0.0
 11
7579427.099999999
 21
5719515.999999999
 31
0.0
  0
LINE
  5
1000381
330
21
100
AcDbEntity
  8
dzialki_ewns
  6
Continuous
370
    18
100
AcDbLine
 10
7579427.099999999
 20
5719515.999999999
 30
0.0
 11
7579435.54
 21
5719515.03
 31
0.0
  0
LINE
  5
1000382
330
21
100
AcDbEntity
  8
dzialki_ewns
  6
Continuous
370
    18
100
AcDbLine
 10
7579435.54
 20
5719515.03
 30
0.0
 11
7579443.68
 21
5719514.089999998
 31
0.0
  0
LINE
  5
1000383
330
21
100
AcDbEntity
  8
dzialki_ewns
  6
Continuous
370
    18
100
AcDbLine
 10
7579443.68
 20
5719514.089999998
 30
0.0
 11
7579452.82
 21
5719513.04
 31
0.0
  0
LINE
  5
1000384
330
21
100
AcDbEntity
  8
dzialki_ewns
  6
Continuous
370
    18
100
AcDbLine
 10
7579452.82
 20
5719513.04
 30
0.0
 11
7579462.26
 21
5719511.950000001
 31
0.0
  0
LINE
  5
1000385
330
21
100
AcDbEntity
  8
dzialki_ewns
  6
Continuous
370
    18
100
AcDbLine
 10
7579462.26
 20
5719511.950000001
 30
0.0
 11
7579481.820000002
 21
5719509.690000002
 31
0.0
  0
LINE
  5
1000386
330
21
100
AcDbEntity
  8
dzialki_ewns
  6
Continuous
370
    18
100
AcDbLine
 10
7579481.820000002
 20
5719509.690000002
 30
0.0
 11
7579499.799999999
 21
5719507.62
 31
0.0
  0
LINE
  5
1000387
330
21
100
AcDbEntity
  8
dzialki_ewns
  6
Continuous
370
    18
100
AcDbLine
 10
7579499.799999999
 20
5719507.62
 30
0.0
 11
7579536.900000001
 21
5719503.34
 31
0.0
  0
LINE
  5
1000388
330
21
100
AcDbEntity
  8
dzialki_ewns
  6
Continuous
370
    18
100
AcDbLine
 10
7579536.900000001
 20
5719503.34
 30
0.0
 11
7579610.139999999
 21
5719494.870000001
 31
0.0
  0
LINE
  5
1000389
330
21
100
AcDbEntity
  8
dzialki_ewns
  6
Continuous
370
    18
100
AcDbLine
 10
7579610.139999999
 20
5719494.870000001
 30
0.0
 11
7579638.26
 21
5719491.63
 31
0.0
  0
LINE
  5
100038A
330
21
100
AcDbEntity
  8
dzialki_ewns
  6
Continuous
370
    18
100
AcDbLine
 10
7579638.26
 20
5719491.63
 30
0.0
 11
7579686.03
 21
5719486.12
 31
0.0
  0
LINE
  5
100038B
330
21
100
AcDbEntity
  8
dzialki_ewns
  6
Continuous
370
    18
100
AcDbLine
 10
7579686.03
 20
5719486.12
 30
0.0
 11
7579695.269999998
 21
5719485.049999999
 31
0.0
  0
LINE
  5
100038C
330
21
100
AcDbEntity
  8
dzialki_ewns
  6
Continuous
370
    18
100
AcDbLine
 10
7579695.269999998
 20
5719485.049999999
 30
0.0
 11
7579723.92
 21
5719481.749999999
 31
0.0
  0
LINE
  5
100038D
330
21
100
AcDbEntity
  8
dzialki_ewns
  6
Continuous
370
    18
100
AcDbLine
 10
7579723.92
 20
5719481.749999999
 30
0.0
 11
7579756.500000001
 21
5719477.990000001
 31
0.0
  0
LINE
  5
100038E
330
21
100
AcDbEntity
  8
dzialki_ewns
  6
Continuous
370
    18
100
AcDbLine
 10
7579756.500000001
 20
5719477.990000001
 30
0.0
 11
7579789.92
 21
5719474.13
 31
0.0
  0
LINE
  5
100038F
330
21
100
AcDbEntity
  8
dzialki_ewns
  6
Continuous
370
    18
100
AcDbLine
 10
7579789.92
 20
5719474.13
 30
0.0
 11
7579811.17
 21
5719471.68
 31
0.0
  0
LINE
  5
1000390
330
21
100
AcDbEntity
  8
dzialki_ewns
  6
Continuous
370
    18
100
AcDbLine
 10
7579811.17
 20
5719471.68
 30
0.0
 11
7579840.28
 21
5719468.320000002
 31
0.0
  0
LINE
  5
1000391
330
21
100
AcDbEntity
  8
dzialki_ewns
  6
Continuous
370
    18
100
AcDbLine
 10
7579840.28
 20
5719468.320000002
 30
0.0
 11
7579869.32
 21
5719464.96
 31
0.0
  0
LINE
  5
1000392
330
21
100
AcDbEntity
  8
dzialki_ewns
  6
Continuous
370
    18
100
AcDbLine
 10
7579869.32
 20
5719464.96
 30
0.0
 11
7579950.67
 21
5719455.579999999
 31
0.0
  0
LINE
  5
1000393
330
21
100
AcDbEntity
  8
dzialki_ewns
  6
Continuous
370
    18
100
AcDbLine
 10
7579950.67
 20
5719455.579999999
 30
0.0
 11
7579954.49
 21
5719455.13
 31
0.0
  0
LINE
  5
1000394
330
21
100
AcDbEntity
  8
dzialki_ewns
  6
Continuous
370
    18
100
AcDbLine
 10
7579954.49
 20
5719455.13
 30
0.0
 11
7579996.26
 21
5719450.29
 31
0.0
  0
LINE
  5
1000395
330
21
100
AcDbEntity
  8
dzialki_ewns
  6
Continuous
370
    18
100
AcDbLine
 10
7579996.26
 20
5719450.29
 30
0.0
 11
7580031.219999999
 21
5719446.249999999
 31
0.0
  0
LINE
  5
1000396
330
21
100
AcDbEntity
  8
dzialki_ewns
  6
Continuous
370
    18
100
AcDbLine
 10
7580031.219999999
 20
5719446.249999999
 30
0.0
 11
7580065.339999999
 21
5719442.3
 31
0.0
  0
LINE
  5
1000397
330
21
100
AcDbEntity
  8
dzialki_ewns
  6
Continuous
370
    18
100
AcDbLine
 10
7580065.339999999
 20
5719442.3
 30
0.0
 11
7580101.730000001
 21
5719438.089999999
 31
0.0
  0
LINE
  5
1000398
330
21
100
AcDbEntity
  8
dzialki_ewns
  6
Continuous
370
    18
100
AcDbLine
 10
7580101.730000001
 20
5719438.089999999
 30
0.0
 11
7580113.16
 21
5719436.759999999
 31
0.0
  0
LINE
  5
1000399
330
21
100
AcDbEntity
  8
dzialki_ewns
  6
Continuous
370
    18
100
AcDbLine
 10
7580113.16
 20
5719436.759999999
 30
0.0
 11
7580125.269999999
 21
5719435.360000001
 31
0.0
  0
LINE
  5
100039A
330
21
100
AcDbEntity
  8
dzialki_ewns
  6
Continuous
370
    18
100
AcDbLine
 10
7580125.269999999
 20
5719435.360000001
 30
0.0
 11
7580135.55
 21
5719434.169999999
 31
0.0
  0
LINE
  5
100039B
330
21
100
AcDbEntity
  8
dzialki_ewns
  6
Continuous
370
    18
100
AcDbLine
 10
7580135.55
 20
5719434.169999999
 30
0.0
 11
7580184.809999999
 21
5719428.459999999
 31
0.0
  0
LINE
  5
100039C
330
21
100
AcDbEntity
  8
dzialki_ewns
  6
Continuous
370
    18
100
AcDbLine
 10
7580184.809999999
 20
5719428.459999999
 30
0.0
 11
7580243.51
 21
5719421.67
 31
0.0
  0
LINE
  5
100039D
330
21
100
AcDbEntity
  8
dzialki_ewns
  6
Continuous
370
    18
100
AcDbLine
 10
7580243.51
 20
5719421.67
 30
0.0
 11
7580252.94
 21
5719420.580000001
 31
0.0
  0
LINE
  5
100039E
330
21
100
AcDbEntity
  8
dzialki_ewns
  6
Continuous
370
    18
100
AcDbLine
 10
7580252.94
 20
5719420.580000001
 30
0.0
 11
7580257.22
 21
5719420.450000001
 31
0.0
  0
LINE
  5
100039F
330
21
100
AcDbEntity
  8
dzialki_ewns
  6
Continuous
370
    18
100
AcDbLine
 10
7580257.22
 20
5719420.450000001
 30
0.0
 11
7580278.780000001
 21
5719418.099999999
 31
0.0
  0
LINE
  5
10003A0
330
21
100
AcDbEntity
  8
dzialki_ewns
  6
Continuous
370
    18
100
AcDbLine
 10
7580278.780000001
 20
5719418.099999999
 30
0.0
 11
7580330.74
 21
5719412.440000001
 31
0.0
  0
LINE
  5
10003A1
330
21
100
AcDbEntity
  8
dzialki_ewns
  6
Continuous
370
    18
100
AcDbLine
 10
7580330.74
 20
5719412.440000001
 30
0.0
 11
7580430.88
 21
5719401.539999999
 31
0.0
  0
LINE
  5
10003A2
330
21
100
AcDbEntity
  8
dzialki_ewns
  6
Continuous
370
    18
100
AcDbLine
 10
7580430.88
 20
5719401.539999999
 30
0.0
 11
7580449.25
 21
5719399.549999999
 31
0.0
  0
LINE
  5
10003A3
330
21
100
AcDbEntity
  8
dzialki_ewns
  6
Continuous
370
    18
100
AcDbLine
 10
7580449.25
 20
5719399.549999999
 30
0.0
 11
7580549.480000001
 21
5719388.64
 31
0.0
  0
LINE
  5
10003A4
330
21
100
AcDbEntity
  8
dzialki_ewns
  6
Continuous
370
    18
100
AcDbLine
 10
7580549.480000001
 20
5719388.64
 30
0.0
 11
7580553.18
 21
5719388.230000001
 31
0.0
  0
LINE
  5
10003A5
330
21
100
AcDbEntity
  8
dzialki_ewns
  6
Continuous
370
    18
100
AcDbLine
 10
7580553.18
 20
5719388.230000001
 30
0.0
 11
7580594.79
 21
5719384.610000002
 31
0.0
  0
LINE
  5
10003A6
330
21
100
AcDbEntity
  8
dzialki_ewns
  6
Continuous
370
    18
100
AcDbLine
 10
7580594.79
 20
5719384.610000002
 30
0.0
 11
7580640.360000001
 21
5719380.639999999
 31
0.0
  0
LINE
  5
10003A7
330
21
100
AcDbEntity
  8
dzialki_ewns
  6
Continuous
370
    18
100
AcDbLine
 10
7580640.360000001
 20
5719380.639999999
 30
0.0
 11
7580686.849999999
 21
5719376.589999999
 31
0.0
  0
LINE
  5
10003A8
330
21
100
AcDbEntity
  8
dzialki_ewns
  6
Continuous
370
    18
100
AcDbLine
 10
7580686.849999999
 20
5719376.589999999
 30
0.0
 11
7580688.769999999
 21
5719376.419999999
 31
0.0
  0
LINE
  5
10003A9
330
21
100
AcDbEntity
  8
dzialki_ewns
  6
Continuous
370
    18
100
AcDbLine
 10
7580688.769999999
 20
5719376.419999999
 30
0.0
 11
7580710.0
 21
5719379.990000001
 31
0.0
  0
LINE
  5
10003AA
330
21
100
AcDbEntity
  8
dzialki_ewns
  6
Continuous
370
    18
100
AcDbLine
 10
7580710.0
 20
5719379.990000001
 30
0.0
 11
7580820.969999999
 21
5719402.38
 31
0.0
  0
LINE
  5
10003AB
330
21
100
AcDbEntity
  8
dzialki_ewns
  6
Continuous
370
    18
100
AcDbLine
 10
7580820.969999999
 20
5719402.38
 30
0.0
 11
7580838.940000001
 21
5719406.019999999
 31
0.0
  0
LINE
  5
10003AC
330
21
100
AcDbEntity
  8
dzialki_ewns
  6
Continuous
370
    18
100
AcDbLine
 10
7580838.940000001
 20
5719406.019999999
 30
0.0
 11
7580858.44
 21
5719409.95
 31
0.0
  0
LINE
  5
10003AD
330
21
100
AcDbEntity
  8
dzialki_ewns
  6
Continuous
370
    18
100
AcDbLine
 10
7580858.44
 20
5719409.95
 30
0.0
 11
7580865.650000001
 21
5719411.41
 31
0.0
  0
LINE
  5
10003AE
330
21
100
AcDbEntity
  8
dzialki_ewns
  6
Continuous
370
    18
100
AcDbLine
 10
7580865.650000001
 20
5719411.41
 30
0.0
 11
7580867.58
 21
5719411.789999999
 31
0.0
  0
LINE
  5
10003AF
330
21
100
AcDbEntity
  8
dzialki_ewns
  6
Continuous
370
    18
100
AcDbLine
 10
7580867.58
 20
5719411.789999999
 30
0.0
 11
7580879.88
 21
5719414.280000002
 31
0.0
  0
LINE
  5
10003B0
330
21
100
AcDbEntity
  8
dzialki_ewns
  6
Continuous
370
    18
100
AcDbLine
 10
7580879.88
 20
5719414.280000002
 30
0.0
 11
7580902.71
 21
5719418.889999999
 31
0.0
  0
LINE
  5
10003B1
330
21
100
AcDbEntity
  8
dzialki_ewns
  6
Continuous
370
    18
100
AcDbLine
 10
7580902.71
 20
5719418.889999999
 30
0.0
 11
7580927.13
 21
5719423.730000001
 31
0.0
  0
LINE
  5
10003B2
330
21
100
AcDbEntity
  8
dzialki_ewns
  6
Continuous
370
    18
100
AcDbLine
 10
7580927.13
 20
5719423.730000001
 30
0.0
 11
7580947.459999999
 21
5719427.929999999
 31
0.0
  0
LINE
  5
10003B3
330
21
100
AcDbEntity
  8
dzialki_ewns
  6
Continuous
370
    18
100
AcDbLine
 10
7580947.459999999
 20
5719427.929999999
 30
0.0
 11
7580951.96
 21
5719428.88
 31
0.0
  0
LINE
  5
10003B4
330
21
100
AcDbEntity
  8
dzialki_ewns
  6
Continuous
370
    18
100
AcDbLine
 10
7580951.96
 20
5719428.88
 30
0.0
 11
7580965.110000001
 21
5719431.480000001
 31
0.0
  0
LINE
  5
10003B5
330
21
100
AcDbEntity
  8
dzialki_ewns
  6
Continuous
370
    18
100
AcDbLine
 10
7580965.110000001
 20
5719431.480000001
 30
0.0
 11
7580977.389999999
 21
5719433.969999999
 31
0.0
  0
LINE
  5
10003B6
330
21
100
AcDbEntity
  8
dzialki_ewns
  6
Continuous
370
    18
100
AcDbLine
 10
7580977.389999999
 20
5719433.969999999
 30
0.0
 11
7580984.739999999
 21
5719435.45
 31
0.0
  0
LINE
  5
10003B7
330
21
100
AcDbEntity
  8
dzialki_ewns
  6
Continuous
370
    18
100
AcDbLine
 10
7580984.739999999
 20
5719435.45
 30
0.0
 11
7581023.190000002
 21
5719443.209999999
 31
0.0
  0
LINE
  5
10003B8
330
21
100
AcDbEntity
  8
dzialki_ewns
  6
Continuous
370
    18
100
AcDbLine
 10
7581023.190000002
 20
5719443.209999999
 30
0.0
 11
7581039.16
 21
5719448.429999999
 31
0.0
  0
LINE
  5
10003B9
330
21
100
AcDbEntity
  8
dzialki_ewns
  6
Continuous
370
    18
100
AcDbLine
 10
7581039.16
 20
5719448.429999999
 30
0.0
 11
7581125.11
 21
5719466.839999999
 31
0.0
  0
LINE
  5
10003BA
330
21
100
AcDbEntity
  8
dzialki_ewns
  6
Continuous
370
    18
100
AcDbLine
 10
7581125.11
 20
5719466.839999999
 30
0.0
 11
7581207.1
 21
5719484.839999999
 31
0.0
  0
LINE
  5
10003BB
330
21
100
AcDbEntity
  8
dzialki_ewns
  6
Continuous
370
    18
100
AcDbLine
 10
7581207.1
 20
5719484.839999999
 30
0.0
 11
7581272.14
 21
5719497.179999998
 31
0.0
  0
LINE
  5
10003BC
330
21
100
AcDbEntity
  8
dzialki_ewns
  6
Continuous
370
    18
100
AcDbLine
 10
7581272.14
 20
5719497.179999998
 30
0.0
 11
7581310.940000001
 21
5719506.099999998
 31
0.0
  0
LINE
  5
10003BD
330
21
100
AcDbEntity
  8
dzialki_ewns
  6
Continuous
370
    18
100
AcDbLine
 10
7581310.940000001
 20
5719506.099999998
 30
0.0
 11
7581404.610000001
 21
5719527.52
 31
0.0
  0
LINE
  5
10003BE
330
21
100
AcDbEntity
  8
dzialki_ewns
  6
Continuous
370
    18
100
AcDbLine
 10
7581404.610000001
 20
5719527.52
 30
0.0
 11
7581483.09
 21
5719545.71
 31
0.0
  0
LINE
  5
10003BF
330
21
100
AcDbEntity
  8
dzialki_ewns
  6
Continuous
370
    18
100
AcDbLine
 10
7581483.09
 20
5719545.71
 30
0.0
 11
7581539.81
 21
5719557.070000002
 31
0.0
  0
LINE
  5
10003C0
330
21
100
AcDbEntity
  8
dzialki_ewns
  6
Continuous
370
    18
100
AcDbLine
 10
7581539.81
 20
5719557.070000002
 30
0.0
 11
7581627.929999999
 21
5719541.709999999
 31
0.0
  0
LINE
  5
10003C1
330
21
100
AcDbEntity
  8
dzialki_ewns
  6
Continuous
370
    18
100
AcDbLine
 10
7581627.929999999
 20
5719541.709999999
 30
0.0
 11
7581566.79
 21
5719527.889999999
 31
0.0
  0
LINE
  5
10003C2
330
21
100
AcDbEntity
  8
dzialki_ewns
  6
Continuous
370
    18
100
AcDbLine
 10
7581566.79
 20
5719527.889999999
 30
0.0
 11
7581514.63
 21
5719517.059999999
 31
0.0
  0
LINE
  5
10003C3
330
21
100
AcDbEntity
  8
dzialki_ewns
  6
Continuous
370
    18
100
AcDbLine
 10
7581514.63
 20
5719517.059999999
 30
0.0
 11
7581291.73
 21
5719468.820000002
 31
0.0
  0
LINE
  5
10003C4
330
21
100
AcDbEntity
  8
dzialki_ewns
  6
Continuous
370
    18
100
AcDbLine
 10
7581291.73
 20
5719468.820000002
 30
0.0
 11
7581228.360000001
 21
5719457.339999999
 31
0.0
  0
LINE
  5
10003C5
330
21
100
AcDbEntity
  8
dzialki_ewns
  6
Continuous
370
    18
100
AcDbLine
 10
7581228.360000001
 20
5719457.339999999
 30
0.0
 11
7581162.730000002
 21
5719443.31
 31
0.0
  0
LINE
  5
10003C6
330
21
100
AcDbEntity
  8
dzialki_ewns
  6
Continuous
370
    18
100
AcDbLine
 10
7581162.730000002
 20
5719443.31
 30
0.0
 11
7581043.28
 21
5719418.240000001
 31
0.0
  0
LINE
  5
10003C7
330
21
100
AcDbEntity
  8
dzialki_ewns
  6
Continuous
370
    18
100
AcDbLine
 10
7581043.28
 20
5719418.240000001
 30
0.0
 11
7581027.11
 21
5719414.849999999
 31
0.0
  0
LINE
  5
10003C8
330
21
100
AcDbEntity
  8
dzialki_ewns
  6
Continuous
370
    18
100
AcDbLine
 10
7581027.11
 20
5719414.849999999
 30
0.0
 11
7581007.56
 21
5719410.45
 31
0.0
  0
LINE
  5
10003C9
330
21
100
AcDbEntity
  8
dzialki_ewns
  6
Continuous
370
    18
100
AcDbLine
 10
7581007.56
 20
5719410.45
 30
0.0
 11
7580993.559999999
 21
5719407.290000001
 31
0.0
  0
LINE
  5
10003CA
330
21
100
AcDbEntity
  8
dzialki_ewns
  6
Continuous
370
    18
100
AcDbLine
 10
7580993.559999999
 20
5719407.290000001
 30
0.0
 11
7580923.150000001
 21
5719391.41
 31
0.0
  0
LINE
  5
10003CB
330
21
100
AcDbEntity
  8
dzialki_ewns
  6
Continuous
370
    18
100
AcDbLine
 10
7580923.150000001
 20
5719391.41
 30
0.0
 11
7580908.190000001
 21
5719388.81
 31
0.0
  0
LINE
  5
10003CC
330
21
100
AcDbEntity
  8
dzialki_ewns
  6
Continuous
370
    18
100
AcDbLine
 10
7580908.190000001
 20
5719388.81
 30
0.0
 11
7580892.769999999
 21
5719386.13
 31
0.0
  0
LINE
  5
10003CD
330
21
100
AcDbEntity
  8
dzialki_ewns
  6
Continuous
370
    18
100
AcDbLine
 10
7580892.769999999
 20
5719386.13
 30
0.0
 11
7580882.29
 21
5719384.31
 31
0.0
  0
LINE
  5
10003CE
330
21
100
AcDbEntity
  8
dzialki_ewns
  6
Continuous
370
    18
100
AcDbLine
 10
7580882.29
 20
5719384.31
 30
0.0
 11
7580872.740000001
 21
5719382.330000001
 31
0.0
  0
LINE
  5
10003CF
330
21
100
AcDbEntity
  8
dzialki_ewns
  6
Continuous
370
    18
100
AcDbLine
 10
7580872.740000001
 20
5719382.330000001
 30
0.0
 11
7580863.17
 21
5719380.360000001
 31
0.0
  0
LINE
  5
10003D0
330
21
100
AcDbEntity
  8
dzialki_ewns
  6
Continuous
370
    18
100
AcDbLine
 10
7580863.17
 20
5719380.360000001
 30
0.0
 11
7580844.320000001
 21
5719376.460000001
 31
0.0
  0
LINE
  5
10003D1
330
21
100
AcDbEntity
  8
dzialki_ewns
  6
Continuous
370
    18
100
AcDbLine
 10
7580844.320000001
 20
5719376.460000001
 30
0.0
 11
7580838.23
 21
5719375.2
 31
0.0
  0
LINE
  5
10003D2
330
21
100
AcDbEntity
  8
dzialki_ewns
  6
Continuous
370
    18
100
AcDbLine
 10
7580838.23
 20
5719375.2
 30
0.0
 11
7580834.18
 21
5719374.360000001
 31
0.0
  0
LINE
  5
10003D3
330
21
100
AcDbEntity
  8
dzialki_ewns
  6
Continuous
370
    18
100
AcDbLine
 10
7580834.18
 20
5719374.360000001
 30
0.0
 11
7580830.019999999
 21
5719373.499999999
 31
0.0
  0
LINE
  5
10003D4
330
21
100
AcDbEntity
  8
dzialki_ewns
  6
Continuous
370
    18
100
AcDbLine
 10
7580830.019999999
 20
5719373.499999999
 30
0.0
 11
7580826.16
 21
5719372.71
 31
0.0
  0
LINE
  5
10003D5
330
21
100
AcDbEntity
  8
dzialki_ewns
  6
Continuous
370
    18
100
AcDbLine
 10
7580826.16
 20
5719372.71
 30
0.0
 11
7580806.530000001
 21
5719368.639999999
 31
0.0
  0
LINE
  5
10003D6
330
21
100
AcDbEntity
  8
dzialki_ewns
  6
Continuous
370
    18
100
AcDbLine
 10
7580806.530000001
 20
5719368.639999999
 30
0.0
 11
7580797.030000001
 21
5719366.679999999
 31
0.0
  0
LINE
  5
10003D7
330
21
100
AcDbEntity
  8
dzialki_ewns
  6
Continuous
370
    18
100
AcDbLine
 10
7580797.030000001
 20
5719366.679999999
 30
0.0
 11
7580787.47
 21
5719364.740000001
 31
0.0
  0
LINE
  5
10003D8
330
21
100
AcDbEntity
  8
dzialki_ewns
  6
Continuous
370
    18
100
AcDbLine
 10
7580787.47
 20
5719364.740000001
 30
0.0
 11
7580767.91
 21
5719360.780000001
 31
0.0
  0
LINE
  5
10003D9
330
21
100
AcDbEntity
  8
dzialki_ewns
  6
Continuous
370
    18
100
AcDbLine
 10
7580767.91
 20
5719360.780000001
 30
0.0
 11
7580758.58
 21
5719358.889999998
 31
0.0
  0
LINE
  5
10003DA
330
21
100
AcDbEntity
  8
dzialki_ewns
  6
Continuous
370
    18
100
AcDbLine
 10
7580758.58
 20
5719358.889999998
 30
0.0
 11
7580749.66
 21
5719357.089999999
 31
0.0
  0
LINE
  5
10003DB
330
21
100
AcDbEntity
  8
dzialki_ewns
  6
Continuous
370
    18
100
AcDbLine
 10
7580749.66
 20
5719357.089999999
 30
0.0
 11
7580723.169999999
 21
5719353.17
 31
0.0
  0
LINE
  5
10003DC
330
21
100
AcDbEntity
  8
dzialki_ewns
  6
Continuous
370
    18
100
AcDbLine
 10
7580723.169999999
 20
5719353.17
 30
0.0
 11
7580708.08
 21
5719350.93
 31
0.0
  0
LINE
  5
10003DD
330
21
100
AcDbEntity
  8
dzialki_ewns
  6
Continuous
370
    18
100
AcDbLine
 10
7580708.08
 20
5719350.93
 30
0.0
 11
7580691.55
 21
5719348.49
 31
0.0
  0
LINE
  5
10003DE
330
21
100
AcDbEntity
  8
dzialki_ewns
  6
Continuous
370
    18
100
AcDbLine
 10
7580691.55
 20
5719348.49
 30
0.0
 11
7580664.92
 21
5719346.69
 31
0.0
  0
LINE
  5
10003DF
330
21
100
AcDbEntity
  8
dzialki_ewns
  6
Continuous
370
    18
100
AcDbLine
 10
7580664.92
 20
5719346.69
 30
0.0
 11
7580639.040000001
 21
5719347.980000001
 31
0.0
  0
LINE
  5
10003E0
330
21
100
AcDbEntity
  8
dzialki_ewns
  6
Continuous
370
    18
100
AcDbLine
 10
7580639.040000001
 20
5719347.980000001
 30
0.0
 11
7580595.18
 21
5719352.29
 31
0.0
  0
LINE
  5
10003E1
330
21
100
AcDbEntity
  8
dzialki_ewns
  6
Continuous
370
    18
100
AcDbLine
 10
7580595.18
 20
5719352.29
 30
0.0
 11
7580580.309999999
 21
5719354.309999999
 31
0.0
  0
LINE
  5
10003E2
330
21
100
AcDbEntity
  8
dzialki_ewns
  6
Continuous
370
    18
100
AcDbLine
 10
7580580.309999999
 20
5719354.309999999
 30
0.0
 11
7580557.61
 21
5719357.409999999
 31
0.0
  0
LINE
  5
10003E3
330
21
100
AcDbEntity
  8
dzialki_ewns
  6
Continuous
370
    18
100
AcDbLine
 10
7580557.61
 20
5719357.409999999
 30
0.0
 11
7580525.33
 21
5719361.099999998
 31
0.0
  0
LINE
  5
10003E4
330
21
100
AcDbEntity
  8
dzialki_ewns
  6
Continuous
370
    18
100
AcDbLine
 10
7580525.33
 20
5719361.099999998
 30
0.0
 11
7580512.59
 21
5719362.539999999
 31
0.0
  0
LINE
  5
10003E5
330
21
100
AcDbEntity
  8
dzialki_ewns
  6
Continuous
370
    18
100
AcDbLine
 10
7580512.59
 20
5719362.539999999
 30
0.0
 11
7580487.69
 21
5719365.36
 31
0.0
  0
LINE
  5
10003E6
330
21
100
AcDbEntity
  8
dzialki_ewns
  6
Continuous
370
    18
100
AcDbLine
 10
7580487.69
 20
5719365.36
 30
0.0
 11
7580464.52
 21
5719367.990000001
 31
0.0
  0
LINE
  5
10003E7
330
21
100
AcDbEntity
  8
dzialki_ewns
  6
Continuous
370
    18
100
AcDbLine
 10
7580464.52
 20
5719367.990000001
 30
0.0
 11
7580447.820000001
 21
5719369.889999999
 31
0.0
  0
LINE
  5
10003E8
330
21
100
AcDbEntity
  8
dzialki_ewns
  6
Continuous
370
    18
100
AcDbLine
 10
7580447.820000001
 20
5719369.889999999
 30
0.0
 11
7580431.12
 21
5719371.769999999
 31
0.0
  0
LINE
  5
10003E9
330
21
100
AcDbEntity
  8
dzialki_ewns
  6
Continuous
370
    18
100
AcDbLine
 10
7580431.12
 20
5719371.769999999
 30
0.0
 11
7580417.77
 21
5719373.29
 31
0.0
  0
LINE
  5
10003EA
330
21
100
AcDbEntity
  8
dzialki_ewns
  6
Continuous
370
    18
100
AcDbLine
 10
7580417.77
 20
5719373.29
 30
0.0
 11
7580405.62
 21
5719374.669999999
 31
0.0
  0
LINE
  5
10003EB
330
21
100
AcDbEntity
  8
dzialki_ewns
  6
Continuous
370
    18
100
AcDbLine
 10
7580405.62
 20
5719374.669999999
 30
0.0
 11
7580394.22
 21
5719375.959999999
 31
0.0
  0
LINE
  5
10003EC
330
21
100
AcDbEntity
  8
dzialki_ewns
  6
Continuous
370
    18
100
AcDbLine
 10
7580394.22
 20
5719375.959999999
 30
0.0
 11
7580382.91
 21
5719377.249999999
 31
0.0
  0
LINE
  5
10003ED
330
21
100
AcDbEntity
  8
dzialki_ewns
  6
Continuous
370
    18
100
AcDbLine
 10
7580382.91
 20
5719377.249999999
 30
0.0
 11
7580370.629999999
 21
5719378.629999998
 31
0.0
  0
LINE
  5
10003EE
330
21
100
AcDbEntity
  8
dzialki_ewns
  6
Continuous
370
    18
100
AcDbLine
 10
7580370.629999999
 20
5719378.629999998
 30
0.0
 11
7580311.12
 21
5719385.389999998
 31
0.0
  0
LINE
  5
10003EF
330
21
100
AcDbEntity
  8
dzialki_ewns
  6
Continuous
370
    18
100
AcDbLine
 10
7580311.12
 20
5719385.389999998
 30
0.0
 11
7580273.09
 21
5719389.7
 31
0.0
  0
LINE
  5
10003F0
330
21
100
AcDbEntity
  8
dzialki_ewns
  6
Continuous
370
    18
100
AcDbLine
 10
7580273.09
 20
5719389.7
 30
0.0
 11
7580254.099999999
 21
5719391.85
 31
0.0
  0
LINE
  5
10003F1
330
21
100
AcDbEntity
  8
dzialki_ewns
  6
Continuous
370
    18
100
AcDbLine
 10
7580254.099999999
 20
5719391.85
 30
0.0
 11
7580253.179999999
 21
5719391.96
 31
0.0
  0
LINE
  5
10003F2
330
21
100
AcDbEntity
  8
dzialki_ewns
  6
Continuous
370
    18
100
AcDbLine
 10
7580253.179999999
 20
5719391.96
 30
0.0
 11
7580241.879999999
 21
5719393.240000001
 31
0.0
  0
LINE
  5
10003F3
330
21
100
AcDbEntity
  8
dzialki_ewns
  6
Continuous
370
    18
100
AcDbLine
 10
7580241.879999999
 20
5719393.240000001
 30
0.0
 11
7580227.68
 21
5719394.860000001
 31
0.0
  0
LINE
  5
10003F4
330
21
100
AcDbEntity
  8
dzialki_ewns
  6
Continuous
370
    18
100
AcDbLine
 10
7580227.68
 20
5719394.860000001
 30
0.0
 11
7580211.14
 21
5719396.740000002
 31
0.0
  0
LINE
  5
10003F5
330
21
100
AcDbEntity
  8
dzialki_ewns
  6
Continuous
370
    18
100
AcDbLine
 10
7580211.14
 20
5719396.740000002
 30
0.0
 11
7580150.500000001
 21
5719403.639999999
 31
0.0
  0
LINE
  5
10003F6
330
21
100
AcDbEntity
  8
dzialki_ewns
  6
Continuous
370
    18
100
AcDbLine
 10
7580150.500000001
 20
5719403.639999999
 30
0.0
 11
7580045.37
 21
5719415.589999998
 31
0.0
  0
LINE
  5
10003F7
330
21
100
AcDbEntity
  8
dzialki_ewns
  6
Continuous
370
    18
100
AcDbLine
 10
7580045.37
 20
5719415.589999998
 30
0.0
 11
7580023.32
 21
5719418.099999999
 31
0.0
  0
LINE
  5
10003F8
330
21
100
AcDbEntity
  8
dzialki_ewns
  6
Continuous
370
    18
100
AcDbLine
 10
7580023.32
 20
5719418.099999999
 30
0.0
 11
7579934.280000001
 21
5719428.22
 31
0.0
  0
LINE
  5
10003F9
330
21
100
AcDbEntity
  8
dzialki_ewns
  6
Continuous
370
    18
100
AcDbLine
 10
7579934.280000001
 20
5719428.22
 30
0.0
 11
7579926.03
 21
5719429.179999998
 31
0.0
  0
LINE
  5
10003FA
330
21
100
AcDbEntity
  8
dzialki_ewns
  6
Continuous
370
    18
100
AcDbLine
 10
7579926.03
 20
5719429.179999998
 30
0.0
 11
7579912.92
 21
5719430.69
 31
0.0
  0
LINE
  5
10003FB
330
21
100
AcDbEntity
  8
dzialki_ewns
  6
Continuous
370
    18
100
AcDbLine
 10
7579912.92
 20
5719430.69
 30
0.0
 11
7579897.14
 21
5719432.51
 31
0.0
  0
LINE
  5
10003FC
330
21
100
AcDbEntity
  8
dzialki_ewns
  6
Continuous
370
    18
100
AcDbLine
 10
7579897.14
 20
5719432.51
 30
0.0
 11
7579876.48
 21
5719434.900000001
 31
0.0
  0
LINE
  5
10003FD
330
21
100
AcDbEntity
  8
dzialki_ewns
  6
Continuous
370
    18
100
AcDbLine
 10
7579876.48
 20
5719434.900000001
 30
0.0
 11
7579866.339999999
 21
5719436.070000001
 31
0.0
  0
LINE
  5
10003FE
330
21
100
AcDbEntity
  8
dzialki_ewns
  6
Continuous
370
    18
100
AcDbLine
 10
7579866.339999999
 20
5719436.070000001
 30
0.0
 11
7579855.519999999
 21
5719437.32
 31
0.0
  0
LINE
  5
10003FF
330
21
100
AcDbEntity
  8
dzialki_ewns
  6
Continuous
370
    18
100
AcDbLine
 10
7579855.519999999
 20
5719437.32
 30
0.0
 11
7579833.469999999
 21
5719439.870000001
 31
0.0
  0
LINE
  5
1000400
330
21
100
AcDbEntity
  8
dzialki_ewns
  6
Continuous
370
    18
100
AcDbLine
 10
7579833.469999999
 20
5719439.870000001
 30
0.0
 11
7579811.370000001
 21
5719442.42
 31
0.0
  0
LINE
  5
1000401
330
21
100
AcDbEntity
  8
dzialki_ewns
  6
Continuous
370
    18
100
AcDbLine
 10
7579811.370000001
 20
5719442.42
 30
0.0
 11
7579799.5
 21
5719443.799999999
 31
0.0
  0
LINE
  5
1000402
330
21
100
AcDbEntity
  8
dzialki_ewns
  6
Continuous
370
    18
100
AcDbLine
 10
7579799.5
 20
5719443.799999999
 30
0.0
 11
7579768.32
 21
5719447.399999999
 31
0.0
  0
LINE
  5
1000403
330
21
100
AcDbEntity
  8
dzialki_ewns
  6
Continuous
370
    18
100
AcDbLine
 10
7579768.32
 20
5719447.399999999
 30
0.0
 11
7579737.030000001
 21
5719451.009999999
 31
0.0
  0
LINE
  5
1000404
330
21
100
AcDbEntity
  8
dzialki_ewns
  6
Continuous
370
    18
100
AcDbLine
 10
7579737.030000001
 20
5719451.009999999
 30
0.0
 11
7579728.480000002
 21
5719452.000000001
 31
0.0
  0
LINE
  5
1000405
330
21
100
AcDbEntity
  8
dzialki_ewns
  6
Continuous
370
    18
100
AcDbLine
 10
7579728.480000002
 20
5719452.000000001
 30
0.0
 11
7579719.940000001
 21
5719452.99
 31
0.0
  0
LINE
  5
1000406
330
21
100
AcDbEntity
  8
dzialki_ewns
  6
Continuous
370
    18
100
AcDbLine
 10
7579719.940000001
 20
5719452.99
 30
0.0
 11
7579710.81
 21
5719454.040000001
 31
0.0
  0
LINE
  5
1000407
330
21
100
AcDbEntity
  8
dzialki_ewns
  6
Continuous
370
    18
100
AcDbLine
 10
7579710.81
 20
5719454.040000001
 30
0.0
 11
7579701.469999999
 21
5719455.12
 31
0.0
  0
LINE
  5
1000408
330
21
100
AcDbEntity
  8
dzialki_ewns
  6
Continuous
370
    18
100
AcDbLine
 10
7579701.469999999
 20
5719455.12
 30
0.0
 11
7579692.929999999
 21
5719456.099999998
 31
0.0
  0
LINE
  5
1000409
330
21
100
AcDbEntity
  8
dzialki_ewns
  6
Continuous
370
    18
100
AcDbLine
 10
7579692.929999999
 20
5719456.099999998
 30
0.0
 11
7579684.48
 21
5719457.089999999
 31
0.0
  0
LINE
  5
100040A
330
21
100
AcDbEntity
  8
dzialki_ewns
  6
Continuous
370
    18
100
AcDbLine
 10
7579684.48
 20
5719457.089999999
 30
0.0
 11
7579677.93
 21
5719457.839999998
 31
0.0
  0
LINE
  5
100040B
330
21
100
AcDbEntity
  8
dzialki_ewns
  6
Continuous
370
    18
100
AcDbLine
 10
7579677.93
 20
5719457.839999998
 30
0.0
 11
7579666.71
 21
5719459.139999998
 31
0.0
  0
LINE
  5
100040C
330
21
100
AcDbEntity
  8
dzialki_ewns
  6
Continuous
370
    18
100
AcDbLine
 10
7579666.71
 20
5719459.139999998
 30
0.0
 11
7579654.690000002
 21
5719460.519999999
 31
0.0
  0
LINE
  5
100040D
330
21
100
AcDbEntity
  8
dzialki_ewns
  6
Continuous
370
    18
100
AcDbLine
 10
7579654.690000002
 20
5719460.519999999
 30
0.0
 11
7579641.58
 21
5719462.04
 31
0.0
  0
LINE
  5
100040E
330
21
100
AcDbEntity
  8
dzialki_ewns
  6
Continuous
370
    18
100
AcDbLine
 10
7579641.58
 20
5719462.04
 30
0.0
 11
7579593.76
 21
5719467.559999999
 31
0.0
  0
LINE
  5
100040F
330
21
100
AcDbEntity
  8
dzialki_ewns
  6
Continuous
370
    18
100
AcDbLine
 10
7579593.76
 20
5719467.559999999
 30
0.0
 11
7579577.37
 21
5719469.46
 31
0.0
  0
LINE
  5
1000410
330
21
100
AcDbEntity
  8
dzialki_ewns
  6
Continuous
370
    18
100
AcDbLine
 10
7579577.37
 20
5719469.46
 30
0.0
 11
7579561.879999999
 21
5719471.24
 31
0.0
  0
LINE
  5
1000411
330
21
100
AcDbEntity
  8
dzialki_ewns
  6
Continuous
370
    18
100
AcDbLine
 10
7579561.879999999
 20
5719471.24
 30
0.0
 11
7579529.35
 21
5719475.0
 31
0.0
  0
LINE
  5
1000412
330
21
100
AcDbEntity
  8
dzialki_ewns
  6
Continuous
370
    18
100
AcDbLine
 10
7579529.35
 20
5719475.0
 30
0.0
 11
7579455.86
 21
5719483.499999999
 31
0.0
  0
LINE
  5
1000413
330
21
100
AcDbEntity
  8
dzialki_ewns
  6
Continuous
370
    18
100
AcDbLine
 10
7579455.86
 20
5719483.499999999
 30
0.0
 11
7579417.17
 21
5719487.960000001
 31
0.0
  0
LINE
  5
1000414
330
21
100
AcDbEntity
  8
dzialki_ewns
  6
Continuous
370
    18
100
AcDbLine
 10
7579417.17
 20
5719487.960000001
 30
0.0
 11
7579400.23
 21
5719489.929999999
 31
0.0
  0
LINE
  5
1000415
330
21
100
AcDbEntity
  8
dzialki_ewns
  6
Continuous
370
    18
100
AcDbLine
 10
7579400.23
 20
5719489.929999999
 30
0.0
 11
7579387.02
 21
5719491.450000001
 31
0.0
  0
LINE
  5
1000416
330
21
100
AcDbEntity
  8
dzialki_ewns
  6
Continuous
370
    18
100
AcDbLine
 10
7579387.02
 20
5719491.450000001
 30
0.0
 11
7579374.91
 21
5719492.85
 31
0.0
  0
LINE
  5
1000417
330
21
100
AcDbEntity
  8
dzialki_ewns
  6
Continuous
370
    18
100
AcDbLine
 10
7579374.91
 20
5719492.85
 30
0.0
 11
7579361.5
 21
5719494.389999998
 31
0.0
  0
LINE
  5
1000418
330
21
100
AcDbEntity
  8
dzialki_ewns
  6
Continuous
370
    18
100
AcDbLine
 10
7579361.5
 20
5719494.389999998
 30
0.0
 11
7579342.24
 21
5719496.62
 31
0.0
  0
LINE
  5
1000419
330
21
100
AcDbEntity
  8
dzialki_ewns
  6
Continuous
370
    18
100
AcDbLine
 10
7579342.24
 20
5719496.62
 30
0.0
 11
7579336.040000001
 21
5719497.36
 31
0.0
  0
LINE
  5
100041A
330
21
100
AcDbEntity
  8
dzialki_ewns
  6
Continuous
370
    18
100
AcDbLine
 10
7579336.040000001
 20
5719497.36
 30
0.0
 11
7579309.58
 21
5719500.509999999
 31
0.0
  0
LINE
  5
100041B
330
21
100
AcDbEntity
  8
dzialki_ewns
  6
Continuous
370
    18
100
AcDbLine
 10
7579309.58
 20
5719500.509999999
 30
0.0
 11
7579290.33
 21
5719502.81
 31
0.0
  0
LINE
  5
100041C
330
21
100
AcDbEntity
  8
dzialki_ewns
  6
Continuous
370
    18
100
AcDbLine
 10
7579290.33
 20
5719502.81
 30
0.0
 11
7579235.400000001
 21
5719509.36
 31
0.0
  0
LINE
  5
100041D
330
21
100
AcDbEntity
  8
dzialki_ewns
  6
Continuous
370
    18
100
AcDbLine
 10
7579235.400000001
 20
5719509.36
 30
0.0
 11
7579232.389999999
 21
5719509.719999998
 31
0.0
  0
LINE
  5
100041E
330
21
100
AcDbEntity
  8
dzialki_ewns
  6
Continuous
370
    18
100
AcDbLine
 10
7579232.389999999
 20
5719509.719999998
 30
0.0
 11
7579213.650000001
 21
5719511.940000001
 31
0.0
  0
LINE
  5
100041F
330
21
100
AcDbEntity
  8
dzialki_ewns
  6
Continuous
370
    18
100
AcDbLine
 10
7579213.650000001
 20
5719511.940000001
 30
0.0
 11
7579188.269999999
 21
5719514.940000001
 31
0.0
  0
LINE
  5
1000420
330
21
100
AcDbEntity
  8
dzialki_ewns
  6
Continuous
370
    18
100
AcDbLine
 10
7579188.269999999
 20
5719514.940000001
 30
0.0
 11
7579155.55
 21
5719518.809999998
 31
0.0
  0
LINE
  5
1000421
330
21
100
AcDbEntity
  8
dzialki_ewns
  6
Continuous
370
    18
100
AcDbLine
 10
7579155.55
 20
5719518.809999998
 30
0.0
 11
7579134.660000001
 21
5719520.999999999
 31
0.0
  0
LINE
  5
1000422
330
21
100
AcDbEntity
  8
dzialki_ewns
  6
Continuous
370
    18
100
AcDbLine
 10
7579134.660000001
 20
5719520.999999999
 30
0.0
 11
7579067.35
 21
5719528.110000001
 31
0.0
  0
LINE
  5
1000423
330
21
100
AcDbEntity
  8
dzialki_ewns
  6
Continuous
370
    18
100
AcDbLine
 10
7579067.35
 20
5719528.110000001
 30
0.0
 11
7579041.480000001
 21
5719530.83
 31
0.0
  0
LINE
  5
1000424
330
21
100
AcDbEntity
  8
dzialki_ewns
  6
Continuous
370
    18
100
AcDbLine
 10
7579041.480000001
 20
5719530.83
 30
0.0
 11
7578999.129999999
 21
5719535.469999999
 31
0.0
  0
LINE
  5
1000425
330
21
100
AcDbEntity
  8
dzialki_ewns
  6
Continuous
370
    18
100
AcDbLine
 10
7578999.129999999
 20
5719535.469999999
 30
0.0
 11
7578943.51
 21
5719541.589999998
 31
0.0
  0
LINE
  5
1000426
330
21
100
AcDbEntity
  8
dzialki_ewns
  6
Continuous
370
    18
100
AcDbLine
 10
7578943.51
 20
5719541.589999998
 30
0.0
 11
7578935.570000001
 21
5719542.49
 31
0.0
  0
LINE
  5
1000427
330
21
100
AcDbEntity
  8
dzialki_ewns
  6
Continuous
370
    18
100
AcDbLine
 10
7578935.570000001
 20
5719542.49
 30
0.0
 11
7578909.74
 21
5719545.46
 31
0.0
  0
LINE
  5
1000428
330
21
100
AcDbEntity
  8
dzialki_ewns
  6
Continuous
370
    18
100
AcDbLine
 10
7578909.74
 20
5719545.46
 30
0.0
 11
7578873.33
 21
5719549.639999999
 31
0.0
  0
LINE
  5
1000429
330
21
100
AcDbEntity
  8
dzialki_ewns
  6
Continuous
370
    18
100
AcDbLine
 10
7578873.33
 20
5719549.639999999
 30
0.0
 11
7578838.06
 21
5719553.690000001
 31
0.0
  0
LINE
  5
100042A
330
21
100
AcDbEntity
  8
dzialki_ewns
  6
Continuous
370
    18
100
AcDbLine
 10
7578838.06
 20
5719553.690000001
 30
0.0
 11
7578808.29
 21
5719557.15
 31
0.0
  0
LINE
  5
100042B
330
21
100
AcDbEntity
  8
dzialki_ewns
  6
Continuous
370
    18
100
AcDbLine
 10
7578808.29
 20
5719557.15
 30
0.0
 11
7578770.58
 21
5719561.53
 31
0.0
  0
LINE
  5
100042C
330
21
100
AcDbEntity
  8
dzialki_ewns
  6
Continuous
370
    18
100
AcDbLine
 10
7578770.58
 20
5719561.53
 30
0.0
 11
7578733.96
 21
5719565.78
 31
0.0
  0
LINE
  5
100042D
330
21
100
AcDbEntity
  8
dzialki_ewns
  6
Continuous
370
    18
100
AcDbLine
 10
7578733.96
 20
5719565.78
 30
0.0
 11
7578732.32
 21
5719565.969999998
 31
0.0
  0
LINE
  5
100042E
330
21
100
AcDbEntity
  8
dzialki_ewns
  6
Continuous
370
    18
100
AcDbLine
 10
7578732.32
 20
5719565.969999998
 30
0.0
 11
7578676.84
 21
5719572.37
 31
0.0
  0
LINE
  5
100042F
330
21
100
AcDbEntity
  8
dzialki_ewns
  6
Continuous
370
    18
100
AcDbLine
 10
7578676.84
 20
5719572.37
 30
0.0
 11
7578621.280000001
 21
5719578.76
 31
0.0
  0
LINE
  5
1000430
330
21
100
AcDbEntity
  8
dzialki_ewns
  6
Continuous
370
    18
100
AcDbLine
 10
7578621.280000001
 20
5719578.76
 30
0.0
 11
7578616.190000001
 21
5719579.35
 31
0.0
  0
LINE
  5
1000431
330
21
100
AcDbEntity
  8
dzialki_ewns
  6
Continuous
370
    18
100
AcDbLine
 10
7578616.190000001
 20
5719579.35
 30
0.0
 11
7578636.81
 21
5719605.730000002
 31
0.0
  0
LINE
  5
1000432
330
21
100
AcDbEntity
  8
dzialki_ewns
  6
Continuous
370
    18
100
AcDbLine
 10
7578636.81
 20
5719605.730000002
 30
0.0
 11
7578694.46
 21
5719599.55
 31
0.0
  0
LINE
  5
1000433
330
21
100
AcDbEntity
  8
dzialki_ewns
  6
Continuous
370
    18
100
AcDbLine
 10
7582044.24
 20
5719892.83
 30
0.0
 11
7582028.259999999
 21
5719898.53
 31
0.0
  0
LINE
  5
1000434
330
21
100
AcDbEntity
  8
dzialki_ewns
  6
Continuous
370
    18
100
AcDbLine
 10
7582028.259999999
 20
5719898.53
 30
0.0
 11
7581867.950000001
 21
5719966.04
 31
0.0
  0
LINE
  5
1000435
330
21
100
AcDbEntity
  8
dzialki_ewns
  6
Continuous
370
    18
100
AcDbLine
 10
7581867.950000001
 20
5719966.04
 30
0.0
 11
7581824.190000002
 21
5720008.070000001
 31
0.0
  0
LINE
  5
1000436
330
21
100
AcDbEntity
  8
dzialki_ewns
  6
Continuous
370
    18
100
AcDbLine
 10
7581824.190000002
 20
5720008.070000001
 30
0.0
 11
7581719.41
 21
5720054.79
 31
0.0
  0
LINE
  5
1000437
330
21
100
AcDbEntity
  8
dzialki_ewns
  6
Continuous
370
    18
100
AcDbLine
 10
7581719.41
 20
5720054.79
 30
0.0
 11
7581597.259999999
 21
5720169.19
 31
0.0
  0
LINE
  5
1000438
330
21
100
AcDbEntity
  8
dzialki_ewns
  6
Continuous
370
    18
100
AcDbLine
 10
7581597.259999999
 20
5720169.19
 30
0.0
 11
7581559.829999999
 21
5720205.550000001
 31
0.0
  0
LINE
  5
1000439
330
21
100
AcDbEntity
  8
dzialki_ewns
  6
Continuous
370
    18
100
AcDbLine
 10
7581559.829999999
 20
5720205.550000001
 30
0.0
 11
7581568.389999999
 21
5720214.379999999
 31
0.0
  0
LINE
  5
100043A
330
21
100
AcDbEntity
  8
dzialki_ewns
  6
Continuous
370
    18
100
AcDbLine
 10
7581568.389999999
 20
5720214.379999999
 30
0.0
 11
7581576.599999999
 21
5720203.190000002
 31
0.0
  0
LINE
  5
100043B
330
21
100
AcDbEntity
  8
dzialki_ewns
  6
Continuous
370
    18
100
AcDbLine
 10
7581576.599999999
 20
5720203.190000002
 30
0.0
 11
7581580.46
 21
5720186.63
 31
0.0
  0
LINE
  5
100043C
330
21
100
AcDbEntity
  8
dzialki_ewns
  6
Continuous
370
    18
100
AcDbLine
 10
7581580.46
 20
5720186.63
 30
0.0
 11
7581584.650000002
 21
5720184.910000001
 31
0.0
  0
LINE
  5
100043D
330
21
100
AcDbEntity
  8
dzialki_ewns
  6
Continuous
370
    18
100
AcDbLine
 10
7581584.650000002
 20
5720184.910000001
 30
0.0
 11
7581600.739999999
 21
5720172.559999999
 31
0.0
  0
LINE
  5
100043E
330
21
100
AcDbEntity
  8
dzialki_ewns
  6
Continuous
370
    18
100
AcDbLine
 10
7581600.739999999
 20
5720172.559999999
 30
0.0
 11
7581614.769999999
 21
5720157.980000001
 31
0.0
  0
LINE
  5
100043F
330
21
100
AcDbEntity
  8
dzialki_ewns
  6
Continuous
370
    18
100
AcDbLine
 10
7581614.769999999
 20
5720157.980000001
 30
0.0
 11
7581621.7
 21
5720148.629999999
 31
0.0
  0
LINE
  5
1000440
330
21
100
AcDbEntity
  8
dzialki_ewns
  6
Continuous
370
    18
100
AcDbLine
 10
7581621.7
 20
5720148.629999999
 30
0.0
 11
7581633.73
 21
5720138.19
 31
0.0
  0
LINE
  5
1000441
330
21
100
AcDbEntity
  8
dzialki_ewns
  6
Continuous
370
    18
100
AcDbLine
 10
7581633.73
 20
5720138.19
 30
0.0
 11
7581644.480000001
 21
5720129.72
 31
0.0
  0
LINE
  5
1000442
330
21
100
AcDbEntity
  8
dzialki_ewns
  6
Continuous
370
    18
100
AcDbLine
 10
7581644.480000001
 20
5720129.72
 30
0.0
 11
7581658.22
 21
5720118.3
 31
0.0
  0
LINE
  5
1000443
330
21
100
AcDbEntity
  8
dzialki_ewns
  6
Continuous
370
    18
100
AcDbLine
 10
7581658.22
 20
5720118.3
 30
0.0
 11
7581662.97
 21
5720115.709999999
 31
0.0
  0
LINE
  5
1000444
330
21
100
AcDbEntity
  8
dzialki_ewns
  6
Continuous
370
    18
100
AcDbLine
 10
7581662.97
 20
5720115.709999999
 30
0.0
 11
7581672.369999999
 21
5720108.160000001
 31
0.0
  0
LINE
  5
1000445
330
21
100
AcDbEntity
  8
dzialki_ewns
  6
Continuous
370
    18
100
AcDbLine
 10
7581672.369999999
 20
5720108.160000001
 30
0.0
 11
7581686.099999999
 21
5720097.16
 31
0.0
  0
LINE
  5
1000446
330
21
100
AcDbEntity
  8
dzialki_ewns
  6
Continuous
370
    18
100
AcDbLine
 10
7581686.099999999
 20
5720097.16
 30
0.0
 11
7581695.83
 21
5720092.08
 31
0.0
  0
LINE
  5
1000447
330
21
100
AcDbEntity
  8
dzialki_ewns
  6
Continuous
370
    18
100
AcDbLine
 10
7581695.83
 20
5720092.08
 30
0.0
 11
7581706.45
 21
5720081.480000001
 31
0.0
  0
LINE
  5
1000448
330
21
100
AcDbEntity
  8
dzialki_ewns
  6
Continuous
370
    18
100
AcDbLine
 10
7581706.45
 20
5720081.480000001
 30
0.0
 11
7581718.56
 21
5720069.55
 31
0.0
  0
LINE
  5
1000449
330
21
100
AcDbEntity
  8
dzialki_ewns
  6
Continuous
370
    18
100
AcDbLine
 10
7581718.56
 20
5720069.55
 30
0.0
 11
7581723.52
 21
5720069.639999999
 31
0.0
  0
LINE
  5
100044A
330
21
100
AcDbEntity
  8
dzialki_ewns
  6
Continuous
370
    18
100
AcDbLine
 10
7581723.52
 20
5720069.639999999
 30
0.0
 11
7581737.63
 21
5720059.530000001
 31
0.0
  0
LINE
  5
100044B
330
21
100
AcDbEntity
  8
dzialki_ewns
  6
Continuous
370
    18
100
AcDbLine
 10
7581737.63
 20
5720059.530000001
 30
0.0
 11
7581746.09
 21
5720056.41
 31
0.0
  0
LINE
  5
100044C
330
21
100
AcDbEntity
  8
dzialki_ewns
  6
Continuous
370
    18
100
AcDbLine
 10
7581746.09
 20
5720056.41
 30
0.0
 11
7581759.18
 21
5720050.150000002
 31
0.0
  0
LINE
  5
100044D
330
21
100
AcDbEntity
  8
dzialki_ewns
  6
Continuous
370
    18
100
AcDbLine
 10
7581759.18
 20
5720050.150000002
 30
0.0
 11
7581769.05
 21
5720046.519999998
 31
0.0
  0
LINE
  5
100044E
330
21
100
AcDbEntity
  8
dzialki_ewns
  6
Continuous
370
    18
100
AcDbLine
 10
7581769.05
 20
5720046.519999998
 30
0.0
 11
7581783.39
 21
5720039.370000001
 31
0.0
  0
LINE
  5
100044F
330
21
100
AcDbEntity
  8
dzialki_ewns
  6
Continuous
370
    18
100
AcDbLine
 10
7581783.39
 20
5720039.370000001
 30
0.0
 11
7581795.690000001
 21
5720032.58
 31
0.0
  0
LINE
  5
1000450
330
21
100
AcDbEntity
  8
dzialki_ewns
  6
Continuous
370
    18
100
AcDbLine
 10
7581795.690000001
 20
5720032.58
 30
0.0
 11
7581810.389999999
 21
5720026.26
 31
0.0
  0
LINE
  5
1000451
330
21
100
AcDbEntity
  8
dzialki_ewns
  6
Continuous
370
    18
100
AcDbLine
 10
7581810.389999999
 20
5720026.26
 30
0.0
 11
7581825.71
 21
5720018.879999998
 31
0.0
  0
LINE
  5
1000452
330
21
100
AcDbEntity
  8
dzialki_ewns
  6
Continuous
370
    18
100
AcDbLine
 10
7581825.71
 20
5720018.879999998
 30
0.0
 11
7581839.389999999
 21
5720014.269999999
 31
0.0
  0
LINE
  5
1000453
330
21
100
AcDbEntity
  8
dzialki_ewns
  6
Continuous
370
    18
100
AcDbLine
 10
7581839.389999999
 20
5720014.269999999
 30
0.0
 11
7581847.530000001
 21
5720011.17
 31
0.0
  0
LINE
  5
1000454
330
21
100
AcDbEntity
  8
dzialki_ewns
  6
Continuous
370
    18
100
AcDbLine
 10
7581847.530000001
 20
5720011.17
 30
0.0
 11
7581845.820000002
 21
5720007.67
 31
0.0
  0
LINE
  5
1000455
330
21
100
AcDbEntity
  8
dzialki_ewns
  6
Continuous
370
    18
100
AcDbLine
 10
7581845.820000002
 20
5720007.67
 30
0.0
 11
7581863.95
 21
5719996.509999998
 31
0.0
  0
LINE
  5
1000456
330
21
100
AcDbEntity
  8
dzialki_ewns
  6
Continuous
370
    18
100
AcDbLine
 10
7581863.95
 20
5719996.509999998
 30
0.0
 11
7581872.38
 21
5719992.299999999
 31
0.0
  0
LINE
  5
1000457
330
21
100
AcDbEntity
  8
dzialki_ewns
  6
Continuous
370
    18
100
AcDbLine
 10
7581872.38
 20
5719992.299999999
 30
0.0
 11
7581879.79
 21
5719992.799999999
 31
0.0
  0
LINE
  5
1000458
330
21
100
AcDbEntity
  8
dzialki_ewns
  6
Continuous
370
    18
100
AcDbLine
 10
7581879.79
 20
5719992.799999999
 30
0.0
 11
7581899.059999999
 21
5719984.619999999
 31
0.0
  0
LINE
  5
1000459
330
21
100
AcDbEntity
  8
dzialki_ewns
  6
Continuous
370
    18
100
AcDbLine
 10
7581899.059999999
 20
5719984.619999999
 30
0.0
 11
7581908.309999999
 21
5719980.82
 31
0.0
  0
LINE
  5
100045A
330
21
100
AcDbEntity
  8
dzialki_ewns
  6
Continuous
370
    18
100
AcDbLine
 10
7581908.309999999
 20
5719980.82
 30
0.0
 11
7581917.259999999
 21
5719976.29
 31
0.0
  0
LINE
  5
100045B
330
21
100
AcDbEntity
  8
dzialki_ewns
  6
Continuous
370
    18
100
AcDbLine
 10
7581917.259999999
 20
5719976.29
 30
0.0
 11
7581934.74
 21
5719966.2
 31
0.0
  0
LINE
  5
100045C
330
21
100
AcDbEntity
  8
dzialki_ewns
  6
Continuous
370
    18
100
AcDbLine
 10
7581934.74
 20
5719966.2
 30
0.0
 11
7581959.230000002
 21
5719953.45
 31
0.0
  0
LINE
  5
100045D
330
21
100
AcDbEntity
  8
dzialki_ewns
  6
Continuous
370
    18
100
AcDbLine
 10
7581959.230000002
 20
5719953.45
 30
0.0
 11
7581970.15
 21
5719947.129999999
 31
0.0
  0
LINE
  5
100045E
330
21
100
AcDbEntity
  8
dzialki_ewns
  6
Continuous
370
    18
100
AcDbLine
 10
7581970.15
 20
5719947.129999999
 30
0.0
 11
7581979.66
 21
5719943.97
 31
0.0
  0
LINE
  5
100045F
330
21
100
AcDbEntity
  8
dzialki_ewns
  6
Continuous
370
    18
100
AcDbLine
 10
7581979.66
 20
5719943.97
 30
0.0
 11
7581993.660000001
 21
5719938.559999999
 31
0.0
  0
LINE
  5
1000460
330
21
100
AcDbEntity
  8
dzialki_ewns
  6
Continuous
370
    18
100
AcDbLine
 10
7581993.660000001
 20
5719938.559999999
 30
0.0
 11
7582005.570000001
 21
5719933.349999999
 31
0.0
  0
LINE
  5
1000461
330
21
100
AcDbEntity
  8
dzialki_ewns
  6
Continuous
370
    18
100
AcDbLine
 10
7582005.570000001
 20
5719933.349999999
 30
0.0
 11
7582014.240000001
 21
5719927.099999998
 31
0.0
  0
LINE
  5
1000462
330
21
100
AcDbEntity
  8
dzialki_ewns
  6
Continuous
370
    18
100
AcDbLine
 10
7582014.240000001
 20
5719927.099999998
 30
0.0
 11
7582026.610000001
 21
5719920.530000002
 31
0.0
  0
LINE
  5
1000463
330
21
100
AcDbEntity
  8
dzialki_ewns
  6
Continuous
370
    18
100
AcDbLine
 10
7582026.610000001
 20
5719920.530000002
 30
0.0
 11
7582036.690000002
 21
5719915.860000001
 31
0.0
  0
LINE
  5
1000464
330
21
100
AcDbEntity
  8
dzialki_ewns
  6
Continuous
370
    18
100
AcDbLine
 10
7582036.690000002
 20
5719915.860000001
 30
0.0
 11
7582053.400000001
 21
5719904.740000002
 31
0.0
  0
LINE
  5
1000465
330
21
100
AcDbEntity
  8
dzialki_ewns
  6
Continuous
370
    18
100
AcDbLine
 10
7582053.400000001
 20
5719904.740000002
 30
0.0
 11
7582056.33
 21
5719899.309999999
 31
0.0
  0
LINE
  5
1000466
330
21
100
AcDbEntity
  8
dzialki_ewns
  6
Continuous
370
    18
100
AcDbLine
 10
7582056.33
 20
5719899.309999999
 30
0.0
 11
7582064.33
 21
5719896.099999999
 31
0.0
  0
LINE
  5
1000467
330
21
100
AcDbEntity
  8
dzialki_ewns
  6
Continuous
370
    18
100
AcDbLine
 10
7582064.33
 20
5719896.099999999
 30
0.0
 11
7582083.030000001
 21
5719895.909999999
 31
0.0
  0
LINE
  5
1000468
330
21
100
AcDbEntity
  8
dzialki_ewns
  6
Continuous
370
    18
100
AcDbLine
 10
7582083.030000001
 20
5719895.909999999
 30
0.0
 11
7582092.45
 21
5719889.450000001
 31
0.0
  0
LINE
  5
1000469
330
21
100
AcDbEntity
  8
dzialki_ewns
  6
Continuous
370
    18
100
AcDbLine
 10
7582092.45
 20
5719889.450000001
 30
0.0
 11
7582094.8
 21
5719893.13
 31
0.0
  0
LINE
  5
100046A
330
21
100
AcDbEntity
  8
dzialki_ewns
  6
Continuous
370
    18
100
AcDbLine
 10
7582094.8
 20
5719893.13
 30
0.0
 11
7582086.16
 21
5719875.7
 31
0.0
  0
LINE
  5
100046B
330
21
100
AcDbEntity
  8
dzialki_ewns
  6
Continuous
370
    18
100
AcDbLine
 10
7582086.16
 20
5719875.7
 30
0.0
 11
7582083.93
 21
5719873.12
 31
0.0
  0
LINE
  5
100046C
330
21
100
AcDbEntity
  8
dzialki_ewns
  6
Continuous
370
    18
100
AcDbLine
 10
7582083.93
 20
5719873.12
 30
0.0
 11
7582044.24
 21
5719892.83
 31
0.0
  0
LINE
  5
100046D
330
21
100
AcDbEntity
  8
dzialki_ewns
  6
Continuous
370
    18
100
AcDbLine
 10
7582118.809999999
 20
5720764.47
 30
0.0
 11
7582127.150000001
 21
5720750.820000001
 31
0.0
  0
LINE
  5
100046E
330
21
100
AcDbEntity
  8
dzialki_ewns
  6
Continuous
370
    18
100
AcDbLine
 10
7582127.150000001
 20
5720750.820000001
 30
0.0
 11
7582138.190000001
 21
5720701.669999999
 31
0.0
  0
LINE
  5
100046F
330
21
100
AcDbEntity
  8
dzialki_ewns
  6
Continuous
370
    18
100
AcDbLine
 10
7582138.190000001
 20
5720701.669999999
 30
0.0
 11
7582092.650000001
 21
5720663.780000001
 31
0.0
  0
LINE
  5
1000470
330
21
100
AcDbEntity
  8
dzialki_ewns
  6
Continuous
370
    18
100
AcDbLine
 10
7582092.650000001
 20
5720663.780000001
 30
0.0
 11
7582123.89
 21
5720625.830000001
 31
0.0
  0
LINE
  5
1000471
330
21
100
AcDbEntity
  8
dzialki_ewns
  6
Continuous
370
    18
100
AcDbLine
 10
7582123.89
 20
5720625.830000001
 30
0.0
 11
7582114.809999999
 21
5720619.45
 31
0.0
  0
LINE
  5
1000472
330
21
100
AcDbEntity
  8
dzialki_ewns
  6
Continuous
370
    18
100
AcDbLine
 10
7582114.809999999
 20
5720619.45
 30
0.0
 11
7582112.809999999
 21
5720620.919999999
 31
0.0
  0
LINE
  5
1000473
330
21
100
AcDbEntity
  8
dzialki_ewns
  6
Continuous
370
    18
100
AcDbLine
 10
7582112.809999999
 20
5720620.919999999
 30
0.0
 11
7582089.11
 21
5720605.080000001
 31
0.0
  0
LINE
  5
1000474
330
21
100
AcDbEntity
  8
dzialki_ewns
  6
Continuous
370
    18
100
AcDbLine
 10
7582089.11
 20
5720605.080000001
 30
0.0
 11
7582007.530000001
 21
5720685.09
 31
0.0
  0
LINE
  5
1000475
330
21
100
AcDbEntity
  8
dzialki_ewns
  6
Continuous
370
    18
100
AcDbLine
 10
7582007.530000001
 20
5720685.09
 30
0.0
 11
7581918.71
 21
5720593.780000001
 31
0.0
  0
LINE
  5
1000476
330
21
100
AcDbEntity
  8
dzialki_ewns
  6
Continuous
370
    18
100
AcDbLine
 10
7581918.71
 20
5720593.780000001
 30
0.0
 11
7581994.49
 21
5720521.059999998
 31
0.0
  0
LINE
  5
1000477
330
21
100
AcDbEntity
  8
dzialki_ewns
  6
Continuous
370
    18
100
AcDbLine
 10
7581994.49
 20
5720521.059999998
 30
0.0
 11
7581922.8
 21
5720466.559999998
 31
0.0
  0
LINE
  5
1000478
330
21
100
AcDbEntity
  8
dzialki_ewns
  6
Continuous
370
    18
100
AcDbLine
 10
7581922.8
 20
5720466.559999998
 30
0.0
 11
7581957.849999999
 21
5720430.05
 31
0.0
  0
LINE
  5
1000479
330
21
100
AcDbEntity
  8
dzialki_ewns
  6
Continuous
370
    18
100
AcDbLine
 10
7581957.849999999
 20
5720430.05
 30
0.0
 11
7581967.929999999
 21
5720423.58
 31
0.0
  0
LINE
  5
100047A
330
21
100
AcDbEntity
  8
dzialki_ewns
  6
Continuous
370
    18
100
AcDbLine
 10
7581967.929999999
 20
5720423.58
 30
0.0
 11
7581990.66
 21
5720414.88
 31
0.0
  0
LINE
  5
100047B
330
21
100
AcDbEntity
  8
dzialki_ewns
  6
Continuous
370
    18
100
AcDbLine
 10
7581990.66
 20
5720414.88
 30
0.0
 11
7582019.34
 21
5720415.98
 31
0.0
  0
LINE
  5
100047C
330
21
100
AcDbEntity
  8
dzialki_ewns
  6
Continuous
370
    18
100
AcDbLine
 10
7582019.34
 20
5720415.98
 30
0.0
 11
7582116.860000001
 21
5720402.34
 31
0.0
  0
LINE
  5
100047D
330
21
100
AcDbEntity
  8
dzialki_ewns
  6
Continuous
370
    18
100
AcDbLine
 10
7582116.860000001
 20
5720402.34
 30
0.0
 11
7582218.8
 21
5720497.960000001
 31
0.0
  0
LINE
  5
100047E
330
21
100
AcDbEntity
  8
dzialki_ewns
  6
Continuous
370
    18
100
AcDbLine
 10
7582218.8
 20
5720497.960000001
 30
0.0
 11
7582221.019999999
 21
5720493.570000001
 31
0.0
  0
LINE
  5
100047F
330
21
100
AcDbEntity
  8
dzialki_ewns
  6
Continuous
370
    18
100
AcDbLine
 10
7582221.019999999
 20
5720493.570000001
 30
0.0
 11
7582173.449999999
 21
5720448.639999999
 31
0.0
  0
LINE
  5
1000480
330
21
100
AcDbEntity
  8
dzialki_ewns
  6
Continuous
370
    18
100
AcDbLine
 10
7582173.449999999
 20
5720448.639999999
 30
0.0
 11
7582165.660000001
 21
5720441.28
 31
0.0
  0
LINE
  5
1000481
330
21
100
AcDbEntity
  8
dzialki_ewns
  6
Continuous
370
    18
100
AcDbLine
 10
7582165.660000001
 20
5720441.28
 30
0.0
 11
7582171.17
 21
5720435.28
 31
0.0
  0
LINE
  5
1000482
330
21
100
AcDbEntity
  8
dzialki_ewns
  6
Continuous
370
    18
100
AcDbLine
 10
7582171.17
 20
5720435.28
 30
0.0
 11
7582175.829999999
 21
5720430.19
 31
0.0
  0
LINE
  5
1000483
330
21
100
AcDbEntity
  8
dzialki_ewns
  6
Continuous
370
    18
100
AcDbLine
 10
7582175.829999999
 20
5720430.19
 30
0.0
 11
7582180.55
 21
5720425.019999999
 31
0.0
  0
LINE
  5
1000484
330
21
100
AcDbEntity
  8
dzialki_ewns
  6
Continuous
370
    18
100
AcDbLine
 10
7582180.55
 20
5720425.019999999
 30
0.0
 11
7582185.28
 21
5720419.860000001
 31
0.0
  0
LINE
  5
1000485
330
21
100
AcDbEntity
  8
dzialki_ewns
  6
Continuous
370
    18
100
AcDbLine
 10
7582185.28
 20
5720419.860000001
 30
0.0
 11
7582190.82
 21
5720413.82
 31
0.0
  0
LINE
  5
1000486
330
21
100
AcDbEntity
  8
dzialki_ewns
  6
Continuous
370
    18
100
AcDbLine
 10
7582190.82
 20
5720413.82
 30
0.0
 11
7582195.18
 21
5720409.059999999
 31
0.0
  0
LINE
  5
1000487
330
21
100
AcDbEntity
  8
dzialki_ewns
  6
Continuous
370
    18
100
AcDbLine
 10
7582195.18
 20
5720409.059999999
 30
0.0
 11
7582198.95
 21
5720404.929999999
 31
0.0
  0
LINE
  5
1000488
330
21
100
AcDbEntity
  8
dzialki_ewns
  6
Continuous
370
    18
100
AcDbLine
 10
7582198.95
 20
5720404.929999999
 30
0.0
 11
7582205.179999999
 21
5720398.150000001
 31
0.0
  0
LINE
  5
1000489
330
21
100
AcDbEntity
  8
dzialki_ewns
  6
Continuous
370
    18
100
AcDbLine
 10
7582205.179999999
 20
5720398.150000001
 30
0.0
 11
7582211.410000001
 21
5720391.329999999
 31
0.0
  0
LINE
  5
100048A
330
21
100
AcDbEntity
  8
dzialki_ewns
  6
Continuous
370
    18
100
AcDbLine
 10
7582211.410000001
 20
5720391.329999999
 30
0.0
 11
7582216.099999999
 21
5720386.2
 31
0.0
  0
LINE
  5
100048B
330
21
100
AcDbEntity
  8
dzialki_ewns
  6
Continuous
370
    18
100
AcDbLine
 10
7582216.099999999
 20
5720386.2
 30
0.0
 11
7582220.730000001
 21
5720381.150000001
 31
0.0
  0
LINE
  5
100048C
330
21
100
AcDbEntity
  8
dzialki_ewns
  6
Continuous
370
    18
100
AcDbLine
 10
7582220.730000001
 20
5720381.150000001
 30
0.0
 11
7582211.509999999
 21
5720372.33
 31
0.0
  0
LINE
  5
100048D
330
21
100
AcDbEntity
  8
dzialki_ewns
  6
Continuous
370
    18
100
AcDbLine
 10
7582211.509999999
 20
5720372.33
 30
0.0
 11
7582217.05
 21
5720368.519999998
 31
0.0
  0
LINE
  5
100048E
330
21
100
AcDbEntity
  8
dzialki_ewns
  6
Continuous
370
    18
100
AcDbLine
 10
7582217.05
 20
5720368.519999998
 30
0.0
 11
7582222.269999999
 21
5720364.92
 31
0.0
  0
LINE
  5
100048F
330
21
100
AcDbEntity
  8
dzialki_ewns
  6
Continuous
370
    18
100
AcDbLine
 10
7582222.269999999
 20
5720364.92
 30
0.0
 11
7582227.47
 21
5720361.349999999
 31
0.0
  0
LINE
  5
1000490
330
21
100
AcDbEntity
  8
dzialki_ewns
  6
Continuous
370
    18
100
AcDbLine
 10
7582227.47
 20
5720361.349999999
 30
0.0
 11
7582232.7
 21
5720357.74
 31
0.0
  0
LINE
  5
1000491
330
21
100
AcDbEntity
  8
dzialki_ewns
  6
Continuous
370
    18
100
AcDbLine
 10
7582232.7
 20
5720357.74
 30
0.0
 11
7582237.83
 21
5720354.22
 31
0.0
  0
LINE
  5
1000492
330
21
100
AcDbEntity
  8
dzialki_ewns
  6
Continuous
370
    18
100
AcDbLine
 10
7582237.83
 20
5720354.22
 30
0.0
 11
7582240.9
 21
5720352.110000001
 31
0.0
  0
LINE
  5
1000493
330
21
100
AcDbEntity
  8
dzialki_ewns
  6
Continuous
370
    18
100
AcDbLine
 10
7582240.9
 20
5720352.110000001
 30
0.0
 11
7582244.37
 21
5720350.820000001
 31
0.0
  0
LINE
  5
1000494
330
21
100
AcDbEntity
  8
dzialki_ewns
  6
Continuous
370
    18
100
AcDbLine
 10
7582244.37
 20
5720350.820000001
 30
0.0
 11
7582251.83
 21
5720348.079999999
 31
0.0
  0
LINE
  5
1000495
330
21
100
AcDbEntity
  8
dzialki_ewns
  6
Continuous
370
    18
100
AcDbLine
 10
7582251.83
 20
5720348.079999999
 30
0.0
 11
7582257.830000001
 21
5720345.87
 31
0.0
  0
LINE
  5
1000496
330
21
100
AcDbEntity
  8
dzialki_ewns
  6
Continuous
370
    18
100
AcDbLine
 10
7582257.830000001
 20
5720345.87
 30
0.0
 11
7582265.65
 21
5720343.0
 31
0.0
  0
LINE
  5
1000497
330
21
100
AcDbEntity
  8
dzialki_ewns
  6
Continuous
370
    18
100
AcDbLine
 10
7582265.65
 20
5720343.0
 30
0.0
 11
7582273.51
 21
5720340.110000002
 31
0.0
  0
LINE
  5
1000498
330
21
100
AcDbEntity
  8
dzialki_ewns
  6
Continuous
370
    18
100
AcDbLine
 10
7582273.51
 20
5720340.110000002
 30
0.0
 11
7582282.82
 21
5720336.68
 31
0.0
  0
LINE
  5
1000499
330
21
100
AcDbEntity
  8
dzialki_ewns
  6
Continuous
370
    18
100
AcDbLine
 10
7582282.82
 20
5720336.68
 30
0.0
 11
7582291.43
 21
5720333.509999999
 31
0.0
  0
LINE
  5
100049A
330
21
100
AcDbEntity
  8
dzialki_ewns
  6
Continuous
370
    18
100
AcDbLine
 10
7582291.43
 20
5720333.509999999
 30
0.0
 11
7582301.990000001
 21
5720329.63
 31
0.0
  0
LINE
  5
100049B
330
21
100
AcDbEntity
  8
dzialki_ewns
  6
Continuous
370
    18
100
AcDbLine
 10
7582301.990000001
 20
5720329.63
 30
0.0
 11
7582302.13
 21
5720329.570000001
 31
0.0
  0
LINE
  5
100049C
330
21
100
AcDbEntity
  8
dzialki_ewns
  6
Continuous
370
    18
100
AcDbLine
 10
7582302.13
 20
5720329.570000001
 30
0.0
 11
7582314.679999999
 21
5720327.789999999
 31
0.0
  0
LINE
  5
100049D
330
21
100
AcDbEntity
  8
dzialki_ewns
  6
Continuous
370
    18
100
AcDbLine
 10
7582314.679999999
 20
5720327.789999999
 30
0.0
 11
7582332.179999999
 21
5720325.28
 31
0.0
  0
LINE
  5
100049E
330
21
100
AcDbEntity
  8
dzialki_ewns
  6
Continuous
370
    18
100
AcDbLine
 10
7582332.179999999
 20
5720325.28
 30
0.0
 11
7582344.25
 21
5720326.909999999
 31
0.0
  0
LINE
  5
100049F
330
21
100
AcDbEntity
  8
dzialki_ewns
  6
Continuous
370
    18
100
AcDbLine
 10
7582344.25
 20
5720326.909999999
 30
0.0
 11
7582354.21
 21
5720336.519999998
 31
0.0
  0
LINE
  5
10004A0
330
21
100
AcDbEntity
  8
dzialki_ewns
  6
Continuous
370
    18
100
AcDbLine
 10
7582354.21
 20
5720336.519999998
 30
0.0
 11
7582380.5
 21
5720306.0
 31
0.0
  0
LINE
  5
10004A1
330
21
100
AcDbEntity
  8
dzialki_ewns
  6
Continuous
370
    18
100
AcDbLine
 10
7582380.5
 20
5720306.0
 30
0.0
 11
7582376.57
 21
5720296.929999999
 31
0.0
  0
LINE
  5
10004A2
330
21
100
AcDbEntity
  8
dzialki_ewns
  6
Continuous
370
    18
100
AcDbLine
 10
7582376.57
 20
5720296.929999999
 30
0.0
 11
7582316.34
 21
5720204.58
 31
0.0
  0
LINE
  5
10004A3
330
21
100
AcDbEntity
  8
dzialki_ewns
  6
Continuous
370
    18
100
AcDbLine
 10
7582316.34
 20
5720204.58
 30
0.0
 11
7582298.790000001
 21
5720178.37
 31
0.0
  0
LINE
  5
10004A4
330
21
100
AcDbEntity
  8
dzialki_ewns
  6
Continuous
370
    18
100
AcDbLine
 10
7582298.790000001
 20
5720178.37
 30
0.0
 11
7582229.77
 21
5720086.67
 31
0.0
  0
LINE
  5
10004A5
330
21
100
AcDbEntity
  8
dzialki_ewns
  6
Continuous
370
    18
100
AcDbLine
 10
7582229.77
 20
5720086.67
 30
0.0
 11
7582184.84
 21
5720026.210000001
 31
0.0
  0
LINE
  5
10004A6
330
21
100
AcDbEntity
  8
dzialki_ewns
  6
Continuous
370
    18
100
AcDbLine
 10
7582184.84
 20
5720026.210000001
 30
0.0
 11
7582130.11
 21
5719949.030000001
 31
0.0
  0
LINE
  5
10004A7
330
21
100
AcDbEntity
  8
dzialki_ewns
  6
Continuous
370
    18
100
AcDbLine
 10
7582130.11
 20
5719949.030000001
 30
0.0
 11
7582126.41
 21
5719941.980000002
 31
0.0
  0
LINE
  5
10004A8
330
21
100
AcDbEntity
  8
dzialki_ewns
  6
Continuous
370
    18
100
AcDbLine
 10
7582126.41
 20
5719941.980000002
 30
0.0
 11
7582120.21
 21
5719931.99
 31
0.0
  0
LINE
  5
10004A9
330
21
100
AcDbEntity
  8
dzialki_ewns
  6
Continuous
370
    18
100
AcDbLine
 10
7582120.21
 20
5719931.99
 30
0.0
 11
7582117.199999999
 21
5719938.46
 31
0.0
  0
LINE
  5
10004AA
330
21
100
AcDbEntity
  8
dzialki_ewns
  6
Continuous
370
    18
100
AcDbLine
 10
7582117.199999999
 20
5719938.46
 30
0.0
 11
7582100.47
 21
5719947.730000001
 31
0.0
  0
LINE
  5
10004AB
330
21
100
AcDbEntity
  8
dzialki_ewns
  6
Continuous
370
    18
100
AcDbLine
 10
7582100.47
 20
5719947.730000001
 30
0.0
 11
7582087.65
 21
5719951.44
 31
0.0
  0
LINE
  5
10004AC
330
21
100
AcDbEntity
  8
dzialki_ewns
  6
Continuous
370
    18
100
AcDbLine
 10
7582087.65
 20
5719951.44
 30
0.0
 11
7582071.04
 21
5719953.400000001
 31
0.0
  0
LINE
  5
10004AD
330
21
100
AcDbEntity
  8
dzialki_ewns
  6
Continuous
370
    18
100
AcDbLine
 10
7582071.04
 20
5719953.400000001
 30
0.0
 11
7582053.7
 21
5719954.990000001
 31
0.0
  0
LINE
  5
10004AE
330
21
100
AcDbEntity
  8
dzialki_ewns
  6
Continuous
370
    18
100
AcDbLine
 10
7582053.7
 20
5719954.990000001
 30
0.0
 11
7582004.480000001
 21
5719955.400000001
 31
0.0
  0
LINE
  5
10004AF
330
21
100
AcDbEntity
  8
dzialki_ewns
  6
Continuous
370
    18
100
AcDbLine
 10
7582004.480000001
 20
5719955.400000001
 30
0.0
 11
7581995.700000001
 21
5719957.12
 31
0.0
  0
LINE
  5
10004B0
330
21
100
AcDbEntity
  8
dzialki_ewns
  6
Continuous
370
    18
100
AcDbLine
 10
7581995.700000001
 20
5719957.12
 30
0.0
 11
7581970.400000001
 21
5719965.769999999
 31
0.0
  0
LINE
  5
10004B1
330
21
100
AcDbEntity
  8
dzialki_ewns
  6
Continuous
370
    18
100
AcDbLine
 10
7581970.400000001
 20
5719965.769999999
 30
0.0
 11
7581937.45
 21
5719982.490000001
 31
0.0
  0
LINE
  5
10004B2
330
21
100
AcDbEntity
  8
dzialki_ewns
  6
Continuous
370
    18
100
AcDbLine
 10
7581937.45
 20
5719982.490000001
 30
0.0
 11
7581934.809999999
 21
5719988.17
 31
0.0
  0
LINE
  5
10004B3
330
21
100
AcDbEntity
  8
dzialki_ewns
  6
Continuous
370
    18
100
AcDbLine
 10
7581934.809999999
 20
5719988.17
 30
0.0
 11
7581845.059999999
 21
5720032.349999999
 31
0.0
  0
LINE
  5
10004B4
330
21
100
AcDbEntity
  8
dzialki_ewns
  6
Continuous
370
    18
100
AcDbLine
 10
7581845.059999999
 20
5720032.349999999
 30
0.0
 11
7581750.75
 21
5720085.219999998
 31
0.0
  0
LINE
  5
10004B5
330
21
100
AcDbEntity
  8
dzialki_ewns
  6
Continuous
370
    18
100
AcDbLine
 10
7581750.75
 20
5720085.219999998
 30
0.0
 11
7581632.07
 21
5720155.540000002
 31
0.0
  0
LINE
  5
10004B6
330
21
100
AcDbEntity
  8
dzialki_ewns
  6
Continuous
370
    18
100
AcDbLine
 10
7581632.07
 20
5720155.540000002
 30
0.0
 11
7581574.58
 21
5720226.259999999
 31
0.0
  0
LINE
  5
10004B7
330
21
100
AcDbEntity
  8
dzialki_ewns
  6
Continuous
370
    18
100
AcDbLine
 10
7581574.58
 20
5720226.259999999
 30
0.0
 11
7581557.980000001
 21
5720255.960000001
 31
0.0
  0
LINE
  5
10004B8
330
21
100
AcDbEntity
  8
dzialki_ewns
  6
Continuous
370
    18
100
AcDbLine
 10
7581557.980000001
 20
5720255.960000001
 30
0.0
 11
7581526.83
 21
5720301.980000001
 31
0.0
  0
LINE
  5
10004B9
330
21
100
AcDbEntity
  8
dzialki_ewns
  6
Continuous
370
    18
100
AcDbLine
 10
7581526.83
 20
5720301.980000001
 30
0.0
 11
7581519.33
 21
5720311.589999998
 31
0.0
  0
LINE
  5
10004BA
330
21
100
AcDbEntity
  8
dzialki_ewns
  6
Continuous
370
    18
100
AcDbLine
 10
7581519.33
 20
5720311.589999998
 30
0.0
 11
7581512.009999999
 21
5720328.19
 31
0.0
  0
LINE
  5
10004BB
330
21
100
AcDbEntity
  8
dzialki_ewns
  6
Continuous
370
    18
100
AcDbLine
 10
7581512.009999999
 20
5720328.19
 30
0.0
 11
7581469.519999999
 21
5720396.04
 31
0.0
  0
LINE
  5
10004BC
330
21
100
AcDbEntity
  8
dzialki_ewns
  6
Continuous
370
    18
100
AcDbLine
 10
7581469.519999999
 20
5720396.04
 30
0.0
 11
7581448.52
 21
5720423.940000001
 31
0.0
  0
LINE
  5
10004BD
330
21
100
AcDbEntity
  8
dzialki_ewns
  6
Continuous
370
    18
100
AcDbLine
 10
7581448.52
 20
5720423.940000001
 30
0.0
 11
7581424.830000001
 21
5720466.360000001
 31
0.0
  0
LINE
  5
10004BE
330
21
100
AcDbEntity
  8
dzialki_ewns
  6
Continuous
370
    18
100
AcDbLine
 10
7581424.830000001
 20
5720466.360000001
 30
0.0
 11
7581415.39
 21
5720483.999999999
 31
0.0
  0
LINE
  5
10004BF
330
21
100
AcDbEntity
  8
dzialki_ewns
  6
Continuous
370
    18
100
AcDbLine
 10
7581415.39
 20
5720483.999999999
 30
0.0
 11
7581386.650000001
 21
5720529.960000001
 31
0.0
  0
LINE
  5
10004C0
330
21
100
AcDbEntity
  8
dzialki_ewns
  6
Continuous
370
    18
100
AcDbLine
 10
7581386.650000001
 20
5720529.960000001
 30
0.0
 11
7581379.52
 21
5720545.97
 31
0.0
  0
LINE
  5
10004C1
330
21
100
AcDbEntity
  8
dzialki_ewns
  6
Continuous
370
    18
100
AcDbLine
 10
7581379.52
 20
5720545.97
 30
0.0
 11
7581363.7
 21
5720569.740000001
 31
0.0
  0
LINE
  5
10004C2
330
21
100
AcDbEntity
  8
dzialki_ewns
  6
Continuous
370
    18
100
AcDbLine
 10
7581363.7
 20
5720569.740000001
 30
0.0
 11
7581361.56
 21
5720576.009999998
 31
0.0
  0
LINE
  5
10004C3
330
21
100
AcDbEntity
  8
dzialki_ewns
  6
Continuous
370
    18
100
AcDbLine
 10
7581361.56
 20
5720576.009999998
 30
0.0
 11
7581365.400000001
 21
5720589.19
 31
0.0
  0
LINE
  5
10004C4
330
21
100
AcDbEntity
  8
dzialki_ewns
  6
Continuous
370
    18
100
AcDbLine
 10
7581365.400000001
 20
5720589.19
 30
0.0
 11
7581374.54
 21
5720610.29
 31
0.0
  0
LINE
  5
10004C5
330
21
100
AcDbEntity
  8
dzialki_ewns
  6
Continuous
370
    18
100
AcDbLine
 10
7581374.54
 20
5720610.29
 30
0.0
 11
7581380.700000001
 21
5720623.97
 31
0.0
  0
LINE
  5
10004C6
330
21
100
AcDbEntity
  8
dzialki_ewns
  6
Continuous
370
    18
100
AcDbLine
 10
7581380.700000001
 20
5720623.97
 30
0.0
 11
7581388.42
 21
5720646.79
 31
0.0
  0
LINE
  5
10004C7
330
21
100
AcDbEntity
  8
dzialki_ewns
  6
Continuous
370
    18
100
AcDbLine
 10
7581388.42
 20
5720646.79
 30
0.0
 11
7581397.380000001
 21
5720661.429999999
 31
0.0
  0
LINE
  5
10004C8
330
21
100
AcDbEntity
  8
dzialki_ewns
  6
Continuous
370
    18
100
AcDbLine
 10
7581397.380000001
 20
5720661.429999999
 30
0.0
 11
7581406.54
 21
5720682.530000001
 31
0.0
  0
LINE
  5
10004C9
330
21
100
AcDbEntity
  8
dzialki_ewns
  6
Continuous
370
    18
100
AcDbLine
 10
7581406.54
 20
5720682.530000001
 30
0.0
 11
7581411.58
 21
5720694.410000001
 31
0.0
  0
LINE
  5
10004CA
330
21
100
AcDbEntity
  8
dzialki_ewns
  6
Continuous
370
    18
100
AcDbLine
 10
7581411.58
 20
5720694.410000001
 30
0.0
 11
7581414.18
 21
5720699.910000002
 31
0.0
  0
LINE
  5
10004CB
330
21
100
AcDbEntity
  8
dzialki_ewns
  6
Continuous
370
    18
100
AcDbLine
 10
7581414.18
 20
5720699.910000002
 30
0.0
 11
7581419.24
 21
5720710.320000001
 31
0.0
  0
LINE
  5
10004CC
330
21
100
AcDbEntity
  8
dzialki_ewns
  6
Continuous
370
    18
100
AcDbLine
 10
7581419.24
 20
5720710.320000001
 30
0.0
 11
7581421.989999999
 21
5720723.37
 31
0.0
  0
LINE
  5
10004CD
330
21
100
AcDbEntity
  8
dzialki_ewns
  6
Continuous
370
    18
100
AcDbLine
 10
7581421.989999999
 20
5720723.37
 30
0.0
 11
7581430.669999999
 21
5720737.059999999
 31
0.0
  0
LINE
  5
10004CE
330
21
100
AcDbEntity
  8
dzialki_ewns
  6
Continuous
370
    18
100
AcDbLine
 10
7581430.669999999
 20
5720737.059999999
 30
0.0
 11
7581440.230000001
 21
5720756.900000001
 31
0.0
  0
LINE
  5
10004CF
330
21
100
AcDbEntity
  8
dzialki_ewns
  6
Continuous
370
    18
100
AcDbLine
 10
7581440.230000001
 20
5720756.900000001
 30
0.0
 11
7581447.13
 21
5720785.49
 31
0.0
  0
LINE
  5
10004D0
330
21
100
AcDbEntity
  8
dzialki_ewns
  6
Continuous
370
    18
100
AcDbLine
 10
7581447.13
 20
5720785.49
 30
0.0
 11
7581453.91
 21
5720793.469999998
 31
0.0
  0
LINE
  5
10004D1
330
21
100
AcDbEntity
  8
dzialki_ewns
  6
Continuous
370
    18
100
AcDbLine
 10
7581453.91
 20
5720793.469999998
 30
0.0
 11
7581465.67
 21
5720793.769999999
 31
0.0
  0
LINE
  5
10004D2
330
21
100
AcDbEntity
  8
dzialki_ewns
  6
Continuous
370
    18
100
AcDbLine
 10
7581465.67
 20
5720793.769999999
 30
0.0
 11
7581486.19
 21
5720797.33
 31
0.0
  0
LINE
  5
10004D3
330
21
100
AcDbEntity
  8
dzialki_ewns
  6
Continuous
370
    18
100
AcDbLine
 10
7581486.19
 20
5720797.33
 30
0.0
 11
7581511.730000002
 21
5720801.01
 31
0.0
  0
LINE
  5
10004D4
330
21
100
AcDbEntity
  8
dzialki_ewns
  6
Continuous
370
    18
100
AcDbLine
 10
7581511.730000002
 20
5720801.01
 30
0.0
 11
7581524.389999999
 21
5720797.63
 31
0.0
  0
LINE
  5
10004D5
330
21
100
AcDbEntity
  8
dzialki_ewns
  6
Continuous
370
    18
100
AcDbLine
 10
7581524.389999999
 20
5720797.63
 30
0.0
 11
7581556.33
 21
5720782.490000001
 31
0.0
  0
LINE
  5
10004D6
330
21
100
AcDbEntity
  8
dzialki_ewns
  6
Continuous
370
    18
100
AcDbLine
 10
7581556.33
 20
5720782.490000001
 30
0.0
 11
7581594.480000001
 21
5720767.460000001
 31
0.0
  0
LINE
  5
10004D7
330
21
100
AcDbEntity
  8
dzialki_ewns
  6
Continuous
370
    18
100
AcDbLine
 10
7581594.480000001
 20
5720767.460000001
 30
0.0
 11
7581646.799999999
 21
5720744.86
 31
0.0
  0
LINE
  5
10004D8
330
21
100
AcDbEntity
  8
dzialki_ewns
  6
Continuous
370
    18
100
AcDbLine
 10
7581646.799999999
 20
5720744.86
 30
0.0
 11
7581702.45
 21
5720722.290000001
 31
0.0
  0
LINE
  5
10004D9
330
21
100
AcDbEntity
  8
dzialki_ewns
  6
Continuous
370
    18
100
AcDbLine
 10
7581702.45
 20
5720722.290000001
 30
0.0
 11
7581764.95
 21
5720695.530000001
 31
0.0
  0
LINE
  5
10004DA
330
21
100
AcDbEntity
  8
dzialki_ewns
  6
Continuous
370
    18
100
AcDbLine
 10
7581764.95
 20
5720695.530000001
 30
0.0
 11
7581771.11
 21
5720695.13
 31
0.0
  0
LINE
  5
10004DB
330
21
100
AcDbEntity
  8
dzialki_ewns
  6
Continuous
370
    18
100
AcDbLine
 10
7581771.11
 20
5720695.13
 30
0.0
 11
7581794.19
 21
5720700.039999999
 31
0.0
  0
LINE
  5
10004DC
330
21
100
AcDbEntity
  8
dzialki_ewns
  6
Continuous
370
    18
100
AcDbLine
 10
7581794.19
 20
5720700.039999999
 30
0.0
 11
7581800.7
 21
5720703.76
 31
0.0
  0
LINE
  5
10004DD
330
21
100
AcDbEntity
  8
dzialki_ewns
  6
Continuous
370
    18
100
AcDbLine
 10
7581800.7
 20
5720703.76
 30
0.0
 11
7581818.389999999
 21
5720712.049999999
 31
0.0
  0
LINE
  5
10004DE
330
21
100
AcDbEntity
  8
dzialki_ewns
  6
Continuous
370
    18
100
AcDbLine
 10
7581818.389999999
 20
5720712.049999999
 30
0.0
 11
7581827.849999999
 21
5720704.589999999
 31
0.0
  0
LINE
  5
10004DF
330
21
100
AcDbEntity
  8
dzialki_ewns
  6
Continuous
370
    18
100
AcDbLine
 10
7581827.849999999
 20
5720704.589999999
 30
0.0
 11
7581845.059999999
 21
5720706.030000001
 31
0.0
  0
LINE
  5
10004E0
330
21
100
AcDbEntity
  8
dzialki_ewns
  6
Continuous
370
    18
100
AcDbLine
 10
7581845.059999999
 20
5720706.030000001
 30
0.0
 11
7581836.68
 21
5720716.009999998
 31
0.0
  0
LINE
  5
10004E1
330
21
100
AcDbEntity
  8
dzialki_ewns
  6
Continuous
370
    18
100
AcDbLine
 10
7581836.68
 20
5720716.009999998
 30
0.0
 11
7581844.32
 21
5720715.29
 31
0.0
  0
LINE
  5
10004E2
330
21
100
AcDbEntity
  8
dzialki_ewns
  6
Continuous
370
    18
100
AcDbLine
 10
7581844.32
 20
5720715.29
 30
0.0
 11
7581853.82
 21
5720711.549999999
 31
0.0
  0
LINE
  5
10004E3
330
21
100
AcDbEntity
  8
dzialki_ewns
  6
Continuous
370
    18
100
AcDbLine
 10
7581853.82
 20
5720711.549999999
 30
0.0
 11
7581861.71
 21
5720708.75
 31
0.0
  0
LINE
  5
10004E4
330
21
100
AcDbEntity
  8
dzialki_ewns
  6
Continuous
370
    18
100
AcDbLine
 10
7581861.71
 20
5720708.75
 30
0.0
 11
7581869.809999999
 21
5720708.5
 31
0.0
  0
LINE
  5
10004E5
330
21
100
AcDbEntity
  8
dzialki_ewns
  6
Continuous
370
    18
100
AcDbLine
 10
7581869.809999999
 20
5720708.5
 30
0.0
 11
7581988.540000001
 21
5720776.019999999
 31
0.0
  0
LINE
  5
10004E6
330
21
100
AcDbEntity
  8
dzialki_ewns
  6
Continuous
370
    18
100
AcDbLine
 10
7581988.540000001
 20
5720776.019999999
 30
0.0
 11
7582118.58
 21
5720843.76
 31
0.0
  0
LINE
  5
10004E7
330
21
100
AcDbEntity
  8
dzialki_ewns
  6
Continuous
370
    18
100
AcDbLine
 10
7582118.58
 20
5720843.76
 30
0.0
 11
7582124.32
 21
5720846.900000001
 31
0.0
  0
LINE
  5
10004E8
330
21
100
AcDbEntity
  8
dzialki_ewns
  6
Continuous
370
    18
100
AcDbLine
 10
7582124.32
 20
5720846.900000001
 30
0.0
 11
7582186.86
 21
5720806.059999999
 31
0.0
  0
LINE
  5
10004E9
330
21
100
AcDbEntity
  8
dzialki_ewns
  6
Continuous
370
    18
100
AcDbLine
 10
7582186.86
 20
5720806.059999999
 30
0.0
 11
7582118.809999999
 21
5720764.47
 31
0.0
  0
LINE
  5
10004EA
330
21
100
AcDbEntity
  8
dzialki_ewns
  6
Continuous
370
    18
100
AcDbLine
 10
7582118.809999999
 20
5720764.47
 30
0.0
 11
7582118.809999999
 21
5720764.47
 31
0.0
  0
LINE
  5
10004EB
330
21
100
AcDbEntity
  8
dzialki_ewns
  6
Continuous
370
    18
100
AcDbLine
 10
7581860.93
 20
5720689.969999998
 30
0.0
 11
7581854.79
 21
5720690.76
 31
0.0
  0
LINE
  5
10004EC
330
21
100
AcDbEntity
  8
dzialki_ewns
  6
Continuous
370
    18
100
AcDbLine
 10
7581854.79
 20
5720690.76
 30
0.0
 11
7581851.66
 21
5720700.579999999
 31
0.0
  0
LINE
  5
10004ED
330
21
100
AcDbEntity
  8
dzialki_ewns
  6
Continuous
370
    18
100
AcDbLine
 10
7581851.66
 20
5720700.579999999
 30
0.0
 11
7581855.99
 21
5720707.480000002
 31
0.0
  0
LINE
  5
10004EE
330
21
100
AcDbEntity
  8
dzialki_ewns
  6
Continuous
370
    18
100
AcDbLine
 10
7581855.99
 20
5720707.480000002
 30
0.0
 11
7581862.019999999
 21
5720707.799999998
 31
0.0
  0
LINE
  5
10004EF
330
21
100
AcDbEntity
  8
dzialki_ewns
  6
Continuous
370
    18
100
AcDbLine
 10
7581862.019999999
 20
5720707.799999998
 30
0.0
 11
7581863.450000001
 21
5720701.86
 31
0.0
  0
LINE
  5
10004F0
330
21
100
AcDbEntity
  8
dzialki_ewns
  6
Continuous
370
    18
100
AcDbLine
 10
7581863.450000001
 20
5720701.86
 30
0.0
 11
7581860.93
 21
5720689.969999998
 31
0.0
  0
LINE
  5
10004F1
330
21
100
AcDbEntity
  8
dzialki_ewns
  6
Continuous
370
    18
100
AcDbLine
 10
7581098.41
 20
5719052.969999999
 30
0.0
 11
7581077.84
 21
5719189.530000001
 31
0.0
  0
LINE
  5
10004F2
330
21
100
AcDbEntity
  8
dzialki_ewns
  6
Continuous
370
    18
100
AcDbLine
 10
7581077.84
 20
5719189.530000001
 30
0.0
 11
7581043.28
 21
5719418.240000001
 31
0.0
  0
LINE
  5
10004F3
330
21
100
AcDbEntity
  8
dzialki_ewns
  6
Continuous
370
    18
100
AcDbLine
 10
7581043.28
 20
5719418.240000001
 30
0.0
 11
7581162.730000002
 21
5719443.31
 31
0.0
  0
LINE
  5
10004F4
330
21
100
AcDbEntity
  8
dzialki_ewns
  6
Continuous
370
    18
100
AcDbLine
 10
7581162.730000002
 20
5719443.31
 30
0.0
 11
7581228.360000001
 21
5719457.339999999
 31
0.0
  0
LINE
  5
10004F5
330
21
100
AcDbEntity
  8
dzialki_ewns
  6
Continuous
370
    18
100
AcDbLine
 10
7581228.360000001
 20
5719457.339999999
 30
0.0
 11
7581291.73
 21
5719468.820000002
 31
0.0
  0
LINE
  5
10004F6
330
21
100
AcDbEntity
  8
dzialki_ewns
  6
Continuous
370
    18
100
AcDbLine
 10
7581291.73
 20
5719468.820000002
 30
0.0
 11
7581514.63
 21
5719517.059999999
 31
0.0
  0
LINE
  5
10004F7
330
21
100
AcDbEntity
  8
dzialki_ewns
  6
Continuous
370
    18
100
AcDbLine
 10
7581514.63
 20
5719517.059999999
 30
0.0
 11
7581566.79
 21
5719527.889999999
 31
0.0
  0
LINE
  5
10004F8
330
21
100
AcDbEntity
  8
dzialki_ewns
  6
Continuous
370
    18
100
AcDbLine
 10
7581566.79
 20
5719527.889999999
 30
0.0
 11
7581627.929999999
 21
5719541.709999999
 31
0.0
  0
LINE
  5
10004F9
330
21
100
AcDbEntity
  8
dzialki_ewns
  6
Continuous
370
    18
100
AcDbLine
 10
7581627.929999999
 20
5719541.709999999
 30
0.0
 11
7581676.55
 21
5719543.11
 31
0.0
  0
LINE
  5
10004FA
330
21
100
AcDbEntity
  8
dzialki_ewns
  6
Continuous
370
    18
100
AcDbLine
 10
7581676.55
 20
5719543.11
 30
0.0
 11
7581756.469999999
 21
5719534.389999999
 31
0.0
  0
LINE
  5
10004FB
330
21
100
AcDbEntity
  8
dzialki_ewns
  6
Continuous
370
    18
100
AcDbLine
 10
7581756.469999999
 20
5719534.389999999
 30
0.0
 11
7581772.530000001
 21
5719374.52
 31
0.0
  0
LINE
  5
10004FC
330
21
100
AcDbEntity
  8
dzialki_ewns
  6
Continuous
370
    18
100
AcDbLine
 10
7581772.530000001
 20
5719374.52
 30
0.0
 11
7581790.17
 21
5719236.099999999
 31
0.0
  0
LINE
  5
10004FD
330
21
100
AcDbEntity
  8
dzialki_ewns
  6
Continuous
370
    18
100
AcDbLine
 10
7581790.17
 20
5719236.099999999
 30
0.0
 11
7581798.72
 21
5719169.01
 31
0.0
  0
LINE
  5
10004FE
330
21
100
AcDbEntity
  8
dzialki_ewns
  6
Continuous
370
    18
100
AcDbLine
 10
7581798.72
 20
5719169.01
 30
0.0
 11
7581804.610000001
 21
5719122.740000001
 31
0.0
  0
LINE
  5
10004FF
330
21
100
AcDbEntity
  8
dzialki_ewns
  6
Continuous
370
    18
100
AcDbLine
 10
7581804.610000001
 20
5719122.740000001
 30
0.0
 11
7581806.54
 21
5719107.549999998
 31
0.0
  0
LINE
  5
1000500
330
21
100
AcDbEntity
  8
dzialki_ewns
  6
Continuous
370
    18
100
AcDbLine
 10
7581806.54
 20
5719107.549999998
 30
0.0
 11
7581810.700000001
 21
5719074.72
 31
0.0
  0
LINE
  5
1000501
330
21
100
AcDbEntity
  8
dzialki_ewns
  6
Continuous
370
    18
100
AcDbLine
 10
7581810.700000001
 20
5719074.72
 30
0.0
 11
7581815.63
 21
5719035.72
 31
0.0
  0
LINE
  5
1000502
330
21
100
AcDbEntity
  8
dzialki_ewns
  6
Continuous
370
    18
100
AcDbLine
 10
7581815.63
 20
5719035.72
 30
0.0
 11
7581817.15
 21
5719023.72
 31
0.0
  0
LINE
  5
1000503
330
21
100
AcDbEntity
  8
dzialki_ewns
  6
Continuous
370
    18
100
AcDbLine
 10
7581817.15
 20
5719023.72
 30
0.0
 11
7581821.559999999
 21
5718988.92
 31
0.0
  0
LINE
  5
1000504
330
21
100
AcDbEntity
  8
dzialki_ewns
  6
Continuous
370
    18
100
AcDbLine
 10
7581821.559999999
 20
5718988.92
 30
0.0
 11
7581828.119999999
 21
5718937.030000001
 31
0.0
  0
LINE
  5
1000505
330
21
100
AcDbEntity
  8
dzialki_ewns
  6
Continuous
370
    18
100
AcDbLine
 10
7581828.119999999
 20
5718937.030000001
 30
0.0
 11
7581842.320000001
 21
5718824.929999999
 31
0.0
  0
LINE
  5
1000506
330
21
100
AcDbEntity
  8
dzialki_ewns
  6
Continuous
370
    18
100
AcDbLine
 10
7581842.320000001
 20
5718824.929999999
 30
0.0
 11
7581814.47
 21
5718789.019999999
 31
0.0
  0
LINE
  5
1000507
330
21
100
AcDbEntity
  8
dzialki_ewns
  6
Continuous
370
    18
100
AcDbLine
 10
7581814.47
 20
5718789.019999999
 30
0.0
 11
7581785.79
 21
5718743.889999999
 31
0.0
  0
LINE
  5
1000508
330
21
100
AcDbEntity
  8
dzialki_ewns
  6
Continuous
370
    18
100
AcDbLine
 10
7581785.79
 20
5718743.889999999
 30
0.0
 11
7581752.68
 21
5718700.099999998
 31
0.0
  0
LINE
  5
1000509
330
21
100
AcDbEntity
  8
dzialki_ewns
  6
Continuous
370
    18
100
AcDbLine
 10
7581752.68
 20
5718700.099999998
 30
0.0
 11
7581728.95
 21
5718652.96
 31
0.0
  0
LINE
  5
100050A
330
21
100
AcDbEntity
  8
dzialki_ewns
  6
Continuous
370
    18
100
AcDbLine
 10
7581728.95
 20
5718652.96
 30
0.0
 11
7581712.91
 21
5718622.519999999
 31
0.0
  0
LINE
  5
100050B
330
21
100
AcDbEntity
  8
dzialki_ewns
  6
Continuous
370
    18
100
AcDbLine
 10
7581712.91
 20
5718622.519999999
 30
0.0
 11
7581692.730000001
 21
5718583.169999999
 31
0.0
  0
LINE
  5
100050C
330
21
100
AcDbEntity
  8
dzialki_ewns
  6
Continuous
370
    18
100
AcDbLine
 10
7581692.730000001
 20
5718583.169999999
 30
0.0
 11
7581657.99
 21
5718525.579999999
 31
0.0
  0
LINE
  5
100050D
330
21
100
AcDbEntity
  8
dzialki_ewns
  6
Continuous
370
    18
100
AcDbLine
 10
7581657.99
 20
5718525.579999999
 30
0.0
 11
7581637.13
 21
5718496.240000002
 31
0.0
  0
LINE
  5
100050E
330
21
100
AcDbEntity
  8
dzialki_ewns
  6
Continuous
370
    18
100
AcDbLine
 10
7581637.13
 20
5718496.240000002
 30
0.0
 11
7581620.5
 21
5718468.82
 31
0.0
  0
LINE
  5
100050F
330
21
100
AcDbEntity
  8
dzialki_ewns
  6
Continuous
370
    18
100
AcDbLine
 10
7581620.5
 20
5718468.82
 30
0.0
 11
7581603.33
 21
5718450.219999998
 31
0.0
  0
LINE
  5
1000510
330
21
100
AcDbEntity
  8
dzialki_ewns
  6
Continuous
370
    18
100
AcDbLine
 10
7581603.33
 20
5718450.219999998
 30
0.0
 11
7581575.940000001
 21
5718423.889999999
 31
0.0
  0
LINE
  5
1000511
330
21
100
AcDbEntity
  8
dzialki_ewns
  6
Continuous
370
    18
100
AcDbLine
 10
7581575.940000001
 20
5718423.889999999
 30
0.0
 11
7581543.92
 21
5718392.610000002
 31
0.0
  0
LINE
  5
1000512
330
21
100
AcDbEntity
  8
dzialki_ewns
  6
Continuous
370
    18
100
AcDbLine
 10
7581543.92
 20
5718392.610000002
 30
0.0
 11
7581455.07
 21
5718288.67
 31
0.0
  0
LINE
  5
1000513
330
21
100
AcDbEntity
  8
dzialki_ewns
  6
Continuous
370
    18
100
AcDbLine
 10
7581455.07
 20
5718288.67
 30
0.0
 11
7581357.51
 21
5718188.400000001
 31
0.0
  0
LINE
  5
1000514
330
21
100
AcDbEntity
  8
dzialki_ewns
  6
Continuous
370
    18
100
AcDbLine
 10
7581357.51
 20
5718188.400000001
 30
0.0
 11
7581334.74
 21
5718164.259999999
 31
0.0
  0
LINE
  5
1000515
330
21
100
AcDbEntity
  8
dzialki_ewns
  6
Continuous
370
    18
100
AcDbLine
 10
7581334.74
 20
5718164.259999999
 30
0.0
 11
7581331.24
 21
5718166.919999999
 31
0.0
  0
LINE
  5
1000516
330
21
100
AcDbEntity
  8
dzialki_ewns
  6
Continuous
370
    18
100
AcDbLine
 10
7581331.24
 20
5718166.919999999
 30
0.0
 11
7581308.38
 21
5718182.679999999
 31
0.0
  0
LINE
  5
1000517
330
21
100
AcDbEntity
  8
dzialki_ewns
  6
Continuous
370
    18
100
AcDbLine
 10
7581308.38
 20
5718182.679999999
 30
0.0
 11
7581263.900000001
 21
5718204.7
 31
0.0
  0
LINE
  5
1000518
330
21
100
AcDbEntity
  8
dzialki_ewns
  6
Continuous
370
    18
100
AcDbLine
 10
7581263.900000001
 20
5718204.7
 30
0.0
 11
7581244.11
 21
5718232.96
 31
0.0
  0
LINE
  5
1000519
330
21
100
AcDbEntity
  8
dzialki_ewns
  6
Continuous
370
    18
100
AcDbLine
 10
7581244.11
 20
5718232.96
 30
0.0
 11
7581235.36
 21
5718258.559999999
 31
0.0
  0
LINE
  5
100051A
330
21
100
AcDbEntity
  8
dzialki_ewns
  6
Continuous
370
    18
100
AcDbLine
 10
7581235.36
 20
5718258.559999999
 30
0.0
 11
7581181.97
 21
5718532.940000001
 31
0.0
  0
LINE
  5
100051B
330
21
100
AcDbEntity
  8
dzialki_ewns
  6
Continuous
370
    18
100
AcDbLine
 10
7581181.97
 20
5718532.940000001
 30
0.0
 11
7581160.29
 21
5718651.389999999
 31
0.0
  0
LINE
  5
100051C
330
21
100
AcDbEntity
  8
dzialki_ewns
  6
Continuous
370
    18
100
AcDbLine
 10
7581160.29
 20
5718651.389999999
 30
0.0
 11
7581143.309999999
 21
5718761.99
 31
0.0
  0
LINE
  5
100051D
330
21
100
AcDbEntity
  8
dzialki_ewns
  6
Continuous
370
    18
100
AcDbLine
 10
7581143.309999999
 20
5718761.99
 30
0.0
 11
7581132.72
 21
5718830.790000001
 31
0.0
  0
LINE
  5
100051E
330
21
100
AcDbEntity
  8
dzialki_ewns
  6
Continuous
370
    18
100
AcDbLine
 10
7581132.72
 20
5718830.790000001
 30
0.0
 11
7581098.41
 21
5719052.969999999
 31
0.0
  0
ENDSEC
  0
SECTION
  2
OBJECTS
  0
DICTIONARY
  5
87D6
330
0
100
AcDbDictionary
281
     1
  3
ACAD_COLOR
350
100001C
  3
ACAD_GROUP
350
87D7
  3
ACAD_LAYOUT
350
87D8
  3
ACAD_MATERIAL
350
FFFFFF
  3
ACAD_MLEADERSTYLE
350
100001F
  3
ACAD_MLINESTYLE
350
87D9
  3
ACAD_PLOTSETTINGS
350
87DA
  3
ACAD_PLOTSTYLENAME
350
87DB
  3
ACAD_SCALELIST
350
1000021
  3
ACAD_TABLESTYLE
350
100001D
  3
ACAD_VISUALSTYLE
350
1000003
  3
AcDbVariableDictionary
350
100051F
  0
DICTIONARY
  5
1000034
330
21
100
AcDbDictionary
280
     1
281
     1
  3
ACAD_SORTENTS
360
1000035
  0
DICTIONARY
  5
100001C
102
{ACAD_REACTORS
330
87D6
102
}
330
87D6
100
AcDbDictionary
281
     1
  0
DICTIONARY
  5
87D7
102
{ACAD_REACTORS
330
87D6
102
}
330
87D6
100
AcDbDictionary
281
     1
  0
DICTIONARY
  5
87D8
102
{ACAD_REACTORS
330
87D6
102
}
330
87D6
100
AcDbDictionary
281
     1
  3
Layout
350
24
  3
Model
350
22
  0
DICTIONARY
  5
FFFFFF
102
{ACAD_REACTORS
330
87D6
102
}
330
87D6
100
AcDbDictionary
281
     1
  3
ByBlock
350
1000001
  3
ByLayer
350
1000000
  3
Global
350
1000002
  0
DICTIONARY
  5
100001F
102
{ACAD_REACTORS
330
87D6
102
}
330
87D6
100
AcDbDictionary
281
     1
  3
Standard
350
1000020
  0
DICTIONARY
  5
87D9
102
{ACAD_REACTORS
330
87D6
102
}
330
87D6
100
AcDbDictionary
281
     1
  3
L_0_02
350
7
  3
L_0_15
350
F
  3
Standard
350
87DC
  0
DICTIONARY
  5
87DA
102
{ACAD_REACTORS
330
87D6
102
}
330
87D6
100
AcDbDictionary
281
     1
  0
ACDBDICTIONARYWDFLT
  5
87DB
102
{ACAD_REACTORS
330
87D6
102
}
330
87D6
100
AcDbDictionary
281
     1
  3
Normal
350
13
100
AcDbDictionaryWithDefault
340
13
  0
DICTIONARY
  5
1000021
102
{ACAD_REACTORS
330
87D6
102
}
330
87D6
100
AcDbDictionary
281
     1
  3
A0
350
1000022
  3
A1
350
1000023
  3
A2
350
1000024
  3
A3
350
1000025
  3
A4
350
1000026
  3
A5
350
1000027
  3
A6
350
1000028
  3
A7
350
1000029
  3
A8
350
100002A
  3
A9
350
100002B
  3
B0
350
100002C
  3
B1
350
100002D
  3
B2
350
100002E
  3
B3
350
100002F
  3
B4
350
1000030
  3
B5
350
1000031
  3
B6
350
1000032
  0
DICTIONARY
  5
100001D
102
{ACAD_REACTORS
330
87D6
102
}
330
87D6
100
AcDbDictionary
281
     1
  3
Standard
350
100001E
  0
DICTIONARY
  5
1000003
102
{ACAD_REACTORS
330
87D6
102
}
330
87D6
100
AcDbDictionary
281
     1
  3
2dWireframe
350
1000008
  3
Basic
350
100000B
  3
Brighten
350
100000F
  3
ColorChange
350
1000013
  3
Conceptual
350
100000D
  3
Dim
350
100000E
  3
EdgeColorOff
350
1000016
  3
Facepattern
350
1000012
  3
Flat
350
1000004
  3
FlatWithEdges
350
1000005
  3
Gouraud
350
1000006
  3
GouraudWithEdges
350
1000007
  3
Hidden
350
100000A
  3
JitterOff
350
1000014
  3
Linepattern
350
1000011
  3
OverhangOff
350
1000015
  3
Realistic
350
100000C
  3
Shaded
350
100001B
  3
Shaded with edges
350
100001A
  3
Shades of Gray
350
1000017
  3
Sketchy
350
1000018
  3
Thicken
350
1000010
  3
Wireframe
350
1000009
  3
X-Ray
350
1000019
  0
DICTIONARY
  5
100051F
102
{ACAD_REACTORS
330
87D6
102
}
330
87D6
100
AcDbDictionary
281
     1
  3
CANNOSCALE
350
1000523
  3
CMLEADERSTYLE
350
1000521
  3
CTABLESTYLE
350
1000520
  3
MSLTSCALE
350
1000522
  0
SORTENTSTABLE
  5
1000035
102
{ACAD_REACTORS
330
1000034
102
}
330
1000034
100
AcDbSortentsTable
330
21
331
87CC
  5
1000515
331
87CD
  5
1000516
331
87CE
  5
1000517
331
87CF
  5
1000518
331
87D0
  5
1000519
331
87D1
  5
100051A
331
87D2
  5
100051B
331
87D3
  5
100051C
331
87D4
  5
100051D
331
87D5
  5
100051E
331
1000036
  5
87CC
331
1000037
  5
87CD
331
1000038
  5
87CE
331
1000039
  5
87CF
331
100003A
  5
87D0
331
100003B
  5
87D1
331
100003C
  5
87D2
331
100003D
  5
87D3
331
100003E
  5
87D4
331
100003F
  5
87D5
331
1000040
  5
1000036
331
1000041
  5
1000037
331
1000042
  5
1000038
331
1000043
  5
1000039
331
1000044
  5
100003A
331
1000045
  5
100003B
331
1000046
  5
100003C
331
1000047
  5
100003D
331
1000048
  5
100003E
331
1000049
  5
100003F
331
100004A
  5
1000040
331
100004B
  5
1000041
331
100004C
  5
1000042
331
100004D
  5
1000043
331
100004E
  5
1000044
331
100004F
  5
1000045
331
1000050
  5
1000046
331
1000051
  5
1000047
331
1000052
  5
1000048
331
1000053
  5
1000049
331
1000054
  5
100004A
331
1000055
  5
100004B
331
1000056
  5
100004C
331
1000057
  5
100004D
331
1000058
  5
100004E
331
1000059
  5
100004F
331
100005A
  5
1000050
331
100005B
  5
1000051
331
100005C
  5
1000052
331
100005D
  5
1000053
331
100005E
  5
1000054
331
100005F
  5
1000055
331
1000060
  5
1000056
331
1000061
  5
1000057
331
1000062
  5
1000058
331
1000063
  5
1000059
331
1000064
  5
100005A
331
1000065
  5
100005B
331
1000066
  5
100005C
331
1000067
  5
100005D
331
1000068
  5
100005E
331
1000069
  5
100005F
331
100006A
  5
1000060
331
100006B
  5
1000061
331
100006C
  5
1000062
331
100006D
  5
1000063
331
100006E
  5
1000064
331
100006F
  5
1000065
331
1000070
  5
1000066
331
1000071
  5
1000067
331
1000072
  5
1000068
331
1000073
  5
1000069
331
1000074
  5
100006A
331
1000075
  5
100006B
331
1000076
  5
100006C
331
1000077
  5
100006D
331
1000078
  5
100006E
331
1000079
  5
100006F
331
100007A
  5
1000070
331
100007B
  5
1000071
331
100007C
  5
1000072
331
100007D
  5
1000073
331
100007E
  5
1000074
331
100007F
  5
1000075
331
1000080
  5
1000076
331
1000081
  5
1000077
331
1000082
  5
1000078
331
1000083
  5
1000079
331
1000084
  5
100007A
331
1000085
  5
100007B
331
1000086
  5
100007C
331
1000087
  5
100007D
331
1000088
  5
100007E
331
1000089
  5
100007F
331
100008A
  5
1000080
331
100008B
  5
1000081
331
100008C
  5
1000082
331
100008D
  5
1000083
331
100008E
  5
1000084
331
100008F
  5
1000085
331
1000090
  5
1000086
331
1000091
  5
1000087
331
1000092
  5
1000088
331
1000093
  5
1000089
331
1000094
  5
100008A
331
1000095
  5
100008B
331
1000096
  5
100008C
331
1000097
  5
100008D
331
1000098
  5
100008E
331
1000099
  5
100008F
331
100009A
  5
1000090
331
100009B
  5
1000091
331
100009C
  5
1000092
331
100009D
  5
1000093
331
100009E
  5
1000094
331
100009F
  5
1000095
331
10000A0
  5
1000096
331
10000A1
  5
1000097
331
10000A2
  5
1000098
331
10000A3
  5
1000099
331
10000A4
  5
100009A
331
10000A5
  5
100009B
331
10000A6
  5
100009C
331
10000A7
  5
100009D
331
10000A8
  5
100009E
331
10000A9
  5
100009F
331
10000AA
  5
10000A0
331
10000AB
  5
10000A1
331
10000AC
  5
10000A2
331
10000AD
  5
10000A3
331
10000AE
  5
10000A4
331
10000AF
  5
10000A5
331
10000B0
  5
10000A6
331
10000B1
  5
10000A7
331
10000B2
  5
10000A8
331
10000B3
  5
10000A9
331
10000B4
  5
10000AA
331
10000B5
  5
10000AB
331
10000B6
  5
10000AC
331
10000B7
  5
10000AD
331
10000B8
  5
10000AE
331
10000B9
  5
10000AF
331
10000BA
  5
10000B0
331
10000BB
  5
10000B1
331
10000BC
  5
10000B2
331
10000BD
  5
10000B3
331
10000BE
  5
10000B4
331
10000BF
  5
10000B5
331
10000C0
  5
10000B6
331
10000C1
  5
10000B7
331
10000C2
  5
10000B8
331
10000C3
  5
10000B9
331
10000C4
  5
10000BA
331
10000C5
  5
10000BB
331
10000C6
  5
10000BC
331
10000C7
  5
10000BD
331
10000C8
  5
10000BE
331
10000C9
  5
10000BF
331
10000CA
  5
10000C0
331
10000CB
  5
10000C1
331
10000CC
  5
10000C2
331
10000CD
  5
10000C3
331
10000CE
  5
10000C4
331
10000CF
  5
10000C5
331
10000D0
  5
10000C6
331
10000D1
  5
10000C7
331
10000D2
  5
10000C8
331
10000D3
  5
10000C9
331
10000D4
  5
10000CA
331
10000D5
  5
10000CB
331
10000D6
  5
10000CC
331
10000D7
  5
10000CD
331
10000D8
  5
10000CE
331
10000D9
  5
10000CF
331
10000DA
  5
10000D0
331
10000DB
  5
10000D1
331
10000DC
  5
10000D2
331
10000DD
  5
10000D3
331
10000DE
  5
10000D4
331
10000DF
  5
10000D5
331
10000E0
  5
10000D6
331
10000E1
  5
10000D7
331
10000E2
  5
10000D8
331
10000E3
  5
10000D9
331
10000E4
  5
10000DA
331
10000E5
  5
10000DB
331
10000E6
  5
10000DC
331
10000E7
  5
10000DD
331
10000E8
  5
10000DE
331
10000E9
  5
10000DF
331
10000EA
  5
10000E0
331
10000EB
  5
10000E1
331
10000EC
  5
10000E2
331
10000ED
  5
10000E3
331
10000EE
  5
10000E4
331
10000EF
  5
10000E5
331
10000F0
  5
10000E6
331
10000F1
  5
10000E7
331
10000F2
  5
10000E8
331
10000F3
  5
10000E9
331
10000F4
  5
10000EA
331
10000F5
  5
10000EB
331
10000F6
  5
10000EC
331
10000F7
  5
10000ED
331
10000F8
  5
10000EE
331
10000F9
  5
10000EF
331
10000FA
  5
10000F0
331
10000FB
  5
10000F1
331
10000FC
  5
10000F2
331
10000FD
  5
10000F3
331
10000FE
  5
10000F4
331
10000FF
  5
10000F5
331
1000100
  5
10000F6
331
1000101
  5
10000F7
331
1000102
  5
10000F8
331
1000103
  5
10000F9
331
1000104
  5
10000FA
331
1000105
  5
10000FB
331
1000106
  5
10000FC
331
1000107
  5
10000FD
331
1000108
  5
10000FE
331
1000109
  5
10000FF
331
100010A
  5
1000100
331
100010B
  5
1000101
331
100010C
  5
1000102
331
100010D
  5
1000103
331
100010E
  5
1000104
331
100010F
  5
1000105
331
1000110
  5
1000106
331
1000111
  5
1000107
331
1000112
  5
1000108
331
1000113
  5
1000109
331
1000114
  5
100010A
331
1000115
  5
100010B
331
1000116
  5
100010C
331
1000117
  5
100010D
331
1000118
  5
100010E
331
1000119
  5
100010F
331
100011A
  5
1000110
331
100011B
  5
1000111
331
100011C
  5
1000112
331
100011D
  5
1000113
331
100011E
  5
1000114
331
100011F
  5
1000115
331
1000120
  5
1000116
331
1000121
  5
1000117
331
1000122
  5
1000118
331
1000123
  5
1000119
331
1000124
  5
100011A
331
1000125
  5
100011B
331
1000126
  5
100011C
331
1000127
  5
100011D
331
1000128
  5
100011E
331
1000129
  5
100011F
331
100012A
  5
1000120
331
100012B
  5
1000121
331
100012C
  5
1000122
331
100012D
  5
1000123
331
100012E
  5
1000124
331
100012F
  5
1000125
331
1000130
  5
1000126
331
1000131
  5
1000127
331
1000132
  5
1000128
331
1000133
  5
1000129
331
1000134
  5
100012A
331
1000135
  5
100012B
331
1000136
  5
100012C
331
1000137
  5
100012D
331
1000138
  5
100012E
331
1000139
  5
100012F
331
100013A
  5
1000130
331
100013B
  5
1000131
331
100013C
  5
1000132
331
100013D
  5
1000133
331
100013E
  5
1000134
331
100013F
  5
1000135
331
1000140
  5
1000136
331
1000141
  5
1000137
331
1000142
  5
1000138
331
1000143
  5
1000139
331
1000144
  5
100013A
331
1000145
  5
100013B
331
1000146
  5
100013C
331
1000147
  5
100013D
331
1000148
  5
100013E
331
1000149
  5
100013F
331
100014A
  5
1000140
331
100014B
  5
1000141
331
100014C
  5
1000142
331
100014D
  5
1000143
331
100014E
  5
1000144
331
100014F
  5
1000145
331
1000150
  5
1000146
331
1000151
  5
1000147
331
1000152
  5
1000148
331
1000153
  5
1000149
331
1000154
  5
100014A
331
1000155
  5
100014B
331
1000156
  5
100014C
331
1000157
  5
100014D
331
1000158
  5
100014E
331
1000159
  5
100014F
331
100015A
  5
1000150
331
100015B
  5
1000151
331
100015C
  5
1000152
331
100015D
  5
1000153
331
100015E
  5
1000154
331
100015F
  5
1000155
331
1000160
  5
1000156
331
1000161
  5
1000157
331
1000162
  5
1000158
331
1000163
  5
1000159
331
1000164
  5
100015A
331
1000165
  5
100015B
331
1000166
  5
100015C
331
1000167
  5
100015D
331
1000168
  5
100015E
331
1000169
  5
100015F
331
100016A
  5
1000160
331
100016B
  5
1000161
331
100016C
  5
1000162
331
100016D
  5
1000163
331
100016E
  5
1000164
331
100016F
  5
1000165
331
1000170
  5
1000166
331
1000171
  5
1000167
331
1000172
  5
1000168
331
1000173
  5
1000169
331
1000174
  5
100016A
331
1000175
  5
100016B
331
1000176
  5
100016C
331
1000177
  5
100016D
331
1000178
  5
100016E
331
1000179
  5
100016F
331
100017A
  5
1000170
331
100017B
  5
1000171
331
100017C
  5
1000172
331
100017D
  5
1000173
331
100017E
  5
1000174
331
100017F
  5
1000175
331
1000180
  5
1000176
331
1000181
  5
1000177
331
1000182
  5
1000178
331
1000183
  5
1000179
331
1000184
  5
100017A
331
1000185
  5
100017B
331
1000186
  5
100017C
331
1000187
  5
100017D
331
1000188
  5
100017E
331
1000189
  5
100017F
331
100018A
  5
1000180
331
100018B
  5
1000181
331
100018C
  5
1000182
331
100018D
  5
1000183
331
100018E
  5
1000184
331
100018F
  5
1000185
331
1000190
  5
1000186
331
1000191
  5
1000187
331
1000192
  5
1000188
331
1000193
  5
1000189
331
1000194
  5
100018A
331
1000195
  5
100018B
331
1000196
  5
100018C
331
1000197
  5
100018D
331
1000198
  5
100018E
331
1000199
  5
100018F
331
100019A
  5
1000190
331
100019B
  5
1000191
331
100019C
  5
1000192
331
100019D
  5
1000193
331
100019E
  5
1000194
331
100019F
  5
1000195
331
10001A0
  5
1000196
331
10001A1
  5
1000197
331
10001A2
  5
1000198
331
10001A3
  5
1000199
331
10001A4
  5
100019A
331
10001A5
  5
100019B
331
10001A6
  5
100019C
331
10001A7
  5
100019D
331
10001A8
  5
100019E
331
10001A9
  5
100019F
331
10001AA
  5
10001A0
331
10001AB
  5
10001A1
331
10001AC
  5
10001A2
331
10001AD
  5
10001A3
331
10001AE
  5
10001A4
331
10001AF
  5
10001A5
331
10001B0
  5
10001A6
331
10001B1
  5
10001A7
331
10001B2
  5
10001A8
331
10001B3
  5
10001A9
331
10001B4
  5
10001AA
331
10001B5
  5
10001AB
331
10001B6
  5
10001AC
331
10001B7
  5
10001AD
331
10001B8
  5
10001AE
331
10001B9
  5
10001AF
331
10001BA
  5
10001B0
331
10001BB
  5
10001B1
331
10001BC
  5
10001B2
331
10001BD
  5
10001B3
331
10001BE
  5
10001B4
331
10001BF
  5
10001B5
331
10001C0
  5
10001B6
331
10001C1
  5
10001B7
331
10001C2
  5
10001B8
331
10001C3
  5
10001B9
331
10001C4
  5
10001BA
331
10001C5
  5
10001BB
331
10001C6
  5
10001BC
331
10001C7
  5
10001BD
331
10001C8
  5
10001BE
331
10001C9
  5
10001BF
331
10001CA
  5
10001C0
331
10001CB
  5
10001C1
331
10001CC
  5
10001C2
331
10001CD
  5
10001C3
331
10001CE
  5
10001C4
331
10001CF
  5
10001C5
331
10001D0
  5
10001C6
331
10001D1
  5
10001C7
331
10001D2
  5
10001C8
331
10001D3
  5
10001C9
331
10001D4
  5
10001CA
331
10001D5
  5
10001CB
331
10001D6
  5
10001CC
331
10001D7
  5
10001CD
331
10001D8
  5
10001CE
331
10001D9
  5
10001CF
331
10001DA
  5
10001D0
331
10001DB
  5
10001D1
331
10001DC
  5
10001D2
331
10001DD
  5
10001D3
331
10001DE
  5
10001D4
331
10001DF
  5
10001D5
331
10001E0
  5
10001D6
331
10001E1
  5
10001D7
331
10001E2
  5
10001D8
331
10001E3
  5
10001D9
331
10001E4
  5
10001DA
331
10001E5
  5
10001DB
331
10001E6
  5
10001DC
331
10001E7
  5
10001DD
331
10001E8
  5
10001DE
331
10001E9
  5
10001DF
331
10001EA
  5
10001E0
331
10001EB
  5
10001E1
331
10001EC
  5
10001E2
331
10001ED
  5
10001E3
331
10001EE
  5
10001E4
331
10001EF
  5
10001E5
331
10001F0
  5
10001E6
331
10001F1
  5
10001E7
331
10001F2
  5
10001E8
331
10001F3
  5
10001E9
331
10001F4
  5
10001EA
331
10001F5
  5
10001EB
331
10001F6
  5
10001EC
331
10001F7
  5
10001ED
331
10001F8
  5
10001EE
331
10001F9
  5
10001EF
331
10001FA
  5
10001F0
331
10001FB
  5
10001F1
331
10001FC
  5
10001F2
331
10001FD
  5
10001F3
331
10001FE
  5
10001F4
331
10001FF
  5
10001F5
331
1000200
  5
10001F6
331
1000201
  5
10001F7
331
1000202
  5
10001F8
331
1000203
  5
10001F9
331
1000204
  5
10001FA
331
1000205
  5
10001FB
331
1000206
  5
10001FC
331
1000207
  5
10001FD
331
1000208
  5
10001FE
331
1000209
  5
10001FF
331
100020A
  5
1000200
331
100020B
  5
1000201
331
100020C
  5
1000202
331
100020D
  5
1000203
331
100020E
  5
1000204
331
100020F
  5
1000205
331
1000210
  5
1000206
331
1000211
  5
1000207
331
1000212
  5
1000208
331
1000213
  5
1000209
331
1000214
  5
100020A
331
1000215
  5
100020B
331
1000216
  5
100020C
331
1000217
  5
100020D
331
1000218
  5
100020E
331
1000219
  5
100020F
331
100021A
  5
1000210
331
100021B
  5
1000211
331
100021C
  5
1000212
331
100021D
  5
1000213
331
100021E
  5
1000214
331
100021F
  5
1000215
331
1000220
  5
1000216
331
1000221
  5
1000217
331
1000222
  5
1000218
331
1000223
  5
1000219
331
1000224
  5
100021A
331
1000225
  5
100021B
331
1000226
  5
100021C
331
1000227
  5
100021D
331
1000228
  5
100021E
331
1000229
  5
100021F
331
100022A
  5
1000220
331
100022B
  5
1000221
331
100022C
  5
1000222
331
100022D
  5
1000223
331
100022E
  5
1000224
331
100022F
  5
1000225
331
1000230
  5
1000226
331
1000231
  5
1000227
331
1000232
  5
1000228
331
1000233
  5
1000229
331
1000234
  5
100022A
331
1000235
  5
100022B
331
1000236
  5
100022C
331
1000237
  5
100022D
331
1000238
  5
100022E
331
1000239
  5
100022F
331
100023A
  5
1000230
331
100023B
  5
1000231
331
100023C
  5
1000232
331
100023D
  5
1000233
331
100023E
  5
1000234
331
100023F
  5
1000235
331
1000240
  5
1000236
331
1000241
  5
1000237
331
1000242
  5
1000238
331
1000243
  5
1000239
331
1000244
  5
100023A
331
1000245
  5
100023B
331
1000246
  5
100023C
331
1000247
  5
100023D
331
1000248
  5
100023E
331
1000249
  5
100023F
331
100024A
  5
1000240
331
100024B
  5
1000241
331
100024C
  5
1000242
331
100024D
  5
1000243
331
100024E
  5
1000244
331
100024F
  5
1000245
331
1000250
  5
1000246
331
1000251
  5
1000247
331
1000252
  5
1000248
331
1000253
  5
1000249
331
1000254
  5
100024A
331
1000255
  5
100024B
331
1000256
  5
100024C
331
1000257
  5
100024D
331
1000258
  5
100024E
331
1000259
  5
100024F
331
100025A
  5
1000250
331
100025B
  5
1000251
331
100025C
  5
1000252
331
100025D
  5
1000253
331
100025E
  5
1000254
331
100025F
  5
1000255
331
1000260
  5
1000256
331
1000261
  5
1000257
331
1000262
  5
1000258
331
1000263
  5
1000259
331
1000264
  5
100025A
331
1000265
  5
100025B
331
1000266
  5
100025C
331
1000267
  5
100025D
331
1000268
  5
100025E
331
1000269
  5
100025F
331
100026A
  5
1000260
331
100026B
  5
1000261
331
100026C
  5
1000262
331
100026D
  5
1000263
331
100026E
  5
1000264
331
100026F
  5
1000265
331
1000270
  5
1000266
331
1000271
  5
1000267
331
1000272
  5
1000268
331
1000273
  5
1000269
331
1000274
  5
100026A
331
1000275
  5
100026B
331
1000276
  5
100026C
331
1000277
  5
100026D
331
1000278
  5
100026E
331
1000279
  5
100026F
331
100027A
  5
1000270
331
100027B
  5
1000271
331
100027C
  5
1000272
331
100027D
  5
1000273
331
100027E
  5
1000274
331
100027F
  5
1000275
331
1000280
  5
1000276
331
1000281
  5
1000277
331
1000282
  5
1000278
331
1000283
  5
1000279
331
1000284
  5
100027A
331
1000285
  5
100027B
331
1000286
  5
100027C
331
1000287
  5
100027D
331
1000288
  5
100027E
331
1000289
  5
100027F
331
100028A
  5
1000280
331
100028B
  5
1000281
331
100028C
  5
1000282
331
100028D
  5
1000283
331
100028E
  5
1000284
331
100028F
  5
1000285
331
1000290
  5
1000286
331
1000291
  5
1000287
331
1000292
  5
1000288
331
1000293
  5
1000289
331
1000294
  5
100028A
331
1000295
  5
100028B
331
1000296
  5
100028C
331
1000297
  5
100028D
331
1000298
  5
100028E
331
1000299
  5
100028F
331
100029A
  5
1000290
331
100029B
  5
1000291
331
100029C
  5
1000292
331
100029D
  5
1000293
331
100029E
  5
1000294
331
100029F
  5
1000295
331
10002A0
  5
1000296
331
10002A1
  5
1000297
331
10002A2
  5
1000298
331
10002A3
  5
1000299
331
10002A4
  5
100029A
331
10002A5
  5
100029B
331
10002A6
  5
100029C
331
10002A7
  5
100029D
331
10002A8
  5
100029E
331
10002A9
  5
100029F
331
10002AA
  5
10002A0
331
10002AB
  5
10002A1
331
10002AC
  5
10002A2
331
10002AD
  5
10002A3
331
10002AE
  5
10002A4
331
10002AF
  5
10002A5
331
10002B0
  5
10002A6
331
10002B1
  5
10002A7
331
10002B2
  5
10002A8
331
10002B3
  5
10002A9
331
10002B4
  5
10002AA
331
10002B5
  5
10002AB
331
10002B6
  5
10002AC
331
10002B7
  5
10002AD
331
10002B8
  5
10002AE
331
10002B9
  5
10002AF
331
10002BA
  5
10002B0
331
10002BB
  5
10002B1
331
10002BC
  5
10002B2
331
10002BD
  5
10002B3
331
10002BE
  5
10002B4
331
10002BF
  5
10002B5
331
10002C0
  5
10002B6
331
10002C1
  5
10002B7
331
10002C2
  5
10002B8
331
10002C3
  5
10002B9
331
10002C4
  5
10002BA
331
10002C5
  5
10002BB
331
10002C6
  5
10002BC
331
10002C7
  5
10002BD
331
10002C8
  5
10002BE
331
10002C9
  5
10002BF
331
10002CA
  5
10002C0
331
10002CB
  5
10002C1
331
10002CC
  5
10002C2
331
10002CD
  5
10002C3
331
10002CE
  5
10002C4
331
10002CF
  5
10002C5
331
10002D0
  5
10002C6
331
10002D1
  5
10002C7
331
10002D2
  5
10002C8
331
10002D3
  5
10002C9
331
10002D4
  5
10002CA
331
10002D5
  5
10002CB
331
10002D6
  5
10002CC
331
10002D7
  5
10002CD
331
10002D8
  5
10002CE
331
10002D9
  5
10002CF
331
10002DA
  5
10002D0
331
10002DB
  5
10002D1
331
10002DC
  5
10002D2
331
10002DD
  5
10002D3
331
10002DE
  5
10002D4
331
10002DF
  5
10002D5
331
10002E0
  5
10002D6
331
10002E1
  5
10002D7
331
10002E2
  5
10002D8
331
10002E3
  5
10002D9
331
10002E4
  5
10002DA
331
10002E5
  5
10002DB
331
10002E6
  5
10002DC
331
10002E7
  5
10002DD
331
10002E8
  5
10002DE
331
10002E9
  5
10002DF
331
10002EA
  5
10002E0
331
10002EB
  5
10002E1
331
10002EC
  5
10002E2
331
10002ED
  5
10002E3
331
10002EE
  5
10002E4
331
10002EF
  5
10002E5
331
10002F0
  5
10002E6
331
10002F1
  5
10002E7
331
10002F2
  5
10002E8
331
10002F3
  5
10002E9
331
10002F4
  5
10002EA
331
10002F5
  5
10002EB
331
10002F6
  5
10002EC
331
10002F7
  5
10002ED
331
10002F8
  5
10002EE
331
10002F9
  5
10002EF
331
10002FA
  5
10002F0
331
10002FB
  5
10002F1
331
10002FC
  5
10002F2
331
10002FD
  5
10002F3
331
10002FE
  5
10002F4
331
10002FF
  5
10002F5
331
1000300
  5
10002F6
331
1000301
  5
10002F7
331
1000302
  5
10002F8
331
1000303
  5
10002F9
331
1000304
  5
10002FA
331
1000305
  5
10002FB
331
1000306
  5
10002FC
331
1000307
  5
10002FD
331
1000308
  5
10002FE
331
1000309
  5
10002FF
331
100030A
  5
1000300
331
100030B
  5
1000301
331
100030C
  5
1000302
331
100030D
  5
1000303
331
100030E
  5
1000304
331
100030F
  5
1000305
331
1000310
  5
1000306
331
1000311
  5
1000307
331
1000312
  5
1000308
331
1000313
  5
1000309
331
1000314
  5
100030A
331
1000315
  5
100030B
331
1000316
  5
100030C
331
1000317
  5
100030D
331
1000318
  5
100030E
331
1000319
  5
100030F
331
100031A
  5
1000310
331
100031B
  5
1000311
331
100031C
  5
1000312
331
100031D
  5
1000313
331
100031E
  5
1000314
331
100031F
  5
1000315
331
1000320
  5
1000316
331
1000321
  5
1000317
331
1000322
  5
1000318
331
1000323
  5
1000319
331
1000324
  5
100031A
331
1000325
  5
100031B
331
1000326
  5
100031C
331
1000327
  5
100031D
331
1000328
  5
100031E
331
1000329
  5
100031F
331
100032A
  5
1000320
331
100032B
  5
1000321
331
100032C
  5
1000322
331
100032D
  5
1000323
331
100032E
  5
1000324
331
100032F
  5
1000325
331
1000330
  5
1000326
331
1000331
  5
1000327
331
1000332
  5
1000328
331
1000333
  5
1000329
331
1000334
  5
100032A
331
1000335
  5
100032B
331
1000336
  5
100032C
331
1000337
  5
100032D
331
1000338
  5
100032E
331
1000339
  5
100032F
331
100033A
  5
1000330
331
100033B
  5
1000331
331
100033C
  5
1000332
331
100033D
  5
1000333
331
100033E
  5
1000334
331
100033F
  5
1000335
331
1000340
  5
1000336
331
1000341
  5
1000337
331
1000342
  5
1000338
331
1000343
  5
1000339
331
1000344
  5
100033A
331
1000345
  5
100033B
331
1000346
  5
100033C
331
1000347
  5
100033D
331
1000348
  5
100033E
331
1000349
  5
100033F
331
100034A
  5
1000340
331
100034B
  5
1000341
331
100034C
  5
1000342
331
100034D
  5
1000343
331
100034E
  5
1000344
331
100034F
  5
1000345
331
1000350
  5
1000346
331
1000351
  5
1000347
331
1000352
  5
1000348
331
1000353
  5
1000349
331
1000354
  5
100034A
331
1000355
  5
100034B
331
1000356
  5
100034C
331
1000357
  5
100034D
331
1000358
  5
100034E
331
1000359
  5
100034F
331
100035A
  5
1000350
331
100035B
  5
1000351
331
100035C
  5
1000352
331
100035D
  5
1000353
331
100035E
  5
1000354
331
100035F
  5
1000355
331
1000360
  5
1000356
331
1000361
  5
1000357
331
1000362
  5
1000358
331
1000363
  5
1000359
331
1000364
  5
100035A
331
1000365
  5
100035B
331
1000366
  5
100035C
331
1000367
  5
100035D
331
1000368
  5
100035E
331
1000369
  5
100035F
331
100036A
  5
1000360
331
100036B
  5
1000361
331
100036C
  5
1000362
331
100036D
  5
1000363
331
100036E
  5
1000364
331
100036F
  5
1000365
331
1000370
  5
1000366
331
1000371
  5
1000367
331
1000372
  5
1000368
331
1000373
  5
1000369
331
1000374
  5
100036A
331
1000375
  5
100036B
331
1000376
  5
100036C
331
1000377
  5
100036D
331
1000378
  5
100036E
331
1000379
  5
100036F
331
100037A
  5
1000370
331
100037B
  5
1000371
331
100037C
  5
1000372
331
100037D
  5
1000373
331
100037E
  5
1000374
331
100037F
  5
1000375
331
1000380
  5
1000376
331
1000381
  5
1000377
331
1000382
  5
1000378
331
1000383
  5
1000379
331
1000384
  5
100037A
331
1000385
  5
100037B
331
1000386
  5
100037C
331
1000387
  5
100037D
331
1000388
  5
100037E
331
1000389
  5
100037F
331
100038A
  5
1000380
331
100038B
  5
1000381
331
100038C
  5
1000382
331
100038D
  5
1000383
331
100038E
  5
1000384
331
100038F
  5
1000385
331
1000390
  5
1000386
331
1000391
  5
1000387
331
1000392
  5
1000388
331
1000393
  5
1000389
331
1000394
  5
100038A
331
1000395
  5
100038B
331
1000396
  5
100038C
331
1000397
  5
100038D
331
1000398
  5
100038E
331
1000399
  5
100038F
331
100039A
  5
1000390
331
100039B
  5
1000391
331
100039C
  5
1000392
331
100039D
  5
1000393
331
100039E
  5
1000394
331
100039F
  5
1000395
331
10003A0
  5
1000396
331
10003A1
  5
1000397
331
10003A2
  5
1000398
331
10003A3
  5
1000399
331
10003A4
  5
100039A
331
10003A5
  5
100039B
331
10003A6
  5
100039C
331
10003A7
  5
100039D
331
10003A8
  5
100039E
331
10003A9
  5
100039F
331
10003AA
  5
10003A0
331
10003AB
  5
10003A1
331
10003AC
  5
10003A2
331
10003AD
  5
10003A3
331
10003AE
  5
10003A4
331
10003AF
  5
10003A5
331
10003B0
  5
10003A6
331
10003B1
  5
10003A7
331
10003B2
  5
10003A8
331
10003B3
  5
10003A9
331
10003B4
  5
10003AA
331
10003B5
  5
10003AB
331
10003B6
  5
10003AC
331
10003B7
  5
10003AD
331
10003B8
  5
10003AE
331
10003B9
  5
10003AF
331
10003BA
  5
10003B0
331
10003BB
  5
10003B1
331
10003BC
  5
10003B2
331
10003BD
  5
10003B3
331
10003BE
  5
10003B4
331
10003BF
  5
10003B5
331
10003C0
  5
10003B6
331
10003C1
  5
10003B7
331
10003C2
  5
10003B8
331
10003C3
  5
10003B9
331
10003C4
  5
10003BA
331
10003C5
  5
10003BB
331
10003C6
  5
10003BC
331
10003C7
  5
10003BD
331
10003C8
  5
10003BE
331
10003C9
  5
10003BF
331
10003CA
  5
10003C0
331
10003CB
  5
10003C1
331
10003CC
  5
10003C2
331
10003CD
  5
10003C3
331
10003CE
  5
10003C4
331
10003CF
  5
10003C5
331
10003D0
  5
10003C6
331
10003D1
  5
10003C7
331
10003D2
  5
10003C8
331
10003D3
  5
10003C9
331
10003D4
  5
10003CA
331
10003D5
  5
10003CB
331
10003D6
  5
10003CC
331
10003D7
  5
10003CD
331
10003D8
  5
10003CE
331
10003D9
  5
10003CF
331
10003DA
  5
10003D0
331
10003DB
  5
10003D1
331
10003DC
  5
10003D2
331
10003DD
  5
10003D3
331
10003DE
  5
10003D4
331
10003DF
  5
10003D5
331
10003E0
  5
10003D6
331
10003E1
  5
10003D7
331
10003E2
  5
10003D8
331
10003E3
  5
10003D9
331
10003E4
  5
10003DA
331
10003E5
  5
10003DB
331
10003E6
  5
10003DC
331
10003E7
  5
10003DD
331
10003E8
  5
10003DE
331
10003E9
  5
10003DF
331
10003EA
  5
10003E0
331
10003EB
  5
10003E1
331
10003EC
  5
10003E2
331
10003ED
  5
10003E3
331
10003EE
  5
10003E4
331
10003EF
  5
10003E5
331
10003F0
  5
10003E6
331
10003F1
  5
10003E7
331
10003F2
  5
10003E8
331
10003F3
  5
10003E9
331
10003F4
  5
10003EA
331
10003F5
  5
10003EB
331
10003F6
  5
10003EC
331
10003F7
  5
10003ED
331
10003F8
  5
10003EE
331
10003F9
  5
10003EF
331
10003FA
  5
10003F0
331
10003FB
  5
10003F1
331
10003FC
  5
10003F2
331
10003FD
  5
10003F3
331
10003FE
  5
10003F4
331
10003FF
  5
10003F5
331
1000400
  5
10003F6
331
1000401
  5
10003F7
331
1000402
  5
10003F8
331
1000403
  5
10003F9
331
1000404
  5
10003FA
331
1000405
  5
10003FB
331
1000406
  5
10003FC
331
1000407
  5
10003FD
331
1000408
  5
10003FE
331
1000409
  5
10003FF
331
100040A
  5
1000400
331
100040B
  5
1000401
331
100040C
  5
1000402
331
100040D
  5
1000403
331
100040E
  5
1000404
331
100040F
  5
1000405
331
1000410
  5
1000406
331
1000411
  5
1000407
331
1000412
  5
1000408
331
1000413
  5
1000409
331
1000414
  5
100040A
331
1000415
  5
100040B
331
1000416
  5
100040C
331
1000417
  5
100040D
331
1000418
  5
100040E
331
1000419
  5
100040F
331
100041A
  5
1000410
331
100041B
  5
1000411
331
100041C
  5
1000412
331
100041D
  5
1000413
331
100041E
  5
1000414
331
100041F
  5
1000415
331
1000420
  5
1000416
331
1000421
  5
1000417
331
1000422
  5
1000418
331
1000423
  5
1000419
331
1000424
  5
100041A
331
1000425
  5
100041B
331
1000426
  5
100041C
331
1000427
  5
100041D
331
1000428
  5
100041E
331
1000429
  5
100041F
331
100042A
  5
1000420
331
100042B
  5
1000421
331
100042C
  5
1000422
331
100042D
  5
1000423
331
100042E
  5
1000424
331
100042F
  5
1000425
331
1000430
  5
1000426
331
1000431
  5
1000427
331
1000432
  5
1000428
331
1000433
  5
1000429
331
1000434
  5
100042A
331
1000435
  5
100042B
331
1000436
  5
100042C
331
1000437
  5
100042D
331
1000438
  5
100042E
331
1000439
  5
100042F
331
100043A
  5
1000430
331
100043B
  5
1000431
331
100043C
  5
1000432
331
100043D
  5
1000433
331
100043E
  5
1000434
331
100043F
  5
1000435
331
1000440
  5
1000436
331
1000441
  5
1000437
331
1000442
  5
1000438
331
1000443
  5
1000439
331
1000444
  5
100043A
331
1000445
  5
100043B
331
1000446
  5
100043C
331
1000447
  5
100043D
331
1000448
  5
100043E
331
1000449
  5
100043F
331
100044A
  5
1000440
331
100044B
  5
1000441
331
100044C
  5
1000442
331
100044D
  5
1000443
331
100044E
  5
1000444
331
100044F
  5
1000445
331
1000450
  5
1000446
331
1000451
  5
1000447
331
1000452
  5
1000448
331
1000453
  5
1000449
331
1000454
  5
100044A
331
1000455
  5
100044B
331
1000456
  5
100044C
331
1000457
  5
100044D
331
1000458
  5
100044E
331
1000459
  5
100044F
331
100045A
  5
1000450
331
100045B
  5
1000451
331
100045C
  5
1000452
331
100045D
  5
1000453
331
100045E
  5
1000454
331
100045F
  5
1000455
331
1000460
  5
1000456
331
1000461
  5
1000457
331
1000462
  5
1000458
331
1000463
  5
1000459
331
1000464
  5
100045A
331
1000465
  5
100045B
331
1000466
  5
100045C
331
1000467
  5
100045D
331
1000468
  5
100045E
331
1000469
  5
100045F
331
100046A
  5
1000460
331
100046B
  5
1000461
331
100046C
  5
1000462
331
100046D
  5
1000463
331
100046E
  5
1000464
331
100046F
  5
1000465
331
1000470
  5
1000466
331
1000471
  5
1000467
331
1000472
  5
1000468
331
1000473
  5
1000469
331
1000474
  5
100046A
331
1000475
  5
100046B
331
1000476
  5
100046C
331
1000477
  5
100046D
331
1000478
  5
100046E
331
1000479
  5
100046F
331
100047A
  5
1000470
331
100047B
  5
1000471
331
100047C
  5
1000472
331
100047D
  5
1000473
331
100047E
  5
1000474
331
100047F
  5
1000475
331
1000480
  5
1000476
331
1000481
  5
1000477
331
1000482
  5
1000478
331
1000483
  5
1000479
331
1000484
  5
100047A
331
1000485
  5
100047B
331
1000486
  5
100047C
331
1000487
  5
100047D
331
1000488
  5
100047E
331
1000489
  5
100047F
331
100048A
  5
1000480
331
100048B
  5
1000481
331
100048C
  5
1000482
331
100048D
  5
1000483
331
100048E
  5
1000484
331
100048F
  5
1000485
331
1000490
  5
1000486
331
1000491
  5
1000487
331
1000492
  5
1000488
331
1000493
  5
1000489
331
1000494
  5
100048A
331
1000495
  5
100048B
331
1000496
  5
100048C
331
1000497
  5
100048D
331
1000498
  5
100048E
331
1000499
  5
100048F
331
100049A
  5
1000490
331
100049B
  5
1000491
331
100049C
  5
1000492
331
100049D
  5
1000493
331
100049E
  5
1000494
331
100049F
  5
1000495
331
10004A0
  5
1000496
331
10004A1
  5
1000497
331
10004A2
  5
1000498
331
10004A3
  5
1000499
331
10004A4
  5
100049A
331
10004A5
  5
100049B
331
10004A6
  5
100049C
331
10004A7
  5
100049D
331
10004A8
  5
100049E
331
10004A9
  5
100049F
331
10004AA
  5
10004A0
331
10004AB
  5
10004A1
331
10004AC
  5
10004A2
331
10004AD
  5
10004A3
331
10004AE
  5
10004A4
331
10004AF
  5
10004A5
331
10004B0
  5
10004A6
331
10004B1
  5
10004A7
331
10004B2
  5
10004A8
331
10004B3
  5
10004A9
331
10004B4
  5
10004AA
331
10004B5
  5
10004AB
331
10004B6
  5
10004AC
331
10004B7
  5
10004AD
331
10004B8
  5
10004AE
331
10004B9
  5
10004AF
331
10004BA
  5
10004B0
331
10004BB
  5
10004B1
331
10004BC
  5
10004B2
331
10004BD
  5
10004B3
331
10004BE
  5
10004B4
331
10004BF
  5
10004B5
331
10004C0
  5
10004B6
331
10004C1
  5
10004B7
331
10004C2
  5
10004B8
331
10004C3
  5
10004B9
331
10004C4
  5
10004BA
331
10004C5
  5
10004BB
331
10004C6
  5
10004BC
331
10004C7
  5
10004BD
331
10004C8
  5
10004BE
331
10004C9
  5
10004BF
331
10004CA
  5
10004C0
331
10004CB
  5
10004C1
331
10004CC
  5
10004C2
331
10004CD
  5
10004C3
331
10004CE
  5
10004C4
331
10004CF
  5
10004C5
331
10004D0
  5
10004C6
331
10004D1
  5
10004C7
331
10004D2
  5
10004C8
331
10004D3
  5
10004C9
331
10004D4
  5
10004CA
331
10004D5
  5
10004CB
331
10004D6
  5
10004CC
331
10004D7
  5
10004CD
331
10004D8
  5
10004CE
331
10004D9
  5
10004CF
331
10004DA
  5
10004D0
331
10004DB
  5
10004D1
331
10004DC
  5
10004D2
331
10004DD
  5
10004D3
331
10004DE
  5
10004D4
331
10004DF
  5
10004D5
331
10004E0
  5
10004D6
331
10004E1
  5
10004D7
331
10004E2
  5
10004D8
331
10004E3
  5
10004D9
331
10004E4
  5
10004DA
331
10004E5
  5
10004DB
331
10004E6
  5
10004DC
331
10004E7
  5
10004DD
331
10004E8
  5
10004DE
331
10004E9
  5
10004DF
331
10004EA
  5
10004E0
331
10004EB
  5
10004E1
331
10004EC
  5
10004E2
331
10004ED
  5
10004E3
331
10004EE
  5
10004E4
331
10004EF
  5
10004E5
331
10004F0
  5
10004E6
331
10004F1
  5
10004E7
331
10004F2
  5
10004E8
331
10004F3
  5
10004E9
331
10004F4
  5
10004EA
331
10004F5
  5
10004EB
331
10004F6
  5
10004EC
331
10004F7
  5
10004ED
331
10004F8
  5
10004EE
331
10004F9
  5
10004EF
331
10004FA
  5
10004F0
331
10004FB
  5
10004F1
331
10004FC
  5
10004F2
331
10004FD
  5
10004F3
331
10004FE
  5
10004F4
331
10004FF
  5
10004F5
331
1000500
  5
10004F6
331
1000501
  5
10004F7
331
1000502
  5
10004F8
331
1000503
  5
10004F9
331
1000504
  5
10004FA
331
1000505
  5
10004FB
331
1000506
  5
10004FC
331
1000507
  5
10004FD
331
1000508
  5
10004FE
331
1000509
  5
10004FF
331
100050A
  5
1000500
331
100050B
  5
1000501
331
100050C
  5
1000502
331
100050D
  5
1000503
331
100050E
  5
1000504
331
100050F
  5
1000505
331
1000510
  5
1000506
331
1000511
  5
1000507
331
1000512
  5
1000508
331
1000513
  5
1000509
331
1000514
  5
100050A
331
1000515
  5
100050B
331
1000516
  5
100050C
331
1000517
  5
100050D
331
1000518
  5
100050E
331
1000519
  5
100050F
331
100051A
  5
1000510
331
100051B
  5
1000511
331
100051C
  5
1000512
331
100051D
  5
1000513
331
100051E
  5
1000514
  0
LAYOUT
  5
24
330
87D8
100
AcDbPlotSettings
  1

  2

  4

  6

 40
0.0
 41
0.0
 42
0.0
 43
0.0
 44
0.0
 45
0.0
 46
0.0
 47
0.0
 48
0.0
 49
0.0
140
0.0
141
0.0
142
1.0
143
1.0
 70
   688
 72
     1
 73
     0
 74
     5
  7

 75
     0
 76
     0
 77
     2
 78
   300
147
1.0
148
0.0
149
0.0
100
AcDbLayout
  1
Layout
 70
     1
 71
     1
 10
0.0
 20
0.0
 11
420.0
 21
297.0
 12
0.0
 22
0.0
 32
0.0
 14
1.000000000000000E+20
 24
1.000000000000000E+20
 34
1.000000000000000E+20
 15
-1.000000000000000E+20
 25
-1.000000000000000E+20
 35
-1.000000000000000E+20
146
0.0
 13
0.0
 23
0.0
 33
0.0
 16
1.0
 26
0.0
 36
0.0
 17
0.0
 27
1.0
 37
0.0
 76
     0
330
23
  0
LAYOUT
  5
22
330
87D8
100
AcDbPlotSettings
  1

  2

  4

  6

 40
0.0
 41
0.0
 42
0.0
 43
0.0
 44
0.0
 45
0.0
 46
0.0
 47
0.0
 48
0.0
 49
0.0
140
0.0
141
0.0
142
1.0
143
1.0
 70
  1712
 72
     1
 73
     0
 74
     0
  7

 75
     0
 76
     0
 77
     2
 78
   300
147
1.0
148
0.0
149
0.0
100
AcDbLayout
  1
Model
 70
     1
 71
     0
 10
0.0
 20
0.0
 11
12.0
 21
9.0
 12
0.0
 22
0.0
 32
0.0
 14
0.0
 24
0.0
 34
0.0
 15
0.0
 25
0.0
 35
0.0
146
0.0
 13
0.0
 23
0.0
 33
0.0
 16
1.0
 26
0.0
 36
0.0
 17
0.0
 27
1.0
 37
0.0
 76
     0
330
21
331
2
  0
MATERIAL
  5
1000001
102
{ACAD_REACTORS
330
FFFFFF
102
}
330
FFFFFF
100
AcDbMaterial
  1
ByBlock
 72
     0
 73
     2
 77
     0
 78
     2
171
     0
172
     2
175
     0
176
     2
179
     0
270
     2
274
     2
 94
      127
  0
MATERIAL
  5
1000000
102
{ACAD_REACTORS
330
FFFFFF
102
}
330
FFFFFF
100
AcDbMaterial
  1
ByLayer
 72
     0
 73
     2
 77
     0
 78
     2
171
     0
172
     2
175
     0
176
     2
179
     0
270
     2
274
     2
 94
      127
  0
MATERIAL
  5
1000002
102
{ACAD_REACTORS
330
FFFFFF
102
}
330
FFFFFF
100
AcDbMaterial
  1
Global
 72
     0
 73
     2
 77
     0
 78
     2
171
     0
172
     2
175
     0
176
     2
179
     0
270
     2
274
     2
 94
      127
  0
MLEADERSTYLE
  5
1000020
102
{ACAD_REACTORS
330
100001F
102
}
330
100001F
100
AcDbMLeaderStyle
179
     2
170
     2
171
     1
172
     0
 90
        2
 40
0.0
 41
0.0
173
     1
 91
-1056964608
340
4
 92
       -2
290
     1
 42
0.4
291
     1
 43
2.0
  3
Standard
 44
0.18
300

342
17
174
     1
178
     1
175
     1
176
     0
 93
-1056964608
 45
0.2
292
     0
297
     0
 46
5.0
 94
-1056964608
 47
1.0
 49
1.0
140
1.0
293
     1
141
0.0
294
     1
177
     0
142
1.0
295
     0
296
     0
143
0.125
271
     0
272
     9
273
     9
298
     0
  0
MLINESTYLE
  5
7
330
87D9
100
AcDbMlineStyle
  2
L_0_02
 70
     0
  3

 62
   256
 51
90.0
 52
90.0
 71
     1
 49
0.0
 62
   256
  6
CONTINUOUS
  0
MLINESTYLE
  5
F
330
87D9
100
AcDbMlineStyle
  2
L_0_15
 70
     0
  3

 62
   256
 51
90.0
 52
90.0
 71
     2
 49
0.0
 62
   256
  6
L_0_15_SHX
 49
0.0
 62
   256
  6
CONTINUOUS
  0
MLINESTYLE
  5
87DC
102
{ACAD_REACTORS
330
87D9
102
}
330
87D9
100
AcDbMlineStyle
  2
Standard
 70
     0
  3

 62
   256
 51
90.0
 52
90.0
 71
     2
 49
0.5
 62
   256
  6
BYLAYER
 49
-0.5
 62
   256
  6
BYLAYER
  0
ACDBPLACEHOLDER
  5
13
330
87DB
  0
SCALE
  5
1000022
102
{ACAD_REACTORS
330
1000021
102
}
330
1000021
100
AcDbScale
 70
     0
300
1:1
140
1.0
141
1.0
290
     1
  0
SCALE
  5
1000023
102
{ACAD_REACTORS
330
1000021
102
}
330
1000021
100
AcDbScale
 70
     0
300
1:2
140
1.0
141
2.0
290
     0
  0
SCALE
  5
1000024
102
{ACAD_REACTORS
330
1000021
102
}
330
1000021
100
AcDbScale
 70
     0
300
1:4
140
1.0
141
4.0
290
     0
  0
SCALE
  5
1000025
102
{ACAD_REACTORS
330
1000021
102
}
330
1000021
100
AcDbScale
 70
     0
300
1:5
140
1.0
141
5.0
290
     0
  0
SCALE
  5
1000026
102
{ACAD_REACTORS
330
1000021
102
}
330
1000021
100
AcDbScale
 70
     0
300
1:8
140
1.0
141
8.0
290
     0
  0
SCALE
  5
1000027
102
{ACAD_REACTORS
330
1000021
102
}
330
1000021
100
AcDbScale
 70
     0
300
1:10
140
1.0
141
10.0
290
     0
  0
SCALE
  5
1000028
102
{ACAD_REACTORS
330
1000021
102
}
330
1000021
100
AcDbScale
 70
     0
300
1:16
140
1.0
141
16.0
290
     0
  0
SCALE
  5
1000029
102
{ACAD_REACTORS
330
1000021
102
}
330
1000021
100
AcDbScale
 70
     0
300
1:20
140
1.0
141
20.0
290
     0
  0
SCALE
  5
100002A
102
{ACAD_REACTORS
330
1000021
102
}
330
1000021
100
AcDbScale
 70
     0
300
1:30
140
1.0
141
30.0
290
     0
  0
SCALE
  5
100002B
102
{ACAD_REACTORS
330
1000021
102
}
330
1000021
100
AcDbScale
 70
     0
300
1:40
140
1.0
141
40.0
290
     0
  0
SCALE
  5
100002C
102
{ACAD_REACTORS
330
1000021
102
}
330
1000021
100
AcDbScale
 70
     0
300
1:50
140
1.0
141
50.0
290
     0
  0
SCALE
  5
100002D
102
{ACAD_REACTORS
330
1000021
102
}
330
1000021
100
AcDbScale
 70
     0
300
1:100
140
1.0
141
100.0
290
     0
  0
SCALE
  5
100002E
102
{ACAD_REACTORS
330
1000021
102
}
330
1000021
100
AcDbScale
 70
     0
300
2:1
140
2.0
141
1.0
290
     0
  0
SCALE
  5
100002F
102
{ACAD_REACTORS
330
1000021
102
}
330
1000021
100
AcDbScale
 70
     0
300
4:1
140
4.0
141
1.0
290
     0
  0
SCALE
  5
1000030
102
{ACAD_REACTORS
330
1000021
102
}
330
1000021
100
AcDbScale
 70
     0
300
8:1
140
8.0
141
1.0
290
     0
  0
SCALE
  5
1000031
102
{ACAD_REACTORS
330
1000021
102
}
330
1000021
100
AcDbScale
 70
     0
300
10:1
140
10.0
141
1.0
290
     0
  0
SCALE
  5
1000032
102
{ACAD_REACTORS
330
1000021
102
}
330
1000021
100
AcDbScale
 70
     0
300
100:1
140
100.0
141
1.0
290
     0
  0
TABLESTYLE
  5
100001E
102
{ACAD_REACTORS
330
100001D
102
}
330
100001D
100
AcDbTableStyle
  3
Standard
 70
     0
 71
     0
 40
0.06
 41
0.06
280
     0
281
     0
  7
STANDARD
140
0.18
170
     2
 62
     7
 63
   257
283
     0
 90
        4
 91
        0
  1

274
    -2
284
     1
 64
     0
275
    -2
285
     1
 65
     0
276
    -2
286
     1
 66
     0
277
    -2
287
     1
 67
     0
278
    -2
288
     1
 68
     0
279
    -2
289
     1
 69
     0
  7
STANDARD
140
0.25
170
     5
 62
     7
 63
   257
283
     0
 90
        4
 91
        0
  1

274
    -2
284
     1
 64
     0
275
    -2
285
     1
 65
     0
276
    -2
286
     1
 66
     0
277
    -2
287
     1
 67
     0
278
    -2
288
     1
 68
     0
279
    -2
289
     1
 69
     0
  7
STANDARD
140
0.18
170
     5
 62
     7
 63
   257
283
     0
 90
        4
 91
        0
  1

274
    -2
284
     1
 64
     0
275
    -2
285
     1
 65
     0
276
    -2
286
     1
 66
     0
277
    -2
287
     1
 67
     0
278
    -2
288
     1
 68
     0
279
    -2
289
     1
 69
     0
  0
VISUALSTYLE
  5
1000008
102
{ACAD_REACTORS
330
1000003
102
}
330
1000003
100
AcDbVisualStyle
  2
2dWireframe
 70
     4
177
     3
291
     0
 70
    58
 90
        0
176
     1
 90
        2
176
     1
 90
        0
176
     1
 90
        0
176
     1
 40
0.6
176
     1
 40
30.0
176
     1
 62
     7
420
 16777215
176
     1
 90
        1
176
     1
 90
        4
176
     1
 62
     7
176
     1
 62
   257
176
     1
 90
        1
176
     1
 90
        1
176
     1
 40
1.0
176
     1
 90
        0
176
     1
 62
   257
176
     1
 40
1.0
176
     1
 90
        1
176
     1
 90
        6
176
     1
 90
        2
176
     1
 62
     7
176
     1
 90
        5
176
     1
 90
        0
176
     1
 90
        0
176
     1
290
     0
176
     1
 90
        1
176
     1
 40
0.0
176
     1
 90
        0
176
     1
290
     1
176
     1
290
     1
176
     1
290
     0
176
     1
290
     0
176
     1
290
     0
176
     1
290
     0
176
     1
290
     0
176
     1
290
     0
176
     1
290
     0
176
     1
 90
       50
176
     1
 40
0.0
176
     1
 40
1.0
176
     1
 90
        0
176
     1
 62
    18
420
        0
176
     1
 90
       50
176
     1
 90
        3
176
     1
 62
     5
420
      255
176
     1
290
     0
176
     1
 90
       50
176
     1
 90
       50
176
     1
 90
       50
176
     1
290
     0
176
     1
 90
       50
176
     1
 62
   256
176
     0
 40
1.0
176
     0
 90
        2
176
     1
  1
strokes_ogs.tif
176
     1
290
     0
176
     1
 40
1.0
176
     1
 40
1.0
176
     1
  0
VISUALSTYLE
  5
100000B
102
{ACAD_REACTORS
330
1000003
102
}
330
1000003
100
AcDbVisualStyle
  2
Basic
 70
     7
177
     3
291
     1
 70
    58
 90
        1
176
     1
 90
        0
176
     1
 90
        1
176
     1
 90
        0
176
     1
 40
0.6
176
     1
 40
30.0
176
     1
 62
     7
420
 16777215
176
     1
 90
        0
176
     1
 90
        4
176
     1
 62
     7
176
     1
 62
   257
176
     1
 90
        1
176
     1
 90
        1
176
     1
 40
1.0
176
     1
 90
        8
176
     1
 62
     7
176
     1
 40
1.0
176
     1
 90
        1
176
     1
 90
        6
176
     1
 90
        2
176
     1
 62
     7
176
     1
 90
        5
176
     1
 90
        0
176
     1
 90
        0
176
     1
290
     0
176
     1
 90
        1
176
     1
 40
0.0
176
     1
 90
        0
176
     1
290
     0
176
     1
290
     1
176
     1
290
     1
176
     1
290
     0
176
     1
290
     0
176
     1
290
     0
176
     1
290
     0
176
     1
290
     0
176
     1
290
     0
176
     1
 90
       50
176
     1
 40
0.0
176
     1
 40
1.0
176
     1
 90
        0
176
     1
 62
    18
420
        0
176
     1
 90
       50
176
     1
 90
        3
176
     1
 62
     5
420
      255
176
     1
290
     0
176
     1
 90
       50
176
     1
 90
       50
176
     1
 90
       50
176
     1
290
     0
176
     1
 90
       50
176
     1
 62
   256
176
     0
 40
1.0
176
     0
 90
        2
176
     1
  1
strokes_ogs.tif
176
     1
290
     0
176
     1
 40
1.0
176
     1
 40
1.0
176
     1
  0
VISUALSTYLE
  5
100000F
102
{ACAD_REACTORS
330
1000003
102
}
330
1000003
100
AcDbVisualStyle
  2
Brighten
 70
    12
177
     3
291
     1
 70
    58
 90
        2
176
     1
 90
        2
176
     1
 90
        0
176
     1
 90
        0
176
     1
 40
0.6
176
     1
 40
30.0
176
     1
 62
     7
420
 16777215
176
     1
 90
        1
176
     1
 90
        4
176
     1
 62
     7
176
     1
 62
   257
176
     1
 90
        1
176
     1
 90
        1
176
     1
 40
1.0
176
     1
 90
        8
176
     1
 62
     7
176
     1
 40
1.0
176
     1
 90
        1
176
     1
 90
        6
176
     1
 90
        2
176
     1
 62
     7
176
     1
 90
        5
176
     1
 90
        0
176
     1
 90
        0
176
     1
290
     0
176
     1
 90
        1
176
     1
 40
50.0
176
     1
 90
        0
176
     1
290
     0
176
     1
290
     1
176
     1
290
     1
176
     1
290
     0
176
     1
290
     0
176
     1
290
     0
176
     1
290
     0
176
     1
290
     0
176
     1
290
     0
176
     1
 90
       50
176
     1
 40
0.0
176
     1
 40
1.0
176
     1
 90
        0
176
     1
 62
    18
420
        0
176
     1
 90
       50
176
     1
 90
        3
176
     1
 62
     5
420
      255
176
     1
290
     0
176
     1
 90
       50
176
     1
 90
       50
176
     1
 90
       50
176
     1
290
     0
176
     1
 90
       50
176
     1
 62
   256
176
     0
 40
1.0
176
     0
 90
        2
176
     1
  1
strokes_ogs.tif
176
     1
290
     0
176
     1
 40
1.0
176
     1
 40
1.0
176
     1
  0
VISUALSTYLE
  5
1000013
102
{ACAD_REACTORS
330
1000003
102
}
330
1000003
100
AcDbVisualStyle
  2
ColorChange
 70
    16
177
     3
291
     1
 70
    58
 90
        2
176
     1
 90
        2
176
     1
 90
        3
176
     1
 90
        0
176
     1
 40
0.6
176
     1
 40
30.0
176
     1
 62
     8
420
  8421504
176
     1
 90
        1
176
     1
 90
        4
176
     1
 62
     7
176
     1
 62
   257
176
     1
 90
        1
176
     1
 90
        1
176
     1
 40
1.0
176
     1
 90
        8
176
     1
 62
     8
420
  8421504
176
     1
 40
1.0
176
     1
 90
        1
176
     1
 90
        6
176
     1
 90
        2
176
     1
 62
     7
176
     1
 90
        5
176
     1
 90
        0
176
     1
 90
        0
176
     1
290
     0
176
     1
 90
        1
176
     1
 40
0.0
176
     1
 90
        0
176
     1
290
     0
176
     1
290
     1
176
     1
290
     1
176
     1
290
     0
176
     1
290
     0
176
     1
290
     0
176
     1
290
     0
176
     1
290
     0
176
     1
290
     0
176
     1
 90
       50
176
     1
 40
0.0
176
     1
 40
1.0
176
     1
 90
        0
176
     1
 62
    18
420
        0
176
     1
 90
       50
176
     1
 90
        3
176
     1
 62
     5
420
      255
176
     1
290
     0
176
     1
 90
       50
176
     1
 90
       50
176
     1
 90
       50
176
     1
290
     0
176
     1
 90
       50
176
     1
 62
   256
176
     0
 40
1.0
176
     0
 90
        2
176
     1
  1
strokes_ogs.tif
176
     1
290
     0
176
     1
 40
1.0
176
     1
 40
1.0
176
     1
  0
VISUALSTYLE
  5
100000D
102
{ACAD_REACTORS
330
1000003
102
}
330
1000003
100
AcDbVisualStyle
  2
Conceptual
 70
     9
177
     3
291
     0
 70
    58
 90
        3
176
     1
 90
        2
176
     1
 90
        0
176
     1
 90
        0
176
     1
 40
0.6
176
     1
 40
30.0
176
     1
 62
     7
420
 16777215
176
     1
 90
        2
176
     1
 90
        2
176
     1
 62
     7
176
     1
 62
   257
176
     1
 90
        1
176
     1
 90
        1
176
     1
 40
179.0
176
     1
 90
        8
176
     1
 62
     7
176
     1
 40
1.0
176
     1
 90
        1
176
     1
 90
        6
176
     1
 90
        2
176
     1
 62
     7
176
     1
 90
        3
176
     1
 90
        0
176
     1
 90
        0
176
     1
290
     0
176
     1
 90
        1
176
     1
 40
0.0
176
     1
 90
        0
176
     1
290
     0
176
     1
290
     1
176
     1
290
     1
176
     1
290
     0
176
     1
290
     0
176
     1
290
     0
176
     1
290
     0
176
     1
290
     0
176
     1
290
     0
176
     1
 90
       50
176
     1
 40
0.0
176
     1
 40
1.0
176
     1
 90
        0
176
     1
 62
    18
420
        0
176
     1
 90
       50
176
     1
 90
        3
176
     1
 62
     5
420
      255
176
     1
290
     0
176
     1
 90
       50
176
     1
 90
       50
176
     1
 90
       50
176
     1
290
     0
176
     1
 90
       50
176
     1
 62
   256
176
     0
 40
1.0
176
     0
 90
        2
176
     1
  1
strokes_ogs.tif
176
     1
290
     0
176
     1
 40
1.0
176
     1
 40
1.0
176
     1
  0
VISUALSTYLE
  5
100000E
102
{ACAD_REACTORS
330
1000003
102
}
330
1000003
100
AcDbVisualStyle
  2
Dim
 70
    11
177
     3
291
     1
 70
    58
 90
        2
176
     1
 90
        2
176
     1
 90
        0
176
     1
 90
        0
176
     1
 40
0.6
176
     1
 40
30.0
176
     1
 62
     7
420
 16777215
176
     1
 90
        1
176
     1
 90
        4
176
     1
 62
     7
176
     1
 62
   257
176
     1
 90
        1
176
     1
 90
        1
176
     1
 40
1.0
176
     1
 90
        8
176
     1
 62
     7
176
     1
 40
1.0
176
     1
 90
        1
176
     1
 90
        6
176
     1
 90
        2
176
     1
 62
     7
176
     1
 90
        5
176
     1
 90
        0
176
     1
 90
        0
176
     1
290
     0
176
     1
 90
        1
176
     1
 40
-50.0
176
     1
 90
        0
176
     1
290
     0
176
     1
290
     1
176
     1
290
     1
176
     1
290
     0
176
     1
290
     0
176
     1
290
     0
176
     1
290
     0
176
     1
290
     0
176
     1
290
     0
176
     1
 90
       50
176
     1
 40
0.0
176
     1
 40
1.0
176
     1
 90
        0
176
     1
 62
    18
420
        0
176
     1
 90
       50
176
     1
 90
        3
176
     1
 62
     5
420
      255
176
     1
290
     0
176
     1
 90
       50
176
     1
 90
       50
176
     1
 90
       50
176
     1
290
     0
176
     1
 90
       50
176
     1
 62
   256
176
     0
 40
1.0
176
     0
 90
        2
176
     1
  1
strokes_ogs.tif
176
     1
290
     0
176
     1
 40
1.0
176
     1
 40
1.0
176
     1
  0
VISUALSTYLE
  5
1000016
102
{ACAD_REACTORS
330
1000003
102
}
330
1000003
100
AcDbVisualStyle
  2
EdgeColorOff
 70
    22
177
     3
291
     1
 70
    58
 90
        2
176
     0
 90
        2
176
     0
 90
        0
176
     0
 90
        0
176
     0
 40
0.6
176
     0
 40
30.0
176
     0
 62
     7
420
 16777215
176
     0
 90
        1
176
     0
 90
        4
176
     0
 62
     7
176
     0
 62
   257
176
     0
 90
        1
176
     0
 90
        1
176
     0
 40
1.0
176
     0
 90
        8
176
     2
 62
     7
176
     0
 40
1.0
176
     0
 90
        1
176
     0
 90
        6
176
     0
 90
        2
176
     0
 62
     7
176
     0
 90
        5
176
     0
 90
        0
176
     0
 90
        0
176
     0
290
     0
176
     0
 90
        1
176
     0
 40
0.0
176
     0
 90
        0
176
     0
290
     0
176
     0
290
     1
176
     0
290
     1
176
     0
290
     0
176
     0
290
     0
176
     0
290
     0
176
     0
290
     0
176
     0
290
     0
176
     0
290
     0
176
     0
 90
       50
176
     0
 40
0.0
176
     0
 40
1.0
176
     0
 90
        0
176
     0
 62
    18
420
        0
176
     0
 90
       50
176
     0
 90
        3
176
     0
 62
     5
420
      255
176
     0
290
     0
176
     0
 90
       50
176
     0
 90
       50
176
     0
 90
       50
176
     0
290
     0
176
     0
 90
       50
176
     0
 62
   256
176
     0
 40
1.0
176
     0
 90
        2
176
     0
  1
strokes_ogs.tif
176
     0
290
     0
176
     0
 40
1.0
176
     0
 40
1.0
176
     0
  0
VISUALSTYLE
  5
1000012
102
{ACAD_REACTORS
330
1000003
102
}
330
1000003
100
AcDbVisualStyle
  2
Facepattern
 70
    15
177
     3
291
     1
 70
    58
 90
        2
176
     1
 90
        2
176
     1
 90
        0
176
     1
 90
        0
176
     1
 40
0.6
176
     1
 40
30.0
176
     1
 62
     7
420
 16777215
176
     1
 90
        1
176
     1
 90
        4
176
     1
 62
     7
176
     1
 62
   257
176
     1
 90
        1
176
     1
 90
        1
176
     1
 40
1.0
176
     1
 90
        8
176
     1
 62
     7
176
     1
 40
1.0
176
     1
 90
        1
176
     1
 90
        6
176
     1
 90
        2
176
     1
 62
     7
176
     1
 90
        5
176
     1
 90
        0
176
     1
 90
        0
176
     1
290
     0
176
     1
 90
        1
176
     1
 40
0.0
176
     1
 90
        0
176
     1
290
     0
176
     1
290
     1
176
     1
290
     1
176
     1
290
     0
176
     1
290
     0
176
     1
290
     0
176
     1
290
     0
176
     1
290
     0
176
     1
290
     0
176
     1
 90
       50
176
     1
 40
0.0
176
     1
 40
1.0
176
     1
 90
        0
176
     1
 62
    18
420
        0
176
     1
 90
       50
176
     1
 90
        3
176
     1
 62
     5
420
      255
176
     1
290
     0
176
     1
 90
       50
176
     1
 90
       50
176
     1
 90
       50
176
     1
290
     0
176
     1
 90
       50
176
     1
 62
   256
176
     0
 40
1.0
176
     0
 90
        2
176
     1
  1
strokes_ogs.tif
176
     1
290
     0
176
     1
 40
1.0
176
     1
 40
1.0
176
     1
  0
VISUALSTYLE
  5
1000004
102
{ACAD_REACTORS
330
1000003
102
}
330
1000003
100
AcDbVisualStyle
  2
Flat
 70
     0
177
     3
291
     1
 70
    58
 90
        2
176
     1
 90
        1
176
     1
 90
        1
176
     1
 90
        2
176
     1
 40
0.6
176
     1
 40
30.0
176
     1
 62
     7
420
 16777215
176
     1
 90
        0
176
     1
 90
        0
176
     1
 62
     7
176
     1
 62
   257
176
     1
 90
        1
176
     1
 90
        1
176
     1
 40
1.0
176
     1
 90
        8
176
     1
 62
     7
176
     1
 40
1.0
176
     1
 90
        1
176
     1
 90
        6
176
     1
 90
        2
176
     1
 62
     7
176
     1
 90
        5
176
     1
 90
        0
176
     1
 90
        0
176
     1
290
     0
176
     1
 90
       13
176
     1
 40
0.0
176
     1
 90
        0
176
     1
290
     0
176
     1
290
     1
176
     1
290
     1
176
     1
290
     0
176
     1
290
     0
176
     1
290
     0
176
     1
290
     0
176
     1
290
     0
176
     1
290
     0
176
     1
 90
       50
176
     1
 40
0.0
176
     1
 40
1.0
176
     1
 90
        0
176
     1
 62
    18
420
        0
176
     1
 90
       50
176
     1
 90
        3
176
     1
 62
     5
420
      255
176
     1
290
     0
176
     1
 90
       50
176
     1
 90
       50
176
     1
 90
       50
176
     1
290
     0
176
     1
 90
       50
176
     1
 62
   256
176
     0
 40
1.0
176
     0
 90
        2
176
     1
  1
strokes_ogs.tif
176
     1
290
     0
176
     1
 40
1.0
176
     1
 40
1.0
176
     1
  0
VISUALSTYLE
  5
1000005
102
{ACAD_REACTORS
330
1000003
102
}
330
1000003
100
AcDbVisualStyle
  2
FlatWithEdges
 70
     1
177
     3
291
     1
 70
    58
 90
        2
176
     1
 90
        1
176
     1
 90
        1
176
     1
 90
        2
176
     1
 40
0.6
176
     1
 40
30.0
176
     1
 62
     7
420
 16777215
176
     1
 90
        1
176
     1
 90
        0
176
     1
 62
     7
176
     1
 62
   257
176
     1
 90
        1
176
     1
 90
        1
176
     1
 40
1.0
176
     1
 90
        0
176
     1
 62
   257
176
     1
 40
1.0
176
     1
 90
        1
176
     1
 90
        6
176
     1
 90
        2
176
     1
 62
     7
176
     1
 90
        5
176
     1
 90
        0
176
     1
 90
        0
176
     1
290
     0
176
     1
 90
       13
176
     1
 40
0.0
176
     1
 90
        0
176
     1
290
     0
176
     1
290
     1
176
     1
290
     1
176
     1
290
     0
176
     1
290
     0
176
     1
290
     0
176
     1
290
     0
176
     1
290
     0
176
     1
290
     0
176
     1
 90
       50
176
     1
 40
0.0
176
     1
 40
1.0
176
     1
 90
        0
176
     1
 62
    18
420
        0
176
     1
 90
       50
176
     1
 90
        3
176
     1
 62
     5
420
      255
176
     1
290
     0
176
     1
 90
       50
176
     1
 90
       50
176
     1
 90
       50
176
     1
290
     0
176
     1
 90
       50
176
     1
 62
   256
176
     0
 40
1.0
176
     0
 90
        2
176
     1
  1
strokes_ogs.tif
176
     1
290
     0
176
     1
 40
1.0
176
     1
 40
1.0
176
     1
  0
VISUALSTYLE
  5
1000006
102
{ACAD_REACTORS
330
1000003
102
}
330
1000003
100
AcDbVisualStyle
  2
Gouraud
 70
     2
177
     3
291
     1
 70
    58
 90
        2
176
     1
 90
        2
176
     1
 90
        1
176
     1
 90
        2
176
     1
 40
0.6
176
     1
 40
30.0
176
     1
 62
     7
420
 16777215
176
     1
 90
        0
176
     1
 90
        0
176
     1
 62
     7
176
     1
 62
   257
176
     1
 90
        1
176
     1
 90
        1
176
     1
 40
1.0
176
     1
 90
        0
176
     1
 62
     7
176
     1
 40
1.0
176
     1
 90
        1
176
     1
 90
        6
176
     1
 90
        2
176
     1
 62
     7
176
     1
 90
        5
176
     1
 90
        0
176
     1
 90
        0
176
     1
290
     0
176
     1
 90
       13
176
     1
 40
0.0
176
     1
 90
        0
176
     1
290
     0
176
     1
290
     1
176
     1
290
     1
176
     1
290
     0
176
     1
290
     0
176
     1
290
     0
176
     1
290
     0
176
     1
290
     0
176
     1
290
     0
176
     1
 90
       50
176
     1
 40
0.0
176
     1
 40
1.0
176
     1
 90
        0
176
     1
 62
    18
420
        0
176
     1
 90
       50
176
     1
 90
        3
176
     1
 62
     5
420
      255
176
     1
290
     0
176
     1
 90
       50
176
     1
 90
       50
176
     1
 90
       50
176
     1
290
     0
176
     1
 90
       50
176
     1
 62
   256
176
     0
 40
1.0
176
     0
 90
        2
176
     1
  1
strokes_ogs.tif
176
     1
290
     0
176
     1
 40
1.0
176
     1
 40
1.0
176
     1
  0
VISUALSTYLE
  5
1000007
102
{ACAD_REACTORS
330
1000003
102
}
330
1000003
100
AcDbVisualStyle
  2
GouraudWithEdges
 70
     3
177
     3
291
     1
 70
    58
 90
        2
176
     1
 90
        2
176
     1
 90
        1
176
     1
 90
        2
176
     1
 40
0.6
176
     1
 40
30.0
176
     1
 62
     7
420
 16777215
176
     1
 90
        1
176
     1
 90
        0
176
     1
 62
     7
176
     1
 62
   257
176
     1
 90
        1
176
     1
 90
        1
176
     1
 40
1.0
176
     1
 90
        0
176
     1
 62
   257
176
     1
 40
1.0
176
     1
 90
        1
176
     1
 90
        6
176
     1
 90
        2
176
     1
 62
     7
176
     1
 90
        5
176
     1
 90
        0
176
     1
 90
        0
176
     1
290
     0
176
     1
 90
       13
176
     1
 40
0.0
176
     1
 90
        0
176
     1
290
     0
176
     1
290
     1
176
     1
290
     1
176
     1
290
     0
176
     1
290
     0
176
     1
290
     0
176
     1
290
     0
176
     1
290
     0
176
     1
290
     0
176
     1
 90
       50
176
     1
 40
0.0
176
     1
 40
1.0
176
     1
 90
        0
176
     1
 62
    18
420
        0
176
     1
 90
       50
176
     1
 90
        3
176
     1
 62
     5
420
      255
176
     1
290
     0
176
     1
 90
       50
176
     1
 90
       50
176
     1
 90
       50
176
     1
290
     0
176
     1
 90
       50
176
     1
 62
   256
176
     0
 40
1.0
176
     0
 90
        2
176
     1
  1
strokes_ogs.tif
176
     1
290
     0
176
     1
 40
1.0
176
     1
 40
1.0
176
     1
  0
VISUALSTYLE
  5
100000A
102
{ACAD_REACTORS
330
1000003
102
}
330
1000003
100
AcDbVisualStyle
  2
Hidden
 70
     6
177
     3
291
     0
 70
    58
 90
        1
176
     1
 90
        2
176
     1
 90
        2
176
     1
 90
        0
176
     1
 40
0.6
176
     1
 40
30.0
176
     1
 62
     7
420
 16777215
176
     1
 90
        2
176
     1
 90
        2
176
     1
 62
     7
176
     1
 62
   257
176
     1
 90
        2
176
     1
 90
        1
176
     1
 40
40.0
176
     1
 90
        0
176
     1
 62
   257
176
     1
 40
1.0
176
     1
 90
        1
176
     1
 90
        6
176
     1
 90
        2
176
     1
 62
     7
176
     1
 90
        3
176
     1
 90
        0
176
     1
 90
        0
176
     1
290
     0
176
     1
 90
        1
176
     1
 40
0.0
176
     1
 90
        0
176
     1
290
     0
176
     1
290
     1
176
     1
290
     1
176
     1
290
     0
176
     1
290
     0
176
     1
290
     0
176
     1
290
     0
176
     1
290
     0
176
     1
290
     0
176
     1
 90
       50
176
     1
 40
0.0
176
     1
 40
1.0
176
     1
 90
        0
176
     1
 62
    18
420
        0
176
     1
 90
       50
176
     1
 90
        3
176
     1
 62
     5
420
      255
176
     1
290
     0
176
     1
 90
       50
176
     1
 90
       50
176
     1
 90
       50
176
     1
290
     0
176
     1
 90
       50
176
     1
 62
   256
176
     0
 40
1.0
176
     0
 90
        2
176
     1
  1
strokes_ogs.tif
176
     1
290
     0
176
     1
 40
1.0
176
     1
 40
1.0
176
     1
  0
VISUALSTYLE
  5
1000014
102
{ACAD_REACTORS
330
1000003
102
}
330
1000003
100
AcDbVisualStyle
  2
JitterOff
 70
    20
177
     3
291
     1
 70
    58
 90
        2
176
     0
 90
        2
176
     0
 90
        0
176
     0
 90
        0
176
     0
 40
0.6
176
     0
 40
30.0
176
     0
 62
     7
420
 16777215
176
     0
 90
        1
176
     0
 90
        4
176
     0
 62
     7
176
     0
 62
   257
176
     0
 90
        1
176
     0
 90
        1
176
     0
 40
1.0
176
     0
 90
       10
176
     2
 62
     7
176
     0
 40
1.0
176
     0
 90
        1
176
     0
 90
        6
176
     0
 90
        2
176
     0
 62
     7
176
     0
 90
        5
176
     0
 90
        0
176
     0
 90
        0
176
     0
290
     0
176
     0
 90
        1
176
     0
 40
0.0
176
     0
 90
        0
176
     0
290
     0
176
     0
290
     1
176
     0
290
     1
176
     0
290
     0
176
     0
290
     0
176
     0
290
     0
176
     0
290
     0
176
     0
290
     0
176
     0
290
     0
176
     0
 90
       50
176
     0
 40
0.0
176
     0
 40
1.0
176
     0
 90
        0
176
     0
 62
    18
420
        0
176
     0
 90
       50
176
     0
 90
        3
176
     0
 62
     5
420
      255
176
     0
290
     0
176
     0
 90
       50
176
     0
 90
       50
176
     0
 90
       50
176
     0
290
     0
176
     0
 90
       50
176
     0
 62
   256
176
     0
 40
1.0
176
     0
 90
        2
176
     0
  1
strokes_ogs.tif
176
     0
290
     0
176
     0
 40
1.0
176
     0
 40
1.0
176
     0
  0
VISUALSTYLE
  5
1000011
102
{ACAD_REACTORS
330
1000003
102
}
330
1000003
100
AcDbVisualStyle
  2
Linepattern
 70
    14
177
     3
291
     1
 70
    58
 90
        2
176
     1
 90
        2
176
     1
 90
        0
176
     1
 90
        0
176
     1
 40
0.6
176
     1
 40
30.0
176
     1
 62
     7
420
 16777215
176
     1
 90
        1
176
     1
 90
        4
176
     1
 62
     7
176
     1
 62
   257
176
     1
 90
        7
176
     1
 90
        7
176
     1
 40
1.0
176
     1
 90
        8
176
     1
 62
     7
176
     1
 40
1.0
176
     1
 90
        1
176
     1
 90
        6
176
     1
 90
        2
176
     1
 62
     7
176
     1
 90
        5
176
     1
 90
        0
176
     1
 90
        0
176
     1
290
     0
176
     1
 90
        1
176
     1
 40
0.0
176
     1
 90
        0
176
     1
290
     0
176
     1
290
     1
176
     1
290
     1
176
     1
290
     0
176
     1
290
     0
176
     1
290
     0
176
     1
290
     0
176
     1
290
     0
176
     1
290
     0
176
     1
 90
       50
176
     1
 40
0.0
176
     1
 40
1.0
176
     1
 90
        0
176
     1
 62
    18
420
        0
176
     1
 90
       50
176
     1
 90
        3
176
     1
 62
     5
420
      255
176
     1
290
     0
176
     1
 90
       50
176
     1
 90
       50
176
     1
 90
       50
176
     1
290
     0
176
     1
 90
       50
176
     1
 62
   256
176
     0
 40
1.0
176
     0
 90
        2
176
     1
  1
strokes_ogs.tif
176
     1
290
     0
176
     1
 40
1.0
176
     1
 40
1.0
176
     1
  0
VISUALSTYLE
  5
1000015
102
{ACAD_REACTORS
330
1000003
102
}
330
1000003
100
AcDbVisualStyle
  2
OverhangOff
 70
    21
177
     3
291
     1
 70
    58
 90
        2
176
     0
 90
        2
176
     0
 90
        0
176
     0
 90
        0
176
     0
 40
0.6
176
     0
 40
30.0
176
     0
 62
     7
420
 16777215
176
     0
 90
        1
176
     0
 90
        4
176
     0
 62
     7
176
     0
 62
   257
176
     0
 90
        1
176
     0
 90
        1
176
     0
 40
1.0
176
     0
 90
        9
176
     2
 62
     7
176
     0
 40
1.0
176
     0
 90
        1
176
     0
 90
        6
176
     0
 90
        2
176
     0
 62
     7
176
     0
 90
        5
176
     0
 90
        0
176
     0
 90
        0
176
     0
290
     0
176
     0
 90
        1
176
     0
 40
0.0
176
     0
 90
        0
176
     0
290
     0
176
     0
290
     1
176
     0
290
     1
176
     0
290
     0
176
     0
290
     0
176
     0
290
     0
176
     0
290
     0
176
     0
290
     0
176
     0
290
     0
176
     0
 90
       50
176
     0
 40
0.0
176
     0
 40
1.0
176
     0
 90
        0
176
     0
 62
    18
420
        0
176
     0
 90
       50
176
     0
 90
        3
176
     0
 62
     5
420
      255
176
     0
290
     0
176
     0
 90
       50
176
     0
 90
       50
176
     0
 90
       50
176
     0
290
     0
176
     0
 90
       50
176
     0
 62
   256
176
     0
 40
1.0
176
     0
 90
        2
176
     0
  1
strokes_ogs.tif
176
     0
290
     0
176
     0
 40
1.0
176
     0
 40
1.0
176
     0
  0
VISUALSTYLE
  5
100000C
102
{ACAD_REACTORS
330
1000003
102
}
330
1000003
100
AcDbVisualStyle
  2
Realistic
 70
     8
177
     3
291
     0
 70
    58
 90
        2
176
     1
 90
        3
176
     1
 90
        0
176
     1
 90
        2
176
     1
 40
0.6
176
     1
 40
30.0
176
     1
 62
     7
420
 16777215
176
     1
 90
        0
176
     1
 90
        0
176
     1
 62
     7
176
     1
 62
   257
176
     1
 90
        1
176
     1
 90
        1
176
     1
 40
1.0
176
     1
 90
        8
176
     1
 62
   257
176
     1
 40
1.0
176
     1
 90
        1
176
     1
 90
        6
176
     1
 90
        2
176
     1
 62
     7
176
     1
 90
        3
176
     1
 90
        0
176
     1
 90
        0
176
     1
290
     0
176
     1
 90
       13
176
     1
 40
0.0
176
     1
 90
        0
176
     1
290
     0
176
     1
290
     1
176
     1
290
     1
176
     1
290
     0
176
     1
290
     0
176
     1
290
     0
176
     1
290
     0
176
     1
290
     0
176
     1
290
     0
176
     1
 90
       50
176
     1
 40
0.0
176
     1
 40
1.0
176
     1
 90
        0
176
     1
 62
    18
420
        0
176
     1
 90
       50
176
     1
 90
        3
176
     1
 62
     5
420
      255
176
     1
290
     0
176
     1
 90
       50
176
     1
 90
       50
176
     1
 90
       50
176
     1
290
     0
176
     1
 90
       50
176
     1
 62
   256
176
     0
 40
1.0
176
     0
 90
        2
176
     1
  1
strokes_ogs.tif
176
     1
290
     0
176
     1
 40
1.0
176
     1
 40
1.0
176
     1
  0
VISUALSTYLE
  5
100001B
102
{ACAD_REACTORS
330
1000003
102
}
330
1000003
100
AcDbVisualStyle
  2
Shaded
 70
    27
177
     3
291
     0
 70
    58
 90
        2
176
     1
 90
        2
176
     1
 90
        1
176
     1
 90
        2
176
     1
 40
0.6
176
     1
 40
30.0
176
     1
 62
     7
420
 16777215
176
     1
 90
        0
176
     1
 90
        4
176
     1
 62
     7
176
     1
 62
   257
176
     1
 90
        1
176
     1
 90
        1
176
     1
 40
1.0
176
     1
 90
        8
176
     1
 62
   257
176
     1
 40
1.0
176
     1
 90
        1
176
     1
 90
        6
176
     1
 90
        2
176
     1
 62
     8
420
  7895160
176
     1
 90
        3
176
     1
 90
        0
176
     1
 90
        0
176
     1
290
     0
176
     1
 90
        5
176
     1
 40
0.0
176
     1
 90
        0
176
     1
290
     0
176
     1
290
     1
176
     1
290
     1
176
     1
290
     0
176
     1
290
     0
176
     1
290
     0
176
     1
290
     0
176
     1
290
     0
176
     1
290
     0
176
     1
 90
       50
176
     1
 40
0.0
176
     1
 40
1.0
176
     1
 90
        0
176
     1
 62
    18
420
        0
176
     1
 90
       50
176
     1
 90
        3
176
     1
 62
     5
420
      255
176
     1
290
     0
176
     1
 90
       50
176
     1
 90
       50
176
     1
 90
       50
176
     1
290
     0
176
     1
 90
       50
176
     1
 62
   256
176
     0
 40
1.0
176
     0
 90
        2
176
     1
  1
strokes_ogs.tif
176
     1
290
     0
176
     1
 40
1.0
176
     1
 40
1.0
176
     1
  0
VISUALSTYLE
  5
100001A
102
{ACAD_REACTORS
330
1000003
102
}
330
1000003
100
AcDbVisualStyle
  2
Shaded with edges
 70
    26
177
     3
291
     0
 70
    58
 90
        2
176
     1
 90
        2
176
     1
 90
        1
176
     1
 90
        2
176
     1
 40
0.6
176
     1
 40
30.0
176
     1
 62
     7
420
 16777215
176
     1
 90
        1
176
     1
 90
       10
176
     1
 62
     7
176
     1
 62
   257
176
     1
 90
        2
176
     1
 90
        1
176
     1
 40
1.0
176
     1
 90
        8
176
     1
 62
   257
176
     1
 40
1.0
176
     1
 90
        1
176
     1
 90
        6
176
     1
 90
        2
176
     1
 62
     7
176
     1
 90
        3
176
     1
 90
        0
176
     1
 90
        0
176
     1
290
     0
176
     1
 90
        5
176
     1
 40
0.0
176
     1
 90
        0
176
     1
290
     0
176
     1
290
     1
176
     1
290
     1
176
     1
290
     0
176
     1
290
     0
176
     1
290
     0
176
     1
290
     0
176
     1
290
     0
176
     1
290
     0
176
     1
 90
       50
176
     1
 40
0.0
176
     1
 40
1.0
176
     1
 90
        0
176
     1
 62
    18
420
        0
176
     1
 90
       50
176
     1
 90
        3
176
     1
 62
     5
420
      255
176
     1
290
     0
176
     1
 90
       50
176
     1
 90
       50
176
     1
 90
       50
176
     1
290
     0
176
     1
 90
       50
176
     1
 62
   256
176
     0
 40
1.0
176
     0
 90
        2
176
     1
  1
strokes_ogs.tif
176
     1
290
     0
176
     1
 40
1.0
176
     1
 40
1.0
176
     1
  0
VISUALSTYLE
  5
1000017
102
{ACAD_REACTORS
330
1000003
102
}
330
1000003
100
AcDbVisualStyle
  2
Shades of Gray
 70
    23
177
     3
291
     0
 70
    58
 90
        2
176
     1
 90
        2
176
     1
 90
        3
176
     1
 90
        0
176
     1
 40
0.6
176
     1
 40
30.0
176
     1
 62
     7
420
 16777215
176
     1
 90
        2
176
     1
 90
        2
176
     1
 62
     7
176
     1
 62
     7
176
     1
 90
        1
176
     1
 90
        1
176
     1
 40
40.0
176
     1
 90
        8
176
     1
 62
     7
176
     1
 40
1.0
176
     1
 90
        1
176
     1
 90
        6
176
     1
 90
        2
176
     1
 62
     7
176
     1
 90
        3
176
     1
 90
        0
176
     1
 90
        0
176
     1
290
     0
176
     1
 90
        1
176
     1
 40
0.0
176
     1
 90
        0
176
     1
290
     0
176
     1
290
     1
176
     1
290
     1
176
     1
290
     0
176
     1
290
     0
176
     1
290
     0
176
     1
290
     0
176
     1
290
     0
176
     1
290
     0
176
     1
 90
       50
176
     1
 40
0.0
176
     1
 40
1.0
176
     1
 90
        0
176
     1
 62
    18
420
        0
176
     1
 90
       50
176
     1
 90
        3
176
     1
 62
     5
420
      255
176
     1
290
     0
176
     1
 90
       50
176
     1
 90
       50
176
     1
 90
       50
176
     1
290
     0
176
     1
 90
       50
176
     1
 62
   256
176
     0
 40
1.0
176
     0
 90
        2
176
     1
  1
strokes_ogs.tif
176
     1
290
     0
176
     1
 40
1.0
176
     1
 40
1.0
176
     1
  0
VISUALSTYLE
  5
1000018
102
{ACAD_REACTORS
330
1000003
102
}
330
1000003
100
AcDbVisualStyle
  2
Sketchy
 70
    24
177
     3
291
     0
 70
    58
 90
        1
176
     1
 90
        2
176
     1
 90
        2
176
     1
 90
        0
176
     1
 40
0.6
176
     1
 40
30.0
176
     1
 62
     7
420
 16777215
176
     1
 90
        2
176
     1
 90
        2
176
     1
 62
     7
176
     1
 62
     7
176
     1
 90
        1
176
     1
 90
        1
176
     1
 40
40.0
176
     1
 90
       11
176
     1
 62
     7
176
     1
 40
1.0
176
     1
 90
        1
176
     1
 90
        6
176
     1
 90
        2
176
     1
 62
     7
176
     1
 90
        6
176
     1
 90
        0
176
     1
 90
        0
176
     1
290
     0
176
     1
 90
        1
176
     1
 40
0.0
176
     1
 90
        0
176
     1
290
     0
176
     1
290
     1
176
     1
290
     1
176
     1
290
     0
176
     1
290
     0
176
     1
290
     0
176
     1
290
     0
176
     1
290
     0
176
     1
290
     0
176
     1
 90
       50
176
     1
 40
0.0
176
     1
 40
1.0
176
     1
 90
        0
176
     1
 62
    18
420
        0
176
     1
 90
       50
176
     1
 90
        3
176
     1
 62
     5
420
      255
176
     1
290
     0
176
     1
 90
       50
176
     1
 90
       50
176
     1
 90
       50
176
     1
290
     0
176
     1
 90
       50
176
     1
 62
   256
176
     0
 40
1.0
176
     0
 90
        2
176
     1
  1
strokes_ogs.tif
176
     1
290
     0
176
     1
 40
1.0
176
     1
 40
1.0
176
     1
  0
VISUALSTYLE
  5
1000010
102
{ACAD_REACTORS
330
1000003
102
}
330
1000003
100
AcDbVisualStyle
  2
Thicken
 70
    13
177
     3
291
     1
 70
    58
 90
        2
176
     1
 90
        2
176
     1
 90
        0
176
     1
 90
        0
176
     1
 40
0.6
176
     1
 40
30.0
176
     1
 62
     7
420
 16777215
176
     1
 90
        1
176
     1
 90
        4
176
     1
 62
     7
176
     1
 62
   257
176
     1
 90
        1
176
     1
 90
        1
176
     1
 40
1.0
176
     1
 90
       12
176
     1
 62
     7
176
     1
 40
1.0
176
     1
 90
        1
176
     1
 90
        6
176
     1
 90
        2
176
     1
 62
     7
176
     1
 90
        5
176
     1
 90
        0
176
     1
 90
        0
176
     1
290
     0
176
     1
 90
        1
176
     1
 40
0.0
176
     1
 90
        0
176
     1
290
     0
176
     1
290
     1
176
     1
290
     1
176
     1
290
     0
176
     1
290
     0
176
     1
290
     0
176
     1
290
     0
176
     1
290
     0
176
     1
290
     0
176
     1
 90
       50
176
     1
 40
0.0
176
     1
 40
1.0
176
     1
 90
        0
176
     1
 62
    18
420
        0
176
     1
 90
       50
176
     1
 90
        3
176
     1
 62
     5
420
      255
176
     1
290
     0
176
     1
 90
       50
176
     1
 90
       50
176
     1
 90
       50
176
     1
290
     0
176
     1
 90
       50
176
     1
 62
   256
176
     0
 40
1.0
176
     0
 90
        2
176
     1
  1
strokes_ogs.tif
176
     1
290
     0
176
     1
 40
1.0
176
     1
 40
1.0
176
     1
  0
VISUALSTYLE
  5
1000009
102
{ACAD_REACTORS
330
1000003
102
}
330
1000003
100
AcDbVisualStyle
  2
Wireframe
 70
     5
177
     3
291
     0
 70
    58
 90
        0
176
     1
 90
        2
176
     1
 90
        0
176
     1
 90
        0
176
     1
 40
0.6
176
     1
 40
30.0
176
     1
 62
     7
420
 16777215
176
     1
 90
        1
176
     1
 90
        4
176
     1
 62
     7
176
     1
 62
   257
176
     1
 90
        1
176
     1
 90
        1
176
     1
 40
1.0
176
     1
 90
        0
176
     1
 62
   257
176
     1
 40
1.0
176
     1
 90
        1
176
     1
 90
        6
176
     1
 90
        2
176
     1
 62
     7
176
     1
 90
        3
176
     1
 90
        0
176
     1
 90
        0
176
     1
290
     0
176
     1
 90
        1
176
     1
 40
0.0
176
     1
 90
        0
176
     1
290
     0
176
     1
290
     1
176
     1
290
     1
176
     1
290
     0
176
     1
290
     0
176
     1
290
     0
176
     1
290
     0
176
     1
290
     0
176
     1
290
     0
176
     1
 90
       50
176
     1
 40
0.0
176
     1
 40
1.0
176
     1
 90
        0
176
     1
 62
    18
420
        0
176
     1
 90
       50
176
     1
 90
        3
176
     1
 62
     5
420
      255
176
     1
290
     0
176
     1
 90
       50
176
     1
 90
       50
176
     1
 90
       50
176
     1
290
     0
176
     1
 90
       50
176
     1
 62
   256
176
     0
 40
1.0
176
     0
 90
        2
176
     1
  1
strokes_ogs.tif
176
     1
290
     0
176
     1
 40
1.0
176
     1
 40
1.0
176
     1
  0
VISUALSTYLE
  5
1000019
102
{ACAD_REACTORS
330
1000003
102
}
330
1000003
100
AcDbVisualStyle
  2
X-Ray
 70
    25
177
     3
291
     0
 70
    58
 90
        2
176
     1
 90
        2
176
     1
 90
        1
176
     1
 90
        1
176
     1
 40
0.5
176
     1
 40
30.0
176
     1
 62
     7
420
 16777215
176
     1
 90
        1
176
     1
 90
        0
176
     1
 62
     7
176
     1
 62
   257
176
     1
 90
        1
176
     1
 90
        1
176
     1
 40
1.0
176
     1
 90
        8
176
     1
 62
     7
176
     1
 40
1.0
176
     1
 90
        1
176
     1
 90
        6
176
     1
 90
        2
176
     1
 62
     7
176
     1
 90
        3
176
     1
 90
        0
176
     1
 90
        0
176
     1
290
     0
176
     1
 90
       13
176
     1
 40
0.0
176
     1
 90
        0
176
     1
290
     0
176
     1
290
     1
176
     1
290
     1
176
     1
290
     0
176
     1
290
     0
176
     1
290
     0
176
     1
290
     0
176
     1
290
     0
176
     1
290
     0
176
     1
 90
       50
176
     1
 40
0.0
176
     1
 40
1.0
176
     1
 90
        0
176
     1
 62
    18
420
        0
176
     1
 90
       50
176
     1
 90
        3
176
     1
 62
     5
420
      255
176
     1
290
     0
176
     1
 90
       50
176
     1
 90
       50
176
     1
 90
       50
176
     1
290
     0
176
     1
 90
       50
176
     1
 62
   256
176
     0
 40
1.0
176
     0
 90
        2
176
     1
  1
strokes_ogs.tif
176
     1
290
     0
176
     1
 40
1.0
176
     1
 40
1.0
176
     1
  0
DICTIONARYVAR
  5
1000523
102
{ACAD_REACTORS
330
100051F
102
}
330
100051F
100
DictionaryVariables
280
     0
  1
1:1
  0
DICTIONARYVAR
  5
1000521
102
{ACAD_REACTORS
330
100051F
102
}
330
100051F
100
DictionaryVariables
280
     0
  1
Standard
  0
DICTIONARYVAR
  5
1000520
102
{ACAD_REACTORS
330
100051F
102
}
330
100051F
100
DictionaryVariables
280
     0
  1
Standard
  0
DICTIONARYVAR
  5
1000522
102
{ACAD_REACTORS
330
100051F
102
}
330
100051F
100
DictionaryVariables
280
     0
  1
0
  0
ENDSEC
  0
SECTION
  2
ACDSDATA
 70
     2
 71
     2
  0
ACDSSCHEMA
 90
        0
  1
AcDb3DSolid_ASM_Data
  2
AcDbDs::ID
280
    10
 91
        0
  2
ASM_Data
280
    15
 91
        0
101
ACDSRECORD
 95
        0
 90
        1
  2
AcDbDs::TreatedAsObjectData
280
     1
291
     1
101
ACDSRECORD
 95
        0
 90
        2
  2
AcDbDs::Legacy
280
     1
291
     1
101
ACDSRECORD
  1
AcDbDs::ID
 90
        3
  2
AcDs:Indexable
280
     1
291
     1
101
ACDSRECORD
  1
AcDbDs::ID
 90
        4
  2
AcDbDs::HandleAttribute
280
     7
282
     1
  0
ACDSSCHEMA
 90
        1
  1
AcDbDs::TreatedAsObjectDataSchema
  2
AcDbDs::TreatedAsObjectData
280
     1
 91
        0
  0
ACDSSCHEMA
 90
        2
  1
AcDbDs::LegacySchema
  2
AcDbDs::Legacy
280
     1
 91
        0
  0
ACDSSCHEMA
 90
        3
  1
AcDbDs::IndexedPropertySchema
  2
AcDs:Indexable
280
     1
 91
        0
  0
ACDSSCHEMA
 90
        4
  1
AcDbDs::HandleAttributeSchema
  2
AcDbDs::HandleAttribute
280
     7
 91
        8
  0
ENDSEC
  0
EOF
