  0
SECTION
  2
HEADER
  9
$ACADVER
  1
AC1018
  9
$HANDSEED
  5
FFFFFF
  9
$EXTMAX
 10
7562033.87000000011
 20
5724838.83000000007
 30
1000000.00
  9
$EXTMIN
 10
7561859.66999999993
 20
5724389.84999999963
 30
0.00
  9
$LIMMIN
 10
7561859.66999999993
 20
5724389.84999999963
  9
$LIMMAX
 10
7562033.87000000011
 20
5724838.83000000007
  9
$DIMASZ
 40
2.5
  9
$DIMGAP
 40
0.625
  9
$INSUNITS
 70
6
  9
$DIMEXO
 40
0.625
  9
$DIMTXT
 40
2.5
  9
$DIMSTYLE
  2
Standard
  9
$PLIMMIN
 10
0.0
 20
0.0
  9
$PLIMMAX
 10
210.0
 20
297.0
  9
$DIMEXE
 40
1.25
  9
$TEXTSIZE
 40
2.5
  9
$TEXTSTYLE
  7
Standard
  9
$LWDISPLAY
290
1
  9
$TDCREATE
 40
44230.488166331
  9
$TDUCREATE
 40
44230.446499664
  9
$TDUPDATE
 40
44230.488166331
  9
$TDUUPDATE
 40
44230.446499664
  9
$TDINDWG
 40
0.0
  9
$TDUSRTIMER
 40
0.0
  9
$USRTIMER
 70
1
  0
ENDSEC
  0
SECTION
  2
TABLES
  0
TABLE
  2
VPORT
  5
1
100
AcDbSymbolTable
 70
1
  0
VPORT
  5
2
100
AcDbSymbolTableRecord
100
AcDbViewportTableRecord
  2
*ACTIVE
 70
0
 10
0.0
 20
0.0
 11
1.0
 21
1.0
 12
7561946.77
 22
5724614.34
 13
0.0
 23
0.0
 14
1.0
 24
1.0
 15
0.0
 25
0.0
 16
0.0
 26
0.0
 36
1.0
 17
0.0
 27
0.0
 37
0.0
 40
448.98
 41
0.39
 42
50.0
 43
0.0
 44
0.0
 50
0.0
 51
0.0
 71
0
 72
100
 73
1
 74
1
 75
0
 76
0
 77
0
 78
0
  0
ENDTAB
  0
TABLE
  2
LTYPE
  5
3
100
AcDbSymbolTable
 70
3
  0
LTYPE
  5
4
100
AcDbSymbolTableRecord
100
AcDbLinetypeTableRecord
  2
ByBlock
 70
0
  3

 72
65
 73
0
 40
0.0
  0
LTYPE
  5
5
100
AcDbSymbolTableRecord
100
AcDbLinetypeTableRecord
  2
ByLayer
 70
0
  3

 72
65
 73
0
 40
0.0
  0
LTYPE
  5
6
100
AcDbSymbolTableRecord
100
AcDbLinetypeTableRecord
  2
CONTINUOUS
 70
0
  3
Solid line
 72
65
 73
0
 40
0.0
  0
LTYPE
  5
8
100
AcDbSymbolTableRecord
100
AcDbLinetypeTableRecord
  2
L_0_02
 70
0
  3
Dzialka_ewidencyjna (MLineStyle)
 72
65
 73
0
 40
0.0
  0
ENDTAB
  0
TABLE
  2
LAYER
  5
9
100
AcDbSymbolTable
 70
2
  0
LAYER
  5
A
100
AcDbSymbolTableRecord
100
AcDbLayerTableRecord
  2
0
 70
0
420
0
  6
CONTINUOUS
370
18
390
B
  0
LAYER
  5
C
100
AcDbSymbolTableRecord
100
AcDbLayerTableRecord
  2
Dzialki
 70
0
420
32768
  6
L_0_02
370
18
390
B
  0
ENDTAB
  0
TABLE
  2
STYLE
  5
D
100
AcDbSymbolTable
 70
2
  0
STYLE
  5
E
100
AcDbSymbolTableRecord
100
AcDbTextStyleTableRecord
  2
STANDARD
 70
0
 40
0.0
 41
1.0
 50
0.0
 71
0
  3
simplex.shx
  4

  0
STYLE
  5
F
100
AcDbSymbolTableRecord
100
AcDbTextStyleTableRecord
  2
STANDARD_ITALIC
 70
0
 40
0.0
 41
1.0
 50
15.0
 71
0
  3
simplex.shx
  4

  0
ENDTAB
  0
TABLE
  2
VIEW
  5
10
100
AcDbSymbolTable
 70
0
  0
ENDTAB
  0
TABLE
  2
UCS
  5
11
100
AcDbSymbolTable
 70
0
  0
ENDTAB
  0
TABLE
  2
APPID
  5
12
100
AcDbSymbolTable
 70
1
  0
APPID
  5
13
100
AcDbSymbolTableRecord
100
AcDbRegAppTableRecord
  2
ACAD
 70
0
  0
ENDTAB
  0
TABLE
  2
DIMSTYLE
  5
14
100
AcDbSymbolTable
 70
1
100
AcDbDimStyleTable
  0
DIMSTYLE
105
15
100
AcDbSymbolTableRecord
100
AcDbDimStyleTableRecord
  2
Standard
 70
0
340
E
  0
ENDTAB
  0
TABLE
  2
BLOCK_RECORD
  5
16
100
AcDbSymbolTable
 70
5
  0
BLOCK_RECORD
  5
17
100
AcDbSymbolTableRecord
100
AcDbBlockTableRecord
  2
*Model_Space
340
18
  0
BLOCK_RECORD
  5
19
100
AcDbSymbolTableRecord
100
AcDbBlockTableRecord
  2
*Paper_Space
340
1A
  0
BLOCK_RECORD
  5
1B
100
AcDbSymbolTableRecord
100
AcDbBlockTableRecord
  2
pikieta
340
1C
  0
BLOCK_RECORD
  5
1D
100
AcDbSymbolTableRecord
100
AcDbBlockTableRecord
  2
L_0_02_1
340
1E
  0
BLOCK_RECORD
  5
1F
100
AcDbSymbolTableRecord
100
AcDbBlockTableRecord
  2
L_0_02_2
340
20
  0
ENDTAB
  0
ENDSEC
  0
SECTION
  2
BLOCKS
  0
BLOCK
  5
21
100
AcDbEntity
  8
0
100
AcDbBlockBegin
  2
*Model_Space
 70
0
 10
0.0
 20
0.0
 30
0.0
  3
*Model_Space
  1

  0
ENDBLK
  5
22
100
AcDbEntity
  8
0
100
AcDbBlockEnd
  0
BLOCK
  5
23
100
AcDbEntity
 67
1
  8
0
100
AcDbBlockBegin
  2
*Paper_Space
 70
0
 10
0.0
 20
0.0
 30
0.0
  3
*Paper_Space
  1

  0
ENDBLK
  5
24
100
AcDbEntity
 67
1
  8
0
100
AcDbBlockEnd
  0
BLOCK
  5
1C
100
AcDbEntity
  8
0
100
AcDbBlockBegin
 62
0
370
13
  2
pikieta
 70
0
 10
0
 20
0
 30
0
  3
pikieta
  0
POINT
  5
25
100
AcDbEntity
  8
0
100
AcDbPoint
 62
0
 10
0.0
 20
0.0
 30
0.00
  0
ENDBLK
  5
26
100
AcDbEntity
  8
0
100
AcDbBlockEnd
  0
BLOCK
  5
1E
100
AcDbEntity
  8
0
100
AcDbBlockBegin
 62
0
370
13
  2
L_0_02_1
 70
0
 10
0
 20
0
 30
0
  3
L_0_02_1
  0
POINT
  5
27
100
AcDbEntity
  8
0
100
AcDbPoint
 62
0
 10
0.0
 20
0.0
 30
0.00
  0
ENDBLK
  5
28
100
AcDbEntity
  8
0
100
AcDbBlockEnd
  0
BLOCK
  5
20
100
AcDbEntity
  8
0
100
AcDbBlockBegin
 62
0
370
13
  2
L_0_02_2
 70
0
 10
0
 20
0
 30
0
  3
L_0_02_2
  0
POINT
  5
29
100
AcDbEntity
  8
0
100
AcDbPoint
 62
0
 10
-0.0
 20
-0.0
 30
0.00
  0
ENDBLK
  5
2A
100
AcDbEntity
  8
0
100
AcDbBlockEnd
  0
ENDSEC
  0
SECTION
  2
ENTITIES
  0
INSERT
  5
2B
100
AcDbEntity
  8
Dzialki
  6
CONTINUOUS
100
AcDbBlockReference
 66
0
  2
L_0_02_1
 10
7561917.29000000004
 20
5724508.83000000007
 41
0.50
 42
0.50
 43
0.50
 50
221.18
  0
INSERT
  5
2C
100
AcDbEntity
  8
Dzialki
  6
CONTINUOUS
100
AcDbBlockReference
 66
0
  2
pikieta
 10
7561913.33999999985
 20
5724505.375
 41
0.50
 42
0.50
 43
0.50
 50
221.18
  0
INSERT
  5
2D
100
AcDbEntity
  8
Dzialki
  6
CONTINUOUS
100
AcDbBlockReference
 66
0
  2
L_0_02_2
 10
7561909.38999999966
 20
5724501.91999999993
 41
0.50
 42
0.50
 43
0.50
 50
41.18
  0
INSERT
  5
2E
100
AcDbEntity
  8
Dzialki
  6
CONTINUOUS
100
AcDbBlockReference
 66
0
  2
L_0_02_1
 10
7561909.38999999966
 20
5724501.91999999993
 41
0.50
 42
0.50
 43
0.50
 50
168.62
  0
INSERT
  5
2F
100
AcDbEntity
  8
Dzialki
  6
CONTINUOUS
100
AcDbBlockReference
 66
0
  2
pikieta
 10
7561884.52999999933
 20
5724506.92499999981
 41
0.50
 42
0.50
 43
0.50
 50
168.62
  0
INSERT
  5
30
100
AcDbEntity
  8
Dzialki
  6
CONTINUOUS
100
AcDbBlockReference
 66
0
  2
L_0_02_2
 10
7561859.66999999993
 20
5724511.9299999997
 41
0.50
 42
0.50
 43
0.50
 50
348.62
  0
INSERT
  5
31
100
AcDbEntity
  8
Dzialki
  6
CONTINUOUS
100
AcDbBlockReference
 66
0
  2
L_0_02_1
 10
7561859.66999999993
 20
5724511.9299999997
 41
0.50
 42
0.50
 43
0.50
 50
78.79
  0
INSERT
  5
32
100
AcDbEntity
  8
Dzialki
  6
CONTINUOUS
100
AcDbBlockReference
 66
0
  2
pikieta
 10
7561868.12000000011
 20
5724554.58499999996
 41
0.50
 42
0.50
 43
0.50
 50
78.79
  0
INSERT
  5
33
100
AcDbEntity
  8
Dzialki
  6
CONTINUOUS
100
AcDbBlockReference
 66
0
  2
L_0_02_2
 10
7561876.5700000003
 20
5724597.24000000022
 41
0.50
 42
0.50
 43
0.50
 50
258.79
  0
INSERT
  5
34
100
AcDbEntity
  8
Dzialki
  6
CONTINUOUS
100
AcDbBlockReference
 66
0
  2
L_0_02_1
 10
7561876.5700000003
 20
5724597.24000000022
 41
0.50
 42
0.50
 43
0.50
 50
348.84
  0
INSERT
  5
35
100
AcDbEntity
  8
Dzialki
  6
CONTINUOUS
100
AcDbBlockReference
 66
0
  2
pikieta
 10
7561904.08000000007
 20
5724591.81499999948
 41
0.50
 42
0.50
 43
0.50
 50
348.84
  0
INSERT
  5
36
100
AcDbEntity
  8
Dzialki
  6
CONTINUOUS
100
AcDbBlockReference
 66
0
  2
L_0_02_2
 10
7561931.58999999985
 20
5724586.38999999966
 41
0.50
 42
0.50
 43
0.50
 50
168.84
  0
INSERT
  5
37
100
AcDbEntity
  8
Dzialki
  6
CONTINUOUS
100
AcDbBlockReference
 66
0
  2
L_0_02_1
 10
7561931.58999999985
 20
5724586.38999999966
 41
0.50
 42
0.50
 43
0.50
 50
259.55
  0
INSERT
  5
38
100
AcDbEntity
  8
Dzialki
  6
CONTINUOUS
100
AcDbBlockReference
 66
0
  2
pikieta
 10
7561924.43999999948
 20
5724547.6099999994
 41
0.50
 42
0.50
 43
0.50
 50
259.55
  0
INSERT
  5
39
100
AcDbEntity
  8
Dzialki
  6
CONTINUOUS
100
AcDbBlockReference
 66
0
  2
L_0_02_2
 10
7561917.29000000004
 20
5724508.83000000007
 41
0.50
 42
0.50
 43
0.50
 50
79.55
  0
MLINE
  5
3A
100
AcDbEntity
  8
Dzialki
  6
L_0_02
370
18
100
AcDbMline
  2
L_0_02
340
7
 40
1.0
 70
1
 71
3
 72
5
 73
1
 10
7561917.29000000004
 20
5724508.83000000007
 30
0.0
210
0.0
220
0.0
230
1.0
 11
7561917.29000000004
 21
5724508.83000000007
 12
-0.752694725932
 22
-0.65836969064
 13
0.869189385649
 23
-0.494479334124
 74
3
 41
0.0
 41
0.25
 41
10.245622897568
 75
0
 11
7561909.38999999966
 21
5724501.91999999993
 12
-0.980329623019
 22
0.197367247109
 13
0.257070466659
 23
-0.966392660967
 74
3
 41
0.0
 41
0.25
 41
50.467634999767
 75
0
 11
7561859.66999999993
 21
5724511.9299999997
 12
0.194324695064
 22
0.980937262463
 13
-0.831897572461
 23
-0.55492921074
 74
3
 41
0.0
 41
0.25
 41
86.717845207879
 75
0
 11
7561876.5700000003
 21
5724597.24000000022
 12
0.981105215975
 22
-0.193474947182
 13
-0.556578944552
 23
0.830794727043
 74
3
 41
0.0
 41
0.25
 41
55.829612159527
 75
0
 11
7561931.58999999985
 21
5724586.38999999966
 12
-0.181317333254
 22
-0.983424641069
 13
0.82709111103
 23
0.562067873174
 74
3
 41
0.0
 41
0.25
 41
78.617253026406
 75
0
  0
INSERT
  5
3B
100
AcDbEntity
  8
Dzialki
  6
CONTINUOUS
100
AcDbBlockReference
 66
0
  2
L_0_02_1
 10
7561908.99000000022
 20
5724437.80999999959
 41
0.50
 42
0.50
 43
0.50
 50
317.11
  0
INSERT
  5
3C
100
AcDbEntity
  8
Dzialki
  6
CONTINUOUS
100
AcDbBlockReference
 66
0
  2
pikieta
 10
7561914.41000000015
 20
5724432.77500000037
 41
0.50
 42
0.50
 43
0.50
 50
317.11
  0
INSERT
  5
3D
100
AcDbEntity
  8
Dzialki
  6
CONTINUOUS
100
AcDbBlockReference
 66
0
  2
L_0_02_2
 10
7561919.83000000007
 20
5724427.74000000022
 41
0.50
 42
0.50
 43
0.50
 50
137.11
  0
INSERT
  5
3E
100
AcDbEntity
  8
Dzialki
  6
CONTINUOUS
100
AcDbBlockReference
 66
0
  2
L_0_02_1
 10
7561919.83000000007
 20
5724427.74000000022
 41
0.50
 42
0.50
 43
0.50
 50
348.51
  0
INSERT
  5
3F
100
AcDbEntity
  8
Dzialki
  6
CONTINUOUS
100
AcDbBlockReference
 66
0
  2
pikieta
 10
7561927.18500000052
 20
5724426.24500000011
 41
0.50
 42
0.50
 43
0.50
 50
348.51
  0
INSERT
  5
40
100
AcDbEntity
  8
Dzialki
  6
CONTINUOUS
100
AcDbBlockReference
 66
0
  2
L_0_02_2
 10
7561934.54000000004
 20
5724424.75
 41
0.50
 42
0.50
 43
0.50
 50
168.51
  0
INSERT
  5
41
100
AcDbEntity
  8
Dzialki
  6
CONTINUOUS
100
AcDbBlockReference
 66
0
  2
L_0_02_1
 10
7561934.54000000004
 20
5724424.75
 41
0.50
 42
0.50
 43
0.50
 50
259.45
  0
INSERT
  5
42
100
AcDbEntity
  8
Dzialki
  6
CONTINUOUS
100
AcDbBlockReference
 66
0
  2
pikieta
 10
7561932.0
 20
5724411.1099999994
 41
0.50
 42
0.50
 43
0.50
 50
259.45
  0
INSERT
  5
43
100
AcDbEntity
  8
Dzialki
  6
CONTINUOUS
100
AcDbBlockReference
 66
0
  2
L_0_02_2
 10
7561929.45999999996
 20
5724397.46999999974
 41
0.50
 42
0.50
 43
0.50
 50
79.45
  0
INSERT
  5
44
100
AcDbEntity
  8
Dzialki
  6
CONTINUOUS
100
AcDbBlockReference
 66
0
  2
L_0_02_1
 10
7561929.45999999996
 20
5724397.46999999974
 41
0.50
 42
0.50
 43
0.50
 50
212.05
  0
INSERT
  5
45
100
AcDbEntity
  8
Dzialki
  6
CONTINUOUS
100
AcDbBlockReference
 66
0
  2
pikieta
 10
7561923.375
 20
5724393.66000000015
 41
0.50
 42
0.50
 43
0.50
 50
212.05
  0
INSERT
  5
46
100
AcDbEntity
  8
Dzialki
  6
CONTINUOUS
100
AcDbBlockReference
 66
0
  2
L_0_02_2
 10
7561917.29000000004
 20
5724389.84999999963
 41
0.50
 42
0.50
 43
0.50
 50
32.05
  0
INSERT
  5
47
100
AcDbEntity
  8
Dzialki
  6
CONTINUOUS
100
AcDbBlockReference
 66
0
  2
L_0_02_1
 10
7561917.29000000004
 20
5724389.84999999963
 41
0.50
 42
0.50
 43
0.50
 50
92.89
  0
INSERT
  5
48
100
AcDbEntity
  8
Dzialki
  6
CONTINUOUS
100
AcDbBlockReference
 66
0
  2
pikieta
 10
7561916.6400000006
 20
5724402.7349999994
 41
0.50
 42
0.50
 43
0.50
 50
92.89
  0
INSERT
  5
49
100
AcDbEntity
  8
Dzialki
  6
CONTINUOUS
100
AcDbBlockReference
 66
0
  2
L_0_02_2
 10
7561915.99000000022
 20
5724415.62000000011
 41
0.50
 42
0.50
 43
0.50
 50
272.89
  0
INSERT
  5
4A
100
AcDbEntity
  8
Dzialki
  6
CONTINUOUS
100
AcDbBlockReference
 66
0
  2
L_0_02_1
 10
7561915.99000000022
 20
5724415.62000000011
 41
0.50
 42
0.50
 43
0.50
 50
137.12
  0
INSERT
  5
4B
100
AcDbEntity
  8
Dzialki
  6
CONTINUOUS
100
AcDbBlockReference
 66
0
  2
pikieta
 10
7561906.97499999963
 20
5724423.99000000022
 41
0.50
 42
0.50
 43
0.50
 50
137.12
  0
INSERT
  5
4C
100
AcDbEntity
  8
Dzialki
  6
CONTINUOUS
100
AcDbBlockReference
 66
0
  2
L_0_02_2
 10
7561897.95999999996
 20
5724432.36000000034
 41
0.50
 42
0.50
 43
0.50
 50
317.12
  0
INSERT
  5
4D
100
AcDbEntity
  8
Dzialki
  6
CONTINUOUS
100
AcDbBlockReference
 66
0
  2
L_0_02_1
 10
7561897.95999999996
 20
5724432.36000000034
 41
0.50
 42
0.50
 43
0.50
 50
80.59
  0
INSERT
  5
4E
100
AcDbEntity
  8
Dzialki
  6
CONTINUOUS
100
AcDbBlockReference
 66
0
  2
pikieta
 10
7561899.66500000004
 20
5724442.65000000037
 41
0.50
 42
0.50
 43
0.50
 50
80.59
  0
INSERT
  5
4F
100
AcDbEntity
  8
Dzialki
  6
CONTINUOUS
100
AcDbBlockReference
 66
0
  2
L_0_02_2
 10
7561901.37000000011
 20
5724452.94000000041
 41
0.50
 42
0.50
 43
0.50
 50
260.59
  0
INSERT
  5
50
100
AcDbEntity
  8
Dzialki
  6
CONTINUOUS
100
AcDbBlockReference
 66
0
  2
L_0_02_1
 10
7561901.37000000011
 20
5724452.94000000041
 41
0.50
 42
0.50
 43
0.50
 50
80.70
  0
INSERT
  5
51
100
AcDbEntity
  8
Dzialki
  6
CONTINUOUS
100
AcDbBlockReference
 66
0
  2
pikieta
 10
7561905.37999999989
 20
5724477.4299999997
 41
0.50
 42
0.50
 43
0.50
 50
80.70
  0
INSERT
  5
52
100
AcDbEntity
  8
Dzialki
  6
CONTINUOUS
100
AcDbBlockReference
 66
0
  2
L_0_02_2
 10
7561909.38999999966
 20
5724501.91999999993
 41
0.50
 42
0.50
 43
0.50
 50
260.70
  0
INSERT
  5
53
100
AcDbEntity
  8
Dzialki
  6
CONTINUOUS
100
AcDbBlockReference
 66
0
  2
L_0_02_1
 10
7561909.38999999966
 20
5724501.91999999993
 41
0.50
 42
0.50
 43
0.50
 50
41.18
  0
INSERT
  5
54
100
AcDbEntity
  8
Dzialki
  6
CONTINUOUS
100
AcDbBlockReference
 66
0
  2
pikieta
 10
7561913.33999999985
 20
5724505.375
 41
0.50
 42
0.50
 43
0.50
 50
41.18
  0
INSERT
  5
55
100
AcDbEntity
  8
Dzialki
  6
CONTINUOUS
100
AcDbBlockReference
 66
0
  2
L_0_02_2
 10
7561917.29000000004
 20
5724508.83000000007
 41
0.50
 42
0.50
 43
0.50
 50
221.18
  0
INSERT
  5
56
100
AcDbEntity
  8
Dzialki
  6
CONTINUOUS
100
AcDbBlockReference
 66
0
  2
L_0_02_1
 10
7561917.29000000004
 20
5724508.83000000007
 41
0.50
 42
0.50
 43
0.50
 50
79.55
  0
INSERT
  5
57
100
AcDbEntity
  8
Dzialki
  6
CONTINUOUS
100
AcDbBlockReference
 66
0
  2
pikieta
 10
7561924.43999999948
 20
5724547.6099999994
 41
0.50
 42
0.50
 43
0.50
 50
79.55
  0
INSERT
  5
58
100
AcDbEntity
  8
Dzialki
  6
CONTINUOUS
100
AcDbBlockReference
 66
0
  2
L_0_02_2
 10
7561931.58999999985
 20
5724586.38999999966
 41
0.50
 42
0.50
 43
0.50
 50
259.55
  0
INSERT
  5
59
100
AcDbEntity
  8
Dzialki
  6
CONTINUOUS
100
AcDbBlockReference
 66
0
  2
L_0_02_1
 10
7561931.58999999985
 20
5724586.38999999966
 41
0.50
 42
0.50
 43
0.50
 50
348.85
  0
INSERT
  5
5A
100
AcDbEntity
  8
Dzialki
  6
CONTINUOUS
100
AcDbBlockReference
 66
0
  2
pikieta
 10
7561936.00499999989
 20
5724585.51999999955
 41
0.50
 42
0.50
 43
0.50
 50
348.85
  0
INSERT
  5
5B
100
AcDbEntity
  8
Dzialki
  6
CONTINUOUS
100
AcDbBlockReference
 66
0
  2
L_0_02_2
 10
7561940.41999999993
 20
5724584.65000000037
 41
0.50
 42
0.50
 43
0.50
 50
168.85
  0
INSERT
  5
5C
100
AcDbEntity
  8
Dzialki
  6
CONTINUOUS
100
AcDbBlockReference
 66
0
  2
L_0_02_1
 10
7561940.41999999993
 20
5724584.65000000037
 41
0.50
 42
0.50
 43
0.50
 50
259.55
  0
INSERT
  5
5D
100
AcDbEntity
  8
Dzialki
  6
CONTINUOUS
100
AcDbBlockReference
 66
0
  2
pikieta
 10
7561932.84999999963
 20
5724543.59500000067
 41
0.50
 42
0.50
 43
0.50
 50
259.55
  0
INSERT
  5
5E
100
AcDbEntity
  8
Dzialki
  6
CONTINUOUS
100
AcDbBlockReference
 66
0
  2
L_0_02_2
 10
7561925.28000000026
 20
5724502.54000000004
 41
0.50
 42
0.50
 43
0.50
 50
79.55
  0
INSERT
  5
5F
100
AcDbEntity
  8
Dzialki
  6
CONTINUOUS
100
AcDbBlockReference
 66
0
  2
L_0_02_1
 10
7561925.28000000026
 20
5724502.54000000004
 41
0.50
 42
0.50
 43
0.50
 50
221.22
  0
INSERT
  5
60
100
AcDbEntity
  8
Dzialki
  6
CONTINUOUS
100
AcDbBlockReference
 66
0
  2
pikieta
 10
7561921.97499999963
 20
5724499.64499999955
 41
0.50
 42
0.50
 43
0.50
 50
221.22
  0
INSERT
  5
61
100
AcDbEntity
  8
Dzialki
  6
CONTINUOUS
100
AcDbBlockReference
 66
0
  2
L_0_02_2
 10
7561918.66999999992
 20
5724496.75
 41
0.50
 42
0.50
 43
0.50
 50
41.22
  0
INSERT
  5
62
100
AcDbEntity
  8
Dzialki
  6
CONTINUOUS
100
AcDbBlockReference
 66
0
  2
L_0_02_1
 10
7561918.66999999992
 20
5724496.75
 41
0.50
 42
0.50
 43
0.50
 50
260.73
  0
INSERT
  5
63
100
AcDbEntity
  8
Dzialki
  6
CONTINUOUS
100
AcDbBlockReference
 66
0
  2
pikieta
 10
7561918.2349999994
 20
5724494.08499999996
 41
0.50
 42
0.50
 43
0.50
 50
260.73
  0
INSERT
  5
64
100
AcDbEntity
  8
Dzialki
  6
CONTINUOUS
100
AcDbBlockReference
 66
0
  2
L_0_02_2
 10
7561917.79999999981
 20
5724491.41999999993
 41
0.50
 42
0.50
 43
0.50
 50
80.73
  0
INSERT
  5
65
100
AcDbEntity
  8
Dzialki
  6
CONTINUOUS
100
AcDbBlockReference
 66
0
  2
L_0_02_1
 10
7561917.79999999981
 20
5724491.41999999993
 41
0.50
 42
0.50
 43
0.50
 50
260.67
  0
INSERT
  5
66
100
AcDbEntity
  8
Dzialki
  6
CONTINUOUS
100
AcDbBlockReference
 66
0
  2
pikieta
 10
7561913.39499999955
 20
5724464.61500000022
 41
0.50
 42
0.50
 43
0.50
 50
260.67
  0
INSERT
  5
67
100
AcDbEntity
  8
Dzialki
  6
CONTINUOUS
100
AcDbBlockReference
 66
0
  2
L_0_02_2
 10
7561908.99000000022
 20
5724437.80999999959
 41
0.50
 42
0.50
 43
0.50
 50
80.67
  0
MLINE
  5
68
100
AcDbEntity
  8
Dzialki
  6
L_0_02
370
18
100
AcDbMline
  2
L_0_02
340
7
 40
1.0
 70
1
 71
3
 72
15
 73
1
 10
7561908.99000000022
 20
5724437.80999999959
 30
0.0
210
0.0
220
0.0
230
1.0
 11
7561908.99000000022
 21
5724437.80999999959
 12
0.732649041467
 22
-0.680606627971
 13
0.946151357749
 23
0.323724587003
 74
3
 41
0.0
 41
0.25
 41
14.545624352626
 75
0
 11
7561919.83000000007
 21
5724427.74000000022
 12
0.979960913404
 22
-0.199189879762
 13
0.456947769724
 23
0.889493527658
 74
3
 41
0.0
 41
0.25
 41
14.760802776675
 75
0
 11
7561934.54000000004
 21
5724424.75
 12
-0.183069921814
 22
-0.983099895091
 13
0.829224010053
 23
0.558916399073
 74
3
 41
0.0
 41
0.25
 41
27.498960341155
 75
0
 11
7561929.45999999996
 21
5724397.46999999974
 12
-0.847567640055
 22
-0.530687380226
 13
0.82660588137
 23
-0.562781233594
 74
3
 41
0.0
 41
0.25
 41
14.108736016791
 75
0
 11
7561917.29000000004
 21
5724389.84999999963
 12
-0.050382189142
 22
0.998730011073
 13
-0.46221438409
 23
-0.886768212748
 74
3
 41
0.0
 41
0.25
 41
25.552769231702
 75
0
 11
7561915.99000000022
 21
5724415.62000000011
 12
-0.732836919487
 22
0.680404327909
 13
-0.906261080942
 23
-0.422718408838
 74
3
 41
0.0
 41
0.25
 41
24.353018107884
 75
0
 11
7561897.95999999996
 21
5724432.36000000034
 12
0.163466080493
 22
0.986548954958
 13
-0.946320811754
 23
-0.323228899144
 74
3
 41
0.0
 41
0.25
 41
20.61059682761
 75
0
 11
7561901.37000000011
 21
5724452.94000000041
 12
0.161588464922
 22
0.986858230955
 13
-0.986704039575
 23
0.162527346273
 74
3
 41
0.0
 41
0.25
 41
49.382255640313
 75
0
 11
7561909.38999999966
 21
5724501.91999999993
 12
0.752694725932
 22
0.65836969064
 13
-0.874096894772
 23
0.485751601695
 74
3
 41
0.0
 41
0.25
 41
10.245622897568
 75
0
 11
7561917.29000000004
 21
5724508.83000000007
 12
0.181317333254
 22
0.983424641069
 13
-0.869189385649
 23
0.494479334124
 74
3
 41
0.0
 41
0.25
 41
78.617253026406
 75
0
 11
7561931.58999999985
 21
5724586.38999999966
 12
0.981132308658
 22
-0.193337510346
 13
-0.562125801982
 23
0.827051741275
 74
3
 41
0.0
 41
0.25
 41
8.749805553391
 75
0
 11
7561940.41999999993
 21
5724584.65000000037
 12
-0.18133008723
 22
-0.98342228949
 13
0.82705538635
 23
0.562120438971
 74
3
 41
0.0
 41
0.25
 41
83.24414171093
 75
0
 11
7561925.28000000026
 21
5724502.54000000004
 12
-0.75222410617
 22
-0.658907348643
 13
0.869362786924
 23
-0.49417440718
 74
3
 41
0.0
 41
0.25
 41
8.537274890708
 75
0
 11
7561918.66999999992
 21
5724496.75
 12
-0.161095090809
 22
-0.986938889556
 13
0.874391696066
 23
-0.485220735182
 74
3
 41
0.0
 41
0.25
 41
5.150537010427
 75
0
 11
7561917.79999999981
 21
5724491.41999999993
 12
-0.162159953646
 22
-0.986764485292
 13
0.986851831054
 23
-0.161627545751
 74
3
 41
0.0
 41
0.25
 41
54.079073248388
 75
0
  0
INSERT
  5
69
100
AcDbEntity
  8
Dzialki
  6
CONTINUOUS
100
AcDbBlockReference
 66
0
  2
L_0_02_1
 10
7562015.94000000041
 20
5724471.49000000022
 41
0.50
 42
0.50
 43
0.50
 50
168.52
  0
INSERT
  5
6A
100
AcDbEntity
  8
Dzialki
  6
CONTINUOUS
100
AcDbBlockReference
 66
0
  2
pikieta
 10
7561966.87000000011
 20
5724481.45500000007
 41
0.50
 42
0.50
 43
0.50
 50
168.52
  0
INSERT
  5
6B
100
AcDbEntity
  8
Dzialki
  6
CONTINUOUS
100
AcDbBlockReference
 66
0
  2
L_0_02_2
 10
7561917.79999999981
 20
5724491.41999999993
 41
0.50
 42
0.50
 43
0.50
 50
348.52
  0
INSERT
  5
6C
100
AcDbEntity
  8
Dzialki
  6
CONTINUOUS
100
AcDbBlockReference
 66
0
  2
L_0_02_1
 10
7561917.79999999981
 20
5724491.41999999993
 41
0.50
 42
0.50
 43
0.50
 50
80.73
  0
INSERT
  5
6D
100
AcDbEntity
  8
Dzialki
  6
CONTINUOUS
100
AcDbBlockReference
 66
0
  2
pikieta
 10
7561918.2349999994
 20
5724494.08499999996
 41
0.50
 42
0.50
 43
0.50
 50
80.73
  0
INSERT
  5
6E
100
AcDbEntity
  8
Dzialki
  6
CONTINUOUS
100
AcDbBlockReference
 66
0
  2
L_0_02_2
 10
7561918.66999999992
 20
5724496.75
 41
0.50
 42
0.50
 43
0.50
 50
260.73
  0
INSERT
  5
6F
100
AcDbEntity
  8
Dzialki
  6
CONTINUOUS
100
AcDbBlockReference
 66
0
  2
L_0_02_1
 10
7561918.66999999992
 20
5724496.75
 41
0.50
 42
0.50
 43
0.50
 50
41.22
  0
INSERT
  5
70
100
AcDbEntity
  8
Dzialki
  6
CONTINUOUS
100
AcDbBlockReference
 66
0
  2
pikieta
 10
7561921.97499999963
 20
5724499.64499999955
 41
0.50
 42
0.50
 43
0.50
 50
41.22
  0
INSERT
  5
71
100
AcDbEntity
  8
Dzialki
  6
CONTINUOUS
100
AcDbBlockReference
 66
0
  2
L_0_02_2
 10
7561925.28000000026
 20
5724502.54000000004
 41
0.50
 42
0.50
 43
0.50
 50
221.22
  0
INSERT
  5
72
100
AcDbEntity
  8
Dzialki
  6
CONTINUOUS
100
AcDbBlockReference
 66
0
  2
L_0_02_1
 10
7561925.28000000026
 20
5724502.54000000004
 41
0.50
 42
0.50
 43
0.50
 50
79.55
  0
INSERT
  5
73
100
AcDbEntity
  8
Dzialki
  6
CONTINUOUS
100
AcDbBlockReference
 66
0
  2
pikieta
 10
7561932.84999999963
 20
5724543.59500000067
 41
0.50
 42
0.50
 43
0.50
 50
79.55
  0
INSERT
  5
74
100
AcDbEntity
  8
Dzialki
  6
CONTINUOUS
100
AcDbBlockReference
 66
0
  2
L_0_02_2
 10
7561940.41999999993
 20
5724584.65000000037
 41
0.50
 42
0.50
 43
0.50
 50
259.55
  0
INSERT
  5
75
100
AcDbEntity
  8
Dzialki
  6
CONTINUOUS
100
AcDbBlockReference
 66
0
  2
L_0_02_1
 10
7561940.41999999993
 20
5724584.65000000037
 41
0.50
 42
0.50
 43
0.50
 50
348.85
  0
INSERT
  5
76
100
AcDbEntity
  8
Dzialki
  6
CONTINUOUS
100
AcDbBlockReference
 66
0
  2
pikieta
 10
7561987.14499999955
 20
5724575.44000000041
 41
0.50
 42
0.50
 43
0.50
 50
348.85
  0
INSERT
  5
77
100
AcDbEntity
  8
Dzialki
  6
CONTINUOUS
100
AcDbBlockReference
 66
0
  2
L_0_02_2
 10
7562033.87000000011
 20
5724566.23000000045
 41
0.50
 42
0.50
 43
0.50
 50
168.85
  0
INSERT
  5
78
100
AcDbEntity
  8
Dzialki
  6
CONTINUOUS
100
AcDbBlockReference
 66
0
  2
L_0_02_1
 10
7562033.87000000011
 20
5724566.23000000045
 41
0.50
 42
0.50
 43
0.50
 50
259.28
  0
INSERT
  5
79
100
AcDbEntity
  8
Dzialki
  6
CONTINUOUS
100
AcDbBlockReference
 66
0
  2
pikieta
 10
7562024.90500000026
 20
5724518.86000000034
 41
0.50
 42
0.50
 43
0.50
 50
259.28
  0
INSERT
  5
7A
100
AcDbEntity
  8
Dzialki
  6
CONTINUOUS
100
AcDbBlockReference
 66
0
  2
L_0_02_2
 10
7562015.94000000041
 20
5724471.49000000022
 41
0.50
 42
0.50
 43
0.50
 50
79.28
  0
MLINE
  5
7B
100
AcDbEntity
  8
Dzialki
  6
L_0_02
370
18
100
AcDbMline
  2
L_0_02
340
7
 40
1.0
 70
1
 71
3
 72
6
 73
1
 10
7562015.94000000041
 20
5724471.49000000022
 30
0.0
210
0.0
220
0.0
230
1.0
 11
7562015.94000000041
 21
5724471.49000000022
 12
-0.979996449671
 22
0.199014970874
 13
0.557773244442
 23
-0.829993378157
 74
3
 41
0.0
 41
0.25
 41
99.893219940768
 75
0
 11
7561917.79999999981
 21
5724491.41999999993
 12
0.161095090809
 22
0.986938889556
 13
-0.822887668947
 23
-0.568204086834
 74
3
 41
0.0
 41
0.25
 41
5.150537010427
 75
0
 11
7561918.66999999992
 21
5724496.75
 12
0.75222410617
 22
0.658907348643
 13
-0.874391696066
 23
0.485220735182
 74
3
 41
0.0
 41
0.25
 41
8.537274890708
 75
0
 11
7561925.28000000026
 21
5724502.54000000004
 12
0.18133008723
 22
0.98342228949
 13
-0.869362786924
 23
0.49417440718
 74
3
 41
0.0
 41
0.25
 41
83.24414171093
 75
0
 11
7561940.41999999993
 21
5724584.65000000037
 12
0.981122022557
 22
-0.193389702037
 13
-0.5620984409
 23
0.827070337237
 74
3
 41
0.0
 41
0.25
 41
94.998091319627
 75
0
 11
7562033.87000000011
 21
5724566.23000000045
 12
-0.185953908985
 22
-0.982558468354
 13
0.828390054478
 23
0.560151691636
 74
3
 41
0.0
 41
0.25
 41
96.171742880077
 75
0
  0
INSERT
  5
7C
100
AcDbEntity
  8
Dzialki
  6
CONTINUOUS
100
AcDbBlockReference
 66
0
  2
L_0_02_1
 10
7562002.95999999996
 20
5724579.62000000011
 41
0.50
 42
0.50
 43
0.50
 50
170.25
  0
INSERT
  5
7D
100
AcDbEntity
  8
Dzialki
  6
CONTINUOUS
100
AcDbBlockReference
 66
0
  2
pikieta
 10
7561978.02500000037
 20
5724583.90500000026
 41
0.50
 42
0.50
 43
0.50
 50
170.25
  0
INSERT
  5
7E
100
AcDbEntity
  8
Dzialki
  6
CONTINUOUS
100
AcDbBlockReference
 66
0
  2
L_0_02_2
 10
7561953.08999999985
 20
5724588.19000000041
 41
0.50
 42
0.50
 43
0.50
 50
350.25
  0
INSERT
  5
7F
100
AcDbEntity
  8
Dzialki
  6
CONTINUOUS
100
AcDbBlockReference
 66
0
  2
L_0_02_1
 10
7561953.08999999985
 20
5724588.19000000041
 41
0.50
 42
0.50
 43
0.50
 50
84.68
  0
INSERT
  5
80
100
AcDbEntity
  8
Dzialki
  6
CONTINUOUS
100
AcDbBlockReference
 66
0
  2
pikieta
 10
7561956.06499999948
 20
5724620.16000000015
 41
0.50
 42
0.50
 43
0.50
 50
84.68
  0
INSERT
  5
81
100
AcDbEntity
  8
Dzialki
  6
CONTINUOUS
100
AcDbBlockReference
 66
0
  2
L_0_02_2
 10
7561959.04000000004
 20
5724652.12999999989
 41
0.50
 42
0.50
 43
0.50
 50
264.68
  0
INSERT
  5
82
100
AcDbEntity
  8
Dzialki
  6
CONTINUOUS
100
AcDbBlockReference
 66
0
  2
L_0_02_1
 10
7561959.04000000004
 20
5724652.12999999989
 41
0.50
 42
0.50
 43
0.50
 50
354.73
  0
INSERT
  5
83
100
AcDbEntity
  8
Dzialki
  6
CONTINUOUS
100
AcDbBlockReference
 66
0
  2
pikieta
 10
7561963.97000000067
 20
5724651.67499999981
 41
0.50
 42
0.50
 43
0.50
 50
354.73
  0
INSERT
  5
84
100
AcDbEntity
  8
Dzialki
  6
CONTINUOUS
100
AcDbBlockReference
 66
0
  2
L_0_02_2
 10
7561968.90000000037
 20
5724651.21999999974
 41
0.50
 42
0.50
 43
0.50
 50
174.73
  0
INSERT
  5
85
100
AcDbEntity
  8
Dzialki
  6
CONTINUOUS
100
AcDbBlockReference
 66
0
  2
L_0_02_1
 10
7561968.90000000037
 20
5724651.21999999974
 41
0.50
 42
0.50
 43
0.50
 50
84.69
  0
INSERT
  5
86
100
AcDbEntity
  8
Dzialki
  6
CONTINUOUS
100
AcDbBlockReference
 66
0
  2
pikieta
 10
7561972.83499999996
 20
5724693.56000000052
 41
0.50
 42
0.50
 43
0.50
 50
84.69
  0
INSERT
  5
87
100
AcDbEntity
  8
Dzialki
  6
CONTINUOUS
100
AcDbBlockReference
 66
0
  2
L_0_02_2
 10
7561976.76999999955
 20
5724735.90000000037
 41
0.50
 42
0.50
 43
0.50
 50
264.69
  0
INSERT
  5
88
100
AcDbEntity
  8
Dzialki
  6
CONTINUOUS
100
AcDbBlockReference
 66
0
  2
L_0_02_1
 10
7561976.76999999955
 20
5724735.90000000037
 41
0.50
 42
0.50
 43
0.50
 50
310.00
  0
INSERT
  5
89
100
AcDbEntity
  8
Dzialki
  6
CONTINUOUS
100
AcDbBlockReference
 66
0
  2
pikieta
 10
7561988.91999999992
 20
5724721.41999999993
 41
0.50
 42
0.50
 43
0.50
 50
310.00
  0
INSERT
  5
8A
100
AcDbEntity
  8
Dzialki
  6
CONTINUOUS
100
AcDbBlockReference
 66
0
  2
L_0_02_2
 10
7562001.0700000003
 20
5724706.94000000041
 41
0.50
 42
0.50
 43
0.50
 50
130.00
  0
INSERT
  5
8B
100
AcDbEntity
  8
Dzialki
  6
CONTINUOUS
100
AcDbBlockReference
 66
0
  2
L_0_02_1
 10
7562001.0700000003
 20
5724706.94000000041
 41
0.50
 42
0.50
 43
0.50
 50
309.98
  0
INSERT
  5
8C
100
AcDbEntity
  8
Dzialki
  6
CONTINUOUS
100
AcDbBlockReference
 66
0
  2
pikieta
 10
7562007.25
 20
5724699.5700000003
 41
0.50
 42
0.50
 43
0.50
 50
309.98
  0
INSERT
  5
8D
100
AcDbEntity
  8
Dzialki
  6
CONTINUOUS
100
AcDbBlockReference
 66
0
  2
L_0_02_2
 10
7562013.4299999997
 20
5724692.20000000019
 41
0.50
 42
0.50
 43
0.50
 50
129.98
  0
INSERT
  5
8E
100
AcDbEntity
  8
Dzialki
  6
CONTINUOUS
100
AcDbBlockReference
 66
0
  2
L_0_02_1
 10
7562013.4299999997
 20
5724692.20000000019
 41
0.50
 42
0.50
 43
0.50
 50
264.69
  0
INSERT
  5
8F
100
AcDbEntity
  8
Dzialki
  6
CONTINUOUS
100
AcDbBlockReference
 66
0
  2
pikieta
 10
7562008.1950000003
 20
5724635.91000000015
 41
0.50
 42
0.50
 43
0.50
 50
264.69
  0
INSERT
  5
90
100
AcDbEntity
  8
Dzialki
  6
CONTINUOUS
100
AcDbBlockReference
 66
0
  2
L_0_02_2
 10
7562002.95999999996
 20
5724579.62000000011
 41
0.50
 42
0.50
 43
0.50
 50
84.69
  0
MLINE
  5
91
100
AcDbEntity
  8
Dzialki
  6
L_0_02
370
18
100
AcDbMline
  2
L_0_02
340
7
 40
1.0
 70
1
 71
3
 72
7
 73
1
 10
7562002.95999999996
 20
5724579.62000000011
 30
0.0
210
0.0
220
0.0
230
1.0
 11
7562002.95999999996
 21
5724579.62000000011
 12
-0.985553529903
 22
0.169364222008
 13
0.608317476217
 23
-0.793693799981
 74
3
 41
0.0
 41
0.25
 41
50.351005919016
 75
0
 11
7561953.08999999985
 21
5724588.19000000041
 12
0.092655682624
 22
0.995698209538
 13
-0.7937105227
 23
-0.608295656861
 74
3
 41
0.0
 41
0.25
 41
63.96624482898
 75
0
 11
7561959.04000000004
 21
5724652.12999999989
 12
0.995768100968
 22
-0.091901518458
 13
-0.638838887939
 23
0.769340545699
 74
3
 41
0.0
 41
0.25
 41
9.651903857687
 75
0
 11
7561968.90000000037
 21
5724651.21999999974
 12
0.092539325326
 22
0.995709030424
 13
-0.638883839175
 23
0.769303217231
 74
3
 41
0.0
 41
0.25
 41
84.794925187188
 75
0
 11
7561976.76999999955
 21
5724735.90000000037
 12
0.642782559875
 22
-0.766048680386
 13
-0.298123922869
 23
0.954527174371
 74
3
 41
0.0
 41
0.25
 41
37.55438598938
 75
0
 11
7562001.0700000003
 21
5724706.94000000041
 12
0.642533503164
 22
-0.766257592009
 13
0.766153146318
 23
0.642658040008
 74
3
 41
0.0
 41
0.25
 41
18.986351005112
 75
0
 11
7562013.4299999997
 21
5724692.20000000019
 12
-0.092600937781
 22
-0.995703302356
 13
0.954584836399
 23
0.297939238967
 74
3
 41
0.0
 41
0.25
 41
112.815809597824
 75
0
  0
INSERT
  5
92
100
AcDbEntity
  8
Dzialki
  6
CONTINUOUS
100
AcDbBlockReference
 66
0
  2
L_0_02_1
 10
7561959.04000000004
 20
5724652.12999999989
 41
0.50
 42
0.50
 43
0.50
 50
174.73
  0
INSERT
  5
93
100
AcDbEntity
  8
Dzialki
  6
CONTINUOUS
100
AcDbBlockReference
 66
0
  2
pikieta
 10
7561947.27999999933
 20
5724653.21499999985
 41
0.50
 42
0.50
 43
0.50
 50
174.73
  0
INSERT
  5
94
100
AcDbEntity
  8
Dzialki
  6
CONTINUOUS
100
AcDbBlockReference
 66
0
  2
L_0_02_2
 10
7561935.51999999955
 20
5724654.29999999981
 41
0.50
 42
0.50
 43
0.50
 50
354.73
  0
INSERT
  5
95
100
AcDbEntity
  8
Dzialki
  6
CONTINUOUS
100
AcDbBlockReference
 66
0
  2
L_0_02_1
 10
7561935.51999999955
 20
5724654.29999999981
 41
0.50
 42
0.50
 43
0.50
 50
264.68
  0
INSERT
  5
96
100
AcDbEntity
  8
Dzialki
  6
CONTINUOUS
100
AcDbBlockReference
 66
0
  2
pikieta
 10
7561932.62999999989
 20
5724623.24500000011
 41
0.50
 42
0.50
 43
0.50
 50
264.68
  0
INSERT
  5
97
100
AcDbEntity
  8
Dzialki
  6
CONTINUOUS
100
AcDbBlockReference
 66
0
  2
L_0_02_2
 10
7561929.74000000022
 20
5724592.19000000041
 41
0.50
 42
0.50
 43
0.50
 50
84.68
  0
INSERT
  5
98
100
AcDbEntity
  8
Dzialki
  6
CONTINUOUS
100
AcDbBlockReference
 66
0
  2
L_0_02_1
 10
7561929.74000000022
 20
5724592.19000000041
 41
0.50
 42
0.50
 43
0.50
 50
259.31
  0
INSERT
  5
99
100
AcDbEntity
  8
Dzialki
  6
CONTINUOUS
100
AcDbBlockReference
 66
0
  2
pikieta
 10
7561929.5549999997
 20
5724591.21000000089
 41
0.50
 42
0.50
 43
0.50
 50
259.31
  0
INSERT
  5
9A
100
AcDbEntity
  8
Dzialki
  6
CONTINUOUS
100
AcDbBlockReference
 66
0
  2
L_0_02_2
 10
7561929.37000000011
 20
5724590.23000000045
 41
0.50
 42
0.50
 43
0.50
 50
79.31
  0
INSERT
  5
9B
100
AcDbEntity
  8
Dzialki
  6
CONTINUOUS
100
AcDbBlockReference
 66
0
  2
L_0_02_1
 10
7561929.37000000011
 20
5724590.23000000045
 41
0.50
 42
0.50
 43
0.50
 50
169.43
  0
INSERT
  5
9C
100
AcDbEntity
  8
Dzialki
  6
CONTINUOUS
100
AcDbBlockReference
 66
0
  2
pikieta
 10
7561910.74500000011
 20
5724593.70500000007
 41
0.50
 42
0.50
 43
0.50
 50
169.43
  0
INSERT
  5
9D
100
AcDbEntity
  8
Dzialki
  6
CONTINUOUS
100
AcDbBlockReference
 66
0
  2
L_0_02_2
 10
7561892.12000000011
 20
5724597.1799999997
 41
0.50
 42
0.50
 43
0.50
 50
349.43
  0
INSERT
  5
9E
100
AcDbEntity
  8
Dzialki
  6
CONTINUOUS
100
AcDbBlockReference
 66
0
  2
L_0_02_1
 10
7561892.12000000011
 20
5724597.1799999997
 41
0.50
 42
0.50
 43
0.50
 50
167.03
  0
INSERT
  5
9F
100
AcDbEntity
  8
Dzialki
  6
CONTINUOUS
100
AcDbBlockReference
 66
0
  2
pikieta
 10
7561880.29000000004
 20
5724599.90499999933
 41
0.50
 42
0.50
 43
0.50
 50
167.03
  0
INSERT
  5
A0
100
AcDbEntity
  8
Dzialki
  6
CONTINUOUS
100
AcDbBlockReference
 66
0
  2
L_0_02_2
 10
7561868.45999999996
 20
5724602.62999999989
 41
0.50
 42
0.50
 43
0.50
 50
347.03
  0
INSERT
  5
A1
100
AcDbEntity
  8
Dzialki
  6
CONTINUOUS
100
AcDbBlockReference
 66
0
  2
L_0_02_1
 10
7561868.45999999996
 20
5724602.62999999989
 41
0.50
 42
0.50
 43
0.50
 50
84.69
  0
INSERT
  5
A2
100
AcDbEntity
  8
Dzialki
  6
CONTINUOUS
100
AcDbBlockReference
 66
0
  2
pikieta
 10
7561879.4450000003
 20
5724720.73000000045
 41
0.50
 42
0.50
 43
0.50
 50
84.69
  0
INSERT
  5
A3
100
AcDbEntity
  8
Dzialki
  6
CONTINUOUS
100
AcDbBlockReference
 66
0
  2
L_0_02_2
 10
7561890.4299999997
 20
5724838.83000000007
 41
0.50
 42
0.50
 43
0.50
 50
264.69
  0
INSERT
  5
A4
100
AcDbEntity
  8
Dzialki
  6
CONTINUOUS
100
AcDbBlockReference
 66
0
  2
L_0_02_1
 10
7561890.4299999997
 20
5724838.83000000007
 41
0.50
 42
0.50
 43
0.50
 50
309.99
  0
INSERT
  5
A5
100
AcDbEntity
  8
Dzialki
  6
CONTINUOUS
100
AcDbBlockReference
 66
0
  2
pikieta
 10
7561933.59999999963
 20
5724787.36500000022
 41
0.50
 42
0.50
 43
0.50
 50
309.99
  0
INSERT
  5
A6
100
AcDbEntity
  8
Dzialki
  6
CONTINUOUS
100
AcDbBlockReference
 66
0
  2
L_0_02_2
 10
7561976.76999999955
 20
5724735.90000000037
 41
0.50
 42
0.50
 43
0.50
 50
129.99
  0
INSERT
  5
A7
100
AcDbEntity
  8
Dzialki
  6
CONTINUOUS
100
AcDbBlockReference
 66
0
  2
L_0_02_1
 10
7561976.76999999955
 20
5724735.90000000037
 41
0.50
 42
0.50
 43
0.50
 50
264.69
  0
INSERT
  5
A8
100
AcDbEntity
  8
Dzialki
  6
CONTINUOUS
100
AcDbBlockReference
 66
0
  2
pikieta
 10
7561972.83499999996
 20
5724693.56000000052
 41
0.50
 42
0.50
 43
0.50
 50
264.69
  0
INSERT
  5
A9
100
AcDbEntity
  8
Dzialki
  6
CONTINUOUS
100
AcDbBlockReference
 66
0
  2
L_0_02_2
 10
7561968.90000000037
 20
5724651.21999999974
 41
0.50
 42
0.50
 43
0.50
 50
84.69
  0
INSERT
  5
AA
100
AcDbEntity
  8
Dzialki
  6
CONTINUOUS
100
AcDbBlockReference
 66
0
  2
L_0_02_1
 10
7561968.90000000037
 20
5724651.21999999974
 41
0.50
 42
0.50
 43
0.50
 50
174.73
  0
INSERT
  5
AB
100
AcDbEntity
  8
Dzialki
  6
CONTINUOUS
100
AcDbBlockReference
 66
0
  2
pikieta
 10
7561963.97000000067
 20
5724651.67499999981
 41
0.50
 42
0.50
 43
0.50
 50
174.73
  0
INSERT
  5
AC
100
AcDbEntity
  8
Dzialki
  6
CONTINUOUS
100
AcDbBlockReference
 66
0
  2
L_0_02_2
 10
7561959.04000000004
 20
5724652.12999999989
 41
0.50
 42
0.50
 43
0.50
 50
354.73
  0
MLINE
  5
AD
100
AcDbEntity
  8
Dzialki
  6
L_0_02
370
18
100
AcDbMline
  2
L_0_02
340
7
 40
1.0
 70
1
 71
3
 72
9
 73
1
 10
7561959.04000000004
 20
5724652.12999999989
 30
0.0
210
0.0
220
0.0
230
1.0
 11
7561959.04000000004
 21
5724652.12999999989
 12
-0.995770851102
 22
0.091871715424
 13
-0.091886616951
 23
-0.995769476147
 74
3
 41
0.0
 41
0.25
 41
23.369892040872
 75
0
 11
7561935.51999999955
 21
5724654.29999999981
 12
-0.09266033087
 22
-0.99569777698
 13
0.638848605168
 23
-0.76933247668
 74
3
 41
0.0
 41
0.25
 41
62.128365640005
 75
0
 11
7561929.74000000022
 21
5724592.19000000041
 12
-0.185499200865
 22
-0.982644415075
 13
0.990259673602
 23
-0.139232822416
 74
3
 41
0.0
 41
0.25
 41
1.744617757852
 75
0
 11
7561929.37000000011
 21
5724590.23000000045
 12
-0.983036112781
 22
0.183412106929
 13
0.564543489967
 23
-0.825403324403
 74
3
 41
0.0
 41
0.25
 41
37.642809344118
 75
0
 11
7561892.12000000011
 21
5724597.1799999997
 12
-0.974481358122
 22
0.224468444713
 13
-0.203985127053
 23
-0.978973987367
 74
3
 41
0.0
 41
0.25
 41
24.029581957049
 75
0
 11
7561868.45999999996
 21
5724602.62999999989
 12
0.092614621472
 22
0.99570202967
 13
-0.810479767826
 23
-0.585766630958
 74
3
 41
0.0
 41
0.25
 41
236.969562642031
 75
0
 11
7561890.4299999997
 21
5724838.83000000007
 12
0.64266300481
 22
-0.766148981758
 13
-0.298013349457
 23
0.954561702325
 74
3
 41
0.0
 41
0.25
 41
134.097238527306
 75
0
 11
7561976.76999999955
 21
5724735.90000000037
 12
-0.092539325326
 22
-0.995709030424
 13
0.954550433624
 23
0.298049441651
 74
3
 41
0.0
 41
0.25
 41
84.794925187188
 75
0
 11
7561968.90000000037
 21
5724651.21999999974
 12
-0.995768100968
 22
0.091901518458
 13
0.638883839175
 23
-0.769303217231
 74
3
 41
0.0
 41
0.25
 41
9.651903857687
 75
0
  0
INSERT
  5
AE
100
AcDbEntity
  8
Dzialki
  6
CONTINUOUS
100
AcDbBlockReference
 66
0
  2
L_0_02_1
 10
7561929.74000000022
 20
5724592.19000000041
 41
0.50
 42
0.50
 43
0.50
 50
84.68
  0
INSERT
  5
AF
100
AcDbEntity
  8
Dzialki
  6
CONTINUOUS
100
AcDbBlockReference
 66
0
  2
pikieta
 10
7561932.62999999989
 20
5724623.24500000011
 41
0.50
 42
0.50
 43
0.50
 50
84.68
  0
INSERT
  5
B0
100
AcDbEntity
  8
Dzialki
  6
CONTINUOUS
100
AcDbBlockReference
 66
0
  2
L_0_02_2
 10
7561935.51999999955
 20
5724654.29999999981
 41
0.50
 42
0.50
 43
0.50
 50
264.68
  0
INSERT
  5
B1
100
AcDbEntity
  8
Dzialki
  6
CONTINUOUS
100
AcDbBlockReference
 66
0
  2
L_0_02_1
 10
7561935.51999999955
 20
5724654.29999999981
 41
0.50
 42
0.50
 43
0.50
 50
354.73
  0
INSERT
  5
B2
100
AcDbEntity
  8
Dzialki
  6
CONTINUOUS
100
AcDbBlockReference
 66
0
  2
pikieta
 10
7561947.27999999933
 20
5724653.21499999985
 41
0.50
 42
0.50
 43
0.50
 50
354.73
  0
INSERT
  5
B3
100
AcDbEntity
  8
Dzialki
  6
CONTINUOUS
100
AcDbBlockReference
 66
0
  2
L_0_02_2
 10
7561959.04000000004
 20
5724652.12999999989
 41
0.50
 42
0.50
 43
0.50
 50
174.73
  0
INSERT
  5
B4
100
AcDbEntity
  8
Dzialki
  6
CONTINUOUS
100
AcDbBlockReference
 66
0
  2
L_0_02_1
 10
7561959.04000000004
 20
5724652.12999999989
 41
0.50
 42
0.50
 43
0.50
 50
264.68
  0
INSERT
  5
B5
100
AcDbEntity
  8
Dzialki
  6
CONTINUOUS
100
AcDbBlockReference
 66
0
  2
pikieta
 10
7561956.06499999948
 20
5724620.16000000015
 41
0.50
 42
0.50
 43
0.50
 50
264.68
  0
INSERT
  5
B6
100
AcDbEntity
  8
Dzialki
  6
CONTINUOUS
100
AcDbBlockReference
 66
0
  2
L_0_02_2
 10
7561953.08999999985
 20
5724588.19000000041
 41
0.50
 42
0.50
 43
0.50
 50
84.68
  0
INSERT
  5
B7
100
AcDbEntity
  8
Dzialki
  6
CONTINUOUS
100
AcDbBlockReference
 66
0
  2
L_0_02_1
 10
7561953.08999999985
 20
5724588.19000000041
 41
0.50
 42
0.50
 43
0.50
 50
170.28
  0
INSERT
  5
B8
100
AcDbEntity
  8
Dzialki
  6
CONTINUOUS
100
AcDbBlockReference
 66
0
  2
pikieta
 10
7561941.41500000004
 20
5724590.19000000041
 41
0.50
 42
0.50
 43
0.50
 50
170.28
  0
INSERT
  5
B9
100
AcDbEntity
  8
Dzialki
  6
CONTINUOUS
100
AcDbBlockReference
 66
0
  2
L_0_02_2
 10
7561929.74000000022
 20
5724592.19000000041
 41
0.50
 42
0.50
 43
0.50
 50
350.28
  0
MLINE
  5
BA
100
AcDbEntity
  8
Dzialki
  6
L_0_02
370
18
100
AcDbMline
  2
L_0_02
340
7
 40
1.0
 70
1
 71
3
 72
4
 73
1
 10
7561929.74000000022
 20
5724592.19000000041
 30
0.0
210
0.0
220
0.0
230
1.0
 11
7561929.74000000022
 21
5724592.19000000041
 12
0.09266033087
 22
0.99569777698
 13
-0.793552197716
 23
-0.608502185288
 74
3
 41
0.0
 41
0.25
 41
62.128365640005
 75
0
 11
7561935.51999999955
 21
5724654.29999999981
 12
0.995770851102
 22
-0.091871715424
 13
-0.638848605168
 23
0.76933247668
 74
3
 41
0.0
 41
0.25
 41
23.369892040872
 75
0
 11
7561959.04000000004
 21
5724652.12999999989
 12
-0.092655682624
 22
-0.995698209538
 13
0.7693309855
 23
0.638850400915
 74
3
 41
0.0
 41
0.25
 41
63.96624482898
 75
0
 11
7561953.08999999985
 21
5724588.19000000041
 12
-0.985642332701
 22
0.168846652285
 13
0.608504037568
 23
-0.793550777369
 74
3
 41
0.0
 41
0.25
 41
23.44013507734
 75
0
  0
TEXT
  5
BB
100
AcDbEntity
  8
Dzialki
370
25
100
AcDbText
 39
0.25
 10
7561892.45000000019
 20
5724547.0549999997
 40
1.25
  1
29-468/4
 50
0.00
 41
0.66
  7
STANDARD
 72
1
 11
7561894.95000000019
 21
5724547.6799999997
100
AcDbText
 73
2
  0
TEXT
  5
BC
100
AcDbEntity
  8
Dzialki
370
25
100
AcDbText
 39
0.25
 10
7561909.63999999966
 20
5724481.625
 40
1.25
  1
29-468/5
 50
0.00
 41
0.66
  7
STANDARD
 72
1
 11
7561912.13999999966
 21
5724482.25
100
AcDbText
 73
2
  0
TEXT
  5
BD
100
AcDbEntity
  8
Dzialki
370
25
100
AcDbText
 39
0.25
 10
7561988.87999999989
 20
5724516.54499999993
 40
1.25
  1
29-468/6
 50
0.00
 41
0.66
  7
STANDARD
 72
1
 11
7561991.37999999989
 21
5724517.16999999993
100
AcDbText
 73
2
  0
TEXT
  5
BE
100
AcDbEntity
  8
Dzialki
370
25
100
AcDbText
 39
0.25
 10
7561981.66999999993
 20
5724630.10500000045
 40
1.25
  1
27-142/9
 50
0.00
 41
0.66
  7
STANDARD
 72
1
 11
7561984.16999999992
 21
5724630.73000000045
100
AcDbText
 73
2
  0
TEXT
  5
BF
100
AcDbEntity
  8
Dzialki
370
25
100
AcDbText
 39
0.25
 10
7561913.2575000003
 20
5724682.68499999959
 40
1.25
  1
27-142/11
 50
0.00
 41
0.66
  7
STANDARD
 72
1
 11
7561916.0700000003
 21
5724683.30999999959
100
AcDbText
 73
2
  0
TEXT
  5
C0
100
AcDbEntity
  8
Dzialki
370
25
100
AcDbText
 39
0.25
 10
7561941.60749999993
 20
5724618.04499999993
 40
1.25
  1
27-142/12
 50
0.00
 41
0.66
  7
STANDARD
 72
1
 11
7561944.41999999993
 21
5724618.66999999993
100
AcDbText
 73
2
  0
ENDSEC
  0
SECTION
  2
OBJECTS
  0
DICTIONARY
  5
C1
330
0
100
AcDbDictionary
280
0
281
1
  3
ACAD_GROUP
350
C2
  3
ACAD_LAYOUT
350
C3
  3
ACAD_MLINESTYLE
350
C4
  3
ACAD_PLOTSETTINGS
350
C5
  3
ACAD_PLOTSTYLENAME
350
C6
  0
DICTIONARY
  5
C2
102
{ACAD_REACTORS
330
C1
102
}
330
C1
100
AcDbDictionary
280
0
281
1
  0
DICTIONARY
  5
C3
102
{ACAD_REACTORS
330
C1
102
}
330
C1
100
AcDbDictionary
280
0
281
1
  3
Layout
350
1A
  3
Model
350
18
  0
DICTIONARY
  5
C4
102
{ACAD_REACTORS
330
C1
102
}
330
C1
100
AcDbDictionary
280
0
281
1
  3
Standard
350
C7
  3
L_0_02
350
7
  0
DICTIONARY
  5
C5
102
{ACAD_REACTORS
330
C1
102
}
330
C1
100
AcDbDictionary
280
0
281
1
  0
ACDBDICTIONARYWDFLT
  5
C6
102
{ACAD_REACTORS
330
C1
102
}
330
C1
100
AcDbDictionary
281
1
  3
Normal
350
B
100
AcDbDictionaryWithDefault
340
B
  0
LAYOUT
  5
1A
100
AcDbPlotSettings
  1

  2

  4

  6

 40
0.0
 41
0.0
 42
0.0
 43
0.0
 44
0.0
 45
0.0
 46
0.0
 47
0.0
 48
0.0
 49
0.0
140
0.0
141
0.0
142
1.0
143
1.0
 70
688
 72
1
 73
0
 74
5
  7

 75
0
147
1.0
148
0.0
149
0.0
100
AcDbLayout
  1
Layout
 70
1
 71
1
 10
0.0
 20
0.0
 11
420.0
 21
297.0
 12
0.0
 22
0.0
 32
0.0
 14
100000000000000000000.0
 24
100000000000000000000.0
 34
100000000000000000000.0
 15
-100000000000000000000.0
 25
-100000000000000000000.0
 35
-100000000000000000000.0
146
0.0
 13
0.0
 23
0.0
 33
0.0
 16
1.0
 26
0.0
 36
0.0
 17
0.0
 27
1.0
 37
0.0
 76
0
330
19
  0
LAYOUT
  5
18
100
AcDbPlotSettings
  1

  2

  4

  6

 40
0.0
 41
0.0
 42
0.0
 43
0.0
 44
0.0
 45
0.0
 46
0.0
 47
0.0
 48
0.0
 49
0.0
140
0.0
141
0.0
142
1.0
143
1.0
 70
1712
 72
1
 73
0
 74
0
  7

 75
0
147
1.0
148
0.0
149
0.0
100
AcDbLayout
  1
Model
 70
1
 71
0
 10
0.0
 20
0.0
 11
12.0
 21
9.0
 12
0.0
 22
0.0
 32
0.0
 14
0.0
 24
0.0
 34
0.0
 15
0.0
 25
0.0
 35
0.0
146
0.0
 13
0.0
 23
0.0
 33
0.0
 16
1.0
 26
0.0
 36
0.0
 17
0.0
 27
1.0
 37
0.0
 76
0
330
17
  0
MLINESTYLE
  5
C7
102
{ACAD_REACTORS
330
C4
102
}
330
C4
100
AcDbMlineStyle
  2
Standard
 70
0
  3

 62
256
 51
90.0
 52
90.0
  2
Standard
 71
2
 49
0.5
 62
256
  6
ByLayer
 49
-0.5
 62
256
  6
ByLayer
  0
MLINESTYLE
  5
7
100
AcDbMlineStyle
  2
L_0_02
 70
0
  3

 51
90.0
 52
90.0
 71
1
 49
0.0
 62
256
  6
CONTINUOUS
  0
ACDBPLACEHOLDER
  5
B
  0
ENDSEC
  0
EOF
