  0
SECTION
  2
HEADER
  9
$ACADVER
  1
AC1018
  9
$ACADMAINTVER
 70
     0
  9
$DWGCODEPAGE
  3
ANSI_1250
  9
$LASTSAVEDBY
  1
Samson-SD
  9
$INSBASE
 10
0.0
 20
0.0
 30
0.0
  9
$EXTMIN
 10
7573539.064999999
 20
5713386.455
 30
0.0
  9
$EXTMAX
 10
7573696.988660715
 20
5713707.37
 30
0.0
  9
$LIMMIN
 10
7573539.09
 20
5713386.48
  9
$LIMMAX
 10
7573700.0
 20
5713750.0
  9
$ORTHOMODE
 70
     0
  9
$REGENMODE
 70
     1
  9
$FILLMODE
 70
     1
  9
$QTEXTMODE
 70
     0
  9
$MIRRTEXT
 70
     1
  9
$LTSCALE
 40
1.0
  9
$ATTMODE
 70
     1
  9
$TEXTSIZE
 40
0.2
  9
$TRACEWID
 40
0.05
  9
$TEXTSTYLE
  7
STANDARD
  9
$CLAYER
  8
dzialki
  9
$CELTYPE
  6
ByBlock
  9
$CECOLOR
 62
   256
  9
$CELTSCALE
 40
1.0
  9
$DISPSILH
 70
     0
  9
$DIMSCALE
 40
1.0
  9
$DIMASZ
 40
2.5
  9
$DIMEXO
 40
0.625
  9
$DIMDLI
 40
0.38
  9
$DIMRND
 40
0.0
  9
$DIMDLE
 40
0.0
  9
$DIMEXE
 40
1.25
  9
$DIMTP
 40
0.0
  9
$DIMTM
 40
0.0
  9
$DIMTXT
 40
2.5
  9
$DIMCEN
 40
0.09
  9
$DIMTSZ
 40
0.0
  9
$DIMTOL
 70
     0
  9
$DIMLIM
 70
     0
  9
$DIMTIH
 70
     1
  9
$DIMTOH
 70
     1
  9
$DIMSE1
 70
     0
  9
$DIMSE2
 70
     0
  9
$DIMTAD
 70
     0
  9
$DIMZIN
 70
     0
  9
$DIMBLK
  1

  9
$DIMASO
 70
     1
  9
$DIMSHO
 70
     1
  9
$DIMPOST
  1

  9
$DIMAPOST
  1

  9
$DIMALT
 70
     0
  9
$DIMALTD
 70
     2
  9
$DIMALTF
 40
25.4
  9
$DIMLFAC
 40
1.0
  9
$DIMTOFL
 70
     0
  9
$DIMTVP
 40
0.0
  9
$DIMTIX
 70
     0
  9
$DIMSOXD
 70
     0
  9
$DIMSAH
 70
     0
  9
$DIMBLK1
  1

  9
$DIMBLK2
  1

  9
$DIMSTYLE
  2
Standard
  9
$DIMCLRD
 70
     0
  9
$DIMCLRE
 70
     0
  9
$DIMCLRT
 70
     0
  9
$DIMTFAC
 40
1.0
  9
$DIMGAP
 40
0.625
  9
$DIMJUST
 70
     0
  9
$DIMSD1
 70
     0
  9
$DIMSD2
 70
     0
  9
$DIMTOLJ
 70
     1
  9
$DIMTZIN
 70
     0
  9
$DIMALTZ
 70
     0
  9
$DIMALTTZ
 70
     0
  9
$DIMUPT
 70
     0
  9
$DIMDEC
 70
     4
  9
$DIMTDEC
 70
     4
  9
$DIMALTU
 70
     2
  9
$DIMALTTD
 70
     2
  9
$DIMTXSTY
  7
STANDARD
  9
$DIMAUNIT
 70
     0
  9
$DIMADEC
 70
     0
  9
$DIMALTRND
 40
0.0
  9
$DIMAZIN
 70
     0
  9
$DIMDSEP
 70
    46
  9
$DIMATFIT
 70
     3
  9
$DIMFRAC
 70
     0
  9
$DIMLDRBLK
  1

  9
$DIMLUNIT
 70
     2
  9
$DIMLWD
 70
    -2
  9
$DIMLWE
 70
    -2
  9
$DIMTMOVE
 70
     0
  9
$LUNITS
 70
     2
  9
$LUPREC
 70
     4
  9
$SKETCHINC
 40
0.1
  9
$FILLETRAD
 40
0.5
  9
$AUNITS
 70
     0
  9
$AUPREC
 70
     0
  9
$MENU
  1
.
  9
$ELEVATION
 40
0.0
  9
$PELEVATION
 40
0.0
  9
$THICKNESS
 40
0.0
  9
$LIMCHECK
 70
     0
  9
$CHAMFERA
 40
0.0
  9
$CHAMFERB
 40
0.0
  9
$CHAMFERC
 40
0.0
  9
$CHAMFERD
 40
0.0
  9
$SKPOLY
 70
     0
  9
$TDCREATE
 40
2305814.804847836
  9
$TDUCREATE
 40
43441.763181169
  9
$TDUPDATE
 40
2458460.807427836
  9
$TDUUPDATE
 40
2458460.765761169
  9
$TDINDWG
 40
0.0024620255
  9
$TDUSRTIMER
 40
0.0024620255
  9
$USRTIMER
 70
     1
  9
$ANGBASE
 50
0.0
  9
$ANGDIR
 70
     0
  9
$PDMODE
 70
     0
  9
$PDSIZE
 40
0.0
  9
$PLINEWID
 40
0.0
  9
$SPLFRAME
 70
     0
  9
$SPLINETYPE
 70
     6
  9
$SPLINESEGS
 70
     8
  9
$HANDSEED
  5
100005D
  9
$SURFTAB1
 70
     6
  9
$SURFTAB2
 70
     6
  9
$SURFTYPE
 70
     6
  9
$SURFU
 70
     6
  9
$SURFV
 70
     6
  9
$UCSBASE
  2

  9
$UCSNAME
  2

  9
$UCSORG
 10
0.0
 20
0.0
 30
0.0
  9
$UCSXDIR
 10
1.0
 20
0.0
 30
0.0
  9
$UCSYDIR
 10
0.0
 20
1.0
 30
0.0
  9
$UCSORTHOREF
  2

  9
$UCSORTHOVIEW
 70
     0
  9
$UCSORGTOP
 10
0.0
 20
0.0
 30
0.0
  9
$UCSORGBOTTOM
 10
0.0
 20
0.0
 30
0.0
  9
$UCSORGLEFT
 10
0.0
 20
0.0
 30
0.0
  9
$UCSORGRIGHT
 10
0.0
 20
0.0
 30
0.0
  9
$UCSORGFRONT
 10
0.0
 20
0.0
 30
0.0
  9
$UCSORGBACK
 10
0.0
 20
0.0
 30
0.0
  9
$PUCSBASE
  2

  9
$PUCSNAME
  2

  9
$PUCSORG
 10
0.0
 20
0.0
 30
0.0
  9
$PUCSXDIR
 10
1.0
 20
0.0
 30
0.0
  9
$PUCSYDIR
 10
0.0
 20
1.0
 30
0.0
  9
$PUCSORTHOREF
  2

  9
$PUCSORTHOVIEW
 70
     0
  9
$PUCSORGTOP
 10
0.0
 20
0.0
 30
0.0
  9
$PUCSORGBOTTOM
 10
0.0
 20
0.0
 30
0.0
  9
$PUCSORGLEFT
 10
0.0
 20
0.0
 30
0.0
  9
$PUCSORGRIGHT
 10
0.0
 20
0.0
 30
0.0
  9
$PUCSORGFRONT
 10
0.0
 20
0.0
 30
0.0
  9
$PUCSORGBACK
 10
0.0
 20
0.0
 30
0.0
  9
$USERI1
 70
     0
  9
$USERI2
 70
     0
  9
$USERI3
 70
     0
  9
$USERI4
 70
     0
  9
$USERI5
 70
     0
  9
$USERR1
 40
0.0
  9
$USERR2
 40
0.0
  9
$USERR3
 40
0.0
  9
$USERR4
 40
0.0
  9
$USERR5
 40
0.0
  9
$WORLDVIEW
 70
     1
  9
$SHADEDGE
 70
     3
  9
$SHADEDIF
 70
    70
  9
$TILEMODE
 70
     1
  9
$MAXACTVP
 70
    64
  9
$PINSBASE
 10
0.0
 20
0.0
 30
0.0
  9
$PLIMCHECK
 70
     0
  9
$PEXTMIN
 10
1.000000000000000E+20
 20
1.000000000000000E+20
 30
1.000000000000000E+20
  9
$PEXTMAX
 10
-1.000000000000000E+20
 20
-1.000000000000000E+20
 30
-1.000000000000000E+20
  9
$PLIMMIN
 10
0.0
 20
0.0
  9
$PLIMMAX
 10
0.0
 20
0.0
  9
$UNITMODE
 70
     0
  9
$VISRETAIN
 70
     1
  9
$PLINEGEN
 70
     0
  9
$PSLTSCALE
 70
     1
  9
$TREEDEPTH
 70
  3020
  9
$CMLSTYLE
  2
Standard
  9
$CMLJUST
 70
     0
  9
$CMLSCALE
 40
1.0
  9
$PROXYGRAPHICS
 70
     1
  9
$MEASUREMENT
 70
     0
  9
$CELWEIGHT
370
    -1
  9
$ENDCAPS
280
     0
  9
$JOINSTYLE
280
     0
  9
$LWDISPLAY
290
     1
  9
$INSUNITS
 70
     6
  9
$HYPERLINKBASE
  1

  9
$STYLESHEET
  1

  9
$XEDIT
290
     1
  9
$CEPSNTYPE
380
     0
  9
$PSTYLEMODE
290
     1
  9
$FINGERPRINTGUID
  2
{936EC7B6-F5DA-4462-820F-CEB8EA016604}
  9
$VERSIONGUID
  2
{FAEB1C32-E019-11D5-929B-00C0DF256EC4}
  9
$EXTNAMES
290
     1
  9
$PSVPSCALE
 40
0.0
  9
$OLESTARTUP
290
     0
  9
$SORTENTS
280
   127
  9
$INDEXCTL
280
     0
  9
$HIDETEXT
280
     1
  9
$XCLIPFRAME
290
     0
  9
$HALOGAP
280
     0
  9
$OBSCOLOR
 70
   257
  9
$OBSLTYPE
280
     0
  9
$INTERSECTIONDISPLAY
280
     0
  9
$INTERSECTIONCOLOR
 70
   257
  9
$DIMASSOC
280
     2
  9
$PROJECTNAME
  1

  0
ENDSEC
  0
SECTION
  2
CLASSES
  0
CLASS
  1
ACDBDICTIONARYWDFLT
  2
AcDbDictionaryWithDefault
  3
ObjectDBX Classes
 90
        0
 91
        4
280
     0
281
     0
  0
CLASS
  1
SCALE
  2
AcDbScale
  3
ObjectDBX Classes
 90
     1153
 91
        4
280
     0
281
     0
  0
CLASS
  1
VISUALSTYLE
  2
AcDbVisualStyle
  3
ObjectDBX Classes
 90
     4095
 91
        4
280
     0
281
     0
  0
CLASS
  1
MATERIAL
  2
AcDbMaterial
  3
ObjectDBX Classes
 90
     1153
 91
        4
280
     0
281
     0
  0
CLASS
  1
TABLESTYLE
  2
AcDbTableStyle
  3
ObjectDBX Classes
 90
     4095
 91
        4
280
     0
281
     0
  0
CLASS
  1
MLEADERSTYLE
  2
AcDbMLeaderStyle
  3
ACDB_MLEADERSTYLE_CLASS
 90
     4095
 91
        4
280
     0
281
     0
  0
CLASS
  1
DICTIONARYVAR
  2
AcDbDictionaryVar
  3
ObjectDBX Classes
 90
        0
 91
        4
280
     0
281
     0
  0
CLASS
  1
CELLSTYLEMAP
  2
AcDbCellStyleMap
  3
ObjectDBX Classes
 90
     1152
 91
        4
280
     0
281
     0
  0
ENDSEC
  0
SECTION
  2
TABLES
  0
TABLE
  2
VPORT
  5
1
330
0
100
AcDbSymbolTable
 70
     1
  0
VPORT
  5
2
330
1
100
AcDbSymbolTableRecord
100
AcDbViewportTableRecord
  2
*ACTIVE
 70
     0
 10
0.0
 20
0.0
 11
1.0
 21
1.0
 12
7573661.805619568
 22
5713689.309140021
 13
0.0
 23
0.0
 14
1.0
 24
1.0
 15
0.0
 25
0.0
 16
0.0
 26
0.0
 36
1.0
 17
0.0
 27
0.0
 37
0.0
 40
39.0326627860479
 41
2.283430232558139
 42
50.0
 43
0.0
 44
0.0
 50
0.0
 51
0.0
 71
    16
 72
   100
 73
     1
 74
     1
 75
     0
 76
     0
 77
     0
 78
     0
281
     0
 65
     1
110
0.0
120
0.0
130
0.0
111
1.0
121
0.0
131
0.0
112
0.0
122
1.0
132
0.0
 79
     0
146
0.0
  0
ENDTAB
  0
TABLE
  2
LTYPE
  5
3
330
0
100
AcDbSymbolTable
 70
     4
  0
LTYPE
  5
4
330
3
100
AcDbSymbolTableRecord
100
AcDbLinetypeTableRecord
  2
ByBlock
 70
     0
  3

 72
    65
 73
     0
 40
0.0
  0
LTYPE
  5
5
330
3
100
AcDbSymbolTableRecord
100
AcDbLinetypeTableRecord
  2
ByLayer
 70
     0
  3

 72
    65
 73
     0
 40
0.0
  0
LTYPE
  5
6
330
3
100
AcDbSymbolTableRecord
100
AcDbLinetypeTableRecord
  2
CONTINUOUS
 70
     0
  3
Solid line
 72
    65
 73
     0
 40
0.0
  0
LTYPE
  5
7
330
3
100
AcDbSymbolTableRecord
100
AcDbLinetypeTableRecord
  2
L_0_02
 70
     0
  3
Dzialka_ewidencyjna
 72
    65
 73
     0
 40
0.0
  0
LTYPE
  5
9
330
3
100
AcDbSymbolTableRecord
100
AcDbLinetypeTableRecord
  2
L_0_02_M
 70
     0
  3
Dzialka_ewidencyjna (MLineStyle)
 72
    65
 73
     0
 40
0.0
  0
LTYPE
  5
A
330
3
100
AcDbSymbolTableRecord
100
AcDbLinetypeTableRecord
  2
L_0_4D
 70
     0
  3
L_0_4D
 72
    65
 73
     4
 40
0.625
 49
0.375
 74
     0
 49
-0.125
 74
     0
 49
0.0
 74
     0
 49
-0.125
 74
     0
  0
ENDTAB
  0
TABLE
  2
LAYER
  5
B
102
{ACAD_XDICTIONARY
360
1000043
102
}
330
0
100
AcDbSymbolTable
 70
     6
  0
LAYER
  5
C
330
B
100
AcDbSymbolTableRecord
100
AcDbLayerTableRecord
  2
0
 70
     0
 62
     1
  6
CONTINUOUS
370
    18
390
D
  0
LAYER
  5
E
330
B
100
AcDbSymbolTableRecord
100
AcDbLayerTableRecord
  2
czoloqwki_osie
 70
     0
 62
     1
420
 16711680
  6
CONTINUOUS
370
    18
390
D
  0
LAYER
  5
F
330
B
100
AcDbSymbolTableRecord
100
AcDbLayerTableRecord
  2
czolowki
 70
     0
 62
     7
  6
CONTINUOUS
370
    18
390
D
  0
LAYER
  5
10
330
B
100
AcDbSymbolTableRecord
100
AcDbLayerTableRecord
  2
dzialki
 70
     0
 62
     1
  6
L_0_02
370
    18
390
D
  0
LAYER
  5
11
330
B
100
AcDbSymbolTableRecord
100
AcDbLayerTableRecord
  2
obrys_bud
 70
     0
 62
     5
420
      255
  6
CONTINUOUS
370
    25
390
D
  0
LAYER
  5
12
330
B
100
AcDbSymbolTableRecord
100
AcDbLayerTableRecord
  2
osie
 70
     0
 62
     1
420
 16711680
  6
L_0_4D
370
    18
390
D
  0
ENDTAB
  0
TABLE
  2
STYLE
  5
13
330
0
100
AcDbSymbolTable
 70
     1
  0
STYLE
  5
14
330
13
100
AcDbSymbolTableRecord
100
AcDbTextStyleTableRecord
  2
STANDARD
 70
     0
 40
0.0
 41
1.0
 50
0.0
 71
     0
 42
0.2
  3
simplex.shx
  4

  0
ENDTAB
  0
TABLE
  2
VIEW
  5
15
330
0
100
AcDbSymbolTable
 70
     0
  0
ENDTAB
  0
TABLE
  2
UCS
  5
16
330
0
100
AcDbSymbolTable
 70
     0
  0
ENDTAB
  0
TABLE
  2
APPID
  5
17
330
0
100
AcDbSymbolTable
 70
     2
  0
APPID
  5
18
330
17
100
AcDbSymbolTableRecord
100
AcDbRegAppTableRecord
  2
ACAD
 70
     0
  0
APPID
  5
1000056
330
17
100
AcDbSymbolTableRecord
100
AcDbRegAppTableRecord
  2
ACAD_MLEADERVER
 70
     0
  0
ENDTAB
  0
TABLE
  2
DIMSTYLE
  5
19
330
0
100
AcDbSymbolTable
 70
     1
100
AcDbDimStyleTable
  0
DIMSTYLE
105
1A
330
19
100
AcDbSymbolTableRecord
100
AcDbDimStyleTableRecord
  2
Standard
 70
     0
178
     0
340
14
  0
ENDTAB
  0
TABLE
  2
BLOCK_RECORD
  5
1B
330
0
100
AcDbSymbolTable
 70
     4
  0
BLOCK_RECORD
  5
1C
330
1B
100
AcDbSymbolTableRecord
100
AcDbBlockTableRecord
  2
*Model_Space
340
1D
  0
BLOCK_RECORD
  5
1E
330
1B
100
AcDbSymbolTableRecord
100
AcDbBlockTableRecord
  2
*Paper_Space
340
1F
  0
BLOCK_RECORD
  5
20
330
1B
100
AcDbSymbolTableRecord
100
AcDbBlockTableRecord
  2
GRO
340
0
102
{BLKREFS
331
BC
331
C0
331
C4
331
C8
331
CC
331
D0
331
D4
331
D8
331
DC
331
E0
331
E4
331
E8
102
}
  0
BLOCK_RECORD
  5
22
330
1B
100
AcDbSymbolTableRecord
100
AcDbBlockTableRecord
  2
pikieta
340
0
102
{BLKREFS
331
3E
331
41
331
44
331
47
331
4A
331
4D
331
51
331
54
331
57
331
5A
331
5D
331
60
331
63
331
66
331
83
331
86
331
89
331
8C
331
8F
331
92
331
95
331
98
331
9B
331
9E
331
A1
331
A4
331
0
331
0
331
0
331
0
331
0
331
0
331
B9
331
BD
331
C1
331
C5
331
C9
331
CD
331
D1
331
D5
331
D9
331
DD
331
E1
331
E5
102
}
  0
BLOCK_RECORD
  5
24
330
1B
100
AcDbSymbolTableRecord
100
AcDbBlockTableRecord
  2
L_0_02_1
340
0
102
{BLKREFS
331
3D
331
40
331
43
331
46
331
49
331
4C
331
50
331
53
331
56
331
59
331
5C
331
5F
331
62
331
65
102
}
  0
BLOCK_RECORD
  5
26
330
1B
100
AcDbSymbolTableRecord
100
AcDbBlockTableRecord
  2
L_0_02_2
340
0
102
{BLKREFS
331
3F
331
42
331
45
331
48
331
4B
331
4E
331
52
331
55
331
58
331
5B
331
5E
331
61
331
64
331
67
102
}
  0
ENDTAB
  0
ENDSEC
  0
SECTION
  2
BLOCKS
  0
BLOCK
  5
28
330
1C
100
AcDbEntity
  8
0
100
AcDbBlockBegin
  2
*Model_Space
 70
     0
 10
0.0
 20
0.0
 30
0.0
  3
*Model_Space
  1

  0
ENDBLK
  5
29
330
1C
100
AcDbEntity
  8
0
100
AcDbBlockEnd
  0
BLOCK
  5
2A
330
1E
100
AcDbEntity
 67
     1
  8
0
100
AcDbBlockBegin
  2
*Paper_Space
 70
     0
 10
0.0
 20
0.0
 30
0.0
  3
*Paper_Space
  1

  0
ENDBLK
  5
2B
330
1E
100
AcDbEntity
 67
     1
  8
0
100
AcDbBlockEnd
  0
BLOCK
  5
21
330
20
100
AcDbEntity
  8
0
100
AcDbBlockBegin
  2
GRO
 70
     0
 10
0.0
 20
0.0
 30
0.0
  3
GRO
  1

  0
HATCH
  5
2C
330
20
100
AcDbEntity
  8
0
  6
Continuous
 62
     0
370
    13
100
AcDbHatch
 10
0.0
 20
0.0
 30
0.0
210
0.0
220
0.0
230
1.0
  2
SOLID
 70
     1
 71
     1
 91
        1
 92
        3
 72
     1
 73
     1
 93
        2
 10
0.0
 20
-0.1
 42
1.0
 10
0.0
 20
0.1
 42
1.0
 97
        0
 75
     0
 76
     1
 98
        1
 10
0.0
 20
0.0
  0
CIRCLE
  5
2D
330
20
100
AcDbEntity
  8
0
  6
Continuous
 62
     0
370
    13
100
AcDbCircle
 10
0.0
 20
0.0
 30
0.0
 40
0.1
  0
ENDBLK
  5
2E
330
20
100
AcDbEntity
  8
0
100
AcDbBlockEnd
  0
BLOCK
  5
23
330
22
100
AcDbEntity
  8
0
100
AcDbBlockBegin
  2
pikieta
 70
     0
 10
0.0
 20
0.0
 30
0.0
  3
pikieta
  1

  0
POINT
  5
2F
330
22
100
AcDbEntity
  8
0
 62
     0
100
AcDbPoint
 10
0.0
 20
0.0
 30
0.0
  0
ENDBLK
  5
30
330
22
100
AcDbEntity
  8
0
100
AcDbBlockEnd
  0
BLOCK
  5
25
330
24
100
AcDbEntity
  8
0
100
AcDbBlockBegin
  2
L_0_02_1
 70
     0
 10
0.0
 20
0.0
 30
0.0
  3
L_0_02_1
  1

  0
POINT
  5
31
330
24
100
AcDbEntity
  8
0
 62
     0
100
AcDbPoint
 10
0.0
 20
0.0
 30
0.0
  0
ENDBLK
  5
32
330
24
100
AcDbEntity
  8
0
100
AcDbBlockEnd
  0
BLOCK
  5
27
330
26
100
AcDbEntity
  8
0
100
AcDbBlockBegin
  2
L_0_02_2
 70
     0
 10
0.0
 20
0.0
 30
0.0
  3
L_0_02_2
  1

  0
POINT
  5
33
330
26
100
AcDbEntity
  8
0
 62
     0
100
AcDbPoint
 10
0.0
 20
0.0
 30
0.0
  0
ENDBLK
  5
34
330
26
100
AcDbEntity
  8
0
100
AcDbBlockEnd
  0
ENDSEC
  0
SECTION
  2
ENTITIES
  0
POLYLINE
  5
35
330
1C
100
AcDbEntity
  8
czolowki
  6
Continuous
370
    18
100
AcDb2dPolyline
 66
     1
 10
0.0
 20
0.0
 30
0.0
 70
   128
  0
VERTEX
  5
36
330
35
100
AcDbEntity
  8
czolowki
100
AcDbVertex
100
AcDb2dVertex
 10
7573668.153244518
 20
5713691.542207506
 30
0.0
  0
VERTEX
  5
37
330
35
100
AcDbEntity
  8
czolowki
100
AcDbVertex
100
AcDb2dVertex
 10
7573677.428938204
 20
5713678.201442567
 30
0.0
  0
SEQEND
  5
38
330
35
100
AcDbEntity
  8
czolowki
  0
POLYLINE
  5
39
330
1C
100
AcDbEntity
  8
czolowki
  6
Continuous
370
    18
100
AcDb2dPolyline
 66
     1
 10
0.0
 20
0.0
 30
0.0
 70
   128
  0
VERTEX
  5
3A
330
39
100
AcDbEntity
  8
czolowki
100
AcDbVertex
100
AcDb2dVertex
 10
7573665.447857866
 20
5713681.396834194
 30
0.0
  0
VERTEX
  5
3B
330
39
100
AcDbEntity
  8
czolowki
100
AcDbVertex
100
AcDb2dVertex
 10
7573680.134324973
 20
5713688.346816083
 30
0.0
  0
SEQEND
  5
3C
330
39
100
AcDbEntity
  8
czolowki
  0
INSERT
  5
3D
330
1C
100
AcDbEntity
  8
dzialki
  6
Continuous
100
AcDbBlockReference
  2
L_0_02_1
 10
7573644.02
 20
5713641.09
 30
0.0
 41
0.25
 42
0.25
 43
0.25
 50
344.8800000000001
  0
INSERT
  5
3E
330
1C
100
AcDbEntity
  8
dzialki
  6
Continuous
100
AcDbBlockReference
  2
pikieta
 10
7573660.545
 20
5713636.625
 30
0.0
 41
0.25
 42
0.25
 43
0.25
 50
344.8800000000001
  0
INSERT
  5
3F
330
1C
100
AcDbEntity
  8
dzialki
  6
Continuous
100
AcDbBlockReference
  2
L_0_02_2
 10
7573677.07
 20
5713632.16
 30
0.0
 41
0.25
 42
0.25
 43
0.25
 50
164.88
  0
INSERT
  5
40
330
1C
100
AcDbEntity
  8
dzialki
  6
Continuous
100
AcDbBlockReference
  2
L_0_02_1
 10
7573677.07
 20
5713632.16
 30
0.0
 41
0.25
 42
0.25
 43
0.25
 50
75.65000000000002
  0
INSERT
  5
41
330
1C
100
AcDbEntity
  8
dzialki
  6
Continuous
100
AcDbBlockReference
  2
pikieta
 10
7573686.61
 20
5713669.455
 30
0.0
 41
0.25
 42
0.25
 43
0.25
 50
75.65000000000002
  0
INSERT
  5
42
330
1C
100
AcDbEntity
  8
dzialki
  6
Continuous
100
AcDbBlockReference
  2
L_0_02_2
 10
7573696.15
 20
5713706.75
 30
0.0
 41
0.25
 42
0.25
 43
0.25
 50
255.65
  0
INSERT
  5
43
330
1C
100
AcDbEntity
  8
dzialki
  6
Continuous
100
AcDbBlockReference
  2
L_0_02_1
 10
7573696.15
 20
5713706.75
 30
0.0
 41
0.25
 42
0.25
 43
0.25
 50
180.96
  0
INSERT
  5
44
330
1C
100
AcDbEntity
  8
dzialki
  6
Continuous
100
AcDbBlockReference
  2
pikieta
 10
7573695.255000001
 20
5713706.734999999
 30
0.0
 41
0.25
 42
0.25
 43
0.25
 50
180.96
  0
INSERT
  5
45
330
1C
100
AcDbEntity
  8
dzialki
  6
Continuous
100
AcDbBlockReference
  2
L_0_02_2
 10
7573694.36
 20
5713706.72
 30
0.0
 41
0.25
 42
0.25
 43
0.25
 50
0.96
  0
INSERT
  5
46
330
1C
100
AcDbEntity
  8
dzialki
  6
Continuous
100
AcDbBlockReference
  2
L_0_02_1
 10
7573694.36
 20
5713706.72
 30
0.0
 41
0.25
 42
0.25
 43
0.25
 50
196.51
  0
INSERT
  5
47
330
1C
100
AcDbEntity
  8
obrys_bud
  6
Continuous
100
AcDbBlockReference
  2
pikieta
 10
7573688.27
 20
5713704.915
 30
0.0
 41
0.25
 42
0.25
 43
0.25
 50
196.51
  0
INSERT
  5
48
330
1C
100
AcDbEntity
  8
dzialki
  6
Continuous
100
AcDbBlockReference
  2
L_0_02_2
 10
7573682.18
 20
5713703.11
 30
0.0
 41
0.25
 42
0.25
 43
0.25
 50
16.51
  0
INSERT
  5
49
330
1C
100
AcDbEntity
  8
dzialki
  6
Continuous
100
AcDbBlockReference
  2
L_0_02_1
 10
7573682.18
 20
5713703.11
 30
0.0
 41
0.25
 42
0.25
 43
0.25
 50
174.31
  0
INSERT
  5
4A
330
1C
100
AcDbEntity
  8
dzialki
  6
Continuous
100
AcDbBlockReference
  2
pikieta
 10
7573671.65
 20
5713704.16
 30
0.0
 41
0.25
 42
0.25
 43
0.25
 50
174.31
  0
INSERT
  5
4B
330
1C
100
AcDbEntity
  8
dzialki
  6
Continuous
100
AcDbBlockReference
  2
L_0_02_2
 10
7573661.12
 20
5713705.21
 30
0.0
 41
0.25
 42
0.25
 43
0.25
 50
354.31
  0
INSERT
  5
4C
330
1C
100
AcDbEntity
  8
dzialki
  6
Continuous
100
AcDbBlockReference
  2
L_0_02_1
 10
7573661.12
 20
5713705.21
 30
0.0
 41
0.25
 42
0.25
 43
0.25
 50
255.07
  0
INSERT
  5
4D
330
1C
100
AcDbEntity
  8
dzialki
  6
Continuous
100
AcDbBlockReference
  2
pikieta
 10
7573652.57
 20
5713673.15
 30
0.0
 41
0.25
 42
0.25
 43
0.25
 50
255.07
  0
INSERT
  5
4E
330
1C
100
AcDbEntity
  8
dzialki
  6
Continuous
100
AcDbBlockReference
  2
L_0_02_2
 10
7573644.02
 20
5713641.09
 30
0.0
 41
0.25
 42
0.25
 43
0.25
 50
75.06999999999998
  0
MLINE
  5
4F
330
1C
100
AcDbEntity
  8
dzialki
  6
L_0_02_M
 62
     2
370
    18
100
AcDbMline
  2
L_0_02_M
340
8
 40
1.0
 70
     1
 71
     3
 72
     6
 73
     1
 10
7573644.02
 20
5713641.09
 30
0.0
210
0.0
220
0.0
230
1.0
 11
7573644.02
 21
5713641.09
 31
0.0
 12
0.9653812864378587
 22
-0.2608428105115894
 32
0.0
 13
0.8662548534551252
 23
0.499602370756424
 33
0.0
 74
     3
 41
0.0
 41
0.125
 41
34.11017781528125
 75
     0
 11
7573677.07
 21
5713632.16
 31
0.0
 12
0.2478190747770783
 22
0.9688063305824508
 32
0.0
 13
-0.5040108811708918
 23
0.8636973032615889
 33
0.0
 74
     3
 41
0.0
 41
0.125
 41
76.86665214476575
 75
     0
 11
7573696.15
 21
5713706.75
 31
0.0
 12
-0.9998595845230879
 22
-0.0167574233496101
 32
0.0
 13
-0.7847131894259689
 23
-0.6198590245700417
 33
0.0
 74
     3
 41
0.0
 41
0.125
 41
1.665251379038433
 75
     0
 11
7573694.36
 21
5713706.72
 31
0.0
 12
-0.9587742857672662
 22
-0.2841687332404264
 32
0.0
 13
0.1518589423559789
 23
-0.9884021760531102
 33
0.0
 74
     3
 41
0.0
 41
0.125
 41
12.57871992808106
 75
     0
 11
7573682.18
 21
5713703.11
 31
0.0
 12
-0.9950652193712882
 22
0.09922302755696459
 32
0.0
 13
0.09423633311070269
 23
-0.9955498548650634
 33
0.0
 74
     3
 41
0.0
 41
0.125
 41
21.03944187738423
 75
     0
 11
7573661.12
 21
5713705.21
 31
0.0
 12
-0.2576814087203336
 22
-0.9662299372302144
 32
0.0
 13
0.5690860799631463
 23
-0.8222779539743112
 33
0.0
 74
     3
 41
0.0
 41
0.125
 41
66.23601566457104
 75
     0
  0
INSERT
  5
50
330
1C
100
AcDbEntity
  8
dzialki
  6
Continuous
100
AcDbBlockReference
  2
L_0_02_1
 10
7573577.6
 20
5713386.48
 30
0.0
 41
0.25
 42
0.25
 43
0.25
 50
75.38
  0
INSERT
  5
51
330
1C
100
AcDbEntity
  8
dzialki
  6
Continuous
100
AcDbBlockReference
  2
pikieta
 10
7573610.81
 20
5713513.785
 30
0.0
 41
0.25
 42
0.25
 43
0.25
 50
75.38
  0
INSERT
  5
52
330
1C
100
AcDbEntity
  8
dzialki
  6
Continuous
100
AcDbBlockReference
  2
L_0_02_2
 10
7573644.02
 20
5713641.09
 30
0.0
 41
0.25
 42
0.25
 43
0.25
 50
255.38
  0
INSERT
  5
53
330
1C
100
AcDbEntity
  8
dzialki
  6
Continuous
100
AcDbBlockReference
  2
L_0_02_1
 10
7573644.02
 20
5713641.09
 30
0.0
 41
0.25
 42
0.25
 43
0.25
 50
75.06999999999998
  0
INSERT
  5
54
330
1C
100
AcDbEntity
  8
dzialki
  6
Continuous
100
AcDbBlockReference
  2
pikieta
 10
7573652.57
 20
5713673.15
 30
0.0
 41
0.25
 42
0.25
 43
0.25
 50
75.06999999999998
  0
INSERT
  5
55
330
1C
100
AcDbEntity
  8
dzialki
  6
Continuous
100
AcDbBlockReference
  2
L_0_02_2
 10
7573661.12
 20
5713705.21
 30
0.0
 41
0.25
 42
0.25
 43
0.25
 50
255.07
  0
INSERT
  5
56
330
1C
100
AcDbEntity
  8
dzialki
  6
Continuous
100
AcDbBlockReference
  2
L_0_02_1
 10
7573661.12
 20
5713705.21
 30
0.0
 41
0.25
 42
0.25
 43
0.25
 50
174.32
  0
INSERT
  5
57
330
1C
100
AcDbEntity
  8
dzialki
  6
Continuous
100
AcDbBlockReference
  2
pikieta
 10
7573651.275
 20
5713706.189999999
 30
0.0
 41
0.25
 42
0.25
 43
0.25
 50
174.32
  0
INSERT
  5
58
330
1C
100
AcDbEntity
  8
dzialki
  6
Continuous
100
AcDbBlockReference
  2
L_0_02_2
 10
7573641.43
 20
5713707.17
 30
0.0
 41
0.25
 42
0.25
 43
0.25
 50
354.32
  0
INSERT
  5
59
330
1C
100
AcDbEntity
  8
dzialki
  6
Continuous
100
AcDbBlockReference
  2
L_0_02_1
 10
7573641.43
 20
5713707.17
 30
0.0
 41
0.25
 42
0.25
 43
0.25
 50
255.8
  0
INSERT
  5
5A
330
1C
100
AcDbEntity
  8
dzialki
  6
Continuous
100
AcDbBlockReference
  2
pikieta
 10
7573636.369999999
 20
5713687.18
 30
0.0
 41
0.25
 42
0.25
 43
0.25
 50
255.8
  0
INSERT
  5
5B
330
1C
100
AcDbEntity
  8
dzialki
  6
Continuous
100
AcDbBlockReference
  2
L_0_02_2
 10
7573631.31
 20
5713667.19
 30
0.0
 41
0.25
 42
0.25
 43
0.25
 50
75.79999999999998
  0
INSERT
  5
5C
330
1C
100
AcDbEntity
  8
dzialki
  6
Continuous
100
AcDbBlockReference
  2
L_0_02_1
 10
7573631.31
 20
5713667.19
 30
0.0
 41
0.25
 42
0.25
 43
0.25
 50
161.76
  0
INSERT
  5
5D
330
1C
100
AcDbEntity
  8
dzialki
  6
Continuous
100
AcDbBlockReference
  2
pikieta
 10
7573620.005
 20
5713670.915
 30
0.0
 41
0.25
 42
0.25
 43
0.25
 50
161.76
  0
INSERT
  5
5E
330
1C
100
AcDbEntity
  8
dzialki
  6
Continuous
100
AcDbBlockReference
  2
L_0_02_2
 10
7573608.7
 20
5713674.64
 30
0.0
 41
0.25
 42
0.25
 43
0.25
 50
341.76
  0
INSERT
  5
5F
330
1C
100
AcDbEntity
  8
dzialki
  6
Continuous
100
AcDbBlockReference
  2
L_0_02_1
 10
7573608.7
 20
5713674.64
 30
0.0
 41
0.25
 42
0.25
 43
0.25
 50
255.46
  0
INSERT
  5
60
330
1C
100
AcDbEntity
  8
dzialki
  6
Continuous
100
AcDbBlockReference
  2
pikieta
 10
7573605.810000001
 20
5713663.5
 30
0.0
 41
0.25
 42
0.25
 43
0.25
 50
255.46
  0
INSERT
  5
61
330
1C
100
AcDbEntity
  8
dzialki
  6
Continuous
100
AcDbBlockReference
  2
L_0_02_2
 10
7573602.92
 20
5713652.36
 30
0.0
 41
0.25
 42
0.25
 43
0.25
 50
75.46
  0
INSERT
  5
62
330
1C
100
AcDbEntity
  8
dzialki
  6
Continuous
100
AcDbBlockReference
  2
L_0_02_1
 10
7573602.92
 20
5713652.36
 30
0.0
 41
0.25
 42
0.25
 43
0.25
 50
256.0099999999999
  0
INSERT
  5
63
330
1C
100
AcDbEntity
  8
dzialki
  6
Continuous
100
AcDbBlockReference
  2
pikieta
 10
7573571.005
 20
5713524.27
 30
0.0
 41
0.25
 42
0.25
 43
0.25
 50
256.0099999999999
  0
INSERT
  5
64
330
1C
100
AcDbEntity
  8
dzialki
  6
Continuous
100
AcDbBlockReference
  2
L_0_02_2
 10
7573539.09
 20
5713396.18
 30
0.0
 41
0.25
 42
0.25
 43
0.25
 50
76.01
  0
INSERT
  5
65
330
1C
100
AcDbEntity
  8
dzialki
  6
Continuous
100
AcDbBlockReference
  2
L_0_02_1
 10
7573539.09
 20
5713396.18
 30
0.0
 41
0.25
 42
0.25
 43
0.25
 50
345.86
  0
INSERT
  5
66
330
1C
100
AcDbEntity
  8
dzialki
  6
Continuous
100
AcDbBlockReference
  2
pikieta
 10
7573558.345
 20
5713391.33
 30
0.0
 41
0.25
 42
0.25
 43
0.25
 50
345.86
  0
INSERT
  5
67
330
1C
100
AcDbEntity
  8
dzialki
  6
Continuous
100
AcDbBlockReference
  2
L_0_02_2
 10
7573577.6
 20
5713386.48
 30
0.0
 41
0.25
 42
0.25
 43
0.25
 50
165.86
  0
MLINE
  5
68
330
1C
100
AcDbEntity
  8
dzialki
  6
L_0_02_M
370
    18
100
AcDbMline
  2
L_0_02_M
340
8
 40
1.0
 70
     1
 71
     3
 72
     8
 73
     1
 10
7573577.6
 20
5713386.48
 30
0.0
210
0.0
220
0.0
230
1.0
 11
7573577.6
 21
5713386.48
 31
0.0
 12
0.2524218971472909
 22
0.9676172723967688
 32
0.0
 13
-0.5093523996665849
 23
0.8605580357848571
 33
0.0
 74
     3
 41
0.0
 41
0.125
 41
263.0058961328688
 75
     0
 11
7573644.02
 21
5713641.09
 31
0.0
 12
0.2576814087203336
 22
0.9662299372302144
 32
0.0
 13
-0.9669271808988508
 23
0.2550525962208595
 33
0.0
 74
     3
 41
0.0
 41
0.125
 41
66.23601566457104
 75
     0
 11
7573661.12
 21
5713705.21
 31
0.0
 12
-0.9950821216635819
 22
0.0990533752352951
 32
0.0
 13
-0.8222294386114896
 23
-0.5691561738931019
 33
0.0
 74
     3
 41
0.0
 41
0.125
 41
19.66231159142119
 75
     0
 11
7573641.43
 21
5713707.17
 31
0.0
 12
-0.2453872532532897
 22
-0.9694251368418325
 32
0.0
 13
0.5743669121569401
 23
-0.8185979783870112
 33
0.0
 74
     3
 41
0.0
 41
0.125
 41
41.11593597341771
 75
     0
 11
7573631.31
 21
5713667.19
 31
0.0
 12
-0.9497698121763104
 22
0.3129493631221765
 32
0.0
 13
0.4814341156367514
 23
-0.8764822829362034
 33
0.0
 74
     3
 41
0.0
 41
0.125
 41
23.68076820776732
 75
     0
 11
7573608.7
 21
5713674.64
 31
0.0
 12
-0.2511129293913871
 22
-0.9679577969583573
 32
0.0
 13
0.4788416983354917
 23
-0.8779012632040016
 33
0.0
 74
     3
 41
0.0
 41
0.125
 41
22.89253244753083
 75
     0
 11
7573602.92
 21
5713652.36
 31
0.0
 12
-0.241769096458185
 22
-0.9703338106022034
 32
0.0
 13
0.9691570645609539
 23
-0.2464438763929736
 33
0.0
 74
     3
 41
0.0
 41
0.125
 41
263.8872370276309
 75
     0
 11
7573539.09
 21
5713396.18
 31
0.0
 12
0.9697114242837679
 22
-0.2442534618251013
 32
0.0
 13
0.8577451973750121
 23
0.5140750688178738
 33
0.0
 74
     3
 41
0.0
 41
0.125
 41
39.58784552847266
 75
     0
  0
POLYLINE
  5
69
330
1C
100
AcDbEntity
  8
obrys_bud
  6
Continuous
370
    25
100
AcDb2dPolyline
 66
     1
 10
0.0
 20
0.0
 30
0.0
 70
   129
  0
VERTEX
  5
6A
330
69
100
AcDbEntity
  8
obrys_bud
100
AcDbVertex
100
AcDb2dVertex
 10
7573667.927004258
 20
5713691.93407725
 30
0.0
  0
VERTEX
  5
6B
330
69
100
AcDbEntity
  8
obrys_bud
100
AcDbVertex
100
AcDb2dVertex
 10
7573665.056202589
 20
5713681.170378322
 30
0.0
  0
VERTEX
  5
6C
330
69
100
AcDbEntity
  8
obrys_bud
100
AcDbVertex
100
AcDb2dVertex
 10
7573677.655630479
 20
5713677.809947599
 30
0.0
  0
VERTEX
  5
6D
330
69
100
AcDbEntity
  8
obrys_bud
100
AcDbVertex
100
AcDb2dVertex
 10
7573680.52642789
 20
5713688.573569278
 30
0.0
  0
VERTEX
  5
6E
330
69
100
AcDbEntity
  8
obrys_bud
100
AcDbVertex
100
AcDb2dVertex
 10
7573676.912788296
 20
5713689.537373795
 30
0.0
  0
VERTEX
  5
6F
330
69
100
AcDbEntity
  8
obrys_bud
100
AcDbVertex
100
AcDb2dVertex
 10
7573676.521081647
 20
5713688.068728826
 30
0.0
  0
VERTEX
  5
70
330
69
100
AcDbEntity
  8
obrys_bud
100
AcDbVertex
100
AcDb2dVertex
 10
7573671.148932946
 20
5713689.501550514
 30
0.0
  0
VERTEX
  5
71
330
69
100
AcDbEntity
  8
obrys_bud
100
AcDbVertex
100
AcDb2dVertex
 10
7573671.540639594
 20
5713690.970195483
 30
0.0
  0
SEQEND
  5
72
330
69
100
AcDbEntity
  8
obrys_bud
  0
POLYLINE
  5
73
330
1C
100
AcDbEntity
  8
osie
370
    18
100
AcDb2dPolyline
 66
     1
 10
0.0
 20
0.0
 30
0.0
 70
   128
  0
VERTEX
  5
74
330
73
100
AcDbEntity
  8
osie
100
AcDbVertex
100
AcDb2dVertex
 10
7573668.75119233
 20
5713693.784550121
 30
0.0
  0
VERTEX
  5
75
330
73
100
AcDbEntity
  8
osie
100
AcDbVertex
100
AcDb2dVertex
 10
7573664.850192327
 20
5713679.155550121
 30
0.0
  0
SEQEND
  5
76
330
73
100
AcDbEntity
  8
osie
  0
POLYLINE
  5
77
330
1C
100
AcDbEntity
  8
osie
370
    18
100
AcDb2dPolyline
 66
     1
 10
0.0
 20
0.0
 30
0.0
 70
   128
  0
VERTEX
  5
78
330
77
100
AcDbEntity
  8
osie
100
AcDbVertex
100
AcDb2dVertex
 10
7573680.732395096
 20
5713690.589617317
 30
0.0
  0
VERTEX
  5
79
330
77
100
AcDbEntity
  8
osie
100
AcDbVertex
100
AcDb2dVertex
 10
7573676.831395009
 20
5713675.96061734
 30
0.0
  0
SEQEND
  5
7A
330
77
100
AcDbEntity
  8
osie
  0
POLYLINE
  5
7B
330
1C
100
AcDbEntity
  8
osie
370
    18
100
AcDb2dPolyline
 66
     1
 10
0.0
 20
0.0
 30
0.0
 70
   128
  0
VERTEX
  5
7C
330
7B
100
AcDbEntity
  8
osie
100
AcDbVertex
100
AcDb2dVertex
 10
7573679.670763225
 20
5713677.603540816
 30
0.0
  0
VERTEX
  5
7D
330
7B
100
AcDbEntity
  8
osie
100
AcDbVertex
100
AcDb2dVertex
 10
7573663.206763308
 20
5713681.994541127
 30
0.0
  0
SEQEND
  5
7E
330
7B
100
AcDbEntity
  8
osie
  0
POLYLINE
  5
7F
330
1C
100
AcDbEntity
  8
osie
370
    18
100
AcDb2dPolyline
 66
     1
 10
0.0
 20
0.0
 30
0.0
 70
   128
  0
VERTEX
  5
80
330
7F
100
AcDbEntity
  8
osie
100
AcDbVertex
100
AcDb2dVertex
 10
7573682.376538285
 20
5713687.748810819
 30
0.0
  0
VERTEX
  5
81
330
7F
100
AcDbEntity
  8
osie
100
AcDbVertex
100
AcDb2dVertex
 10
7573665.912538286
 20
5713692.139810828
 30
0.0
  0
SEQEND
  5
82
330
7F
100
AcDbEntity
  8
osie
  0
INSERT
  5
83
330
1C
100
AcDbEntity
  8
czolowki
  6
Continuous
100
AcDbBlockReference
 66
     1
  2
pikieta
 10
7573667.927004258
 20
5713691.93407725
 30
0.0
 41
0.25
 42
0.25
 43
0.25
  0
ATTRIB
  5
84
330
83
100
AcDbEntity
  8
czolowki
100
AcDbText
 10
7573667.927004258
 20
5713691.93407725
 30
0.0
 40
0.2
  1
B1
 41
0.62
100
AcDbAttribute
  2
Nr
 70
     0
  0
SEQEND
  5
85
330
83
100
AcDbEntity
  8
czolowki
  0
INSERT
  5
86
330
1C
100
AcDbEntity
  8
czolowki
  6
Continuous
100
AcDbBlockReference
 66
     1
  2
pikieta
 10
7573665.056202589
 20
5713681.170378322
 30
0.0
 41
0.25
 42
0.25
 43
0.25
  0
ATTRIB
  5
87
330
86
100
AcDbEntity
  8
czolowki
100
AcDbText
 10
7573665.056202589
 20
5713681.170378322
 30
0.0
 40
0.2
  1
B2
 41
0.62
100
AcDbAttribute
  2
Nr
 70
     0
  0
SEQEND
  5
88
330
86
100
AcDbEntity
  8
czolowki
  0
INSERT
  5
89
330
1C
100
AcDbEntity
  8
czolowki
  6
Continuous
100
AcDbBlockReference
 66
     1
  2
pikieta
 10
7573677.655630479
 20
5713677.809947599
 30
0.0
 41
0.25
 42
0.25
 43
0.25
  0
ATTRIB
  5
8A
330
89
100
AcDbEntity
  8
czolowki
100
AcDbText
 10
7573677.655630479
 20
5713677.809947599
 30
0.0
 40
0.2
  1
B3
 41
0.62
100
AcDbAttribute
  2
Nr
 70
     0
  0
SEQEND
  5
8B
330
89
100
AcDbEntity
  8
czolowki
  0
INSERT
  5
8C
330
1C
100
AcDbEntity
  8
czolowki
  6
Continuous
100
AcDbBlockReference
 66
     1
  2
pikieta
 10
7573680.52642789
 20
5713688.573569278
 30
0.0
 41
0.25
 42
0.25
 43
0.25
  0
ATTRIB
  5
8D
330
8C
100
AcDbEntity
  8
czolowki
100
AcDbText
 10
7573680.52642789
 20
5713688.573569278
 30
0.0
 40
0.2
  1
B4
 41
0.62
100
AcDbAttribute
  2
Nr
 70
     0
  0
SEQEND
  5
8E
330
8C
100
AcDbEntity
  8
czolowki
  0
INSERT
  5
8F
330
1C
100
AcDbEntity
  8
czolowki
  6
Continuous
100
AcDbBlockReference
 66
     1
  2
pikieta
 10
7573676.912788296
 20
5713689.537373795
 30
0.0
 41
0.25
 42
0.25
 43
0.25
  0
ATTRIB
  5
90
330
8F
100
AcDbEntity
  8
czolowki
100
AcDbText
 10
7573676.912788296
 20
5713689.537373795
 30
0.0
 40
0.2
  1
B5
 41
0.62
100
AcDbAttribute
  2
Nr
 70
     0
  0
SEQEND
  5
91
330
8F
100
AcDbEntity
  8
czolowki
  0
INSERT
  5
92
330
1C
100
AcDbEntity
  8
czolowki
  6
Continuous
100
AcDbBlockReference
 66
     1
  2
pikieta
 10
7573676.521081647
 20
5713688.068728826
 30
0.0
 41
0.25
 42
0.25
 43
0.25
  0
ATTRIB
  5
93
330
92
100
AcDbEntity
  8
czolowki
100
AcDbText
 10
7573676.521081647
 20
5713688.068728826
 30
0.0
 40
0.2
  1
B6
 41
0.62
100
AcDbAttribute
  2
Nr
 70
     0
  0
SEQEND
  5
94
330
92
100
AcDbEntity
  8
czolowki
  0
INSERT
  5
95
330
1C
100
AcDbEntity
  8
czolowki
  6
Continuous
100
AcDbBlockReference
 66
     1
  2
pikieta
 10
7573671.148932946
 20
5713689.501550514
 30
0.0
 41
0.25
 42
0.25
 43
0.25
  0
ATTRIB
  5
96
330
95
100
AcDbEntity
  8
czolowki
100
AcDbText
 10
7573671.148932946
 20
5713689.501550514
 30
0.0
 40
0.2
  1
B7
 41
0.62
100
AcDbAttribute
  2
Nr
 70
     0
  0
SEQEND
  5
97
330
95
100
AcDbEntity
  8
czolowki
  0
INSERT
  5
98
330
1C
100
AcDbEntity
  8
czolowki
  6
Continuous
100
AcDbBlockReference
 66
     1
  2
pikieta
 10
7573671.540639594
 20
5713690.970195483
 30
0.0
 41
0.25
 42
0.25
 43
0.25
  0
ATTRIB
  5
99
330
98
100
AcDbEntity
  8
czolowki
100
AcDbText
 10
7573671.540639594
 20
5713690.970195483
 30
0.0
 40
0.2
  1
B8
 41
0.62
100
AcDbAttribute
  2
Nr
 70
     0
  0
SEQEND
  5
9A
330
98
100
AcDbEntity
  8
czolowki
  0
INSERT
  5
9B
330
1C
100
AcDbEntity
  8
czolowki
  6
Continuous
100
AcDbBlockReference
 66
     1
  2
pikieta
 10
7573668.153244518
 20
5713691.542207506
 30
0.0
 41
0.25
 42
0.25
 43
0.25
  0
ATTRIB
  5
9C
330
9B
100
AcDbEntity
  8
czolowki
100
AcDbText
 10
7573668.153244518
 20
5713691.542207506
 30
0.0
 40
0.2
  1
G1
 41
0.62
100
AcDbAttribute
  2
Nr
 70
     0
  0
SEQEND
  5
9D
330
9B
100
AcDbEntity
  8
czolowki
  0
INSERT
  5
9E
330
1C
100
AcDbEntity
  8
czolowki
  6
Continuous
100
AcDbBlockReference
 66
     1
  2
pikieta
 10
7573665.447857866
 20
5713681.396834194
 30
0.0
 41
0.25
 42
0.25
 43
0.25
  0
ATTRIB
  5
9F
330
9E
100
AcDbEntity
  8
czolowki
100
AcDbText
 10
7573665.447857866
 20
5713681.396834194
 30
0.0
 40
0.2
  1
G4
 41
0.62
100
AcDbAttribute
  2
Nr
 70
     0
  0
SEQEND
  5
A0
330
9E
100
AcDbEntity
  8
czolowki
  0
INSERT
  5
A1
330
1C
100
AcDbEntity
  8
czolowki
  6
Continuous
100
AcDbBlockReference
 66
     1
  2
pikieta
 10
7573680.134324973
 20
5713688.346816083
 30
0.0
 41
0.25
 42
0.25
 43
0.25
  0
ATTRIB
  5
A2
330
A1
100
AcDbEntity
  8
czolowki
100
AcDbText
 10
7573680.134324973
 20
5713688.346816083
 30
0.0
 40
0.2
  1
A1
 41
0.62
100
AcDbAttribute
  2
Nr
 70
     0
  0
SEQEND
  5
A3
330
A1
100
AcDbEntity
  8
czolowki
  0
INSERT
  5
A4
330
1C
100
AcDbEntity
  8
czolowki
  6
Continuous
100
AcDbBlockReference
 66
     1
  2
pikieta
 10
7573677.428938204
 20
5713678.201442567
 30
0.0
 41
0.25
 42
0.25
 43
0.25
  0
ATTRIB
  5
A5
330
A4
100
AcDbEntity
  8
czolowki
100
AcDbText
 10
7573677.428938204
 20
5713678.201442567
 30
0.0
 40
0.2
  1
A4
 41
0.62
100
AcDbAttribute
  2
Nr
 70
     0
  0
SEQEND
  5
A6
330
A4
100
AcDbEntity
  8
czolowki
  0
INSERT
  5
B9
330
1C
100
AcDbEntity
  8
0
  6
Continuous
100
AcDbBlockReference
 66
     1
  2
pikieta
 10
7573644.02
 20
5713641.09
 30
0.0
 41
0.25
 42
0.25
 43
0.25
  0
ATTRIB
  5
BA
330
B9
100
AcDbEntity
  8
0
100
AcDbText
 10
7573644.02
 20
5713641.09
 30
0.0
 40
0.2
  1
11-1005L
 41
0.62
100
AcDbAttribute
  2
Nr
 70
     0
  0
SEQEND
  5
BB
330
B9
100
AcDbEntity
  8
0
  0
INSERT
  5
BC
330
1C
100
AcDbEntity
  8
0
  6
Continuous
100
AcDbBlockReference
  2
GRO
 10
7573644.02
 20
5713641.09
 30
0.0
 41
0.25
 42
0.25
 43
0.25
  0
INSERT
  5
BD
330
1C
100
AcDbEntity
  8
0
  6
Continuous
100
AcDbBlockReference
 66
     1
  2
pikieta
 10
7573677.07
 20
5713632.16
 30
0.0
 41
0.25
 42
0.25
 43
0.25
  0
ATTRIB
  5
BE
330
BD
100
AcDbEntity
  8
0
100
AcDbText
 10
7573677.07
 20
5713632.16
 30
0.0
 40
0.2
  1
11-1000L
 41
0.62
100
AcDbAttribute
  2
Nr
 70
     0
  0
SEQEND
  5
BF
330
BD
100
AcDbEntity
  8
0
  0
INSERT
  5
C0
330
1C
100
AcDbEntity
  8
0
  6
Continuous
100
AcDbBlockReference
  2
GRO
 10
7573677.07
 20
5713632.16
 30
0.0
 41
0.25
 42
0.25
 43
0.25
  0
INSERT
  5
C1
330
1C
100
AcDbEntity
  8
dzialki
  6
Continuous
100
AcDbBlockReference
 66
     1
  2
pikieta
 10
7573696.15
 20
5713706.75
 30
0.0
 41
0.25
 42
0.25
 43
0.25
  0
ATTRIB
  5
C2
330
C1
100
AcDbEntity
  8
0
100
AcDbText
 10
7573696.15
 20
5713706.75
 30
0.0
 40
0.2
  1
11-1001L
 41
0.62
100
AcDbAttribute
  2
Nr
 70
     0
  0
SEQEND
  5
C3
330
C1
100
AcDbEntity
  8
0
  0
INSERT
  5
C4
330
1C
100
AcDbEntity
  8
dzialki
  6
Continuous
100
AcDbBlockReference
  2
GRO
 10
7573696.15
 20
5713706.75
 30
0.0
 41
0.25
 42
0.25
 43
0.25
  0
INSERT
  5
C5
330
1C
100
AcDbEntity
  8
dzialki
  6
Continuous
100
AcDbBlockReference
 66
     1
  2
pikieta
 10
7573694.36
 20
5713706.72
 30
0.0
 41
0.25
 42
0.25
 43
0.25
  0
ATTRIB
  5
C6
330
C5
100
AcDbEntity
  8
0
100
AcDbText
 10
7573694.36
 20
5713706.72
 30
0.0
 40
0.2
  1
11-1002L
 41
0.62
100
AcDbAttribute
  2
Nr
 70
     0
  0
SEQEND
  5
C7
330
C5
100
AcDbEntity
  8
0
  0
INSERT
  5
C8
330
1C
100
AcDbEntity
  8
dzialki
  6
Continuous
100
AcDbBlockReference
  2
GRO
 10
7573694.36
 20
5713706.72
 30
0.0
 41
0.25
 42
0.25
 43
0.25
  0
INSERT
  5
C9
330
1C
100
AcDbEntity
  8
dzialki
  6
Continuous
100
AcDbBlockReference
 66
     1
  2
pikieta
 10
7573682.18
 20
5713703.11
 30
0.0
 41
0.25
 42
0.25
 43
0.25
  0
ATTRIB
  5
CA
330
C9
100
AcDbEntity
  8
0
100
AcDbText
 10
7573682.18
 20
5713703.11
 30
0.0
 40
0.2
  1
11-1003L
 41
0.62
100
AcDbAttribute
  2
Nr
 70
     0
  0
SEQEND
  5
CB
330
C9
100
AcDbEntity
  8
0
  0
INSERT
  5
CC
330
1C
100
AcDbEntity
  8
dzialki
  6
Continuous
100
AcDbBlockReference
  2
GRO
 10
7573682.18
 20
5713703.11
 30
0.0
 41
0.25
 42
0.25
 43
0.25
  0
INSERT
  5
CD
330
1C
100
AcDbEntity
  8
dzialki
  6
Continuous
100
AcDbBlockReference
 66
     1
  2
pikieta
 10
7573661.12
 20
5713705.21
 30
0.0
 41
0.25
 42
0.25
 43
0.25
  0
ATTRIB
  5
CE
330
CD
100
AcDbEntity
  8
0
100
AcDbText
 10
7573661.12
 20
5713705.21
 30
0.0
 40
0.2
  1
11-1004L
 41
0.62
100
AcDbAttribute
  2
Nr
 70
     0
  0
SEQEND
  5
CF
330
CD
100
AcDbEntity
  8
0
  0
INSERT
  5
D0
330
1C
100
AcDbEntity
  8
dzialki
  6
Continuous
100
AcDbBlockReference
  2
GRO
 10
7573661.12
 20
5713705.21
 30
0.0
 41
0.25
 42
0.25
 43
0.25
  0
INSERT
  5
D1
330
1C
100
AcDbEntity
  8
0
  6
Continuous
100
AcDbBlockReference
 66
     1
  2
pikieta
 10
7573577.6
 20
5713386.48
 30
0.0
 41
0.25
 42
0.25
 43
0.25
  0
ATTRIB
  5
D2
330
D1
100
AcDbEntity
  8
0
100
AcDbText
 10
7573577.6
 20
5713386.48
 30
0.0
 40
0.2
  1
11-1006L
 41
0.62
100
AcDbAttribute
  2
Nr
 70
     0
  0
SEQEND
  5
D3
330
D1
100
AcDbEntity
  8
0
  0
INSERT
  5
D4
330
1C
100
AcDbEntity
  8
0
  6
Continuous
100
AcDbBlockReference
  2
GRO
 10
7573577.6
 20
5713386.48
 30
0.0
 41
0.25
 42
0.25
 43
0.25
  0
INSERT
  5
D5
330
1C
100
AcDbEntity
  8
dzialki
  6
Continuous
100
AcDbBlockReference
 66
     1
  2
pikieta
 10
7573641.43
 20
5713707.17
 30
0.0
 41
0.25
 42
0.25
 43
0.25
  0
ATTRIB
  5
D6
330
D5
100
AcDbEntity
  8
0
100
AcDbText
 10
7573641.43
 20
5713707.17
 30
0.0
 40
0.2
  1
11-999L
 41
0.62
100
AcDbAttribute
  2
Nr
 70
     0
  0
SEQEND
  5
D7
330
D5
100
AcDbEntity
  8
0
  0
INSERT
  5
D8
330
1C
100
AcDbEntity
  8
dzialki
  6
Continuous
100
AcDbBlockReference
  2
GRO
 10
7573641.43
 20
5713707.17
 30
0.0
 41
0.25
 42
0.25
 43
0.25
  0
INSERT
  5
D9
330
1C
100
AcDbEntity
  8
0
  6
Continuous
100
AcDbBlockReference
 66
     1
  2
pikieta
 10
7573631.31
 20
5713667.19
 30
0.0
 41
0.25
 42
0.25
 43
0.25
  0
ATTRIB
  5
DA
330
D9
100
AcDbEntity
  8
0
100
AcDbText
 10
7573631.31
 20
5713667.19
 30
0.0
 40
0.2
  1
11-998L
 41
0.62
100
AcDbAttribute
  2
Nr
 70
     0
  0
SEQEND
  5
DB
330
D9
100
AcDbEntity
  8
0
  0
INSERT
  5
DC
330
1C
100
AcDbEntity
  8
0
  6
Continuous
100
AcDbBlockReference
  2
GRO
 10
7573631.31
 20
5713667.19
 30
0.0
 41
0.25
 42
0.25
 43
0.25
  0
INSERT
  5
DD
330
1C
100
AcDbEntity
  8
0
  6
Continuous
100
AcDbBlockReference
 66
     1
  2
pikieta
 10
7573608.7
 20
5713674.64
 30
0.0
 41
0.25
 42
0.25
 43
0.25
  0
ATTRIB
  5
DE
330
DD
100
AcDbEntity
  8
0
100
AcDbText
 10
7573608.7
 20
5713674.64
 30
0.0
 40
0.2
  1
11-3542
 41
0.62
100
AcDbAttribute
  2
Nr
 70
     0
  0
SEQEND
  5
DF
330
DD
100
AcDbEntity
  8
0
  0
INSERT
  5
E0
330
1C
100
AcDbEntity
  8
0
  6
Continuous
100
AcDbBlockReference
  2
GRO
 10
7573608.7
 20
5713674.64
 30
0.0
 41
0.25
 42
0.25
 43
0.25
  0
INSERT
  5
E1
330
1C
100
AcDbEntity
  8
0
  6
Continuous
100
AcDbBlockReference
 66
     1
  2
pikieta
 10
7573602.92
 20
5713652.36
 30
0.0
 41
0.25
 42
0.25
 43
0.25
  0
ATTRIB
  5
E2
330
E1
100
AcDbEntity
  8
0
100
AcDbText
 10
7573602.92
 20
5713652.36
 30
0.0
 40
0.2
  1
11-3547
 41
0.62
100
AcDbAttribute
  2
Nr
 70
     0
  0
SEQEND
  5
E3
330
E1
100
AcDbEntity
  8
0
  0
INSERT
  5
E4
330
1C
100
AcDbEntity
  8
0
  6
Continuous
100
AcDbBlockReference
  2
GRO
 10
7573602.92
 20
5713652.36
 30
0.0
 41
0.25
 42
0.25
 43
0.25
  0
INSERT
  5
E5
330
1C
100
AcDbEntity
  8
0
  6
Continuous
100
AcDbBlockReference
 66
     1
  2
pikieta
 10
7573539.09
 20
5713396.18
 30
0.0
 41
0.25
 42
0.25
 43
0.25
  0
ATTRIB
  5
E6
330
E5
100
AcDbEntity
  8
0
100
AcDbText
 10
7573539.09
 20
5713396.18
 30
0.0
 40
0.2
  1
11-975L
 41
0.62
100
AcDbAttribute
  2
Nr
 70
     0
  0
SEQEND
  5
E7
330
E5
100
AcDbEntity
  8
0
  0
INSERT
  5
E8
330
1C
100
AcDbEntity
  8
0
  6
Continuous
100
AcDbBlockReference
  2
GRO
 10
7573539.09
 20
5713396.18
 30
0.0
 41
0.25
 42
0.25
 43
0.25
  0
TEXT
  5
E9
330
1C
100
AcDbEntity
  8
czoloqwki_osie
370
    18
100
AcDbText
 39
0.18
 10
7573673.246261529
 20
5713690.283419514
 30
0.0
 40
0.45
  1
-12.400-
 50
-14.9
 41
0.66
100
AcDbText
  0
TEXT
  5
EA
330
1C
100
AcDbEntity
  8
czoloqwki_osie
370
    18
100
AcDbText
 39
0.18
 10
7573667.104580486
 20
5713685.432261528
 30
0.0
 40
0.45
  1
-10.499-
 50
-284.9
 41
0.66
100
AcDbText
  0
TEXT
  5
EB
330
1C
100
AcDbEntity
  8
czoloqwki_osie
370
    18
100
AcDbText
 39
0.18
 10
7573678.46310664
 20
5713682.42740348
 30
0.0
 40
0.45
  1
-10.500-
 50
-284.9
 41
0.66
100
AcDbText
  0
TEXT
  5
EC
330
1C
100
AcDbEntity
  8
czoloqwki_osie
370
    18
100
AcDbText
 39
0.18
 10
7573670.59190348
 20
5713680.11739336
 30
0.0
 40
0.45
  1
-12.400-
 50
-14.9
 41
0.66
100
AcDbText
  0
TEXT
  5
ED
330
1C
100
AcDbEntity
  8
czolowki
370
    18
100
AcDbText
 39
0.18
 10
7573666.171732958
 20
5713685.706188256
 30
0.0
 40
0.45
  1
-11.140-
 50
-285.0
 41
0.66
100
AcDbText
  0
TEXT
  5
EE
330
1C
100
AcDbEntity
  8
czolowki
370
    18
100
AcDbText
 39
0.18
 10
7573670.296666756
 20
5713679.25493714
 30
0.0
 40
0.45
  1
-13.040-
 50
-15.0
 41
0.66
100
AcDbText
  0
TEXT
  5
EF
330
1C
100
AcDbEntity
  8
czolowki
370
    18
100
AcDbText
 39
0.18
 10
7573679.37706286
 20
5713682.141666756
 30
0.0
 40
0.45
  1
-11.140-
 50
-285.0
 41
0.66
100
AcDbText
  0
TEXT
  5
F0
330
1C
100
AcDbEntity
  8
czolowki
370
    18
100
AcDbText
 39
0.18
 10
7573677.982235218
 20
5713689.346224858
 30
0.0
 40
0.45
  1
-3.739-
 50
-15.0
 41
0.66
100
AcDbText
  0
TEXT
  5
F1
330
1C
100
AcDbEntity
  8
czolowki
370
    18
100
AcDbText
 39
0.18
 10
7573676.42618165
 20
5713688.065678436
 30
0.0
 40
0.45
  1
-1.519-
 50
-285.0
 41
0.66
100
AcDbText
  0
TEXT
  5
F2
330
1C
100
AcDbEntity
  8
czolowki
370
    18
100
AcDbText
 39
0.18
 10
7573673.097634423
 20
5713689.075892991
 30
0.0
 40
0.45
  1
-5.560-
 50
-15.0
 41
0.66
100
AcDbText
  0
TEXT
  5
F3
330
1C
100
AcDbEntity
  8
czolowki
370
    18
100
AcDbText
 39
0.18
 10
7573671.054032948
 20
5713689.498500125
 30
0.0
 40
0.45
  1
-1.519-
 50
-285.0
 41
0.66
100
AcDbText
  0
TEXT
  5
F4
330
1C
100
AcDbEntity
  8
czolowki
370
    18
100
AcDbText
 39
0.18
 10
7573668.996449052
 20
5713691.742889688
 30
0.0
 40
0.45
  1
-3.740-
 50
-15.0
 41
0.66
100
AcDbText
  0
TEXT
  5
F5
330
1C
100
AcDbEntity
  8
czolowki
370
    18
100
AcDbText
 39
0.18
 10
7573670.392325706
 20
5713683.807377922
 30
0.0
 40
0.45
  1
-16.247-
 50
-334.7
 41
0.66
100
AcDbText
  0
TEXT
  5
F6
330
1C
100
AcDbEntity
  8
czolowki
370
    18
100
AcDbText
 39
0.18
 10
7573673.10235779
 20
5713684.621034289
 30
0.0
 40
0.45
  1
-16.249-
 50
-55.2
 41
0.66
100
AcDbText
  0
TEXT
  5
F7
330
1C
100
AcDbEntity
  8
czolowki
370
    18
100
AcDbText
 39
0.18
 10
7573682.013076851
 20
5713676.796026729
 30
0.0
 40
0.45
  1
-10.745-
 50
-14.2
 41
0.66
100
AcDbText
  0
TEXT
  5
F8
330
1C
100
AcDbEntity
  8
czolowki
370
    18
100
AcDbText
 39
0.18
 10
7573659.486620789
 20
5713682.744965922
 30
0.0
 40
0.45
  1
-9.999-
 50
-14.9
 41
0.66
100
AcDbText
  0
TEXT
  5
F9
330
1C
100
AcDbEntity
  8
czolowki
370
    18
100
AcDbText
 39
0.18
 10
7573669.245106639
 20
5713697.22290348
 30
0.0
 40
0.45
  1
-12.700-
 50
-284.9
 41
0.66
100
AcDbText
  0
TEXT
  5
FA
330
1C
100
AcDbEntity
  8
osie
370
    40
100
AcDbText
 39
0.4
 10
7573680.726000001
 20
5713691.207
 30
0.0
 40
0.63
  1
A
 41
0.66
100
AcDbText
  0
TEXT
  5
FB
330
1C
100
AcDbEntity
  8
osie
370
    40
100
AcDbText
 39
0.4
 10
7573676.396000001
 20
5713674.817
 30
0.0
 40
0.63
  1
A
 41
0.66
100
AcDbText
  0
TEXT
  5
FC
330
1C
100
AcDbEntity
  8
osie
370
    40
100
AcDbText
 39
0.4
 10
7573668.616
 20
5713694.247
 30
0.0
 40
0.63
  1
G
 41
0.66
100
AcDbText
  0
TEXT
  5
FD
330
1C
100
AcDbEntity
  8
osie
370
    40
100
AcDbText
 39
0.4
 10
7573664.506
 20
5713678.187
 30
0.0
 40
0.63
  1
G
 41
0.66
100
AcDbText
  0
TEXT
  5
FE
330
1C
100
AcDbEntity
  8
obrys_bud
370
    40
100
AcDbText
 39
0.4
 10
7573665.146000001
 20
5713692.117000001
 30
0.0
 40
0.63
  1
1
 41
0.66
100
AcDbText
  0
TEXT
  5
FF
330
1C
100
AcDbEntity
  8
osie
370
    40
100
AcDbText
 39
0.4
 10
7573682.876
 20
5713687.327000001
 30
0.0
 40
0.63
  1
1
 41
0.66
100
AcDbText
  0
TEXT
  5
100
330
1C
100
AcDbEntity
  8
osie
370
    40
100
AcDbText
 39
0.4
 10
7573662.416
 20
5713681.877
 30
0.0
 40
0.63
  1
4
 41
0.66
100
AcDbText
  0
TEXT
  5
101
330
1C
100
AcDbEntity
  8
osie
370
    40
100
AcDbText
 39
0.4
 10
7573680.256
 20
5713677.167
 30
0.0
 40
0.63
  1
4
 41
0.66
100
AcDbText
  0
ENDSEC
  0
SECTION
  2
OBJECTS
  0
DICTIONARY
  5
102
330
0
100
AcDbDictionary
281
     1
  3
ACAD_DETAILVIEWSTYLE
350
100005B
  3
ACAD_GROUP
350
103
  3
ACAD_LAYOUT
350
104
  3
ACAD_MATERIAL
350
100003A
  3
ACAD_MLEADERSTYLE
350
1000040
  3
ACAD_MLINESTYLE
350
105
  3
ACAD_PLOTSETTINGS
350
106
  3
ACAD_PLOTSTYLENAME
350
107
  3
ACAD_SCALELIST
350
FFFFFF
  3
ACAD_SECTIONVIEWSTYLE
350
100005C
  3
ACAD_TABLESTYLE
350
100003E
  3
ACDB_RECOMPOSE_DATA
350
1000057
  3
AcDbVariableDictionary
350
1000051
  3
APPDATA
350
1000042
  0
DICTIONARY
  5
1000043
330
B
100
AcDbDictionary
280
     1
281
     1
  3
ACAD_LAYERSTATES
360
1000044
  3
ACLYDICTIONARY
360
1000050
  0
DICTIONARY
  5
100005B
102
{ACAD_REACTORS
330
102
102
}
330
102
100
AcDbDictionary
281
     1
  0
DICTIONARY
  5
103
102
{ACAD_REACTORS
330
102
102
}
330
102
100
AcDbDictionary
281
     1
  0
DICTIONARY
  5
104
102
{ACAD_REACTORS
330
102
102
}
330
102
100
AcDbDictionary
281
     1
  3
Layout
350
1F
  3
Model
350
1D
  0
DICTIONARY
  5
100003A
102
{ACAD_REACTORS
330
102
102
}
330
102
100
AcDbDictionary
281
     1
  3
ByBlock
350
100003C
  3
ByLayer
350
100003B
  3
Global
350
100003D
  0
DICTIONARY
  5
1000040
102
{ACAD_REACTORS
330
102
102
}
330
102
100
AcDbDictionary
281
     1
  3
Standard
350
1000041
  0
DICTIONARY
  5
105
102
{ACAD_REACTORS
330
102
102
}
330
102
100
AcDbDictionary
281
     1
  3
L_0_02_M
350
8
  3
Standard
350
108
  0
DICTIONARY
  5
106
102
{ACAD_REACTORS
330
102
102
}
330
102
100
AcDbDictionary
281
     1
  0
ACDBDICTIONARYWDFLT
  5
107
102
{ACAD_REACTORS
330
102
102
}
330
102
100
AcDbDictionary
281
     1
  3
Normal
350
D
100
AcDbDictionaryWithDefault
340
D
  0
DICTIONARY
  5
FFFFFF
102
{ACAD_REACTORS
330
102
102
}
330
102
100
AcDbDictionary
281
     1
  3
A0
350
1000000
  3
A1
350
1000001
  3
A2
350
1000002
  3
A3
350
1000003
  3
A4
350
1000004
  3
A5
350
1000005
  3
A6
350
1000006
  3
A7
350
1000007
  3
A8
350
1000008
  3
A9
350
1000009
  3
B0
350
100000A
  3
B1
350
100000B
  3
B2
350
100000C
  3
B3
350
100000D
  3
B4
350
100000E
  3
B5
350
100000F
  3
B6
350
1000010
  3
B7
350
1000011
  3
B8
350
1000012
  3
B9
350
1000013
  3
C0
350
1000014
  3
C1
350
1000015
  3
C2
350
1000016
  3
C3
350
1000017
  3
C4
350
1000018
  3
C5
350
1000019
  3
C6
350
100001A
  3
C7
350
100001B
  3
C8
350
100001C
  3
C9
350
100001D
  3
D0
350
100001E
  3
D1
350
100001F
  3
D2
350
1000020
  0
DICTIONARY
  5
100005C
102
{ACAD_REACTORS
330
102
102
}
330
102
100
AcDbDictionary
281
     1
  0
DICTIONARY
  5
100003E
102
{ACAD_REACTORS
330
102
102
}
330
102
100
AcDbDictionary
281
     1
  3
Standard
350
100003F
  0
XRECORD
  5
1000057
102
{ACAD_REACTORS
330
102
102
}
330
102
100
AcDbXrecord
280
     1
 90
        1
330
100003F
  0
DICTIONARY
  5
1000051
102
{ACAD_REACTORS
330
102
102
}
330
102
100
AcDbDictionary
281
     1
  3
CANNOSCALE
350
1000052
  3
CMLEADERSTYLE
350
1000059
  3
CTABLESTYLE
350
1000058
  3
MSLTSCALE
350
100005A
  0
DICTIONARY
  5
1000042
102
{ACAD_REACTORS
330
102
102
}
330
102
100
AcDbDictionary
281
     1
  0
DICTIONARY
  5
1000044
102
{ACAD_REACTORS
330
1000043
102
}
330
1000043
100
AcDbDictionary
281
     1
  0
DICTIONARY
  5
1000050
102
{ACAD_REACTORS
330
1000043
102
}
330
1000043
100
AcDbDictionary
281
     1
1001
ACAD
1000
<All
  0
LAYOUT
  5
1F
330
104
100
AcDbPlotSettings
  1

  2

  4

  6

 40
0.0
 41
0.0
 42
0.0
 43
0.0
 44
0.0
 45
0.0
 46
0.0
 47
0.0
 48
0.0
 49
0.0
140
0.0
141
0.0
142
1.0
143
1.0
 70
   688
 72
     1
 73
     0
 74
     5
  7

 75
     0
 76
     0
 77
     2
 78
   300
147
1.0
148
0.0
149
0.0
100
AcDbLayout
  1
Layout
 70
     1
 71
     1
 10
0.0
 20
0.0
 11
420.0
 21
297.0
 12
0.0
 22
0.0
 32
0.0
 14
1.000000000000000E+20
 24
1.000000000000000E+20
 34
1.000000000000000E+20
 15
-1.000000000000000E+20
 25
-1.000000000000000E+20
 35
-1.000000000000000E+20
146
0.0
 13
0.0
 23
0.0
 33
0.0
 16
1.0
 26
0.0
 36
0.0
 17
0.0
 27
1.0
 37
0.0
 76
     0
330
1E
  0
LAYOUT
  5
1D
330
104
100
AcDbPlotSettings
  1

  2

  4

  6

 40
0.0
 41
0.0
 42
0.0
 43
0.0
 44
0.0
 45
0.0
 46
0.0
 47
0.0
 48
0.0
 49
0.0
140
0.0
141
0.0
142
1.0
143
1.0
 70
  1712
 72
     1
 73
     0
 74
     0
  7

 75
     0
 76
     0
 77
     2
 78
   300
147
1.0
148
0.0
149
0.0
100
AcDbLayout
  1
Model
 70
     1
 71
     0
 10
0.0
 20
0.0
 11
12.0
 21
9.0
 12
0.0
 22
0.0
 32
0.0
 14
7573539.064999999
 24
5713386.455
 34
0.0
 15
7573696.988660715
 25
5713707.37
 35
0.0
146
0.0
 13
0.0
 23
0.0
 33
0.0
 16
1.0
 26
0.0
 36
0.0
 17
0.0
 27
1.0
 37
0.0
 76
     0
330
1C
331
2
  0
MATERIAL
  5
100003C
102
{ACAD_REACTORS
330
100003A
102
}
330
100003A
100
AcDbMaterial
  1
ByBlock
  0
MATERIAL
  5
100003B
102
{ACAD_REACTORS
330
100003A
102
}
330
100003A
100
AcDbMaterial
  1
ByLayer
  0
MATERIAL
  5
100003D
102
{ACAD_REACTORS
330
100003A
102
}
330
100003A
100
AcDbMaterial
  1
Global
  0
MLEADERSTYLE
  5
1000041
102
{ACAD_REACTORS
330
1000040
102
}
330
1000040
100
AcDbMLeaderStyle
170
     2
171
     1
172
     0
 90
        2
 40
0.0
 41
0.0
173
     1
 91
-1056964608
340
4
 92
       -2
290
     1
 42
0.09
291
     1
 43
0.36
  3
Standard
341
0
 44
0.18
300

342
14
174
     1
178
     1
175
     1
176
     0
 93
-1056964608
 45
0.18
292
     0
297
     0
 46
0.18
343
0
 94
-1056964608
 47
1.0
 49
1.0
140
1.0
293
     1
141
0.0
294
     1
177
     0
142
1.0
295
     0
296
     0
143
0.125
1001
ACAD_MLEADERVER
1070
     2
  0
MLINESTYLE
  5
8
330
105
100
AcDbMlineStyle
  2
L_0_02_M
 70
     0
  3

 62
   256
 51
90.0
 52
90.0
 71
     1
 49
0.0
 62
   256
  6
CONTINUOUS
  0
MLINESTYLE
  5
108
102
{ACAD_REACTORS
330
105
102
}
330
105
100
AcDbMlineStyle
  2
Standard
 70
     0
  3

 62
   256
 51
90.0
 52
90.0
 71
     2
 49
0.5
 62
   256
  6
BYLAYER
 49
-0.5
 62
   256
  6
BYLAYER
  0
ACDBPLACEHOLDER
  5
D
330
107
  0
SCALE
  5
1000000
102
{ACAD_REACTORS
330
FFFFFF
102
}
330
FFFFFF
100
AcDbScale
 70
     0
300
1:1
140
1.0
141
1.0
290
     1
  0
SCALE
  5
1000001
102
{ACAD_REACTORS
330
FFFFFF
102
}
330
FFFFFF
100
AcDbScale
 70
     0
300
1:2
140
1.0
141
2.0
290
     0
  0
SCALE
  5
1000002
102
{ACAD_REACTORS
330
FFFFFF
102
}
330
FFFFFF
100
AcDbScale
 70
     0
300
1:4
140
1.0
141
4.0
290
     0
  0
SCALE
  5
1000003
102
{ACAD_REACTORS
330
FFFFFF
102
}
330
FFFFFF
100
AcDbScale
 70
     0
300
1:5
140
1.0
141
5.0
290
     0
  0
SCALE
  5
1000004
102
{ACAD_REACTORS
330
FFFFFF
102
}
330
FFFFFF
100
AcDbScale
 70
     0
300
1:8
140
1.0
141
8.0
290
     0
  0
SCALE
  5
1000005
102
{ACAD_REACTORS
330
FFFFFF
102
}
330
FFFFFF
100
AcDbScale
 70
     0
300
1:10
140
1.0
141
10.0
290
     0
  0
SCALE
  5
1000006
102
{ACAD_REACTORS
330
FFFFFF
102
}
330
FFFFFF
100
AcDbScale
 70
     0
300
1:16
140
1.0
141
16.0
290
     0
  0
SCALE
  5
1000007
102
{ACAD_REACTORS
330
FFFFFF
102
}
330
FFFFFF
100
AcDbScale
 70
     0
300
1:20
140
1.0
141
20.0
290
     0
  0
SCALE
  5
1000008
102
{ACAD_REACTORS
330
FFFFFF
102
}
330
FFFFFF
100
AcDbScale
 70
     0
300
1:30
140
1.0
141
30.0
290
     0
  0
SCALE
  5
1000009
102
{ACAD_REACTORS
330
FFFFFF
102
}
330
FFFFFF
100
AcDbScale
 70
     0
300
1:40
140
1.0
141
40.0
290
     0
  0
SCALE
  5
100000A
102
{ACAD_REACTORS
330
FFFFFF
102
}
330
FFFFFF
100
AcDbScale
 70
     0
300
1:50
140
1.0
141
50.0
290
     0
  0
SCALE
  5
100000B
102
{ACAD_REACTORS
330
FFFFFF
102
}
330
FFFFFF
100
AcDbScale
 70
     0
300
1:100
140
1.0
141
100.0
290
     0
  0
SCALE
  5
100000C
102
{ACAD_REACTORS
330
FFFFFF
102
}
330
FFFFFF
100
AcDbScale
 70
     0
300
2:1
140
2.0
141
1.0
290
     0
  0
SCALE
  5
100000D
102
{ACAD_REACTORS
330
FFFFFF
102
}
330
FFFFFF
100
AcDbScale
 70
     0
300
4:1
140
4.0
141
1.0
290
     0
  0
SCALE
  5
100000E
102
{ACAD_REACTORS
330
FFFFFF
102
}
330
FFFFFF
100
AcDbScale
 70
     0
300
8:1
140
8.0
141
1.0
290
     0
  0
SCALE
  5
100000F
102
{ACAD_REACTORS
330
FFFFFF
102
}
330
FFFFFF
100
AcDbScale
 70
     0
300
10:1
140
10.0
141
1.0
290
     0
  0
SCALE
  5
1000010
102
{ACAD_REACTORS
330
FFFFFF
102
}
330
FFFFFF
100
AcDbScale
 70
     0
300
100:1
140
100.0
141
1.0
290
     0
  0
SCALE
  5
1000011
102
{ACAD_REACTORS
330
FFFFFF
102
}
330
FFFFFF
100
AcDbScale
 70
     0
300
1/128" = 1'-0"
140
0.0078125
141
12.0
290
     0
  0
SCALE
  5
1000012
102
{ACAD_REACTORS
330
FFFFFF
102
}
330
FFFFFF
100
AcDbScale
 70
     0
300
1/64" = 1'-0"
140
0.015625
141
12.0
290
     0
  0
SCALE
  5
1000013
102
{ACAD_REACTORS
330
FFFFFF
102
}
330
FFFFFF
100
AcDbScale
 70
     0
300
1/32" = 1'-0"
140
0.03125
141
12.0
290
     0
  0
SCALE
  5
1000014
102
{ACAD_REACTORS
330
FFFFFF
102
}
330
FFFFFF
100
AcDbScale
 70
     0
300
1/16" = 1'-0"
140
0.0625
141
12.0
290
     0
  0
SCALE
  5
1000015
102
{ACAD_REACTORS
330
FFFFFF
102
}
330
FFFFFF
100
AcDbScale
 70
     0
300
3/32" = 1'-0"
140
0.09375
141
12.0
290
     0
  0
SCALE
  5
1000016
102
{ACAD_REACTORS
330
FFFFFF
102
}
330
FFFFFF
100
AcDbScale
 70
     0
300
1/8" = 1'-0"
140
0.125
141
12.0
290
     0
  0
SCALE
  5
1000017
102
{ACAD_REACTORS
330
FFFFFF
102
}
330
FFFFFF
100
AcDbScale
 70
     0
300
3/16" = 1'-0"
140
0.1875
141
12.0
290
     0
  0
SCALE
  5
1000018
102
{ACAD_REACTORS
330
FFFFFF
102
}
330
FFFFFF
100
AcDbScale
 70
     0
300
1/4" = 1'-0"
140
0.25
141
12.0
290
     0
  0
SCALE
  5
1000019
102
{ACAD_REACTORS
330
FFFFFF
102
}
330
FFFFFF
100
AcDbScale
 70
     0
300
3/8" = 1'-0"
140
0.375
141
12.0
290
     0
  0
SCALE
  5
100001A
102
{ACAD_REACTORS
330
FFFFFF
102
}
330
FFFFFF
100
AcDbScale
 70
     0
300
1/2" = 1'-0"
140
0.5
141
12.0
290
     0
  0
SCALE
  5
100001B
102
{ACAD_REACTORS
330
FFFFFF
102
}
330
FFFFFF
100
AcDbScale
 70
     0
300
3/4" = 1'-0"
140
0.75
141
12.0
290
     0
  0
SCALE
  5
100001C
102
{ACAD_REACTORS
330
FFFFFF
102
}
330
FFFFFF
100
AcDbScale
 70
     0
300
1" = 1'-0"
140
1.0
141
12.0
290
     0
  0
SCALE
  5
100001D
102
{ACAD_REACTORS
330
FFFFFF
102
}
330
FFFFFF
100
AcDbScale
 70
     0
300
1-1/2" = 1'-0"
140
1.5
141
12.0
290
     0
  0
SCALE
  5
100001E
102
{ACAD_REACTORS
330
FFFFFF
102
}
330
FFFFFF
100
AcDbScale
 70
     0
300
3" = 1'-0"
140
3.0
141
12.0
290
     0
  0
SCALE
  5
100001F
102
{ACAD_REACTORS
330
FFFFFF
102
}
330
FFFFFF
100
AcDbScale
 70
     0
300
6" = 1'-0"
140
6.0
141
12.0
290
     0
  0
SCALE
  5
1000020
102
{ACAD_REACTORS
330
FFFFFF
102
}
330
FFFFFF
100
AcDbScale
 70
     0
300
1'-0" = 1'-0"
140
12.0
141
12.0
290
     0
  0
TABLESTYLE
  5
100003F
102
{ACAD_REACTORS
330
100003E
102
}
102
{ACAD_XDICTIONARY
360
1000053
102
}
330
100003E
100
AcDbTableStyle
  3
Standard
 70
     0
 71
     0
 40
0.06
 41
0.06
280
     0
281
     0
  7
STANDARD
140
0.18
170
     2
 62
     0
 63
   257
283
     0
274
    -2
284
     1
 64
     0
275
    -2
285
     1
 65
     0
276
    -2
286
     1
 66
     0
277
    -2
287
     1
 67
     0
278
    -2
288
     1
 68
     0
279
    -2
289
     1
 69
     0
  7
STANDARD
140
0.25
170
     5
 62
     0
 63
   257
283
     0
274
    -2
284
     1
 64
     0
275
    -2
285
     1
 65
     0
276
    -2
286
     1
 66
     0
277
    -2
287
     1
 67
     0
278
    -2
288
     1
 68
     0
279
    -2
289
     1
 69
     0
  7
STANDARD
140
0.18
170
     5
 62
     0
 63
   257
283
     0
274
    -2
284
     1
 64
     0
275
    -2
285
     1
 65
     0
276
    -2
286
     1
 66
     0
277
    -2
287
     1
 67
     0
278
    -2
288
     1
 68
     0
279
    -2
289
     1
 69
     0
  0
DICTIONARYVAR
  5
1000052
102
{ACAD_REACTORS
330
1000051
102
}
330
1000051
100
DictionaryVariables
280
     0
  1
1:1
  0
DICTIONARYVAR
  5
1000059
102
{ACAD_REACTORS
330
1000051
102
}
330
1000051
100
DictionaryVariables
280
     0
  1
Standard
  0
DICTIONARYVAR
  5
1000058
102
{ACAD_REACTORS
330
1000051
102
}
330
1000051
100
DictionaryVariables
280
     0
  1
Standard
  0
DICTIONARYVAR
  5
100005A
102
{ACAD_REACTORS
330
1000051
102
}
330
1000051
100
DictionaryVariables
280
     0
  1
0
  0
DICTIONARY
  5
1000053
330
100003F
100
AcDbDictionary
280
     1
281
     1
  3
ACAD_ROUNDTRIP_2008_TABLESTYLE_CELLSTYLEMAP
360
1000055
  3
ACAD_XREC_ROUNDTRIP
360
1000054
  0
CELLSTYLEMAP
  5
1000055
102
{ACAD_REACTORS
330
1000053
102
}
330
1000053
100
AcDbCellStyleMap
 90
        3
300
CELLSTYLE
  1
TABLEFORMAT_BEGIN
 90
        5
170
     1
 91
        0
 92
    32768
 62
   257
 93
        1
300
CONTENTFORMAT
  1
CONTENTFORMAT_BEGIN
 90
        0
 91
        0
 92
        4
 93
        0
300

 40
0.0
140
1.0
 94
        5
 62
     0
340
14
144
0.25
309
CONTENTFORMAT_END
171
     1
301
MARGIN
  1
CELLMARGIN_BEGIN
 40
0.06
 40
0.06
 40
0.06
 40
0.06
 40
0.06
 40
0.06
309
CELLMARGIN_END
 94
        6
 95
        1
302
GRIDFORMAT
  1
GRIDFORMAT_BEGIN
 90
        0
 91
        1
 62
     0
 92
       -2
340
4
 93
        0
 40
0.045
309
GRIDFORMAT_END
 95
        2
302
GRIDFORMAT
  1
GRIDFORMAT_BEGIN
 90
        0
 91
        1
 62
     0
 92
       -2
340
4
 93
        0
 40
0.045
309
GRIDFORMAT_END
 95
        4
302
GRIDFORMAT
  1
GRIDFORMAT_BEGIN
 90
        0
 91
        1
 62
     0
 92
       -2
340
4
 93
        0
 40
0.045
309
GRIDFORMAT_END
 95
        8
302
GRIDFORMAT
  1
GRIDFORMAT_BEGIN
 90
        0
 91
        1
 62
     0
 92
       -2
340
4
 93
        0
 40
0.045
309
GRIDFORMAT_END
 95
       16
302
GRIDFORMAT
  1
GRIDFORMAT_BEGIN
 90
        0
 91
        1
 62
     0
 92
       -2
340
4
 93
        0
 40
0.045
309
GRIDFORMAT_END
 95
       32
302
GRIDFORMAT
  1
GRIDFORMAT_BEGIN
 90
        0
 91
        1
 62
     0
 92
       -2
340
4
 93
        0
 40
0.045
309
GRIDFORMAT_END
309
TABLEFORMAT_END
  1
CELLSTYLE_BEGIN
 90
        1
 91
        1
300
_TITLE
309
CELLSTYLE_END
300
CELLSTYLE
  1
TABLEFORMAT_BEGIN
 90
        5
170
     1
 91
        0
 92
        0
 62
   257
 93
        1
300
CONTENTFORMAT
  1
CONTENTFORMAT_BEGIN
 90
        0
 91
        0
 92
        4
 93
        0
300

 40
0.0
140
1.0
 94
        5
 62
     0
340
14
144
0.18
309
CONTENTFORMAT_END
171
     1
301
MARGIN
  1
CELLMARGIN_BEGIN
 40
0.06
 40
0.06
 40
0.06
 40
0.06
 40
0.06
 40
0.06
309
CELLMARGIN_END
 94
        6
 95
        1
302
GRIDFORMAT
  1
GRIDFORMAT_BEGIN
 90
        0
 91
        1
 62
     0
 92
       -2
340
4
 93
        0
 40
0.045
309
GRIDFORMAT_END
 95
        2
302
GRIDFORMAT
  1
GRIDFORMAT_BEGIN
 90
        0
 91
        1
 62
     0
 92
       -2
340
4
 93
        0
 40
0.045
309
GRIDFORMAT_END
 95
        4
302
GRIDFORMAT
  1
GRIDFORMAT_BEGIN
 90
        0
 91
        1
 62
     0
 92
       -2
340
4
 93
        0
 40
0.045
309
GRIDFORMAT_END
 95
        8
302
GRIDFORMAT
  1
GRIDFORMAT_BEGIN
 90
        0
 91
        1
 62
     0
 92
       -2
340
4
 93
        0
 40
0.045
309
GRIDFORMAT_END
 95
       16
302
GRIDFORMAT
  1
GRIDFORMAT_BEGIN
 90
        0
 91
        1
 62
     0
 92
       -2
340
4
 93
        0
 40
0.045
309
GRIDFORMAT_END
 95
       32
302
GRIDFORMAT
  1
GRIDFORMAT_BEGIN
 90
        0
 91
        1
 62
     0
 92
       -2
340
4
 93
        0
 40
0.045
309
GRIDFORMAT_END
309
TABLEFORMAT_END
  1
CELLSTYLE_BEGIN
 90
        2
 91
        1
300
_HEADER
309
CELLSTYLE_END
300
CELLSTYLE
  1
TABLEFORMAT_BEGIN
 90
        5
170
     1
 91
        0
 92
        0
 62
   257
 93
        1
300
CONTENTFORMAT
  1
CONTENTFORMAT_BEGIN
 90
        0
 91
        0
 92
        4
 93
        0
300

 40
0.0
140
1.0
 94
        2
 62
     0
340
14
144
0.18
309
CONTENTFORMAT_END
171
     1
301
MARGIN
  1
CELLMARGIN_BEGIN
 40
0.06
 40
0.06
 40
0.06
 40
0.06
 40
0.06
 40
0.06
309
CELLMARGIN_END
 94
        6
 95
        1
302
GRIDFORMAT
  1
GRIDFORMAT_BEGIN
 90
        0
 91
        1
 62
     0
 92
       -2
340
4
 93
        0
 40
0.045
309
GRIDFORMAT_END
 95
        2
302
GRIDFORMAT
  1
GRIDFORMAT_BEGIN
 90
        0
 91
        1
 62
     0
 92
       -2
340
4
 93
        0
 40
0.045
309
GRIDFORMAT_END
 95
        4
302
GRIDFORMAT
  1
GRIDFORMAT_BEGIN
 90
        0
 91
        1
 62
     0
 92
       -2
340
4
 93
        0
 40
0.045
309
GRIDFORMAT_END
 95
        8
302
GRIDFORMAT
  1
GRIDFORMAT_BEGIN
 90
        0
 91
        1
 62
     0
 92
       -2
340
4
 93
        0
 40
0.045
309
GRIDFORMAT_END
 95
       16
302
GRIDFORMAT
  1
GRIDFORMAT_BEGIN
 90
        0
 91
        1
 62
     0
 92
       -2
340
4
 93
        0
 40
0.045
309
GRIDFORMAT_END
 95
       32
302
GRIDFORMAT
  1
GRIDFORMAT_BEGIN
 90
        0
 91
        1
 62
     0
 92
       -2
340
4
 93
        0
 40
0.045
309
GRIDFORMAT_END
309
TABLEFORMAT_END
  1
CELLSTYLE_BEGIN
 90
        3
 91
        2
300
_DATA
309
CELLSTYLE_END
  0
XRECORD
  5
1000054
102
{ACAD_REACTORS
330
1000053
102
}
330
1000053
100
AcDbXrecord
280
     1
102
ACAD_ROUNDTRIP_PRE2007_TABLESTYLE
 90
        4
 91
        0
  1

 92
        4
 93
        0
  2

 94
        4
 95
        0
  3

  0
ENDSEC
  0
EOF
