  0
SECTION
  2
HEADER
  9
$ACADVER
  1
AC1018
  9
$HANDSEED
  5
FFFFFF
  9
$EXTMAX
 10
8412749.44099999964
 20
5786891.21399999969
 30
1000000.00
  9
$EXTMIN
 10
8412394.79199999943
 20
5786287.73699999973
 30
0.00
  9
$LIMMIN
 10
8412394.79199999943
 20
5786287.73699999973
  9
$LIMMAX
 10
8412749.44099999964
 20
5786891.21399999969
  9
$DIMASZ
 40
2.5
  9
$DIMGAP
 40
0.625
  9
$INSUNITS
 70
6
  9
$DIMEXO
 40
0.625
  9
$DIMTXT
 40
2.5
  9
$DIMSTYLE
  2
Standard
  9
$PLIMMIN
 10
0.0
 20
0.0
  9
$PLIMMAX
 10
210.0
 20
297.0
  9
$DIMEXE
 40
1.25
  9
$TEXTSIZE
 40
2.5
  9
$TEXTSTYLE
  7
Standard
  9
$LWDISPLAY
290
1
  9
$TDCREATE
 40
43339.443420312
  9
$TDUCREATE
 40
43339.360086979
  9
$TDUPDATE
 40
43339.443420312
  9
$TDUUPDATE
 40
43339.360086979
  9
$TDINDWG
 40
0.0
  9
$TDUSRTIMER
 40
0.0
  9
$USRTIMER
 70
1
  0
ENDSEC
  0
SECTION
  2
CLASSES
  0
CLASS
  1
WIPEOUT
  2
AcDbWipeout
  3
WipeOut
 90
127
 91
1
280
0
281
1
  0
CLASS
  1
WIPEOUTVARIABLES
  2
AcDbWipeoutVariables
  3
WipeOut
 90
0
 91
1
280
0
281
0
  0
ENDSEC
  0
SECTION
  2
TABLES
  0
TABLE
  2
VPORT
  5
1
100
AcDbSymbolTable
 70
1
  0
VPORT
  5
2
100
AcDbSymbolTableRecord
100
AcDbViewportTableRecord
  2
*ACTIVE
 70
0
 10
0.0
 20
0.0
 11
1.0
 21
1.0
 12
8412572.116
 22
5786589.475
 13
0.0
 23
0.0
 14
1.0
 24
1.0
 15
0.0
 25
0.0
 16
0.0
 26
0.0
 36
1.0
 17
0.0
 27
0.0
 37
0.0
 40
603.477
 41
0.588
 42
50.0
 43
0.0
 44
0.0
 50
0.0
 51
0.0
 71
0
 72
100
 73
1
 74
1
 75
0
 76
0
 77
0
 78
0
  0
ENDTAB
  0
TABLE
  2
LTYPE
  5
3
100
AcDbSymbolTable
 70
385
  0
LTYPE
  5
4
100
AcDbSymbolTableRecord
100
AcDbLinetypeTableRecord
  2
ByBlock
 70
0
  3

 72
65
 73
0
 40
0.0
  0
LTYPE
  5
5
100
AcDbSymbolTableRecord
100
AcDbLinetypeTableRecord
  2
ByLayer
 70
0
  3

 72
65
 73
0
 40
0.0
  0
LTYPE
  5
6
100
AcDbSymbolTableRecord
100
AcDbLinetypeTableRecord
  2
CONTINUOUS
 70
0
  3
Solid line
 72
65
 73
0
 40
0.0
  0
LTYPE
  5
7
100
AcDbSymbolTableRecord
100
AcDbLinetypeTableRecord
  2
L_0_02
 70
0
  3
Dzialka_ewidencyjna
 72
65
 73
0
 40
0.0
  0
LTYPE
  5
9
100
AcDbSymbolTableRecord
100
AcDbLinetypeTableRecord
  2
L_0_02_M
 70
0
  3
Dzialka_ewidencyjna (MLineStyle)
 72
65
 73
0
 40
0.0
  0
LTYPE
  5
A
100
AcDbSymbolTableRecord
100
AcDbLinetypeTableRecord
  2
L_0_03
 70
0
  3
Uzytek_gruntowy
 72
65
 73
2
 40
0.5
 49
0.25
 74
0
 49
-0.25
 74
0
  0
LTYPE
  5
B
100
AcDbSymbolTableRecord
100
AcDbLinetypeTableRecord
  2
L_0_04
 70
0
  3
Budynek_projektowany
 72
65
 73
2
 40
0.75
 49
0.5
 74
0
 49
-0.25
 74
0
  0
LTYPE
  5
C
100
AcDbSymbolTableRecord
100
AcDbLinetypeTableRecord
  2
L_0_05
 70
0
  3
Szczyt_skarpy_nie_umocnionej_Podnoze_skarpy
 72
65
 73
2
 40
0.875
 49
0.625
 74
0
 49
-0.25
 74
0
  0
LTYPE
  5
D
100
AcDbSymbolTableRecord
100
AcDbLinetypeTableRecord
  2
L_0_06
 70
0
  3
Granica_konturu_klasyfikacyjnego_Krawedz_chodnika
 72
65
 73
2
 40
1.0
 49
0.75
 74
0
 49
-0.25
 74
0
  0
LTYPE
  5
E
100
AcDbSymbolTableRecord
100
AcDbLinetypeTableRecord
  2
L_0_07
 70
0
  3
Granica_obwodu_spisowego
 72
65
 73
6
 40
1.125
 49
0.375
 74
0
 49
-0.25
 74
0
 49
0.0
 74
0
 49
-0.25
 74
0
 49
0.0
 74
0
 49
-0.25
 74
0
  0
LTYPE
  5
F
100
AcDbSymbolTableRecord
100
AcDbLinetypeTableRecord
  2
L_0_09
 70
0
  3
Obrys_budynku_ognioodpornego_Obrys_budynku_nieognioodp___0_18__0_18__0_18__0_13_
 72
65
 73
2
 40
1.25
 49
1.0
 74
0
 49
-0.25
 74
0
  0
LTYPE
  5
10
100
AcDbSymbolTableRecord
100
AcDbLinetypeTableRecord
  2
L_0_29
 70
0
  3
Sciana_oporowa
 72
65
 73
12
 40
2.5
 49
0.0
 74
0
 49
-0.125
 74
0
 49
-0.25
 74
0
 49
-0.25
 74
0
 49
-0.25
 74
0
 49
-0.25
 74
0
 49
-0.25
 74
0
 49
-0.25
 74
0
 49
-0.25
 74
0
 49
-0.25
 74
4
 75
1
340
11
 46
0.025
 50
0.0
 44
0.0
 45
0.0
 49
-0.25
 74
4
 75
2
340
11
 46
0.025
 50
0.0
 44
0.0
 45
0.0
 49
-0.125
 74
0
  0
LTYPE
  5
13
100
AcDbSymbolTableRecord
100
AcDbLinetypeTableRecord
  2
L_0_29_M
 70
0
  3
Sciana_oporowa (MLineStyle)
 72
65
 73
0
 40
0.0
  0
LTYPE
  5
14
100
AcDbSymbolTableRecord
100
AcDbLinetypeTableRecord
  2
L_0_55
 70
0
  3
L_0_55
 72
65
 73
2
 40
0.75
 49
0.5
 74
0
 49
-0.25
 74
0
  0
LTYPE
  5
15
100
AcDbSymbolTableRecord
100
AcDbLinetypeTableRecord
  2
L_0_A4
 70
0
  3
Ogrodzenie_trwale_1_500_
 72
65
 73
11
 40
3.75
 49
0.1875
 74
0
 49
0.375
 74
0
 49
0.375
 74
0
 49
0.375
 74
0
 49
0.375
 74
0
 49
0.375
 74
4
 75
3
340
11
 46
0.025
 50
0.0
 44
0.0
 45
0.0
 49
0.375
 74
0
 49
0.375
 74
0
 49
0.375
 74
0
 49
0.375
 74
0
 49
0.1875
 74
0
  0
ENDTAB
  0
TABLE
  2
LAYER
  5
16
100
AcDbSymbolTable
 70
7
  0
LAYER
  5
17
100
AcDbSymbolTableRecord
100
AcDbLayerTableRecord
  2
0
 70
0
 62
7
  6
CONTINUOUS
370
18
390
18
  0
LAYER
  5
19
100
AcDbSymbolTableRecord
100
AcDbLayerTableRecord
  2
budynek_istn
 70
0
 62
1
  6
CONTINUOUS
370
25
390
18
  0
LAYER
  5
1A
100
AcDbSymbolTableRecord
100
AcDbLayerTableRecord
  2
izolacja
 70
0
 62
7
  6
CONTINUOUS
370
18
390
18
  0
LAYER
  5
1B
100
AcDbSymbolTableRecord
100
AcDbLayerTableRecord
  2
linie_pomocnicze
 70
0
 62
6
  6
CONTINUOUS
370
18
390
18
  0
LAYER
  5
1C
100
AcDbSymbolTableRecord
100
AcDbLayerTableRecord
  2
osie_istn
 70
0
 62
40
  6
L_0_04
370
18
390
18
  0
LAYER
  5
1D
100
AcDbSymbolTableRecord
100
AcDbLayerTableRecord
  2
Osie_nowe
 70
0
 62
1
  6
CONTINUOUS
370
18
390
18
  0
LAYER
  5
1E
100
AcDbSymbolTableRecord
100
AcDbLayerTableRecord
  2
osie_przesuniete_o_15cm
 70
0
 62
242
  6
CONTINUOUS
370
18
390
18
  0
ENDTAB
  0
TABLE
  2
STYLE
  5
1F
100
AcDbSymbolTable
 70
2
  0
STYLE
  5
20
100
AcDbSymbolTableRecord
100
AcDbTextStyleTableRecord
  2
STANDARD
 70
0
 40
0.0
 41
1.0
 50
0.0
 71
0
  3
simplex.shx
  4

  0
STYLE
  5
11
100
AcDbSymbolTableRecord
100
AcDbTextStyleTableRecord
  2

 70
1
 40
0.0
 41
0.025
 50
0.0
 71
0
  3
Wokas_osie_proj.shx
  4

  0
ENDTAB
  0
TABLE
  2
VIEW
  5
21
100
AcDbSymbolTable
 70
0
  0
ENDTAB
  0
TABLE
  2
UCS
  5
22
100
AcDbSymbolTable
 70
0
  0
ENDTAB
  0
TABLE
  2
APPID
  5
23
100
AcDbSymbolTable
 70
1
  0
APPID
  5
24
100
AcDbSymbolTableRecord
100
AcDbRegAppTableRecord
  2
ACAD
 70
0
  0
ENDTAB
  0
TABLE
  2
DIMSTYLE
  5
25
100
AcDbSymbolTable
 70
1
100
AcDbDimStyleTable
  0
DIMSTYLE
105
26
100
AcDbSymbolTableRecord
100
AcDbDimStyleTableRecord
  2
Standard
 70
0
340
20
  0
ENDTAB
  0
TABLE
  2
BLOCK_RECORD
  5
27
100
AcDbSymbolTable
 70
15
  0
BLOCK_RECORD
  5
28
100
AcDbSymbolTableRecord
100
AcDbBlockTableRecord
  2
*Model_Space
340
29
  0
BLOCK_RECORD
  5
2A
100
AcDbSymbolTableRecord
100
AcDbBlockTableRecord
  2
*Paper_Space
340
2B
  0
BLOCK_RECORD
  5
2C
100
AcDbSymbolTableRecord
100
AcDbBlockTableRecord
  2
GRT
340
2D
  0
BLOCK_RECORD
  5
2E
100
AcDbSymbolTableRecord
100
AcDbBlockTableRecord
  2
GRO
340
2F
  0
BLOCK_RECORD
  5
30
100
AcDbSymbolTableRecord
100
AcDbBlockTableRecord
  2
SOWOP
340
31
  0
BLOCK_RECORD
  5
32
100
AcDbSymbolTableRecord
100
AcDbBlockTableRecord
  2
WLZ
340
33
  0
BLOCK_RECORD
  5
34
100
AcDbSymbolTableRecord
100
AcDbBlockTableRecord
  2
STE
340
35
  0
BLOCK_RECORD
  5
36
100
AcDbSymbolTableRecord
100
AcDbBlockTableRecord
  2
DIG
340
37
  0
BLOCK_RECORD
  5
38
100
AcDbSymbolTableRecord
100
AcDbBlockTableRecord
  2
DLI
340
39
  0
BLOCK_RECORD
  5
3A
100
AcDbSymbolTableRecord
100
AcDbBlockTableRecord
  2
PRH
340
3B
  0
BLOCK_RECORD
  5
3C
100
AcDbSymbolTableRecord
100
AcDbBlockTableRecord
  2
pikieta
340
3D
  0
BLOCK_RECORD
  5
3E
100
AcDbSymbolTableRecord
100
AcDbBlockTableRecord
  2
L_0_02_1
340
3F
  0
BLOCK_RECORD
  5
40
100
AcDbSymbolTableRecord
100
AcDbBlockTableRecord
  2
L_0_02_2
340
41
  0
BLOCK_RECORD
  5
42
100
AcDbSymbolTableRecord
100
AcDbBlockTableRecord
  2
L_0_29_1
340
43
  0
BLOCK_RECORD
  5
44
100
AcDbSymbolTableRecord
100
AcDbBlockTableRecord
  2
L_0_29_2
340
45
  0
ENDTAB
  0
ENDSEC
  0
SECTION
  2
BLOCKS
  0
BLOCK
  5
46
100
AcDbEntity
  8
0
100
AcDbBlockBegin
  2
*Model_Space
 70
0
 10
0.0
 20
0.0
 30
0.0
  3
*Model_Space
  1

  0
ENDBLK
  5
47
100
AcDbEntity
  8
0
100
AcDbBlockEnd
  0
BLOCK
  5
48
100
AcDbEntity
 67
1
  8
0
100
AcDbBlockBegin
  2
*Paper_Space
 70
0
 10
0.0
 20
0.0
 30
0.0
  3
*Paper_Space
  1

  0
ENDBLK
  5
49
100
AcDbEntity
 67
1
  8
0
100
AcDbBlockEnd
  0
BLOCK
  5
2D
100
AcDbEntity
  8
0
100
AcDbBlockBegin
 62
0
370
13
  2
GRT
 70
0
 10
0
 20
0
 30
0
  3
GRT
  0
WIPEOUT
  5
4A
100
AcDbEntity
  8
0
  6
CONTINUOUS
 62
0
370
18
100
AcDbWipeout
 90
0
 10
-0.5
 20
-0.5
 30
0.0
 11
1.0
 21
0.0
 31
0.0
 12
0.0
 22
1.0
 32
0.0
 13
1.0
 23
1.0
 70
7
280
1
281
100
282
100
283
0
 71
2
 91
13
 14
0.0
 24
0.5
 14
0.25
 24
0.4330127018922193
 14
0.4330127018922193
 24
0.25
 14
0.5
 24
0.0
 14
0.4330127018922193
 24
-0.25
 14
0.25
 24
-0.4330127018922193
 14
0.0
 24
-0.5
 14
-0.25
 24
-0.4330127018922193
 14
-0.4330127018922193
 24
-0.25
 14
-0.5
 24
0.0
 14
-0.4330127018922193
 24
0.25
 14
-0.25
 24
0.4330127018922193
 14
0.0
 24
0.5
  0
CIRCLE
  5
4B
100
AcDbEntity
  8
0
  6
CONTINUOUS
 62
0
370
18
100
AcDbCircle
 10
0.0
 20
-0.0
 40
0.5
  0
ENDBLK
  5
4C
100
AcDbEntity
  8
0
100
AcDbBlockEnd
  0
BLOCK
  5
2F
100
AcDbEntity
  8
0
100
AcDbBlockBegin
 62
0
370
13
  2
GRO
 70
0
 10
0
 20
0
 30
0
  3
GRO
  0
WIPEOUT
  5
4D
100
AcDbEntity
  8
0
  6
CONTINUOUS
 62
0
370
13
100
AcDbWipeout
 90
0
 10
-0.10000000000000001
 20
-0.10000000000000001
 30
0.0
 11
0.20000000000000001
 21
0.0
 31
0.0
 12
0.0
 22
0.20000000000000001
 32
0.0
 13
1.0
 23
1.0
 70
7
280
1
281
100
282
100
283
0
 71
2
 91
13
 14
0.0
 24
0.5
 14
0.25
 24
0.4330127018922193
 14
0.4330127018922193
 24
0.25
 14
0.5
 24
0.0
 14
0.4330127018922193
 24
-0.25
 14
0.25
 24
-0.4330127018922193
 14
0.0
 24
-0.5
 14
-0.25
 24
-0.4330127018922193
 14
-0.4330127018922193
 24
-0.25
 14
-0.5
 24
0.0
 14
-0.4330127018922193
 24
0.25
 14
-0.25
 24
0.4330127018922193
 14
0.0
 24
0.5
  0
CIRCLE
  5
4E
100
AcDbEntity
  8
0
  6
CONTINUOUS
 62
0
370
13
100
AcDbCircle
 10
0.0
 20
-0.0
 40
0.10000000000000001
  0
ENDBLK
  5
4F
100
AcDbEntity
  8
0
100
AcDbBlockEnd
  0
BLOCK
  5
31
100
AcDbEntity
  8
0
100
AcDbBlockBegin
 62
0
370
13
  2
SOWOP
 70
0
 10
0
 20
0
 30
0
  3
SOWOP
  0
WIPEOUT
  5
50
100
AcDbEntity
  8
0
  6
CONTINUOUS
 62
0
370
18
100
AcDbWipeout
 90
0
 10
-1.30000000000000004
 20
-1.30000000000000004
 30
0.0
 11
2.60000000000000009
 21
0.0
 31
0.0
 12
0.0
 22
2.60000000000000009
 32
0.0
 13
1.0
 23
1.0
 70
7
280
1
281
100
282
100
283
0
 71
2
 91
13
 14
0.0
 24
0.5
 14
0.25
 24
0.4330127018922193
 14
0.4330127018922193
 24
0.25
 14
0.5
 24
0.0
 14
0.4330127018922193
 24
-0.25
 14
0.25
 24
-0.4330127018922193
 14
0.0
 24
-0.5
 14
-0.25
 24
-0.4330127018922193
 14
-0.4330127018922193
 24
-0.25
 14
-0.5
 24
0.0
 14
-0.4330127018922193
 24
0.25
 14
-0.25
 24
0.4330127018922193
 14
0.0
 24
0.5
  0
CIRCLE
  5
51
100
AcDbEntity
  8
0
  6
CONTINUOUS
 62
0
370
18
100
AcDbCircle
 10
0.0
 20
-0.0
 40
1.30000000000000004
  0
WIPEOUT
  5
52
100
AcDbEntity
  8
0
  6
CONTINUOUS
 62
0
370
18
100
AcDbWipeout
 90
0
 10
-0.10000000000000001
 20
-0.10000000000000001
 30
0.0
 11
0.20000000000000001
 21
0.0
 31
0.0
 12
0.0
 22
0.20000000000000001
 32
0.0
 13
1.0
 23
1.0
 70
7
280
1
281
100
282
100
283
0
 71
2
 91
13
 14
0.0
 24
0.5
 14
0.25
 24
0.4330127018922193
 14
0.4330127018922193
 24
0.25
 14
0.5
 24
0.0
 14
0.4330127018922193
 24
-0.25
 14
0.25
 24
-0.4330127018922193
 14
0.0
 24
-0.5
 14
-0.25
 24
-0.4330127018922193
 14
-0.4330127018922193
 24
-0.25
 14
-0.5
 24
0.0
 14
-0.4330127018922193
 24
0.25
 14
-0.25
 24
0.4330127018922193
 14
0.0
 24
0.5
  0
CIRCLE
  5
53
100
AcDbEntity
  8
0
  6
CONTINUOUS
 62
0
370
18
100
AcDbCircle
 10
0.0
 20
-0.0
 40
0.10000000000000001
  0
WIPEOUT
  5
54
100
AcDbEntity
  8
0
  6
CONTINUOUS
 62
0
370
18
100
AcDbWipeout
 90
0
 10
-1.19999999999999996
 20
-2.79999999999999982
 30
0.0
 11
2.39999999999999991
 21
0.0
 31
0.0
 12
0.0
 22
2.29999999999999982
 32
0.0
 13
1.0
 23
1.0
 70
7
280
1
281
100
282
100
283
0
 71
2
 91
4
 14
-0.5
 24
-0.5
 14
0.0
 24
0.5
 14
0.5
 24
-0.5
 14
-0.5
 24
-0.5
  0
POLYLINE
  5
55
100
AcDbEntity
  8
0
  6
CONTINUOUS
 62
0
370
18
100
AcDb2dPolyline
 66
1
 70
129
  0
VERTEX
  5
56
100
AcDbEntity
  8
0
100
AcDbVertex
100
AcDb2dVertex
 10
-1.19999999999999996
 20
-0.5
  0
VERTEX
  5
57
100
AcDbEntity
  8
0
100
AcDbVertex
100
AcDb2dVertex
 10
0.0
 20
-2.79999999999999982
  0
VERTEX
  5
58
100
AcDbEntity
  8
0
100
AcDbVertex
100
AcDb2dVertex
 10
1.19999999999999996
 20
-0.5
  0
SEQEND
  5
59
100
AcDbEntity
  8
0
  0
ENDBLK
  5
5A
100
AcDbEntity
  8
0
100
AcDbBlockEnd
  0
BLOCK
  5
33
100
AcDbEntity
  8
0
100
AcDbBlockBegin
 62
0
370
13
  2
WLZ
 70
0
 10
0
 20
0
 30
0
  3
WLZ
  0
WIPEOUT
  5
5B
100
AcDbEntity
  8
0
  6
CONTINUOUS
 62
0
370
18
100
AcDbWipeout
 90
0
 10
-0.59999999999999998
 20
-0.59999999999999998
 30
0.0
 11
1.19999999999999996
 21
0.0
 31
0.0
 12
0.0
 22
1.19999999999999996
 32
0.0
 13
1.0
 23
1.0
 70
7
280
1
281
100
282
100
283
0
 71
2
 91
13
 14
0.0
 24
0.5
 14
0.25
 24
0.4330127018922193
 14
0.4330127018922193
 24
0.25
 14
0.5
 24
0.0
 14
0.4330127018922193
 24
-0.25
 14
0.25
 24
-0.4330127018922193
 14
0.0
 24
-0.5
 14
-0.25
 24
-0.4330127018922193
 14
-0.4330127018922193
 24
-0.25
 14
-0.5
 24
0.0
 14
-0.4330127018922193
 24
0.25
 14
-0.25
 24
0.4330127018922193
 14
0.0
 24
0.5
  0
CIRCLE
  5
5C
100
AcDbEntity
  8
0
  6
CONTINUOUS
 62
0
370
18
100
AcDbCircle
 10
0.0
 20
-0.0
 40
0.59999999999999998
  0
ENDBLK
  5
5D
100
AcDbEntity
  8
0
100
AcDbBlockEnd
  0
BLOCK
  5
35
100
AcDbEntity
  8
0
100
AcDbBlockBegin
 62
0
370
13
  2
STE
 70
0
 10
0
 20
0
 30
0
  3
STE
  0
POLYLINE
  5
5E
100
AcDbEntity
  8
0
  6
CONTINUOUS
 62
0
370
18
100
AcDb2dPolyline
 66
1
 70
129
  0
VERTEX
  5
5F
100
AcDbEntity
  8
0
100
AcDbVertex
100
AcDb2dVertex
 10
-1.5
 20
-0.0
  0
VERTEX
  5
60
100
AcDbEntity
  8
0
100
AcDbVertex
100
AcDb2dVertex
 10
1.5
 20
-0.0
  0
SEQEND
  5
61
100
AcDbEntity
  8
0
  0
POLYLINE
  5
62
100
AcDbEntity
  8
0
  6
CONTINUOUS
 62
0
370
18
100
AcDb2dPolyline
 66
1
 70
129
  0
VERTEX
  5
63
100
AcDbEntity
  8
0
100
AcDbVertex
100
AcDb2dVertex
 10
-1.5
 20
1.0
  0
VERTEX
  5
64
100
AcDbEntity
  8
0
100
AcDbVertex
100
AcDb2dVertex
 10
-1.5
 20
-1.0
  0
SEQEND
  5
65
100
AcDbEntity
  8
0
  0
POLYLINE
  5
66
100
AcDbEntity
  8
0
  6
CONTINUOUS
 62
0
370
18
100
AcDb2dPolyline
 66
1
 70
129
  0
VERTEX
  5
67
100
AcDbEntity
  8
0
100
AcDbVertex
100
AcDb2dVertex
 10
1.5
 20
1.0
  0
VERTEX
  5
68
100
AcDbEntity
  8
0
100
AcDbVertex
100
AcDb2dVertex
 10
1.5
 20
-1.0
  0
SEQEND
  5
69
100
AcDbEntity
  8
0
  0
ENDBLK
  5
6A
100
AcDbEntity
  8
0
100
AcDbBlockEnd
  0
BLOCK
  5
37
100
AcDbEntity
  8
0
100
AcDbBlockBegin
 62
0
370
13
  2
DIG
 70
0
 10
0
 20
0
 30
0
  3
DIG
  0
WIPEOUT
  5
6B
100
AcDbEntity
  8
0
  6
CONTINUOUS
 62
0
370
18
100
AcDbWipeout
 90
0
 10
-0.10000000000000001
 20
-0.10000000000000001
 30
0.0
 11
0.20000000000000001
 21
0.0
 31
0.0
 12
0.0
 22
0.20000000000000001
 32
0.0
 13
1.0
 23
1.0
 70
7
280
1
281
100
282
100
283
0
 71
2
 91
13
 14
0.0
 24
0.5
 14
0.25
 24
0.4330127018922193
 14
0.4330127018922193
 24
0.25
 14
0.5
 24
0.0
 14
0.4330127018922193
 24
-0.25
 14
0.25
 24
-0.4330127018922193
 14
0.0
 24
-0.5
 14
-0.25
 24
-0.4330127018922193
 14
-0.4330127018922193
 24
-0.25
 14
-0.5
 24
0.0
 14
-0.4330127018922193
 24
0.25
 14
-0.25
 24
0.4330127018922193
 14
0.0
 24
0.5
  0
CIRCLE
  5
6C
100
AcDbEntity
  8
0
  6
CONTINUOUS
 62
0
370
18
100
AcDbCircle
 10
0.0
 20
-0.0
 40
0.10000000000000001
  0
POLYLINE
  5
6D
100
AcDbEntity
  8
0
  6
CONTINUOUS
 62
0
370
18
100
AcDb2dPolyline
 66
1
 70
128
  0
VERTEX
  5
6E
100
AcDbEntity
  8
0
100
AcDbVertex
100
AcDb2dVertex
 10
-1.0
 20
1.30000000000000004
  0
VERTEX
  5
6F
100
AcDbEntity
  8
0
100
AcDbVertex
100
AcDb2dVertex
 10
0.0
 20
0.59999999999999998
  0
VERTEX
  5
70
100
AcDbEntity
  8
0
100
AcDbVertex
100
AcDb2dVertex
 10
1.0
 20
1.30000000000000004
  0
VERTEX
  5
71
100
AcDbEntity
  8
0
100
AcDbVertex
100
AcDb2dVertex
 10
0.5
 20
0.20000000000000001
  0
VERTEX
  5
72
100
AcDbEntity
  8
0
100
AcDbVertex
100
AcDb2dVertex
 10
1.39999999999999991
 20
-0.40000000000000002
  0
VERTEX
  5
73
100
AcDbEntity
  8
0
100
AcDbVertex
100
AcDb2dVertex
 10
0.29999999999999999
 20
-0.40000000000000002
  0
VERTEX
  5
74
100
AcDbEntity
  8
0
100
AcDbVertex
100
AcDb2dVertex
 10
0.0
 20
-1.5
  0
VERTEX
  5
75
100
AcDbEntity
  8
0
100
AcDbVertex
100
AcDb2dVertex
 10
-0.29999999999999999
 20
-0.40000000000000002
  0
VERTEX
  5
76
100
AcDbEntity
  8
0
100
AcDbVertex
100
AcDb2dVertex
 10
-1.39999999999999991
 20
-0.40000000000000002
  0
VERTEX
  5
77
100
AcDbEntity
  8
0
100
AcDbVertex
100
AcDb2dVertex
 10
-0.5
 20
0.20000000000000001
  0
VERTEX
  5
78
100
AcDbEntity
  8
0
100
AcDbVertex
100
AcDb2dVertex
 10
-1.0
 20
1.30000000000000004
  0
SEQEND
  5
79
100
AcDbEntity
  8
0
  0
ENDBLK
  5
7A
100
AcDbEntity
  8
0
100
AcDbBlockEnd
  0
BLOCK
  5
39
100
AcDbEntity
  8
0
100
AcDbBlockBegin
 62
0
370
13
  2
DLI
 70
0
 10
0
 20
0
 30
0
  3
DLI
  0
WIPEOUT
  5
7B
100
AcDbEntity
  8
0
  6
CONTINUOUS
 62
0
370
13
100
AcDbWipeout
 90
0
 10
-0.22360679774997899
 20
-0.22360679774997899
 30
0.0
 11
0.44721359549995798
 21
0.0
 31
0.0
 12
0.0
 22
0.44721359549995798
 32
0.0
 13
1.0
 23
1.0
 70
7
280
1
281
100
282
100
283
0
 71
2
 91
13
 14
0.0
 24
0.5
 14
0.25
 24
0.4330127018922193
 14
0.4330127018922193
 24
0.25
 14
0.5
 24
0.0
 14
0.4330127018922193
 24
-0.25
 14
0.25
 24
-0.4330127018922193
 14
0.0
 24
-0.5
 14
-0.25
 24
-0.4330127018922193
 14
-0.4330127018922193
 24
-0.25
 14
-0.5
 24
0.0
 14
-0.4330127018922193
 24
0.25
 14
-0.25
 24
0.4330127018922193
 14
0.0
 24
0.5
  0
CIRCLE
  5
7C
100
AcDbEntity
  8
0
  6
CONTINUOUS
 62
0
370
13
100
AcDbCircle
 10
0.0
 20
-0.0
 40
0.22360679774997899
  0
POLYLINE
  5
7D
100
AcDbEntity
  8
0
  6
CONTINUOUS
 62
0
370
18
100
AcDb2dPolyline
 66
1
 70
128
  0
VERTEX
  5
7E
100
AcDbEntity
  8
0
100
AcDbVertex
100
AcDb2dVertex
 10
0.10000000000000001
 20
-1.39999999999999991
  0
VERTEX
  5
7F
100
AcDbEntity
  8
0
100
AcDbVertex
100
AcDb2dVertex
 10
0.40000000000000002
 20
-1.5
  0
VERTEX
  5
80
100
AcDbEntity
  8
0
100
AcDbVertex
100
AcDb2dVertex
 10
0.69999999999999996
 20
-1.5
  0
VERTEX
  5
81
100
AcDbEntity
  8
0
100
AcDbVertex
100
AcDb2dVertex
 10
1.10000000000000009
 20
-1.30000000000000004
  0
VERTEX
  5
82
100
AcDbEntity
  8
0
100
AcDbVertex
100
AcDb2dVertex
 10
1.30000000000000004
 20
-1.0
  0
VERTEX
  5
83
100
AcDbEntity
  8
0
100
AcDbVertex
100
AcDb2dVertex
 10
1.39999999999999991
 20
-0.59999999999999998
  0
SEQEND
  5
84
100
AcDbEntity
  8
0
  0
POLYLINE
  5
85
100
AcDbEntity
  8
0
  6
CONTINUOUS
 62
0
370
18
100
AcDb2dPolyline
 66
1
 70
128
  0
VERTEX
  5
86
100
AcDbEntity
  8
0
100
AcDbVertex
100
AcDb2dVertex
 10
1.5
 20
-0.29999999999999999
  0
VERTEX
  5
87
100
AcDbEntity
  8
0
100
AcDbVertex
100
AcDb2dVertex
 10
1.60000000000000009
 20
-0.0
  0
VERTEX
  5
88
100
AcDbEntity
  8
0
100
AcDbVertex
100
AcDb2dVertex
 10
1.60000000000000009
 20
0.29999999999999999
  0
VERTEX
  5
89
100
AcDbEntity
  8
0
100
AcDbVertex
100
AcDb2dVertex
 10
1.5
 20
0.69999999999999996
  0
VERTEX
  5
8A
100
AcDbEntity
  8
0
100
AcDbVertex
100
AcDb2dVertex
 10
1.30000000000000004
 20
1.0
  0
VERTEX
  5
8B
100
AcDbEntity
  8
0
100
AcDbVertex
100
AcDb2dVertex
 10
1.0
 20
1.10000000000000009
  0
SEQEND
  5
8C
100
AcDbEntity
  8
0
  0
POLYLINE
  5
8D
100
AcDbEntity
  8
0
  6
CONTINUOUS
 62
0
370
18
100
AcDb2dPolyline
 66
1
 70
128
  0
VERTEX
  5
8E
100
AcDbEntity
  8
0
100
AcDbVertex
100
AcDb2dVertex
 10
0.69999999999999996
 20
1.30000000000000004
  0
VERTEX
  5
8F
100
AcDbEntity
  8
0
100
AcDbVertex
100
AcDb2dVertex
 10
0.40000000000000002
 20
1.5
  0
VERTEX
  5
90
100
AcDbEntity
  8
0
100
AcDbVertex
100
AcDb2dVertex
 10
0.10000000000000001
 20
1.60000000000000009
  0
VERTEX
  5
91
100
AcDbEntity
  8
0
100
AcDbVertex
100
AcDb2dVertex
 10
-0.20000000000000001
 20
1.60000000000000009
  0
VERTEX
  5
92
100
AcDbEntity
  8
0
100
AcDbVertex
100
AcDb2dVertex
 10
-0.5
 20
1.5
  0
VERTEX
  5
93
100
AcDbEntity
  8
0
100
AcDbVertex
100
AcDb2dVertex
 10
-0.69999999999999996
 20
1.30000000000000004
  0
SEQEND
  5
94
100
AcDbEntity
  8
0
  0
POLYLINE
  5
95
100
AcDbEntity
  8
0
  6
CONTINUOUS
 62
0
370
18
100
AcDb2dPolyline
 66
1
 70
128
  0
VERTEX
  5
96
100
AcDbEntity
  8
0
100
AcDbVertex
100
AcDb2dVertex
 10
-0.90000000000000002
 20
1.10000000000000009
  0
VERTEX
  5
97
100
AcDbEntity
  8
0
100
AcDbVertex
100
AcDb2dVertex
 10
-1.10000000000000009
 20
1.10000000000000009
  0
VERTEX
  5
98
100
AcDbEntity
  8
0
100
AcDbVertex
100
AcDb2dVertex
 10
-1.30000000000000004
 20
1.0
  0
VERTEX
  5
99
100
AcDbEntity
  8
0
100
AcDbVertex
100
AcDb2dVertex
 10
-1.5
 20
0.80000000000000004
  0
VERTEX
  5
9A
100
AcDbEntity
  8
0
100
AcDbVertex
100
AcDb2dVertex
 10
-1.60000000000000009
 20
0.5
  0
VERTEX
  5
9B
100
AcDbEntity
  8
0
100
AcDbVertex
100
AcDb2dVertex
 10
-1.60000000000000009
 20
0.10000000000000001
  0
VERTEX
  5
9C
100
AcDbEntity
  8
0
100
AcDbVertex
100
AcDb2dVertex
 10
-1.5
 20
-0.20000000000000001
  0
SEQEND
  5
9D
100
AcDbEntity
  8
0
  0
POLYLINE
  5
9E
100
AcDbEntity
  8
0
  6
CONTINUOUS
 62
0
370
18
100
AcDb2dPolyline
 66
1
 70
128
  0
VERTEX
  5
9F
100
AcDbEntity
  8
0
100
AcDbVertex
100
AcDb2dVertex
 10
-1.39999999999999991
 20
-0.5
  0
VERTEX
  5
A0
100
AcDbEntity
  8
0
100
AcDbVertex
100
AcDb2dVertex
 10
-1.39999999999999991
 20
-0.80000000000000004
  0
VERTEX
  5
A1
100
AcDbEntity
  8
0
100
AcDbVertex
100
AcDb2dVertex
 10
-1.30000000000000004
 20
-1.10000000000000009
  0
VERTEX
  5
A2
100
AcDbEntity
  8
0
100
AcDbVertex
100
AcDb2dVertex
 10
-1.10000000000000009
 20
-1.30000000000000004
  0
VERTEX
  5
A3
100
AcDbEntity
  8
0
100
AcDbVertex
100
AcDb2dVertex
 10
-0.80000000000000004
 20
-1.5
  0
VERTEX
  5
A4
100
AcDbEntity
  8
0
100
AcDbVertex
100
AcDb2dVertex
 10
-0.5
 20
-1.5
  0
VERTEX
  5
A5
100
AcDbEntity
  8
0
100
AcDbVertex
100
AcDb2dVertex
 10
-0.20000000000000001
 20
-1.39999999999999991
  0
SEQEND
  5
A6
100
AcDbEntity
  8
0
  0
ENDBLK
  5
A7
100
AcDbEntity
  8
0
100
AcDbBlockEnd
  0
BLOCK
  5
3B
100
AcDbEntity
  8
0
100
AcDbBlockBegin
 62
0
370
13
  2
PRH
 70
0
 10
0
 20
0
 30
0
  3
PRH
  0
POLYLINE
  5
A8
100
AcDbEntity
  8
0
  6
CONTINUOUS
 62
0
370
18
100
AcDb2dPolyline
 66
1
 70
128
  0
VERTEX
  5
A9
100
AcDbEntity
  8
0
100
AcDbVertex
100
AcDb2dVertex
 10
-0.80000000000000004
 20
1.0
  0
VERTEX
  5
AA
100
AcDbEntity
  8
0
100
AcDbVertex
100
AcDb2dVertex
 10
0.69999999999999996
 20
1.0
  0
VERTEX
  5
AB
100
AcDbEntity
  8
0
100
AcDbVertex
100
AcDb2dVertex
 10
-0.80000000000000004
 20
-1.0
  0
VERTEX
  5
AC
100
AcDbEntity
  8
0
100
AcDbVertex
100
AcDb2dVertex
 10
0.80000000000000004
 20
-1.0
  0
SEQEND
  5
AD
100
AcDbEntity
  8
0
  0
ENDBLK
  5
AE
100
AcDbEntity
  8
0
100
AcDbBlockEnd
  0
BLOCK
  5
3D
100
AcDbEntity
  8
0
100
AcDbBlockBegin
 62
0
370
13
  2
pikieta
 70
0
 10
0
 20
0
 30
0
  3
pikieta
  0
POINT
  5
AF
100
AcDbEntity
  8
0
100
AcDbPoint
 62
0
 10
0.0
 20
0.0
 30
0.000
  0
ENDBLK
  5
B0
100
AcDbEntity
  8
0
100
AcDbBlockEnd
  0
BLOCK
  5
3F
100
AcDbEntity
  8
0
100
AcDbBlockBegin
 62
0
370
13
  2
L_0_02_1
 70
0
 10
0
 20
0
 30
0
  3
L_0_02_1
  0
POINT
  5
B1
100
AcDbEntity
  8
0
100
AcDbPoint
 62
0
 10
0.0
 20
0.0
 30
0.000
  0
ENDBLK
  5
B2
100
AcDbEntity
  8
0
100
AcDbBlockEnd
  0
BLOCK
  5
41
100
AcDbEntity
  8
0
100
AcDbBlockBegin
 62
0
370
13
  2
L_0_02_2
 70
0
 10
0
 20
0
 30
0
  3
L_0_02_2
  0
POINT
  5
B3
100
AcDbEntity
  8
0
100
AcDbPoint
 62
0
 10
-0.0
 20
-0.0
 30
0.000
  0
ENDBLK
  5
B4
100
AcDbEntity
  8
0
100
AcDbBlockEnd
  0
BLOCK
  5
43
100
AcDbEntity
  8
0
100
AcDbBlockBegin
 62
0
370
13
  2
L_0_29_1
 70
0
 10
0
 20
0
 30
0
  3
L_0_29_1
  0
POLYLINE
  5
B5
100
AcDbEntity
  8
0
  6
CONTINUOUS
 62
0
370
13
100
AcDb2dPolyline
 66
1
 70
128
  0
VERTEX
  5
B6
100
AcDbEntity
  8
0
100
AcDbVertex
100
AcDb2dVertex
 10
0.0
 20
-0.5
  0
VERTEX
  5
B7
100
AcDbEntity
  8
0
100
AcDbVertex
100
AcDb2dVertex
 10
0.0
 20
0.5
  0
SEQEND
  5
B8
100
AcDbEntity
  8
0
  0
ENDBLK
  5
B9
100
AcDbEntity
  8
0
100
AcDbBlockEnd
  0
BLOCK
  5
45
100
AcDbEntity
  8
0
100
AcDbBlockBegin
 62
0
370
13
  2
L_0_29_2
 70
0
 10
0
 20
0
 30
0
  3
L_0_29_2
  0
POLYLINE
  5
BA
100
AcDbEntity
  8
0
  6
CONTINUOUS
 62
0
370
13
100
AcDb2dPolyline
 66
1
 70
128
  0
VERTEX
  5
BB
100
AcDbEntity
  8
0
100
AcDbVertex
100
AcDb2dVertex
 10
-0.0
 20
0.5
  0
VERTEX
  5
BC
100
AcDbEntity
  8
0
100
AcDbVertex
100
AcDb2dVertex
 10
-0.0
 20
-0.5
  0
SEQEND
  5
BD
100
AcDbEntity
  8
0
  0
ENDBLK
  5
BE
100
AcDbEntity
  8
0
100
AcDbBlockEnd
  0
ENDSEC
  0
SECTION
  2
ENTITIES
  0
POLYLINE
  5
BF
100
AcDbEntity
  8
budynek_istn
  6
CONTINUOUS
370
25
100
AcDb2dPolyline
 66
1
 70
129
  0
VERTEX
  5
C0
100
AcDbEntity
  8
budynek_istn
100
AcDbVertex
100
AcDb2dVertex
 10
8412588.18200000003
 20
5786775.28100000042
  0
VERTEX
  5
C1
100
AcDbEntity
  8
budynek_istn
100
AcDbVertex
100
AcDb2dVertex
 10
8412552.59600000083
 20
5786785.09100000002
  0
VERTEX
  5
C2
100
AcDbEntity
  8
budynek_istn
100
AcDbVertex
100
AcDb2dVertex
 10
8412533.16649755277
 20
5786714.61003423855
  0
VERTEX
  5
C3
100
AcDbEntity
  8
budynek_istn
100
AcDbVertex
100
AcDb2dVertex
 10
8412568.75999999978
 20
5786704.80999999959
  0
SEQEND
  5
C4
100
AcDbEntity
  8
budynek_istn
  0
HATCH
  5
C5
100
AcDbEntity
  8
budynek_istn
  6
CONTINUOUS
 62
0
370
25
100
AcDbHatch
 10
0.0
 20
0.0
 30
0.0
210
0.0
220
0.0
230
1.0
  2
SOLID
 70
1
 71
1
 91
1
 92
3
 72
0
 73
1
 93
4
 10
8412588.18200000003
 20
5786775.28100000042
 10
8412552.59600000083
 20
5786785.09100000002
 10
8412533.16649755277
 20
5786714.61003423855
 10
8412568.75999999978
 20
5786704.80999999959
 97
0
 75
0
 76
1
 98
0
  0
POLYLINE
  5
C6
100
AcDbEntity
  8
izolacja
  6
CONTINUOUS
370
18
100
AcDb2dPolyline
 66
1
 70
128
  0
VERTEX
  5
C7
100
AcDbEntity
  8
izolacja
100
AcDbVertex
100
AcDb2dVertex
 10
8412552.45139425434
 20
5786785.13086449727
  0
VERTEX
  5
C8
100
AcDbEntity
  8
izolacja
100
AcDbVertex
100
AcDb2dVertex
 10
8412533.02139425278
 20
5786714.64986449759
  0
SEQEND
  5
C9
100
AcDbEntity
  8
izolacja
  0
POLYLINE
  5
CA
100
AcDbEntity
  8
izolacja
  6
CONTINUOUS
370
18
100
AcDb2dPolyline
 66
1
 70
128
  0
VERTEX
  5
CB
100
AcDbEntity
  8
izolacja
100
AcDbVertex
100
AcDb2dVertex
 10
8412552.30639425293
 20
5786785.17086449731
  0
VERTEX
  5
CC
100
AcDbEntity
  8
izolacja
100
AcDbVertex
100
AcDb2dVertex
 10
8412532.87639425322
 20
5786714.68986449763
  0
SEQEND
  5
CD
100
AcDbEntity
  8
izolacja
  0
POLYLINE
  5
CE
100
AcDbEntity
  8
linie_pomocnicze
  6
CONTINUOUS
370
18
100
AcDb2dPolyline
 66
1
 70
128
  0
VERTEX
  5
CF
100
AcDbEntity
  8
linie_pomocnicze
100
AcDbVertex
100
AcDb2dVertex
 10
8412552.59600000083
 20
5786785.09100000002
  0
VERTEX
  5
D0
100
AcDbEntity
  8
linie_pomocnicze
100
AcDbVertex
100
AcDb2dVertex
 10
8412533.16649755277
 20
5786714.61003423855
  0
SEQEND
  5
D1
100
AcDbEntity
  8
linie_pomocnicze
  0
POLYLINE
  5
D2
100
AcDbEntity
  8
linie_pomocnicze
  6
CONTINUOUS
370
18
100
AcDb2dPolyline
 66
1
 70
128
  0
VERTEX
  5
D3
100
AcDbEntity
  8
linie_pomocnicze
100
AcDbVertex
100
AcDb2dVertex
 10
8412552.59600000083
 20
5786785.09100000002
  0
VERTEX
  5
D4
100
AcDbEntity
  8
linie_pomocnicze
100
AcDbVertex
100
AcDb2dVertex
 10
8412588.18200000003
 20
5786775.28100000042
  0
SEQEND
  5
D5
100
AcDbEntity
  8
linie_pomocnicze
  0
POLYLINE
  5
D6
100
AcDbEntity
  8
linie_pomocnicze
  6
CONTINUOUS
370
18
100
AcDb2dPolyline
 66
1
 70
128
  0
VERTEX
  5
D7
100
AcDbEntity
  8
linie_pomocnicze
100
AcDbVertex
100
AcDb2dVertex
 10
8412526.55299999937
 20
5786791.93400000036
  0
VERTEX
  5
D8
100
AcDbEntity
  8
linie_pomocnicze
100
AcDbVertex
100
AcDb2dVertex
 10
8412517.25100000016
 20
5786758.19299999997
  0
SEQEND
  5
D9
100
AcDbEntity
  8
linie_pomocnicze
  0
POLYLINE
  5
DA
100
AcDbEntity
  8
linie_pomocnicze
  6
CONTINUOUS
370
18
100
AcDb2dPolyline
 66
1
 70
128
  0
VERTEX
  5
DB
100
AcDbEntity
  8
linie_pomocnicze
100
AcDbVertex
100
AcDb2dVertex
 10
8412526.55299999937
 20
5786791.93400000036
  0
VERTEX
  5
DC
100
AcDbEntity
  8
linie_pomocnicze
100
AcDbVertex
100
AcDb2dVertex
 10
8412542.79800000042
 20
5786751.15000000037
  0
SEQEND
  5
DD
100
AcDbEntity
  8
linie_pomocnicze
  0
POLYLINE
  5
DE
100
AcDbEntity
  8
linie_pomocnicze
  6
CONTINUOUS
370
18
100
AcDb2dPolyline
 66
1
 70
128
  0
VERTEX
  5
DF
100
AcDbEntity
  8
linie_pomocnicze
100
AcDbVertex
100
AcDb2dVertex
 10
8412517.25100000016
 20
5786758.19299999997
  0
VERTEX
  5
E0
100
AcDbEntity
  8
linie_pomocnicze
100
AcDbVertex
100
AcDb2dVertex
 10
8412552.09999999963
 20
5786784.89099999983
  0
SEQEND
  5
E1
100
AcDbEntity
  8
linie_pomocnicze
  0
POLYLINE
  5
E2
100
AcDbEntity
  8
linie_pomocnicze
  6
CONTINUOUS
370
18
100
AcDb2dPolyline
 66
1
 70
128
  0
VERTEX
  5
E3
100
AcDbEntity
  8
linie_pomocnicze
100
AcDbVertex
100
AcDb2dVertex
 10
8412526.55299999937
 20
5786791.93400000036
  0
VERTEX
  5
E4
100
AcDbEntity
  8
linie_pomocnicze
100
AcDbVertex
100
AcDb2dVertex
 10
8412552.09999999963
 20
5786784.89099999983
  0
SEQEND
  5
E5
100
AcDbEntity
  8
linie_pomocnicze
  0
POLYLINE
  5
E6
100
AcDbEntity
  8
linie_pomocnicze
  6
CONTINUOUS
370
18
100
AcDb2dPolyline
 66
1
 70
128
  0
VERTEX
  5
E7
100
AcDbEntity
  8
linie_pomocnicze
100
AcDbVertex
100
AcDb2dVertex
 10
8412526.63937622681
 20
5786792.24731158279
  0
VERTEX
  5
E8
100
AcDbEntity
  8
linie_pomocnicze
100
AcDbVertex
100
AcDb2dVertex
 10
8412552.18637622707
 20
5786785.20431158226
  0
SEQEND
  5
E9
100
AcDbEntity
  8
linie_pomocnicze
  0
POLYLINE
  5
EA
100
AcDbEntity
  8
osie_istn
  6
ByLayer
370
18
100
AcDb2dPolyline
 66
1
 70
128
  0
VERTEX
  5
EB
100
AcDbEntity
  8
osie_istn
100
AcDbVertex
100
AcDb2dVertex
 10
8412552.80326823704
 20
5786785.03386088647
  0
VERTEX
  5
EC
100
AcDbEntity
  8
osie_istn
100
AcDbVertex
100
AcDb2dVertex
 10
8412533.37326823548
 20
5786714.55286088679
  0
SEQEND
  5
ED
100
AcDbEntity
  8
osie_istn
  0
POLYLINE
  5
EE
100
AcDbEntity
  8
Osie_nowe
  6
CONTINUOUS
370
18
100
AcDb2dPolyline
 66
1
 70
128
  0
VERTEX
  5
EF
100
AcDbEntity
  8
Osie_nowe
100
AcDbVertex
100
AcDb2dVertex
 10
8412551.70571367629
 20
5786781.86146593746
  0
VERTEX
  5
F0
100
AcDbEntity
  8
Osie_nowe
100
AcDbVertex
100
AcDb2dVertex
 10
8412553.00956547633
 20
5786781.76582113188
  0
VERTEX
  5
F1
100
AcDbEntity
  8
Osie_nowe
100
AcDbVertex
100
AcDb2dVertex
 10
8412554.25009793974
 20
5786782.17784706689
  0
VERTEX
  5
F2
100
AcDbEntity
  8
Osie_nowe
100
AcDbVertex
100
AcDb2dVertex
 10
8412555.23851722479
 20
5786783.03277286422
  0
VERTEX
  5
F3
100
AcDbEntity
  8
Osie_nowe
100
AcDbVertex
100
AcDb2dVertex
 10
8412555.82553406246
 20
5786784.20071367547
  0
SEQEND
  5
F4
100
AcDbEntity
  8
Osie_nowe
  0
POLYLINE
  5
F5
100
AcDbEntity
  8
Osie_nowe
  6
CONTINUOUS
370
18
100
AcDb2dPolyline
 66
1
 70
128
  0
VERTEX
  5
F6
100
AcDbEntity
  8
Osie_nowe
100
AcDbVertex
100
AcDb2dVertex
 10
8412552.09999999963
 20
5786784.89099999983
  0
VERTEX
  5
F7
100
AcDbEntity
  8
Osie_nowe
100
AcDbVertex
100
AcDb2dVertex
 10
8412550.17200000025
 20
5786785.42200000025
  0
VERTEX
  5
F8
100
AcDbEntity
  8
Osie_nowe
100
AcDbVertex
100
AcDb2dVertex
 10
8412544.86900000088
 20
5786786.88399999961
  0
VERTEX
  5
F9
100
AcDbEntity
  8
Osie_nowe
100
AcDbVertex
100
AcDb2dVertex
 10
8412540.72399999946
 20
5786788.02699999977
  0
VERTEX
  5
FA
100
AcDbEntity
  8
Osie_nowe
100
AcDbVertex
100
AcDb2dVertex
 10
8412537.63900000043
 20
5786788.87700000033
  0
VERTEX
  5
FB
100
AcDbEntity
  8
Osie_nowe
100
AcDbVertex
100
AcDb2dVertex
 10
8412530.89100000076
 20
5786790.7379999999
  0
VERTEX
  5
FC
100
AcDbEntity
  8
Osie_nowe
100
AcDbVertex
100
AcDb2dVertex
 10
8412526.55299999937
 20
5786791.93400000036
  0
SEQEND
  5
FD
100
AcDbEntity
  8
Osie_nowe
  0
POLYLINE
  5
FE
100
AcDbEntity
  8
Osie_nowe
  6
CONTINUOUS
370
18
100
AcDb2dPolyline
 66
1
 70
128
  0
VERTEX
  5
FF
100
AcDbEntity
  8
Osie_nowe
100
AcDbVertex
100
AcDb2dVertex
 10
8412550.23900000006
 20
5786778.14300000016
  0
VERTEX
  5
100
100
AcDbEntity
  8
Osie_nowe
100
AcDbVertex
100
AcDb2dVertex
 10
8412524.69199999981
 20
5786785.18599999975
  0
SEQEND
  5
101
100
AcDbEntity
  8
Osie_nowe
  0
POLYLINE
  5
102
100
AcDbEntity
  8
Osie_nowe
  6
CONTINUOUS
370
18
100
AcDb2dPolyline
 66
1
 70
128
  0
VERTEX
  5
103
100
AcDbEntity
  8
Osie_nowe
100
AcDbVertex
100
AcDb2dVertex
 10
8412548.5120000001
 20
5786771.87700000033
  0
VERTEX
  5
104
100
AcDbEntity
  8
Osie_nowe
100
AcDbVertex
100
AcDb2dVertex
 10
8412522.96499999985
 20
5786778.91999999993
  0
SEQEND
  5
105
100
AcDbEntity
  8
Osie_nowe
  0
POLYLINE
  5
106
100
AcDbEntity
  8
Osie_nowe
  6
CONTINUOUS
370
18
100
AcDb2dPolyline
 66
1
 70
128
  0
VERTEX
  5
107
100
AcDbEntity
  8
Osie_nowe
100
AcDbVertex
100
AcDb2dVertex
 10
8412546.78399999998
 20
5786765.61000000034
  0
VERTEX
  5
108
100
AcDbEntity
  8
Osie_nowe
100
AcDbVertex
100
AcDb2dVertex
 10
8412521.23699999973
 20
5786772.65299999993
  0
SEQEND
  5
109
100
AcDbEntity
  8
Osie_nowe
  0
POLYLINE
  5
10A
100
AcDbEntity
  8
Osie_nowe
  6
CONTINUOUS
370
18
100
AcDb2dPolyline
 66
1
 70
128
  0
VERTEX
  5
10B
100
AcDbEntity
  8
Osie_nowe
100
AcDbVertex
100
AcDb2dVertex
 10
8412544.79099999927
 20
5786758.37999999989
  0
VERTEX
  5
10C
100
AcDbEntity
  8
Osie_nowe
100
AcDbVertex
100
AcDb2dVertex
 10
8412519.24400000088
 20
5786765.42300000042
  0
SEQEND
  5
10D
100
AcDbEntity
  8
Osie_nowe
  0
POLYLINE
  5
10E
100
AcDbEntity
  8
Osie_nowe
  6
CONTINUOUS
370
18
100
AcDb2dPolyline
 66
1
 70
128
  0
VERTEX
  5
10F
100
AcDbEntity
  8
Osie_nowe
100
AcDbVertex
100
AcDb2dVertex
 10
8412542.79800000042
 20
5786751.15000000037
  0
VERTEX
  5
110
100
AcDbEntity
  8
Osie_nowe
100
AcDbVertex
100
AcDb2dVertex
 10
8412540.86999999918
 20
5786751.68099999987
  0
VERTEX
  5
111
100
AcDbEntity
  8
Osie_nowe
100
AcDbVertex
100
AcDb2dVertex
 10
8412535.56799999997
 20
5786753.14300000016
  0
VERTEX
  5
112
100
AcDbEntity
  8
Osie_nowe
100
AcDbVertex
100
AcDb2dVertex
 10
8412531.42200000025
 20
5786754.28600000031
  0
VERTEX
  5
113
100
AcDbEntity
  8
Osie_nowe
100
AcDbVertex
100
AcDb2dVertex
 10
8412528.33699999936
 20
5786755.13599999994
  0
VERTEX
  5
114
100
AcDbEntity
  8
Osie_nowe
100
AcDbVertex
100
AcDb2dVertex
 10
8412521.58899999969
 20
5786756.99700000044
  0
VERTEX
  5
115
100
AcDbEntity
  8
Osie_nowe
100
AcDbVertex
100
AcDb2dVertex
 10
8412517.25100000016
 20
5786758.19299999997
  0
SEQEND
  5
116
100
AcDbEntity
  8
Osie_nowe
  0
POLYLINE
  5
117
100
AcDbEntity
  8
Osie_nowe
  6
L_0_03
370
13
100
AcDb2dPolyline
 66
1
 70
128
  0
VERTEX
  5
118
100
AcDbEntity
  8
Osie_nowe
100
AcDbVertex
100
AcDb2dVertex
 10
8412552.59600000083
 20
5786785.09100000002
  0
VERTEX
  5
119
100
AcDbEntity
  8
Osie_nowe
100
AcDbVertex
100
AcDb2dVertex
 10
8412552.59600000083
 20
5786785.09100000002
  0
SEQEND
  5
11A
100
AcDbEntity
  8
Osie_nowe
  0
POLYLINE
  5
11B
100
AcDbEntity
  8
Osie_nowe
  6
L_0_03
370
13
100
AcDb2dPolyline
 66
1
 70
128
  0
VERTEX
  5
11C
100
AcDbEntity
  8
Osie_nowe
100
AcDbVertex
100
AcDb2dVertex
 10
8412552.09999999963
 20
5786784.89099999983
  0
VERTEX
  5
11D
100
AcDbEntity
  8
Osie_nowe
100
AcDbVertex
100
AcDb2dVertex
 10
8412552.50961546227
 20
5786784.77763810474
  0
SEQEND
  5
11E
100
AcDbEntity
  8
Osie_nowe
  0
POLYLINE
  5
11F
100
AcDbEntity
  8
Osie_nowe
  6
L_0_03
370
13
100
AcDb2dPolyline
 66
1
 70
128
  0
VERTEX
  5
120
100
AcDbEntity
  8
Osie_nowe
100
AcDbVertex
100
AcDb2dVertex
 10
8412552.24462692253
 20
5786784.85068755038
  0
VERTEX
  5
121
100
AcDbEntity
  8
Osie_nowe
100
AcDbVertex
100
AcDb2dVertex
 10
8412552.50961546227
 20
5786784.77763810474
  0
SEQEND
  5
122
100
AcDbEntity
  8
Osie_nowe
  0
POLYLINE
  5
123
100
AcDbEntity
  8
Osie_nowe
  6
L_0_03
370
13
100
AcDb2dPolyline
 66
1
 70
128
  0
VERTEX
  5
124
100
AcDbEntity
  8
Osie_nowe
100
AcDbVertex
100
AcDb2dVertex
 10
8412542.79800000042
 20
5786751.15000000037
  0
VERTEX
  5
125
100
AcDbEntity
  8
Osie_nowe
100
AcDbVertex
100
AcDb2dVertex
 10
8412543.20822294615
 20
5786751.03662341926
  0
SEQEND
  5
126
100
AcDbEntity
  8
Osie_nowe
  0
POLYLINE
  5
127
100
AcDbEntity
  8
Osie_nowe
  6
CONTINUOUS
370
13
100
AcDb2dPolyline
 66
1
 70
128
  0
VERTEX
  5
128
100
AcDbEntity
  8
Osie_nowe
100
AcDbVertex
100
AcDb2dVertex
 10
8412550.7922147736
 20
5786784.37593663018
  0
VERTEX
  5
129
100
AcDbEntity
  8
Osie_nowe
100
AcDbVertex
100
AcDb2dVertex
 10
8412551.85010741279
 20
5786784.1102123661
  0
VERTEX
  5
12A
100
AcDbEntity
  8
Osie_nowe
100
AcDbVertex
100
AcDb2dVertex
 10
8412552.37205178104
 20
5786784.81556031294
  0
SEQEND
  5
12B
100
AcDbEntity
  8
Osie_nowe
  0
POLYLINE
  5
12C
100
AcDbEntity
  8
Osie_nowe
  6
CONTINUOUS
370
13
100
AcDb2dPolyline
 66
1
 70
128
  0
VERTEX
  5
12D
100
AcDbEntity
  8
Osie_nowe
100
AcDbVertex
100
AcDb2dVertex
 10
8412541.15815450996
 20
5786750.57868228853
  0
VERTEX
  5
12E
100
AcDbEntity
  8
Osie_nowe
100
AcDbVertex
100
AcDb2dVertex
 10
8412542.20165521838
 20
5786750.26363085024
  0
VERTEX
  5
12F
100
AcDbEntity
  8
Osie_nowe
100
AcDbVertex
100
AcDb2dVertex
 10
8412543.06339775771
 20
5786751.07654740941
  0
SEQEND
  5
130
100
AcDbEntity
  8
Osie_nowe
  0
POLYLINE
  5
131
100
AcDbEntity
  8
osie_przesuniete_o_15cm
  6
CONTINUOUS
370
18
100
AcDb2dPolyline
 66
1
 70
128
  0
VERTEX
  5
132
100
AcDbEntity
  8
osie_przesuniete_o_15cm
100
AcDbVertex
100
AcDb2dVertex
 10
8412552.09999999963
 20
5786784.89099999983
  0
VERTEX
  5
133
100
AcDbEntity
  8
osie_przesuniete_o_15cm
100
AcDbVertex
100
AcDb2dVertex
 10
8412550.23900000006
 20
5786778.14300000016
  0
VERTEX
  5
134
100
AcDbEntity
  8
osie_przesuniete_o_15cm
100
AcDbVertex
100
AcDb2dVertex
 10
8412548.5120000001
 20
5786771.87700000033
  0
VERTEX
  5
135
100
AcDbEntity
  8
osie_przesuniete_o_15cm
100
AcDbVertex
100
AcDb2dVertex
 10
8412546.78399999998
 20
5786765.61000000034
  0
VERTEX
  5
136
100
AcDbEntity
  8
osie_przesuniete_o_15cm
100
AcDbVertex
100
AcDb2dVertex
 10
8412544.79099999927
 20
5786758.37999999989
  0
VERTEX
  5
137
100
AcDbEntity
  8
osie_przesuniete_o_15cm
100
AcDbVertex
100
AcDb2dVertex
 10
8412542.79800000042
 20
5786751.15000000037
  0
SEQEND
  5
138
100
AcDbEntity
  8
osie_przesuniete_o_15cm
  0
POLYLINE
  5
139
100
AcDbEntity
  8
osie_przesuniete_o_15cm
  6
CONTINUOUS
370
18
100
AcDb2dPolyline
 66
1
 70
128
  0
VERTEX
  5
13A
100
AcDbEntity
  8
osie_przesuniete_o_15cm
100
AcDbVertex
100
AcDb2dVertex
 10
8412550.17200000025
 20
5786785.42200000025
  0
VERTEX
  5
13B
100
AcDbEntity
  8
osie_przesuniete_o_15cm
100
AcDbVertex
100
AcDb2dVertex
 10
8412540.86999999918
 20
5786751.68099999987
  0
SEQEND
  5
13C
100
AcDbEntity
  8
osie_przesuniete_o_15cm
  0
POLYLINE
  5
13D
100
AcDbEntity
  8
osie_przesuniete_o_15cm
  6
CONTINUOUS
370
18
100
AcDb2dPolyline
 66
1
 70
128
  0
VERTEX
  5
13E
100
AcDbEntity
  8
osie_przesuniete_o_15cm
100
AcDbVertex
100
AcDb2dVertex
 10
8412544.86900000088
 20
5786786.88399999961
  0
VERTEX
  5
13F
100
AcDbEntity
  8
osie_przesuniete_o_15cm
100
AcDbVertex
100
AcDb2dVertex
 10
8412535.56799999997
 20
5786753.14300000016
  0
SEQEND
  5
140
100
AcDbEntity
  8
osie_przesuniete_o_15cm
  0
POLYLINE
  5
141
100
AcDbEntity
  8
osie_przesuniete_o_15cm
  6
CONTINUOUS
370
18
100
AcDb2dPolyline
 66
1
 70
128
  0
VERTEX
  5
142
100
AcDbEntity
  8
osie_przesuniete_o_15cm
100
AcDbVertex
100
AcDb2dVertex
 10
8412540.72399999946
 20
5786788.02699999977
  0
VERTEX
  5
143
100
AcDbEntity
  8
osie_przesuniete_o_15cm
100
AcDbVertex
100
AcDb2dVertex
 10
8412531.42200000025
 20
5786754.28600000031
  0
SEQEND
  5
144
100
AcDbEntity
  8
osie_przesuniete_o_15cm
  0
POLYLINE
  5
145
100
AcDbEntity
  8
osie_przesuniete_o_15cm
  6
CONTINUOUS
370
18
100
AcDb2dPolyline
 66
1
 70
128
  0
VERTEX
  5
146
100
AcDbEntity
  8
osie_przesuniete_o_15cm
100
AcDbVertex
100
AcDb2dVertex
 10
8412537.63900000043
 20
5786788.87700000033
  0
VERTEX
  5
147
100
AcDbEntity
  8
osie_przesuniete_o_15cm
100
AcDbVertex
100
AcDb2dVertex
 10
8412528.33699999936
 20
5786755.13599999994
  0
SEQEND
  5
148
100
AcDbEntity
  8
osie_przesuniete_o_15cm
  0
POLYLINE
  5
149
100
AcDbEntity
  8
osie_przesuniete_o_15cm
  6
CONTINUOUS
370
18
100
AcDb2dPolyline
 66
1
 70
128
  0
VERTEX
  5
14A
100
AcDbEntity
  8
osie_przesuniete_o_15cm
100
AcDbVertex
100
AcDb2dVertex
 10
8412530.89100000076
 20
5786790.7379999999
  0
VERTEX
  5
14B
100
AcDbEntity
  8
osie_przesuniete_o_15cm
100
AcDbVertex
100
AcDb2dVertex
 10
8412521.58899999969
 20
5786756.99700000044
  0
SEQEND
  5
14C
100
AcDbEntity
  8
osie_przesuniete_o_15cm
  0
POLYLINE
  5
14D
100
AcDbEntity
  8
osie_przesuniete_o_15cm
  6
CONTINUOUS
370
18
100
AcDb2dPolyline
 66
1
 70
128
  0
VERTEX
  5
14E
100
AcDbEntity
  8
osie_przesuniete_o_15cm
100
AcDbVertex
100
AcDb2dVertex
 10
8412526.55299999937
 20
5786791.93400000036
  0
VERTEX
  5
14F
100
AcDbEntity
  8
osie_przesuniete_o_15cm
100
AcDbVertex
100
AcDb2dVertex
 10
8412524.69199999981
 20
5786785.18599999975
  0
VERTEX
  5
150
100
AcDbEntity
  8
osie_przesuniete_o_15cm
100
AcDbVertex
100
AcDb2dVertex
 10
8412522.96499999985
 20
5786778.91999999993
  0
VERTEX
  5
151
100
AcDbEntity
  8
osie_przesuniete_o_15cm
100
AcDbVertex
100
AcDb2dVertex
 10
8412521.23699999973
 20
5786772.65299999993
  0
VERTEX
  5
152
100
AcDbEntity
  8
osie_przesuniete_o_15cm
100
AcDbVertex
100
AcDb2dVertex
 10
8412519.24400000088
 20
5786765.42300000042
  0
VERTEX
  5
153
100
AcDbEntity
  8
osie_przesuniete_o_15cm
100
AcDbVertex
100
AcDb2dVertex
 10
8412517.25100000016
 20
5786758.19299999997
  0
SEQEND
  5
154
100
AcDbEntity
  8
osie_przesuniete_o_15cm
  0
INSERT
  5
155
100
AcDbEntity
  8
osie_przesuniete_o_15cm
  6
CONTINUOUS
100
AcDbBlockReference
 66
1
  2
pikieta
 10
8412552.09999999963
 20
5786784.89099999983
 41
0.25
 42
0.25
 43
0.25
 50
0.00
  0
ATTRIB
  5
156
100
AcDbEntity
  8
osie_przesuniete_o_15cm
100
AcDbText
 10
8412552.09999999963
 20
5786784.89099999983
 40
0.2
  1
A1
 50
0.00
 41
0.62
 51
0.00
  7
STANDARD
100
AcDbAttribute
  2
Nr
 70
0
  0
SEQEND
  5
157
100
AcDbEntity
  8
osie_przesuniete_o_15cm
  0
INSERT
  5
158
100
AcDbEntity
  8
osie_przesuniete_o_15cm
  6
CONTINUOUS
100
AcDbBlockReference
 66
1
  2
pikieta
 10
8412550.23900000006
 20
5786778.14300000016
 41
0.25
 42
0.25
 43
0.25
 50
0.00
  0
ATTRIB
  5
159
100
AcDbEntity
  8
osie_przesuniete_o_15cm
100
AcDbText
 10
8412550.23900000006
 20
5786778.14300000016
 40
0.2
  1
A2
 50
0.00
 41
0.62
 51
0.00
  7
STANDARD
100
AcDbAttribute
  2
Nr
 70
0
  0
SEQEND
  5
15A
100
AcDbEntity
  8
osie_przesuniete_o_15cm
  0
INSERT
  5
15B
100
AcDbEntity
  8
osie_przesuniete_o_15cm
  6
CONTINUOUS
100
AcDbBlockReference
 66
1
  2
pikieta
 10
8412548.5120000001
 20
5786771.87700000033
 41
0.25
 42
0.25
 43
0.25
 50
0.00
  0
ATTRIB
  5
15C
100
AcDbEntity
  8
osie_przesuniete_o_15cm
100
AcDbText
 10
8412548.5120000001
 20
5786771.87700000033
 40
0.2
  1
A3
 50
0.00
 41
0.62
 51
0.00
  7
STANDARD
100
AcDbAttribute
  2
Nr
 70
0
  0
SEQEND
  5
15D
100
AcDbEntity
  8
osie_przesuniete_o_15cm
  0
INSERT
  5
15E
100
AcDbEntity
  8
osie_przesuniete_o_15cm
  6
CONTINUOUS
100
AcDbBlockReference
 66
1
  2
pikieta
 10
8412546.78399999998
 20
5786765.61000000034
 41
0.25
 42
0.25
 43
0.25
 50
0.00
  0
ATTRIB
  5
15F
100
AcDbEntity
  8
osie_przesuniete_o_15cm
100
AcDbText
 10
8412546.78399999998
 20
5786765.61000000034
 40
0.2
  1
A4
 50
0.00
 41
0.62
 51
0.00
  7
STANDARD
100
AcDbAttribute
  2
Nr
 70
0
  0
SEQEND
  5
160
100
AcDbEntity
  8
osie_przesuniete_o_15cm
  0
INSERT
  5
161
100
AcDbEntity
  8
osie_przesuniete_o_15cm
  6
CONTINUOUS
100
AcDbBlockReference
 66
1
  2
pikieta
 10
8412544.79099999927
 20
5786758.37999999989
 41
0.25
 42
0.25
 43
0.25
 50
0.00
  0
ATTRIB
  5
162
100
AcDbEntity
  8
osie_przesuniete_o_15cm
100
AcDbText
 10
8412544.79099999927
 20
5786758.37999999989
 40
0.2
  1
A5
 50
0.00
 41
0.62
 51
0.00
  7
STANDARD
100
AcDbAttribute
  2
Nr
 70
0
  0
SEQEND
  5
163
100
AcDbEntity
  8
osie_przesuniete_o_15cm
  0
INSERT
  5
164
100
AcDbEntity
  8
osie_przesuniete_o_15cm
  6
CONTINUOUS
100
AcDbBlockReference
 66
1
  2
pikieta
 10
8412542.79800000042
 20
5786751.15000000037
 41
0.25
 42
0.25
 43
0.25
 50
0.00
  0
ATTRIB
  5
165
100
AcDbEntity
  8
osie_przesuniete_o_15cm
100
AcDbText
 10
8412542.79800000042
 20
5786751.15000000037
 40
0.2
  1
A6
 50
0.00
 41
0.62
 51
0.00
  7
STANDARD
100
AcDbAttribute
  2
Nr
 70
0
  0
SEQEND
  5
166
100
AcDbEntity
  8
osie_przesuniete_o_15cm
  0
INSERT
  5
167
100
AcDbEntity
  8
osie_przesuniete_o_15cm
  6
CONTINUOUS
100
AcDbBlockReference
 66
1
  2
pikieta
 10
8412550.17200000025
 20
5786785.42200000025
 41
0.25
 42
0.25
 43
0.25
 50
0.00
  0
ATTRIB
  5
168
100
AcDbEntity
  8
osie_przesuniete_o_15cm
100
AcDbText
 10
8412550.17200000025
 20
5786785.42200000025
 40
0.2
  1
A'1
 50
0.00
 41
0.62
 51
0.00
  7
STANDARD
100
AcDbAttribute
  2
Nr
 70
0
  0
SEQEND
  5
169
100
AcDbEntity
  8
osie_przesuniete_o_15cm
  0
INSERT
  5
16A
100
AcDbEntity
  8
osie_przesuniete_o_15cm
  6
CONTINUOUS
100
AcDbBlockReference
 66
1
  2
pikieta
 10
8412540.86999999918
 20
5786751.68099999987
 41
0.25
 42
0.25
 43
0.25
 50
0.00
  0
ATTRIB
  5
16B
100
AcDbEntity
  8
osie_przesuniete_o_15cm
100
AcDbText
 10
8412540.86999999918
 20
5786751.68099999987
 40
0.2
  1
A;6
 50
0.00
 41
0.62
 51
0.00
  7
STANDARD
100
AcDbAttribute
  2
Nr
 70
0
  0
SEQEND
  5
16C
100
AcDbEntity
  8
osie_przesuniete_o_15cm
  0
INSERT
  5
16D
100
AcDbEntity
  8
osie_przesuniete_o_15cm
  6
CONTINUOUS
100
AcDbBlockReference
 66
1
  2
pikieta
 10
8412544.86900000088
 20
5786786.88399999961
 41
0.25
 42
0.25
 43
0.25
 50
0.00
  0
ATTRIB
  5
16E
100
AcDbEntity
  8
osie_przesuniete_o_15cm
100
AcDbText
 10
8412544.86900000088
 20
5786786.88399999961
 40
0.2
  1
B1
 50
0.00
 41
0.62
 51
0.00
  7
STANDARD
100
AcDbAttribute
  2
Nr
 70
0
  0
SEQEND
  5
16F
100
AcDbEntity
  8
osie_przesuniete_o_15cm
  0
INSERT
  5
170
100
AcDbEntity
  8
osie_przesuniete_o_15cm
  6
CONTINUOUS
100
AcDbBlockReference
 66
1
  2
pikieta
 10
8412535.56799999997
 20
5786753.14300000016
 41
0.25
 42
0.25
 43
0.25
 50
0.00
  0
ATTRIB
  5
171
100
AcDbEntity
  8
osie_przesuniete_o_15cm
100
AcDbText
 10
8412535.56799999997
 20
5786753.14300000016
 40
0.2
  1
B6
 50
0.00
 41
0.62
 51
0.00
  7
STANDARD
100
AcDbAttribute
  2
Nr
 70
0
  0
SEQEND
  5
172
100
AcDbEntity
  8
osie_przesuniete_o_15cm
  0
INSERT
  5
173
100
AcDbEntity
  8
osie_przesuniete_o_15cm
  6
CONTINUOUS
100
AcDbBlockReference
 66
1
  2
pikieta
 10
8412540.72399999946
 20
5786788.02699999977
 41
0.25
 42
0.25
 43
0.25
 50
0.00
  0
ATTRIB
  5
174
100
AcDbEntity
  8
osie_przesuniete_o_15cm
100
AcDbText
 10
8412540.72399999946
 20
5786788.02699999977
 40
0.2
  1
C1
 50
0.00
 41
0.62
 51
0.00
  7
STANDARD
100
AcDbAttribute
  2
Nr
 70
0
  0
SEQEND
  5
175
100
AcDbEntity
  8
osie_przesuniete_o_15cm
  0
INSERT
  5
176
100
AcDbEntity
  8
osie_przesuniete_o_15cm
  6
CONTINUOUS
100
AcDbBlockReference
 66
1
  2
pikieta
 10
8412531.42200000025
 20
5786754.28600000031
 41
0.25
 42
0.25
 43
0.25
 50
0.00
  0
ATTRIB
  5
177
100
AcDbEntity
  8
osie_przesuniete_o_15cm
100
AcDbText
 10
8412531.42200000025
 20
5786754.28600000031
 40
0.2
  1
C6
 50
0.00
 41
0.62
 51
0.00
  7
STANDARD
100
AcDbAttribute
  2
Nr
 70
0
  0
SEQEND
  5
178
100
AcDbEntity
  8
osie_przesuniete_o_15cm
  0
INSERT
  5
179
100
AcDbEntity
  8
osie_przesuniete_o_15cm
  6
CONTINUOUS
100
AcDbBlockReference
 66
1
  2
pikieta
 10
8412537.63900000043
 20
5786788.87700000033
 41
0.25
 42
0.25
 43
0.25
 50
0.00
  0
ATTRIB
  5
17A
100
AcDbEntity
  8
osie_przesuniete_o_15cm
100
AcDbText
 10
8412537.63900000043
 20
5786788.87700000033
 40
0.2
  1
D1
 50
0.00
 41
0.62
 51
0.00
  7
STANDARD
100
AcDbAttribute
  2
Nr
 70
0
  0
SEQEND
  5
17B
100
AcDbEntity
  8
osie_przesuniete_o_15cm
  0
INSERT
  5
17C
100
AcDbEntity
  8
osie_przesuniete_o_15cm
  6
CONTINUOUS
100
AcDbBlockReference
 66
1
  2
pikieta
 10
8412528.33699999936
 20
5786755.13599999994
 41
0.25
 42
0.25
 43
0.25
 50
0.00
  0
ATTRIB
  5
17D
100
AcDbEntity
  8
osie_przesuniete_o_15cm
100
AcDbText
 10
8412528.33699999936
 20
5786755.13599999994
 40
0.2
  1
D6
 50
0.00
 41
0.62
 51
0.00
  7
STANDARD
100
AcDbAttribute
  2
Nr
 70
0
  0
SEQEND
  5
17E
100
AcDbEntity
  8
osie_przesuniete_o_15cm
  0
INSERT
  5
17F
100
AcDbEntity
  8
osie_przesuniete_o_15cm
  6
CONTINUOUS
100
AcDbBlockReference
 66
1
  2
pikieta
 10
8412530.89100000076
 20
5786790.7379999999
 41
0.25
 42
0.25
 43
0.25
 50
0.00
  0
ATTRIB
  5
180
100
AcDbEntity
  8
osie_przesuniete_o_15cm
100
AcDbText
 10
8412530.89100000076
 20
5786790.7379999999
 40
0.2
  1
E1
 50
0.00
 41
0.62
 51
0.00
  7
STANDARD
100
AcDbAttribute
  2
Nr
 70
0
  0
SEQEND
  5
181
100
AcDbEntity
  8
osie_przesuniete_o_15cm
  0
INSERT
  5
182
100
AcDbEntity
  8
osie_przesuniete_o_15cm
  6
CONTINUOUS
100
AcDbBlockReference
 66
1
  2
pikieta
 10
8412521.58899999969
 20
5786756.99700000044
 41
0.25
 42
0.25
 43
0.25
 50
0.00
  0
ATTRIB
  5
183
100
AcDbEntity
  8
osie_przesuniete_o_15cm
100
AcDbText
 10
8412521.58899999969
 20
5786756.99700000044
 40
0.2
  1
E6
 50
0.00
 41
0.62
 51
0.00
  7
STANDARD
100
AcDbAttribute
  2
Nr
 70
0
  0
SEQEND
  5
184
100
AcDbEntity
  8
osie_przesuniete_o_15cm
  0
INSERT
  5
185
100
AcDbEntity
  8
osie_przesuniete_o_15cm
  6
CONTINUOUS
100
AcDbBlockReference
 66
1
  2
pikieta
 10
8412526.55299999937
 20
5786791.93400000036
 41
0.25
 42
0.25
 43
0.25
 50
0.00
  0
ATTRIB
  5
186
100
AcDbEntity
  8
osie_przesuniete_o_15cm
100
AcDbText
 10
8412526.55299999937
 20
5786791.93400000036
 40
0.2
  1
F1
 50
0.00
 41
0.62
 51
0.00
  7
STANDARD
100
AcDbAttribute
  2
Nr
 70
0
  0
SEQEND
  5
187
100
AcDbEntity
  8
osie_przesuniete_o_15cm
  0
INSERT
  5
188
100
AcDbEntity
  8
osie_przesuniete_o_15cm
  6
CONTINUOUS
100
AcDbBlockReference
 66
1
  2
pikieta
 10
8412524.69199999981
 20
5786785.18599999975
 41
0.25
 42
0.25
 43
0.25
 50
0.00
  0
ATTRIB
  5
189
100
AcDbEntity
  8
osie_przesuniete_o_15cm
100
AcDbText
 10
8412524.69199999981
 20
5786785.18599999975
 40
0.2
  1
F2
 50
0.00
 41
0.62
 51
0.00
  7
STANDARD
100
AcDbAttribute
  2
Nr
 70
0
  0
SEQEND
  5
18A
100
AcDbEntity
  8
osie_przesuniete_o_15cm
  0
INSERT
  5
18B
100
AcDbEntity
  8
osie_przesuniete_o_15cm
  6
CONTINUOUS
100
AcDbBlockReference
 66
1
  2
pikieta
 10
8412522.96499999985
 20
5786778.91999999993
 41
0.25
 42
0.25
 43
0.25
 50
0.00
  0
ATTRIB
  5
18C
100
AcDbEntity
  8
osie_przesuniete_o_15cm
100
AcDbText
 10
8412522.96499999985
 20
5786778.91999999993
 40
0.2
  1
F3
 50
0.00
 41
0.62
 51
0.00
  7
STANDARD
100
AcDbAttribute
  2
Nr
 70
0
  0
SEQEND
  5
18D
100
AcDbEntity
  8
osie_przesuniete_o_15cm
  0
INSERT
  5
18E
100
AcDbEntity
  8
osie_przesuniete_o_15cm
  6
CONTINUOUS
100
AcDbBlockReference
 66
1
  2
pikieta
 10
8412521.23699999973
 20
5786772.65299999993
 41
0.25
 42
0.25
 43
0.25
 50
0.00
  0
ATTRIB
  5
18F
100
AcDbEntity
  8
osie_przesuniete_o_15cm
100
AcDbText
 10
8412521.23699999973
 20
5786772.65299999993
 40
0.2
  1
F4
 50
0.00
 41
0.62
 51
0.00
  7
STANDARD
100
AcDbAttribute
  2
Nr
 70
0
  0
SEQEND
  5
190
100
AcDbEntity
  8
osie_przesuniete_o_15cm
  0
INSERT
  5
191
100
AcDbEntity
  8
osie_przesuniete_o_15cm
  6
CONTINUOUS
100
AcDbBlockReference
 66
1
  2
pikieta
 10
8412519.24400000088
 20
5786765.42300000042
 41
0.25
 42
0.25
 43
0.25
 50
0.00
  0
ATTRIB
  5
192
100
AcDbEntity
  8
osie_przesuniete_o_15cm
100
AcDbText
 10
8412519.24400000088
 20
5786765.42300000042
 40
0.2
  1
F5
 50
0.00
 41
0.62
 51
0.00
  7
STANDARD
100
AcDbAttribute
  2
Nr
 70
0
  0
SEQEND
  5
193
100
AcDbEntity
  8
osie_przesuniete_o_15cm
  0
INSERT
  5
194
100
AcDbEntity
  8
osie_przesuniete_o_15cm
  6
CONTINUOUS
100
AcDbBlockReference
 66
1
  2
pikieta
 10
8412517.25100000016
 20
5786758.19299999997
 41
0.25
 42
0.25
 43
0.25
 50
0.00
  0
ATTRIB
  5
195
100
AcDbEntity
  8
osie_przesuniete_o_15cm
100
AcDbText
 10
8412517.25100000016
 20
5786758.19299999997
 40
0.2
  1
F6
 50
0.00
 41
0.62
 51
0.00
  7
STANDARD
100
AcDbAttribute
  2
Nr
 70
0
  0
SEQEND
  5
196
100
AcDbEntity
  8
osie_przesuniete_o_15cm
  0
TEXT
  5
197
100
AcDbEntity
  8
linie_pomocnicze
370
18
100
AcDbText
 39
0.18
 10
8412533.0570646897
 20
5786770.39024367463
 40
0.45
  1
-43.900-
 50
-323.00
 41
0.66
  7
STANDARD
100
AcDbText
  0
TEXT
  5
198
100
AcDbEntity
  8
linie_pomocnicze
370
18
100
AcDbText
 39
0.18
 10
8412535.10630061291
 20
5786771.24818006251
 40
0.45
  1
-43.900-
 50
-68.00
 41
0.66
  7
STANDARD
100
AcDbText
  0
TEXT
  5
199
100
AcDbEntity
  8
linie_pomocnicze
370
18
100
AcDbText
 39
0.18
 10
8412540.21066675708
 20
5786788.68293714058
 40
0.45
  1
-26.500-
 50
-15.00
 41
0.66
  7
STANDARD
100
AcDbText
  0
TEXT
  5
19A
100
AcDbEntity
  8
linie_pomocnicze
370
18
100
AcDbText
 39
0.18
 10
8412521.08012953587
 20
5786774.41396046989
 40
0.45
  1
-35.000-
 50
-285.00
 41
0.66
  7
STANDARD
100
AcDbText
  0
TEXT
  5
19B
100
AcDbEntity
  8
linie_pomocnicze
370
18
100
AcDbText
 39
0.18
 10
8412569.5429604724
 20
5786780.50587046519
 40
0.45
  1
-36.913-
 50
-15.00
 41
0.66
  7
STANDARD
100
AcDbText
  0
TEXT
  5
19C
100
AcDbEntity
  8
linie_pomocnicze
370
18
100
AcDbText
 39
0.18
 10
8412565.50898608193
 20
5786782.39657684509
 40
0.45
  1
d³ugoœæ projektowa 36,830m
 50
344.40
 41
0.66
  7
STANDARD
100
AcDbText
  0
TEXT
  5
19D
100
AcDbEntity
  8
linie_pomocnicze
370
18
100
AcDbText
 39
0.18
 10
8412541.9770628605
 20
5786747.47066675592
 40
0.45
  1
-73.110-
 50
-285.00
 41
0.66
  7
STANDARD
100
AcDbText
  0
TEXT
  5
19E
100
AcDbEntity
  8
linie_pomocnicze
370
18
100
AcDbText
 39
0.18
 10
8412540.52425742149
 20
5786744.52201486938
 40
0.45
  1
cz. projektowa 73,045m
 50
74.80
 41
0.66
  7
STANDARD
100
AcDbText
  0
TEXT
  5
19F
100
AcDbEntity
  8
Osie_nowe
370
18
100
AcDbText
 39
0.18
 10
8412553.48509536125
 20
5786783.52590912767
 40
0.45
  1
100.0000g
 50
299.60
 41
0.66
  7
STANDARD
100
AcDbText
  0
TEXT
  5
1A0
100
AcDbEntity
  8
Osie_nowe
370
18
100
AcDbText
 39
0.18
 10
8412550.56651212834
 20
5786785.494147202
 40
0.45
  1
-2.000-
 50
-15.00
 41
0.66
  7
STANDARD
100
AcDbText
  0
TEXT
  5
1A1
100
AcDbEntity
  8
Osie_nowe
370
18
100
AcDbText
 39
0.18
 10
8412546.95137848891
 20
5786786.49079597555
 40
0.45
  1
-5.501-
 50
-15.00
 41
0.66
  7
STANDARD
100
AcDbText
  0
TEXT
  5
1A2
100
AcDbEntity
  8
Osie_nowe
370
18
100
AcDbText
 39
0.18
 10
8412542.22760386579
 20
5786787.79308370594
 40
0.45
  1
-4.300-
 50
-15.00
 41
0.66
  7
STANDARD
100
AcDbText
  0
TEXT
  5
1A3
100
AcDbEntity
  8
Osie_nowe
370
18
100
AcDbText
 39
0.18
 10
8412538.61247023009
 20
5786788.78973247949
 40
0.45
  1
-3.200-
 50
-15.00
 41
0.66
  7
STANDARD
100
AcDbText
  0
TEXT
  5
1A4
100
AcDbEntity
  8
Osie_nowe
370
18
100
AcDbText
 39
0.18
 10
8412533.69588848017
 20
5786790.14517481066
 40
0.45
  1
-7.000-
 50
-15.00
 41
0.66
  7
STANDARD
100
AcDbText
  0
TEXT
  5
1A5
100
AcDbEntity
  8
Osie_nowe
370
18
100
AcDbText
 39
0.18
 10
8412528.15265575796
 20
5786791.67337726429
 40
0.45
  1
-4.500-
 50
-15.00
 41
0.66
  7
STANDARD
100
AcDbText
  0
TEXT
  5
1A6
100
AcDbEntity
  8
Osie_nowe
370
18
100
AcDbText
 39
0.18
 10
8412525.4767551925
 20
5786787.78237358201
 40
0.45
  1
-7.000-
 50
-285.00
 41
0.66
  7
STANDARD
100
AcDbText
  0
TEXT
  5
1A7
100
AcDbEntity
  8
Osie_nowe
370
18
100
AcDbText
 39
0.18
 10
8412523.68290600739
 20
5786781.27530798688
 40
0.45
  1
-6.500-
 50
-285.00
 41
0.66
  7
STANDARD
100
AcDbText
  0
TEXT
  5
1A8
100
AcDbEntity
  8
Osie_nowe
370
18
100
AcDbText
 39
0.18
 10
8412521.9554444477
 20
5786775.009058984
 40
0.45
  1
-6.501-
 50
-285.00
 41
0.66
  7
STANDARD
100
AcDbText
  0
TEXT
  5
1A9
100
AcDbEntity
  8
Osie_nowe
370
18
100
AcDbText
 39
0.18
 10
8412520.09510123171
 20
5786768.26079082675
 40
0.45
  1
-7.500-
 50
-285.00
 41
0.66
  7
STANDARD
100
AcDbText
  0
TEXT
  5
1AA
100
AcDbEntity
  8
Osie_nowe
370
18
100
AcDbText
 39
0.18
 10
8412518.10187635384
 20
5786761.03050351608
 40
0.45
  1
-7.500-
 50
-285.00
 41
0.66
  7
STANDARD
100
AcDbText
  0
TEXT
  5
1AB
100
AcDbEntity
  8
Osie_nowe
370
18
100
AcDbText
 39
0.18
 10
8412541.24157249928
 20
5786751.66626904812
 40
0.45
  1
-2.000-
 50
-15.00
 41
0.66
  7
STANDARD
100
AcDbText
  0
TEXT
  5
1AC
100
AcDbEntity
  8
Osie_nowe
370
18
100
AcDbText
 39
0.18
 10
8412537.62647509016
 20
5786752.66290783323
 40
0.45
  1
-5.500-
 50
-15.00
 41
0.66
  7
STANDARD
100
AcDbText
  0
TEXT
  5
1AD
100
AcDbEntity
  8
Osie_nowe
370
18
100
AcDbText
 39
0.18
 10
8412532.9027004689
 20
5786753.96519556455
 40
0.45
  1
-4.301-
 50
-15.00
 41
0.66
  7
STANDARD
100
AcDbText
  0
TEXT
  5
1AE
100
AcDbEntity
  8
Osie_nowe
370
18
100
AcDbText
 39
0.18
 10
8412529.28756683134
 20
5786754.96184433997
 40
0.45
  1
-3.200-
 50
-15.00
 41
0.66
  7
STANDARD
100
AcDbText
  0
TEXT
  5
1AF
100
AcDbEntity
  8
Osie_nowe
370
18
100
AcDbText
 39
0.18
 10
8412524.37098508328
 20
5786756.31728667207
 40
0.45
  1
-7.000-
 50
-15.00
 41
0.66
  7
STANDARD
100
AcDbText
  0
TEXT
  5
1B0
100
AcDbEntity
  8
Osie_nowe
370
18
100
AcDbText
 39
0.18
 10
8412518.82771613076
 20
5786757.84549911227
 40
0.45
  1
-4.500-
 50
-15.00
 41
0.66
  7
STANDARD
100
AcDbText
  0
TEXT
  5
1B1
100
AcDbEntity
  8
Osie_nowe
370
18
100
AcDbText
 39
0.18
 10
8412553.77584293298
 20
5786785.28249974735
 40
0.45
  1
0.00
 50
164.60
 41
0.66
  7
STANDARD
100
AcDbText
  0
TEXT
  5
1B2
100
AcDbEntity
  8
Osie_nowe
370
15
100
AcDbText
 39
0.15
 10
8412553.55563121289
 20
5786784.65380902775
 40
0.38
  1
0.325
 50
164.60
 41
0.66
  7
STANDARD
100
AcDbText
  0
TEXT
  5
1B3
100
AcDbEntity
  8
Osie_nowe
370
15
100
AcDbText
 39
0.15
 10
8412550.88937249407
 20
5786784.44819453638
 40
0.38
  1
0.425
 50
-14.10
 41
0.66
  7
STANDARD
100
AcDbText
  0
TEXT
  5
1B4
100
AcDbEntity
  8
Osie_nowe
370
15
100
AcDbText
 39
0.15
 10
8412544.48439910077
 20
5786750.86201725621
 40
0.38
  1
35.325
 50
164.60
 41
0.66
  7
STANDARD
100
AcDbText
  0
TEXT
  5
1B5
100
AcDbEntity
  8
Osie_nowe
370
15
100
AcDbText
 39
0.15
 10
8412541.26125648618
 20
5786750.64548365492
 40
0.38
  1
0.425
 50
343.20
 41
0.66
  7
STANDARD
100
AcDbText
  0
ENDSEC
  0
SECTION
  2
OBJECTS
  0
DICTIONARY
  5
1B6
330
0
100
AcDbDictionary
280
0
281
1
  3
ACAD_GROUP
350
1B7
  3
ACAD_LAYOUT
350
1B8
  3
ACAD_MLINESTYLE
350
1B9
  3
ACAD_PLOTSETTINGS
350
1BA
  3
ACAD_PLOTSTYLENAME
350
1BB
  3
ACAD_WIPEOUT_VARS
350
1BC
  0
DICTIONARY
  5
1B7
102
{ACAD_REACTORS
330
1B6
102
}
330
1B6
100
AcDbDictionary
280
0
281
1
  0
DICTIONARY
  5
1B8
102
{ACAD_REACTORS
330
1B6
102
}
330
1B6
100
AcDbDictionary
280
0
281
1
  3
Layout
350
2B
  3
Model
350
29
  0
DICTIONARY
  5
1B9
102
{ACAD_REACTORS
330
1B6
102
}
330
1B6
100
AcDbDictionary
280
0
281
1
  3
Standard
350
1BD
  3
L_0_02_M
350
8
  3
L_0_29_M
350
12
  0
DICTIONARY
  5
1BA
102
{ACAD_REACTORS
330
1B6
102
}
330
1B6
100
AcDbDictionary
280
0
281
1
  0
ACDBDICTIONARYWDFLT
  5
1BB
102
{ACAD_REACTORS
330
1B6
102
}
330
1B6
100
AcDbDictionary
281
1
  3
Normal
350
18
100
AcDbDictionaryWithDefault
340
18
  0
WIPEOUTVARIABLES
  5
1BC
102
{ACAD_REACTORS
330
1B6
102
}
330
1B6
100
AcDbWipeoutVariables
 70
0
  0
LAYOUT
  5
2B
100
AcDbPlotSettings
  1

  2

  4

  6

 40
0.0
 41
0.0
 42
0.0
 43
0.0
 44
0.0
 45
0.0
 46
0.0
 47
0.0
 48
0.0
 49
0.0
140
0.0
141
0.0
142
1.0
143
1.0
 70
688
 72
1
 73
0
 74
5
  7

 75
0
147
1.0
148
0.0
149
0.0
100
AcDbLayout
  1
Layout
 70
1
 71
1
 10
0.0
 20
0.0
 11
420.0
 21
297.0
 12
0.0
 22
0.0
 32
0.0
 14
100000000000000000000.0
 24
100000000000000000000.0
 34
100000000000000000000.0
 15
-100000000000000000000.0
 25
-100000000000000000000.0
 35
-100000000000000000000.0
146
0.0
 13
0.0
 23
0.0
 33
0.0
 16
1.0
 26
0.0
 36
0.0
 17
0.0
 27
1.0
 37
0.0
 76
0
330
2A
  0
LAYOUT
  5
29
100
AcDbPlotSettings
  1

  2

  4

  6

 40
0.0
 41
0.0
 42
0.0
 43
0.0
 44
0.0
 45
0.0
 46
0.0
 47
0.0
 48
0.0
 49
0.0
140
0.0
141
0.0
142
1.0
143
1.0
 70
1712
 72
1
 73
0
 74
0
  7

 75
0
147
1.0
148
0.0
149
0.0
100
AcDbLayout
  1
Model
 70
1
 71
0
 10
0.0
 20
0.0
 11
12.0
 21
9.0
 12
0.0
 22
0.0
 32
0.0
 14
0.0
 24
0.0
 34
0.0
 15
0.0
 25
0.0
 35
0.0
146
0.0
 13
0.0
 23
0.0
 33
0.0
 16
1.0
 26
0.0
 36
0.0
 17
0.0
 27
1.0
 37
0.0
 76
0
330
28
  0
MLINESTYLE
  5
1BD
102
{ACAD_REACTORS
330
1B9
102
}
330
1B9
100
AcDbMlineStyle
  2
Standard
 70
0
  3

 62
256
 51
90.0
 52
90.0
  2
Standard
 71
2
 49
0.5
 62
256
  6
ByLayer
 49
-0.5
 62
256
  6
ByLayer
  0
MLINESTYLE
  5
8
100
AcDbMlineStyle
  2
L_0_02_M
 70
0
  3

 51
90.0
 52
90.0
 71
1
 49
0.0
 62
256
  6
CONTINUOUS
  0
MLINESTYLE
  5
12
100
AcDbMlineStyle
  2
L_0_29_M
 70
0
  3

 51
90.0
 52
90.0
 71
3
 49
0.125
 62
256
  6
CONTINUOUS
 49
0.0
 62
256
  6
L_0_29
 49
-0.125
 62
256
  6
CONTINUOUS
  0
ACDBPLACEHOLDER
  5
18
  0
ENDSEC
  0
EOF
