  0
SECTION
  2
HEADER
  9
$ACADVER
  1
AC1018
  9
$HANDSEED
  5
FFFFFF
  9
$EXTMAX
 10
7574494.0
 20
5721372.1799999997
 30
1000000.00
  9
$EXTMIN
 10
7574025.75
 20
5721005.24000000022
 30
0.00
  9
$LIMMIN
 10
7574025.75
 20
5721005.24000000022
  9
$LIMMAX
 10
7574494.0
 20
5721372.1799999997
  9
$DIMASZ
 40
2.5
  9
$DIMGAP
 40
0.625
  9
$INSUNITS
 70
6
  9
$MEASUREMENT
 70
1
  9
$DIMEXO
 40
0.625
  9
$DIMTXT
 40
2.5
  9
$DIMSTYLE
  2
Standard
  9
$PLIMMIN
 10
0.0
 20
0.0
  9
$PLIMMAX
 10
210.0
 20
297.0
  9
$DIMEXE
 40
1.25
  9
$TEXTSIZE
 40
2.5
  9
$TEXTSTYLE
  7
Standard
  9
$LWDISPLAY
290
1
  9
$TDCREATE
 40
45705.763695799
  9
$TDUCREATE
 40
45705.722029132
  9
$TDUPDATE
 40
45705.763695799
  9
$TDUUPDATE
 40
45705.722029132
  9
$TDINDWG
 40
0.0
  9
$TDUSRTIMER
 40
0.0
  9
$USRTIMER
 70
1
  0
ENDSEC
  0
SECTION
  2
TABLES
  0
TABLE
  2
VPORT
  5
1
100
AcDbSymbolTable
 70
1
  0
VPORT
  5
2
100
AcDbSymbolTableRecord
100
AcDbViewportTableRecord
  2
*ACTIVE
 70
0
 10
0.0
 20
0.0
 11
1.0
 21
1.0
 12
7574259.88
 22
5721188.71
 13
0.0
 23
0.0
 14
1.0
 24
1.0
 15
0.0
 25
0.0
 16
0.0
 26
0.0
 36
1.0
 17
0.0
 27
0.0
 37
0.0
 40
366.94
 41
1.28
 42
50.0
 43
0.0
 44
0.0
 50
0.0
 51
0.0
 71
0
 72
100
 73
1
 74
1
 75
0
 76
0
 77
0
 78
0
  0
ENDTAB
  0
TABLE
  2
LTYPE
  5
3
100
AcDbSymbolTable
 70
3
  0
LTYPE
  5
4
100
AcDbSymbolTableRecord
100
AcDbLinetypeTableRecord
  2
ByBlock
 70
0
  3

 72
65
 73
0
 40
0.0
  0
LTYPE
  5
5
100
AcDbSymbolTableRecord
100
AcDbLinetypeTableRecord
  2
ByLayer
 70
0
  3

 72
65
 73
0
 40
0.0
  0
LTYPE
  5
6
100
AcDbSymbolTableRecord
100
AcDbLinetypeTableRecord
  2
CONTINUOUS
 70
0
  3
Solid line
 72
65
 73
0
 40
0.0
  0
LTYPE
  5
8
100
AcDbSymbolTableRecord
100
AcDbLinetypeTableRecord
  2
L_0_02
 70
0
  3
Dzialka_ewidencyjna (MLineStyle)
 72
65
 73
0
 40
0.0
  0
LTYPE
  5
9
100
AcDbSymbolTableRecord
100
AcDbLinetypeTableRecord
  2
L_0_03
 70
0
  3
Uzytek_gruntowy
 72
65
 73
2
 40
2.0
 49
1.0
 74
0
 49
-1.0
 74
0
  0
LTYPE
  5
A
100
AcDbSymbolTableRecord
100
AcDbLinetypeTableRecord
  2
L_0_04
 70
0
  3
Budynek_projektowany
 72
65
 73
2
 40
3.0
 49
2.0
 74
0
 49
-1.0
 74
0
  0
LTYPE
  5
B
100
AcDbSymbolTableRecord
100
AcDbLinetypeTableRecord
  2
L_0_06
 70
0
  3
Granica_konturu_klasyfikacyjnego_Krawedz_chodnika
 72
65
 73
2
 40
4.0
 49
3.0
 74
0
 49
-1.0
 74
0
  0
LTYPE
  5
C
100
AcDbSymbolTableRecord
100
AcDbLinetypeTableRecord
  2
L_0_44
 70
0
  3
Uzytek_gruntowy_1_1000__1_2000
 72
65
 73
2
 40
1.4
 49
0.7
 74
0
 49
-0.7
 74
0
  0
LTYPE
  5
D
100
AcDbSymbolTableRecord
100
AcDbLinetypeTableRecord
  2
L_0_51
 70
0
  3
L_0_51
 72
65
 73
2
 40
2.8
 49
2.1
 74
0
 49
-0.7
 74
0
  0
ENDTAB
  0
TABLE
  2
LAYER
  5
E
100
AcDbSymbolTable
 70
18
  0
LAYER
  5
F
100
AcDbSymbolTableRecord
100
AcDbLayerTableRecord
  2
0
 70
0
420
0
  6
CONTINUOUS
370
18
390
10
  0
LAYER
  5
11
100
AcDbSymbolTableRecord
100
AcDbLayerTableRecord
  2
arkusz_A3
 70
0
420
15751256
  6
CONTINUOUS
370
18
390
10
  0
LAYER
  5
12
100
AcDbSymbolTableRecord
100
AcDbLayerTableRecord
  2
czolowki_nowe
 70
0
420
16711680
  6
CONTINUOUS
370
18
390
10
  0
LAYER
  5
13
100
AcDbSymbolTableRecord
100
AcDbLayerTableRecord
  2
czolowki_stare
 70
0
420
0
  6
CONTINUOUS
370
18
390
10
  0
LAYER
  5
14
100
AcDbSymbolTableRecord
100
AcDbLayerTableRecord
  2
dzialka_podzial
 70
0
420
0
  6
CONTINUOUS
370
18
390
10
  0
LAYER
  5
15
100
AcDbSymbolTableRecord
100
AcDbLayerTableRecord
  2
Dzialki
 70
0
420
0
  6
L_0_02
370
18
390
10
  0
LAYER
  5
16
100
AcDbSymbolTableRecord
100
AcDbLayerTableRecord
  2
EGB_Budynek
 70
0
420
657673
  6
CONTINUOUS
370
35
390
10
  0
LAYER
  5
17
100
AcDbSymbolTableRecord
100
AcDbLayerTableRecord
  2
EGB_DzialkaEwidencyjna
 70
0
420
0
  6
L_0_02
370
18
390
10
  0
LAYER
  5
18
100
AcDbSymbolTableRecord
100
AcDbLayerTableRecord
  2
GES_UrzadzeniaSiecElektroenergetyczna_P
 70
0
420
0
  6
CONTINUOUS
370
18
390
10
  0
LAYER
  5
19
100
AcDbSymbolTableRecord
100
AcDbLayerTableRecord
  2
Kontury
 70
0
420
32768
  6
L_0_51
370
18
390
10
  0
LAYER
  5
1A
100
AcDbSymbolTableRecord
100
AcDbLayerTableRecord
  2
Numery_dzialek
 70
0
420
0
  6
CONTINUOUS
370
18
390
10
  0
LAYER
  5
1B
100
AcDbSymbolTableRecord
100
AcDbLayerTableRecord
  2
Numery_konturow
 70
0
420
32768
  6
CONTINUOUS
370
18
390
10
  0
LAYER
  5
1C
100
AcDbSymbolTableRecord
100
AcDbLayerTableRecord
  2
Numery_uzytkow
 70
0
420
32768
  6
CONTINUOUS
370
13
390
10
  0
LAYER
  5
1D
100
AcDbSymbolTableRecord
100
AcDbLayerTableRecord
  2
opis_wstepny_proj
 70
0
420
0
  6
CONTINUOUS
370
18
390
10
  0
LAYER
  5
1E
100
AcDbSymbolTableRecord
100
AcDbLayerTableRecord
  2
po_podziale
 70
0
420
16711680
  6
CONTINUOUS
370
25
390
10
  0
LAYER
  5
1F
100
AcDbSymbolTableRecord
100
AcDbLayerTableRecord
  2
podgik_pkt
 70
0
420
0
  6
CONTINUOUS
370
18
390
10
  0
LAYER
  5
20
100
AcDbSymbolTableRecord
100
AcDbLayerTableRecord
  2
uwagi_SD
 70
0
 62
-5
420
255
  6
CONTINUOUS
370
18
390
10
  0
LAYER
  5
21
100
AcDbSymbolTableRecord
100
AcDbLayerTableRecord
  2
zakres
 70
0
 62
-150
420
1346800
  6
L_0_04
370
35
390
10
  0
ENDTAB
  0
TABLE
  2
STYLE
  5
22
100
AcDbSymbolTable
 70
2
  0
STYLE
  5
23
100
AcDbSymbolTableRecord
100
AcDbTextStyleTableRecord
  2
STANDARD
 70
0
 40
0.0
 41
1.0
 50
0.0
 71
0
  3
simplex.shx
  4

  0
STYLE
  5
24
100
AcDbSymbolTableRecord
100
AcDbTextStyleTableRecord
  2
STANDARD_ITALIC
 70
0
 40
0.0
 41
1.0
 50
15.0
 71
0
  3
simplex.shx
  4

  0
ENDTAB
  0
TABLE
  2
VIEW
  5
25
100
AcDbSymbolTable
 70
0
  0
ENDTAB
  0
TABLE
  2
UCS
  5
26
100
AcDbSymbolTable
 70
0
  0
ENDTAB
  0
TABLE
  2
APPID
  5
27
100
AcDbSymbolTable
 70
1
  0
APPID
  5
28
100
AcDbSymbolTableRecord
100
AcDbRegAppTableRecord
  2
ACAD
 70
0
  0
ENDTAB
  0
TABLE
  2
DIMSTYLE
  5
29
100
AcDbSymbolTable
 70
1
100
AcDbDimStyleTable
  0
DIMSTYLE
105
2A
100
AcDbSymbolTableRecord
100
AcDbDimStyleTableRecord
  2
Standard
 70
0
340
23
  0
ENDTAB
  0
TABLE
  2
BLOCK_RECORD
  5
2B
100
AcDbSymbolTable
 70
4
  0
BLOCK_RECORD
  5
2C
100
AcDbSymbolTableRecord
100
AcDbBlockTableRecord
  2
*Model_Space
340
2D
  0
BLOCK_RECORD
  5
2E
100
AcDbSymbolTableRecord
100
AcDbBlockTableRecord
  2
*Paper_Space
340
2F
  0
BLOCK_RECORD
  5
30
100
AcDbSymbolTableRecord
100
AcDbBlockTableRecord
  2
L_0_02_1
340
31
  0
BLOCK_RECORD
  5
32
100
AcDbSymbolTableRecord
100
AcDbBlockTableRecord
  2
L_0_02_2
340
33
  0
ENDTAB
  0
ENDSEC
  0
SECTION
  2
BLOCKS
  0
BLOCK
  5
34
100
AcDbEntity
  8
0
100
AcDbBlockBegin
  2
*Model_Space
 70
0
 10
0.0
 20
0.0
 30
0.0
  3
*Model_Space
  1

  0
ENDBLK
  5
35
100
AcDbEntity
  8
0
100
AcDbBlockEnd
  0
BLOCK
  5
36
100
AcDbEntity
 67
1
  8
0
100
AcDbBlockBegin
  2
*Paper_Space
 70
0
 10
0.0
 20
0.0
 30
0.0
  3
*Paper_Space
  1

  0
ENDBLK
  5
37
100
AcDbEntity
 67
1
  8
0
100
AcDbBlockEnd
  0
BLOCK
  5
31
100
AcDbEntity
  8
0
100
AcDbBlockBegin
 62
0
370
13
  2
L_0_02_1
 70
0
 10
0
 20
0
 30
0
  3
L_0_02_1
  0
POINT
  5
38
100
AcDbEntity
  8
0
100
AcDbPoint
 62
0
 10
0.0
 20
0.0
 30
0.00
  0
ENDBLK
  5
39
100
AcDbEntity
  8
0
100
AcDbBlockEnd
  0
BLOCK
  5
33
100
AcDbEntity
  8
0
100
AcDbBlockBegin
 62
0
370
13
  2
L_0_02_2
 70
0
 10
0
 20
0
 30
0
  3
L_0_02_2
  0
POINT
  5
3A
100
AcDbEntity
  8
0
100
AcDbPoint
 62
0
 10
-0.0
 20
-0.0
 30
0.00
  0
ENDBLK
  5
3B
100
AcDbEntity
  8
0
100
AcDbBlockEnd
  0
ENDSEC
  0
SECTION
  2
ENTITIES
  0
POLYLINE
  5
3C
100
AcDbEntity
  8
arkusz_A3
  6
CONTINUOUS
370
13
100
AcDb2dPolyline
 66
1
 70
129
  0
VERTEX
  5
3D
100
AcDbEntity
  8
arkusz_A3
100
AcDbVertex
100
AcDb2dVertex
 10
7574074.01373208035
 20
5721302.20676942449
  0
VERTEX
  5
3E
100
AcDbEntity
  8
arkusz_A3
100
AcDbVertex
100
AcDb2dVertex
 10
7574494.00273208041
 20
5721302.20676942449
  0
VERTEX
  5
3F
100
AcDbEntity
  8
arkusz_A3
100
AcDbVertex
100
AcDb2dVertex
 10
7574494.00273208041
 20
5721005.23843609076
  0
VERTEX
  5
40
100
AcDbEntity
  8
arkusz_A3
100
AcDbVertex
100
AcDb2dVertex
 10
7574074.01373208035
 20
5721005.23843609076
  0
SEQEND
  5
41
100
AcDbEntity
  8
arkusz_A3
  0
INSERT
  5
42
100
AcDbEntity
  8
Dzialki
  6
CONTINUOUS
420
536870911
100
AcDbBlockReference
 66
0
  2
L_0_02_1
 10
7574090.30999999959
 20
5721173.59999999963
 41
1.00
 42
1.00
 43
1.00
 50
254.89
  0
INSERT
  5
43
100
AcDbEntity
  8
Dzialki
  6
CONTINUOUS
420
536870911
100
AcDbBlockReference
 66
0
  2
L_0_02_2
 10
7574082.03000000026
 20
5721142.94000000041
 41
1.00
 42
1.00
 43
1.00
 50
74.89
  0
MLINE
  5
44
100
AcDbEntity
  8
Dzialki
  6
L_0_02
420
536870911
370
18
100
AcDbMline
  2
L_0_02
340
7
 40
1.0
 70
1
 71
1
 72
2
 73
1
 10
7574090.30999999959
 20
5721173.59999999963
210
0.0
220
0.0
230
1.0
 11
7574090.30999999959
 21
5721173.59999999963
 12
-0.26071867878
 22
-0.965414817856
 13
0.965414817856
 23
-0.26071867878
 74
3
 41
0.0
 41
0.5
 41
31.258368974822
 75
0
 11
7574082.03000000026
 21
5721142.94000000041
 12
-0.26071867878
 22
-0.965414817856
 13
0.965414817856
 23
-0.26071867878
 74
0
 75
0
  0
INSERT
  5
45
100
AcDbEntity
  8
Dzialki
  6
CONTINUOUS
420
536870911
100
AcDbBlockReference
 66
0
  2
L_0_02_1
 10
7574456.08999999985
 20
5721026.4299999997
 41
1.00
 42
1.00
 43
1.00
 50
74.31
  0
INSERT
  5
46
100
AcDbEntity
  8
Dzialki
  6
CONTINUOUS
420
536870911
100
AcDbBlockReference
 66
0
  2
L_0_02_2
 10
7574467.49000000022
 20
5721067.00999999978
 41
1.00
 42
1.00
 43
1.00
 50
254.31
  0
MLINE
  5
47
100
AcDbEntity
  8
Dzialki
  6
L_0_02
420
536870911
370
18
100
AcDbMline
  2
L_0_02
340
7
 40
1.0
 70
1
 71
1
 72
2
 73
1
 10
7574456.08999999985
 20
5721026.4299999997
210
0.0
220
0.0
230
1.0
 11
7574456.08999999985
 21
5721026.4299999997
 12
0.270457008583
 22
0.96273205333
 13
-0.96273205333
 23
0.270457008583
 74
3
 41
0.0
 41
0.5
 41
41.650876622136
 75
0
 11
7574467.49000000022
 21
5721067.00999999978
 12
0.270457008583
 22
0.96273205333
 13
-0.96273205333
 23
0.270457008583
 74
0
 75
0
  0
INSERT
  5
48
100
AcDbEntity
  8
Dzialki
  6
CONTINUOUS
420
536870911
100
AcDbBlockReference
 66
0
  2
L_0_02_1
 10
7574480.09999999963
 20
5721111.83999999985
 41
1.00
 42
1.00
 43
1.00
 50
254.32
  0
INSERT
  5
49
100
AcDbEntity
  8
Dzialki
  6
CONTINUOUS
420
536870911
100
AcDbBlockReference
 66
0
  2
L_0_02_2
 10
7574474.99000000022
 20
5721093.63999999966
 41
1.00
 42
1.00
 43
1.00
 50
74.32
  0
MLINE
  5
4A
100
AcDbEntity
  8
Dzialki
  6
L_0_02
420
536870911
370
18
100
AcDbMline
  2
L_0_02
340
7
 40
1.0
 70
1
 71
1
 72
2
 73
1
 10
7574480.09999999963
 20
5721111.83999999985
210
0.0
220
0.0
230
1.0
 11
7574480.09999999963
 21
5721111.83999999985
 12
-0.270316609007
 22
-0.962771484255
 13
0.962771484255
 23
-0.270316609007
 74
3
 41
0.0
 41
0.5
 41
18.403758885489
 75
0
 11
7574474.99000000022
 21
5721093.63999999966
 12
-0.270316609007
 22
-0.962771484255
 13
0.962771484255
 23
-0.270316609007
 74
0
 75
0
  0
INSERT
  5
4B
100
AcDbEntity
  8
Dzialki
  6
CONTINUOUS
420
536870911
100
AcDbBlockReference
 66
0
  2
L_0_02_1
 10
7574474.99000000022
 20
5721093.63999999966
 41
1.00
 42
1.00
 43
1.00
 50
254.23
  0
INSERT
  5
4C
100
AcDbEntity
  8
Dzialki
  6
CONTINUOUS
420
536870911
100
AcDbBlockReference
 66
0
  2
L_0_02_2
 10
7574473.12000000011
 20
5721087.01999999862
 41
1.00
 42
1.00
 43
1.00
 50
74.23
  0
MLINE
  5
4D
100
AcDbEntity
  8
Dzialki
  6
L_0_02
420
536870911
370
18
100
AcDbMline
  2
L_0_02
340
7
 40
1.0
 70
1
 71
1
 72
2
 73
1
 10
7574474.99000000022
 20
5721093.63999999966
210
0.0
220
0.0
230
1.0
 11
7574474.99000000022
 21
5721093.63999999966
 12
-0.2718399446
 22
-0.96234247777
 13
0.96234247777
 23
-0.2718399446
 74
3
 41
0.0
 41
0.5
 41
6.379047900271
 75
0
 11
7574473.12000000011
 21
5721087.01999999862
 12
-0.2718399446
 22
-0.96234247777
 13
0.96234247777
 23
-0.2718399446
 74
0
 75
0
  0
INSERT
  5
4E
100
AcDbEntity
  8
Dzialki
  6
CONTINUOUS
420
536870911
100
AcDbBlockReference
 66
0
  2
L_0_02_1
 10
7574473.12000000011
 20
5721087.01999999862
 41
1.00
 42
1.00
 43
1.00
 50
254.34
  0
INSERT
  5
4F
100
AcDbEntity
  8
Dzialki
  6
CONTINUOUS
420
536870911
100
AcDbBlockReference
 66
0
  2
L_0_02_2
 10
7574469.33999999985
 20
5721073.54000000004
 41
1.00
 42
1.00
 43
1.00
 50
74.34
  0
MLINE
  5
50
100
AcDbEntity
  8
Dzialki
  6
L_0_02
420
536870911
370
18
100
AcDbMline
  2
L_0_02
340
7
 40
1.0
 70
1
 71
1
 72
2
 73
1
 10
7574473.12000000011
 20
5721087.01999999862
210
0.0
220
0.0
230
1.0
 11
7574473.12000000011
 21
5721087.01999999862
 12
-0.270000826578
 22
-0.96286009038
 13
0.96286009038
 23
-0.270000826578
 74
3
 41
0.0
 41
0.5
 41
13.499957141499
 75
0
 11
7574469.33999999985
 21
5721073.54000000004
 12
-0.270000826578
 22
-0.96286009038
 13
0.96286009038
 23
-0.270000826578
 74
0
 75
0
  0
INSERT
  5
51
100
AcDbEntity
  8
Dzialki
  6
CONTINUOUS
420
536870911
100
AcDbBlockReference
 66
0
  2
L_0_02_1
 10
7574469.33999999985
 20
5721073.54000000004
 41
1.00
 42
1.00
 43
1.00
 50
254.18
  0
INSERT
  5
52
100
AcDbEntity
  8
Dzialki
  6
CONTINUOUS
420
536870911
100
AcDbBlockReference
 66
0
  2
L_0_02_2
 10
7574467.49000000022
 20
5721067.00999999978
 41
1.00
 42
1.00
 43
1.00
 50
74.18
  0
MLINE
  5
53
100
AcDbEntity
  8
Dzialki
  6
L_0_02
420
536870911
370
18
100
AcDbMline
  2
L_0_02
340
7
 40
1.0
 70
1
 71
1
 72
2
 73
1
 10
7574469.33999999985
 20
5721073.54000000004
210
0.0
220
0.0
230
1.0
 11
7574469.33999999985
 21
5721073.54000000004
 12
-0.272579840441
 22
-0.962133166763
 13
0.962133166763
 23
-0.272579840441
 74
3
 41
0.0
 41
0.5
 41
6.287002283927
 75
0
 11
7574467.49000000022
 21
5721067.00999999978
 12
-0.272579840441
 22
-0.962133166763
 13
0.962133166763
 23
-0.272579840441
 74
0
 75
0
  0
INSERT
  5
54
100
AcDbEntity
  8
Dzialki
  6
CONTINUOUS
420
536870911
100
AcDbBlockReference
 66
0
  2
L_0_02_1
 10
7574097.37000000011
 20
5721199.70999999996
 41
1.00
 42
1.00
 43
1.00
 50
344.31
  0
INSERT
  5
55
100
AcDbEntity
  8
Dzialki
  6
CONTINUOUS
420
536870911
100
AcDbBlockReference
 66
0
  2
L_0_02_2
 10
7574474.99000000022
 20
5721093.63999999966
 41
1.00
 42
1.00
 43
1.00
 50
164.31
  0
MLINE
  5
56
100
AcDbEntity
  8
Dzialki
  6
L_0_02
420
536870911
370
18
100
AcDbMline
  2
L_0_02
340
7
 40
1.0
 70
1
 71
1
 72
2
 73
1
 10
7574097.37000000011
 20
5721199.70999999996
210
0.0
220
0.0
230
1.0
 11
7574097.37000000011
 21
5721199.70999999996
 12
0.962741007501
 22
-0.270425132848
 13
0.270425132848
 23
0.962741007501
 74
3
 41
0.0
 41
0.5
 41
391.734253093923
 75
0
 11
7574474.99000000022
 21
5721093.63999999966
 12
0.962741007501
 22
-0.270425132848
 13
0.270425132848
 23
0.962741007501
 74
0
 75
0
  0
INSERT
  5
57
100
AcDbEntity
  8
Dzialki
  6
CONTINUOUS
420
536870911
100
AcDbBlockReference
 66
0
  2
L_0_02_1
 10
7574101.98000000045
 20
5721216.76999999862
 41
1.00
 42
1.00
 43
1.00
 50
254.88
  0
INSERT
  5
58
100
AcDbEntity
  8
Dzialki
  6
CONTINUOUS
420
536870911
100
AcDbBlockReference
 66
0
  2
L_0_02_2
 10
7574097.37000000011
 20
5721199.70999999996
 41
1.00
 42
1.00
 43
1.00
 50
74.88
  0
MLINE
  5
59
100
AcDbEntity
  8
Dzialki
  6
L_0_02
420
536870911
370
18
100
AcDbMline
  2
L_0_02
340
7
 40
1.0
 70
1
 71
1
 72
2
 73
1
 10
7574101.98000000045
 20
5721216.76999999862
210
0.0
220
0.0
230
1.0
 11
7574101.98000000045
 21
5721216.76999999862
 12
-0.260866266845
 22
-0.965374948309
 13
0.965374948309
 23
-0.260866266845
 74
3
 41
0.0
 41
0.5
 41
17.171890107098
 75
0
 11
7574097.37000000011
 21
5721199.70999999996
 12
-0.260866266845
 22
-0.965374948309
 13
0.965374948309
 23
-0.260866266845
 74
0
 75
0
  0
INSERT
  5
5A
100
AcDbEntity
  8
Dzialki
  6
CONTINUOUS
420
536870911
100
AcDbBlockReference
 66
0
  2
L_0_02_1
 10
7574095.46999999974
 20
5721192.6799999997
 41
1.00
 42
1.00
 43
1.00
 50
344.37
  0
INSERT
  5
5B
100
AcDbEntity
  8
Dzialki
  6
CONTINUOUS
420
536870911
100
AcDbBlockReference
 66
0
  2
L_0_02_2
 10
7574473.12000000011
 20
5721087.01999999862
 41
1.00
 42
1.00
 43
1.00
 50
164.37
  0
MLINE
  5
5C
100
AcDbEntity
  8
Dzialki
  6
L_0_02
420
536870911
370
18
100
AcDbMline
  2
L_0_02
340
7
 40
1.0
 70
1
 71
1
 72
2
 73
1
 10
7574095.46999999974
 20
5721192.6799999997
210
0.0
220
0.0
230
1.0
 11
7574095.46999999974
 21
5721192.6799999997
 12
0.963018292343
 22
-0.269436019515
 13
0.269436019515
 23
0.963018292343
 74
3
 41
0.0
 41
0.5
 41
391.652467926073
 75
0
 11
7574473.12000000011
 21
5721087.01999999862
 12
0.963018292343
 22
-0.269436019515
 13
0.269436019515
 23
0.963018292343
 74
0
 75
0
  0
INSERT
  5
5D
100
AcDbEntity
  8
Dzialki
  6
CONTINUOUS
420
536870911
100
AcDbBlockReference
 66
0
  2
L_0_02_1
 10
7574097.37000000011
 20
5721199.70999999996
 41
1.00
 42
1.00
 43
1.00
 50
254.88
  0
INSERT
  5
5E
100
AcDbEntity
  8
Dzialki
  6
CONTINUOUS
420
536870911
100
AcDbBlockReference
 66
0
  2
L_0_02_2
 10
7574095.46999999974
 20
5721192.6799999997
 41
1.00
 42
1.00
 43
1.00
 50
74.88
  0
MLINE
  5
5F
100
AcDbEntity
  8
Dzialki
  6
L_0_02
420
536870911
370
18
100
AcDbMline
  2
L_0_02
340
7
 40
1.0
 70
1
 71
1
 72
2
 73
1
 10
7574097.37000000011
 20
5721199.70999999996
210
0.0
220
0.0
230
1.0
 11
7574097.37000000011
 21
5721199.70999999996
 12
-0.260909025181
 22
-0.965363393018
 13
0.965363393018
 23
-0.260909025181
 74
3
 41
0.0
 41
0.5
 41
6.782231801109
 75
0
 11
7574095.46999999974
 21
5721192.6799999997
 12
-0.260909025181
 22
-0.965363393018
 13
0.965363393018
 23
-0.260909025181
 74
0
 75
0
  0
INSERT
  5
60
100
AcDbEntity
  8
Dzialki
  6
CONTINUOUS
420
536870911
100
AcDbBlockReference
 66
0
  2
L_0_02_1
 10
7574469.33999999985
 20
5721073.54000000004
 41
1.00
 42
1.00
 43
1.00
 50
164.10
  0
INSERT
  5
61
100
AcDbEntity
  8
Dzialki
  6
CONTINUOUS
420
536870911
100
AcDbBlockReference
 66
0
  2
L_0_02_2
 10
7574092.29000000004
 20
5721180.91999999993
 41
1.00
 42
1.00
 43
1.00
 50
344.10
  0
MLINE
  5
62
100
AcDbEntity
  8
Dzialki
  6
L_0_02
420
536870911
370
18
100
AcDbMline
  2
L_0_02
340
7
 40
1.0
 70
1
 71
1
 72
2
 73
1
 10
7574469.33999999985
 20
5721073.54000000004
210
0.0
220
0.0
230
1.0
 11
7574469.33999999985
 21
5721073.54000000004
 12
-0.961758457331
 22
0.273899013786
 13
-0.273899013786
 23
-0.961758457331
 74
3
 41
0.0
 41
0.5
 41
391.542302436657
 75
0
 11
7574092.29000000004
 21
5721180.91999999993
 12
-0.961758457331
 22
0.273899013786
 13
-0.273899013786
 23
-0.961758457331
 74
0
 75
0
  0
INSERT
  5
63
100
AcDbEntity
  8
Dzialki
  6
CONTINUOUS
420
536870911
100
AcDbBlockReference
 66
0
  2
L_0_02_1
 10
7574092.29000000004
 20
5721180.91999999993
 41
1.00
 42
1.00
 43
1.00
 50
254.86
  0
INSERT
  5
64
100
AcDbEntity
  8
Dzialki
  6
CONTINUOUS
420
536870911
100
AcDbBlockReference
 66
0
  2
L_0_02_2
 10
7574090.30999999959
 20
5721173.59999999963
 41
1.00
 42
1.00
 43
1.00
 50
74.86
  0
MLINE
  5
65
100
AcDbEntity
  8
Dzialki
  6
L_0_02
420
536870911
370
18
100
AcDbMline
  2
L_0_02
340
7
 40
1.0
 70
1
 71
1
 72
2
 73
1
 10
7574092.29000000004
 20
5721180.91999999993
210
0.0
220
0.0
230
1.0
 11
7574092.29000000004
 21
5721180.91999999993
 12
-0.261108310167
 22
-0.965309510137
 13
0.965309510137
 23
-0.261108310167
 74
3
 41
0.0
 41
0.5
 41
7.083060068741
 75
0
 11
7574090.30999999959
 21
5721173.59999999963
 12
-0.261108310167
 22
-0.965309510137
 13
0.965309510137
 23
-0.261108310167
 74
0
 75
0
  0
INSERT
  5
66
100
AcDbEntity
  8
Dzialki
  6
CONTINUOUS
420
536870911
100
AcDbBlockReference
 66
0
  2
L_0_02_1
 10
7574095.46999999974
 20
5721192.6799999997
 41
1.00
 42
1.00
 43
1.00
 50
254.87
  0
INSERT
  5
67
100
AcDbEntity
  8
Dzialki
  6
CONTINUOUS
420
536870911
100
AcDbBlockReference
 66
0
  2
L_0_02_2
 10
7574092.29000000004
 20
5721180.91999999993
 41
1.00
 42
1.00
 43
1.00
 50
74.87
  0
MLINE
  5
68
100
AcDbEntity
  8
Dzialki
  6
L_0_02
420
536870911
370
18
100
AcDbMline
  2
L_0_02
340
7
 40
1.0
 70
1
 71
1
 72
2
 73
1
 10
7574095.46999999974
 20
5721192.6799999997
210
0.0
220
0.0
230
1.0
 11
7574095.46999999974
 21
5721192.6799999997
 12
-0.261033073778
 22
-0.965329857818
 13
0.965329857818
 23
-0.261033073778
 74
3
 41
0.0
 41
0.5
 41
11.682364302255
 75
0
 11
7574092.29000000004
 21
5721180.91999999993
 12
-0.261033073778
 22
-0.965329857818
 13
0.965329857818
 23
-0.261033073778
 74
0
 75
0
  0
INSERT
  5
69
100
AcDbEntity
  8
Dzialki
  6
CONTINUOUS
100
AcDbBlockReference
 66
0
  2
L_0_02_1
 10
7574090.30999999959
 20
5721173.59999999963
 41
1.00
 42
1.00
 43
1.00
 50
344.22
  0
INSERT
  5
6A
100
AcDbEntity
  8
Dzialki
  6
CONTINUOUS
100
AcDbBlockReference
 66
0
  2
L_0_02_2
 10
7574467.49000000022
 20
5721067.00999999978
 41
1.00
 42
1.00
 43
1.00
 50
164.22
  0
MLINE
  5
6B
100
AcDbEntity
  8
Dzialki
  6
L_0_02
370
18
100
AcDbMline
  2
L_0_02
340
7
 40
1.0
 70
1
 71
1
 72
2
 73
1
 10
7574090.30999999959
 20
5721173.59999999963
210
0.0
220
0.0
230
1.0
 11
7574090.30999999959
 21
5721173.59999999963
 12
0.962312306103
 22
-0.271946732879
 13
0.271946732879
 23
0.962312306103
 74
3
 41
0.0
 41
0.5
 41
391.451757873907
 75
0
 11
7574467.49000000022
 21
5721067.00999999978
 12
0.962312306103
 22
-0.271946732879
 13
0.271946732879
 23
0.962312306103
 74
0
 75
0
  0
HATCH
  5
6C
100
AcDbEntity
  8
Dzialki
  6
CONTINUOUS
420
16776960
370
18
100
AcDbHatch
 10
0.0
 20
0.0
 30
0.0
210
-0.0
220
-0.0
230
1.0
  2
SOLID
 70
1
 71
1
 91
1
 92
3
 72
0
 73
1
 93
4
 10
7574474.99000000022
 20
5721093.63999999966
 10
7574097.37000000011
 20
5721199.70999999996
 10
7574101.98000000045
 20
5721216.76999999955
 10
7574480.09999999963
 20
5721111.83999999985
 97
0
 75
0
 76
1
 98
0
  0
INSERT
  5
6D
100
AcDbEntity
  8
Dzialki
  6
CONTINUOUS
100
AcDbBlockReference
 66
0
  2
L_0_02_1
 10
7574474.99000000022
 20
5721093.63999999966
 41
1.00
 42
1.00
 43
1.00
 50
164.31
  0
INSERT
  5
6E
100
AcDbEntity
  8
Dzialki
  6
CONTINUOUS
100
AcDbBlockReference
 66
0
  2
L_0_02_2
 10
7574097.37000000011
 20
5721199.70999999996
 41
1.00
 42
1.00
 43
1.00
 50
344.31
  0
INSERT
  5
6F
100
AcDbEntity
  8
Dzialki
  6
CONTINUOUS
100
AcDbBlockReference
 66
0
  2
L_0_02_1
 10
7574097.37000000011
 20
5721199.70999999996
 41
1.00
 42
1.00
 43
1.00
 50
74.88
  0
INSERT
  5
70
100
AcDbEntity
  8
Dzialki
  6
CONTINUOUS
100
AcDbBlockReference
 66
0
  2
L_0_02_2
 10
7574101.98000000045
 20
5721216.76999999955
 41
1.00
 42
1.00
 43
1.00
 50
254.88
  0
INSERT
  5
71
100
AcDbEntity
  8
Dzialki
  6
CONTINUOUS
100
AcDbBlockReference
 66
0
  2
L_0_02_1
 10
7574101.98000000045
 20
5721216.76999999955
 41
1.00
 42
1.00
 43
1.00
 50
344.49
  0
INSERT
  5
72
100
AcDbEntity
  8
Dzialki
  6
CONTINUOUS
100
AcDbBlockReference
 66
0
  2
L_0_02_2
 10
7574480.09999999963
 20
5721111.83999999985
 41
1.00
 42
1.00
 43
1.00
 50
164.49
  0
INSERT
  5
73
100
AcDbEntity
  8
Dzialki
  6
CONTINUOUS
100
AcDbBlockReference
 66
0
  2
L_0_02_1
 10
7574480.09999999963
 20
5721111.83999999985
 41
1.00
 42
1.00
 43
1.00
 50
254.32
  0
INSERT
  5
74
100
AcDbEntity
  8
Dzialki
  6
CONTINUOUS
100
AcDbBlockReference
 66
0
  2
L_0_02_2
 10
7574474.99000000022
 20
5721093.63999999966
 41
1.00
 42
1.00
 43
1.00
 50
74.32
  0
MLINE
  5
75
100
AcDbEntity
  8
Dzialki
  6
L_0_02
370
18
100
AcDbMline
  2
L_0_02
340
7
 40
1.0
 70
1
 71
3
 72
4
 73
1
 10
7574474.99000000022
 20
5721093.63999999966
210
0.0
220
0.0
230
1.0
 11
7574474.99000000022
 21
5721093.63999999966
 12
-0.962741007501
 22
0.270425132848
 13
0.4895903946
 23
-0.871952547743
 74
3
 41
0.0
 41
0.5
 41
391.734253093923
 75
0
 11
7574097.37000000011
 21
5721199.70999999996
 12
0.260866266832
 22
0.965374948312
 13
-0.869542494993
 23
-0.493858126795
 74
3
 41
0.0
 41
0.5
 41
17.171890107997
 75
0
 11
7574101.98000000045
 21
5721216.76999999955
 12
0.963585786197
 22
-0.267399387881
 13
-0.495223334935
 23
0.868765704051
 74
3
 41
0.0
 41
0.5
 41
391.909275246289
 75
0
 11
7574480.09999999963
 21
5721111.83999999985
 12
-0.270316609007
 22
-0.962771484255
 13
0.871182457287
 23
0.49095939355
 74
3
 41
0.0
 41
0.5
 41
18.403758885489
 75
0
  0
POLYLINE
  5
76
100
AcDbEntity
  8
Kontury
  6
L_0_51
370
18
100
AcDb2dPolyline
 66
1
 70
128
  0
VERTEX
  5
77
100
AcDbEntity
  8
Kontury
100
AcDbVertex
100
AcDb2dVertex
 10
7574480.09999999963
 20
5721111.83999999985
  0
VERTEX
  5
78
100
AcDbEntity
  8
Kontury
100
AcDbVertex
100
AcDb2dVertex
 10
7574474.99000000022
 20
5721093.63999999966
  0
SEQEND
  5
79
100
AcDbEntity
  8
Kontury
  0
POLYLINE
  5
7A
100
AcDbEntity
  8
Kontury
  6
L_0_51
370
18
100
AcDb2dPolyline
 66
1
 70
128
  0
VERTEX
  5
7B
100
AcDbEntity
  8
Kontury
100
AcDbVertex
100
AcDb2dVertex
 10
7574474.99000000022
 20
5721093.63999999966
  0
VERTEX
  5
7C
100
AcDbEntity
  8
Kontury
100
AcDbVertex
100
AcDb2dVertex
 10
7574473.12000000011
 20
5721087.01999999862
  0
SEQEND
  5
7D
100
AcDbEntity
  8
Kontury
  0
POLYLINE
  5
7E
100
AcDbEntity
  8
Kontury
  6
L_0_51
370
18
100
AcDb2dPolyline
 66
1
 70
128
  0
VERTEX
  5
7F
100
AcDbEntity
  8
Kontury
100
AcDbVertex
100
AcDb2dVertex
 10
7574473.12000000011
 20
5721087.01999999862
  0
VERTEX
  5
80
100
AcDbEntity
  8
Kontury
100
AcDbVertex
100
AcDb2dVertex
 10
7574469.33999999985
 20
5721073.54000000004
  0
SEQEND
  5
81
100
AcDbEntity
  8
Kontury
  0
POLYLINE
  5
82
100
AcDbEntity
  8
Kontury
  6
L_0_51
370
18
100
AcDb2dPolyline
 66
1
 70
128
  0
VERTEX
  5
83
100
AcDbEntity
  8
Kontury
100
AcDbVertex
100
AcDb2dVertex
 10
7574469.33999999985
 20
5721073.54000000004
  0
VERTEX
  5
84
100
AcDbEntity
  8
Kontury
100
AcDbVertex
100
AcDb2dVertex
 10
7574467.49000000022
 20
5721067.00999999978
  0
SEQEND
  5
85
100
AcDbEntity
  8
Kontury
  0
POLYLINE
  5
86
100
AcDbEntity
  8
Kontury
  6
L_0_51
370
18
100
AcDb2dPolyline
 66
1
 70
128
  0
VERTEX
  5
87
100
AcDbEntity
  8
Kontury
100
AcDbVertex
100
AcDb2dVertex
 10
7574467.49000000022
 20
5721067.00999999978
  0
VERTEX
  5
88
100
AcDbEntity
  8
Kontury
100
AcDbVertex
100
AcDb2dVertex
 10
7574456.08999999985
 20
5721026.4299999997
  0
SEQEND
  5
89
100
AcDbEntity
  8
Kontury
  0
POLYLINE
  5
8A
100
AcDbEntity
  8
Kontury
  6
L_0_51
370
18
100
AcDb2dPolyline
 66
1
 70
128
  0
VERTEX
  5
8B
100
AcDbEntity
  8
Kontury
100
AcDbVertex
100
AcDb2dVertex
 10
7574087.05999999959
 20
5721161.55999999959
  0
VERTEX
  5
8C
100
AcDbEntity
  8
Kontury
100
AcDbVertex
100
AcDb2dVertex
 10
7574090.30999999959
 20
5721173.59999999963
  0
SEQEND
  5
8D
100
AcDbEntity
  8
Kontury
  0
POLYLINE
  5
8E
100
AcDbEntity
  8
Kontury
  6
L_0_51
370
18
100
AcDb2dPolyline
 66
1
 70
128
  0
VERTEX
  5
8F
100
AcDbEntity
  8
Kontury
100
AcDbVertex
100
AcDb2dVertex
 10
7574090.30999999959
 20
5721173.59999999963
  0
VERTEX
  5
90
100
AcDbEntity
  8
Kontury
100
AcDbVertex
100
AcDb2dVertex
 10
7574092.29000000004
 20
5721180.91999999993
  0
SEQEND
  5
91
100
AcDbEntity
  8
Kontury
  0
POLYLINE
  5
92
100
AcDbEntity
  8
Kontury
  6
L_0_51
370
18
100
AcDb2dPolyline
 66
1
 70
128
  0
VERTEX
  5
93
100
AcDbEntity
  8
Kontury
100
AcDbVertex
100
AcDb2dVertex
 10
7574092.29000000004
 20
5721180.91999999993
  0
VERTEX
  5
94
100
AcDbEntity
  8
Kontury
100
AcDbVertex
100
AcDb2dVertex
 10
7574095.46999999974
 20
5721192.6799999997
  0
SEQEND
  5
95
100
AcDbEntity
  8
Kontury
  0
POLYLINE
  5
96
100
AcDbEntity
  8
Kontury
  6
L_0_51
370
18
100
AcDb2dPolyline
 66
1
 70
128
  0
VERTEX
  5
97
100
AcDbEntity
  8
Kontury
100
AcDbVertex
100
AcDb2dVertex
 10
7574095.46999999974
 20
5721192.6799999997
  0
VERTEX
  5
98
100
AcDbEntity
  8
Kontury
100
AcDbVertex
100
AcDb2dVertex
 10
7574097.37000000011
 20
5721199.70999999996
  0
SEQEND
  5
99
100
AcDbEntity
  8
Kontury
  0
POLYLINE
  5
9A
100
AcDbEntity
  8
Kontury
  6
L_0_51
370
18
100
AcDb2dPolyline
 66
1
 70
128
  0
VERTEX
  5
9B
100
AcDbEntity
  8
Kontury
100
AcDbVertex
100
AcDb2dVertex
 10
7574097.37000000011
 20
5721199.70999999996
  0
VERTEX
  5
9C
100
AcDbEntity
  8
Kontury
100
AcDbVertex
100
AcDb2dVertex
 10
7574101.98000000045
 20
5721216.76999999862
  0
SEQEND
  5
9D
100
AcDbEntity
  8
Kontury
  0
POLYLINE
  5
9E
100
AcDbEntity
  8
Kontury
  6
ByLayer
370
18
100
AcDb2dPolyline
 66
1
 70
128
  0
VERTEX
  5
9F
100
AcDbEntity
  8
Kontury
100
AcDbVertex
100
AcDb2dVertex
 10
7574311.54999999981
 20
5721090.91999999993
  0
VERTEX
  5
A0
100
AcDbEntity
  8
Kontury
100
AcDbVertex
100
AcDb2dVertex
 10
7574314.08418212738
 20
5721192.00039656833
  0
SEQEND
  5
A1
100
AcDbEntity
  8
Kontury
  0
POLYLINE
  5
A2
100
AcDbEntity
  8
Kontury
  6
ByLayer
370
18
100
AcDb2dPolyline
 66
1
 70
128
  0
VERTEX
  5
A3
100
AcDbEntity
  8
Kontury
100
AcDbVertex
100
AcDb2dVertex
 10
7574338.78000000026
 20
5721081.88999999966
  0
VERTEX
  5
A4
100
AcDbEntity
  8
Kontury
100
AcDbVertex
100
AcDb2dVertex
 10
7574399.90973437764
 20
5721174.55744567979
  0
SEQEND
  5
A5
100
AcDbEntity
  8
Kontury
  0
POLYLINE
  5
A6
100
AcDbEntity
  8
Kontury
  6
ByLayer
370
18
100
AcDb2dPolyline
 66
1
 70
128
  0
VERTEX
  5
A7
100
AcDbEntity
  8
Kontury
100
AcDbVertex
100
AcDb2dVertex
 10
7574405.31104555912
 20
5721053.84076256957
  0
VERTEX
  5
A8
100
AcDbEntity
  8
Kontury
100
AcDbVertex
100
AcDb2dVertex
 10
7574460.49190255534
 20
5721163.30979002267
  0
SEQEND
  5
A9
100
AcDbEntity
  8
Kontury
  0
POLYLINE
  5
AA
100
AcDbEntity
  8
po_podziale
  6
CONTINUOUS
370
25
100
AcDb2dPolyline
 66
1
 70
128
  0
VERTEX
  5
AB
100
AcDbEntity
  8
po_podziale
100
AcDbVertex
100
AcDb2dVertex
 10
7574471.44000000041
 20
5721081.00999999978
  0
VERTEX
  5
AC
100
AcDbEntity
  8
po_podziale
100
AcDbVertex
100
AcDb2dVertex
 10
7574094.31611124612
 20
5721188.41278876178
  0
SEQEND
  5
AD
100
AcDbEntity
  8
po_podziale
  0
HATCH
  5
AE
100
AcDbEntity
  8
uwagi_SD
  6
CONTINUOUS
420
16776960
370
18
100
AcDbHatch
 10
0.0
 20
0.0
 30
0.0
210
-0.0
220
-0.0
230
1.0
  2
SOLID
 70
1
 71
1
 91
1
 92
3
 72
0
 73
1
 93
4
 10
7574474.99000000022
 20
5721093.63999999966
 10
7574473.12000000011
 20
5721087.01999999955
 10
7574095.46999999974
 20
5721192.6799999997
 10
7574097.37000000011
 20
5721199.70999999996
 97
0
 75
0
 76
1
 98
0
  0
POLYLINE
  5
AF
100
AcDbEntity
  8
uwagi_SD
  6
CONTINUOUS
370
18
100
AcDb2dPolyline
 66
1
 70
129
  0
VERTEX
  5
B0
100
AcDbEntity
  8
uwagi_SD
100
AcDbVertex
100
AcDb2dVertex
 10
7574474.99000000022
 20
5721093.63999999966
  0
VERTEX
  5
B1
100
AcDbEntity
  8
uwagi_SD
100
AcDbVertex
100
AcDb2dVertex
 10
7574473.12000000011
 20
5721087.01999999955
  0
VERTEX
  5
B2
100
AcDbEntity
  8
uwagi_SD
100
AcDbVertex
100
AcDb2dVertex
 10
7574095.46999999974
 20
5721192.6799999997
  0
VERTEX
  5
B3
100
AcDbEntity
  8
uwagi_SD
100
AcDbVertex
100
AcDb2dVertex
 10
7574097.37000000011
 20
5721199.70999999996
  0
SEQEND
  5
B4
100
AcDbEntity
  8
uwagi_SD
  0
HATCH
  5
B5
100
AcDbEntity
  8
uwagi_SD
  6
CONTINUOUS
420
65280
370
18
100
AcDbHatch
 10
0.0
 20
0.0
 30
0.0
210
-0.0
220
-0.0
230
1.0
  2
SOLID
 70
1
 71
1
 91
1
 92
3
 72
0
 73
1
 93
4
 10
7574469.33999999985
 20
5721073.54000000004
 10
7574467.49000000022
 20
5721067.00999999978
 10
7574090.30999999959
 20
5721173.59999999963
 10
7574092.29000000004
 20
5721180.91999999993
 97
0
 75
0
 76
1
 98
0
  0
POLYLINE
  5
B6
100
AcDbEntity
  8
uwagi_SD
  6
CONTINUOUS
370
18
100
AcDb2dPolyline
 66
1
 70
129
  0
VERTEX
  5
B7
100
AcDbEntity
  8
uwagi_SD
100
AcDbVertex
100
AcDb2dVertex
 10
7574469.33999999985
 20
5721073.54000000004
  0
VERTEX
  5
B8
100
AcDbEntity
  8
uwagi_SD
100
AcDbVertex
100
AcDb2dVertex
 10
7574467.49000000022
 20
5721067.00999999978
  0
VERTEX
  5
B9
100
AcDbEntity
  8
uwagi_SD
100
AcDbVertex
100
AcDb2dVertex
 10
7574090.30999999959
 20
5721173.59999999963
  0
VERTEX
  5
BA
100
AcDbEntity
  8
uwagi_SD
100
AcDbVertex
100
AcDb2dVertex
 10
7574092.29000000004
 20
5721180.91999999993
  0
SEQEND
  5
BB
100
AcDbEntity
  8
uwagi_SD
  0
HATCH
  5
BC
100
AcDbEntity
  8
uwagi_SD
  6
CONTINUOUS
420
65280
370
18
100
AcDbHatch
 10
0.0
 20
0.0
 30
0.0
210
-0.0
220
-0.0
230
1.0
  2
SOLID
 70
1
 71
1
 91
1
 92
3
 72
0
 73
1
 93
4
 10
7574471.44000000041
 20
5721081.00999999978
 10
7574469.33999999985
 20
5721073.54000000004
 10
7574092.29000000004
 20
5721180.91999999993
 10
7574094.3200000003
 20
5721188.41000000015
 97
0
 75
0
 76
1
 98
0
  0
POLYLINE
  5
BD
100
AcDbEntity
  8
uwagi_SD
  6
CONTINUOUS
370
18
100
AcDb2dPolyline
 66
1
 70
129
  0
VERTEX
  5
BE
100
AcDbEntity
  8
uwagi_SD
100
AcDbVertex
100
AcDb2dVertex
 10
7574471.44000000041
 20
5721081.00999999978
  0
VERTEX
  5
BF
100
AcDbEntity
  8
uwagi_SD
100
AcDbVertex
100
AcDb2dVertex
 10
7574469.33999999985
 20
5721073.54000000004
  0
VERTEX
  5
C0
100
AcDbEntity
  8
uwagi_SD
100
AcDbVertex
100
AcDb2dVertex
 10
7574092.29000000004
 20
5721180.91999999993
  0
VERTEX
  5
C1
100
AcDbEntity
  8
uwagi_SD
100
AcDbVertex
100
AcDb2dVertex
 10
7574094.3200000003
 20
5721188.41000000015
  0
SEQEND
  5
C2
100
AcDbEntity
  8
uwagi_SD
  0
HATCH
  5
C3
100
AcDbEntity
  8
uwagi_SD
  6
CONTINUOUS
420
16776960
370
18
100
AcDbHatch
 10
0.0
 20
0.0
 30
0.0
210
-0.0
220
-0.0
230
1.0
  2
SOLID
 70
1
 71
1
 91
1
 92
3
 72
0
 73
1
 93
4
 10
7574473.12000000011
 20
5721087.01999999955
 10
7574471.4355483735
 20
5721081.01301377453
 10
7574094.31611124612
 20
5721188.41278876178
 10
7574095.46999999974
 20
5721192.6799999997
 97
0
 75
0
 76
1
 98
0
  0
POLYLINE
  5
C4
100
AcDbEntity
  8
uwagi_SD
  6
CONTINUOUS
370
18
100
AcDb2dPolyline
 66
1
 70
129
  0
VERTEX
  5
C5
100
AcDbEntity
  8
uwagi_SD
100
AcDbVertex
100
AcDb2dVertex
 10
7574473.12000000011
 20
5721087.01999999955
  0
VERTEX
  5
C6
100
AcDbEntity
  8
uwagi_SD
100
AcDbVertex
100
AcDb2dVertex
 10
7574471.4355483735
 20
5721081.01301377453
  0
VERTEX
  5
C7
100
AcDbEntity
  8
uwagi_SD
100
AcDbVertex
100
AcDb2dVertex
 10
7574094.31611124612
 20
5721188.41278876178
  0
VERTEX
  5
C8
100
AcDbEntity
  8
uwagi_SD
100
AcDbVertex
100
AcDb2dVertex
 10
7574095.46999999974
 20
5721192.6799999997
  0
SEQEND
  5
C9
100
AcDbEntity
  8
uwagi_SD
  0
POLYLINE
  5
CA
100
AcDbEntity
  8
zakres
  6
ByLayer
370
35
100
AcDb2dPolyline
 66
1
 70
129
  0
VERTEX
  5
CB
100
AcDbEntity
  8
zakres
100
AcDbVertex
100
AcDb2dVertex
 10
7574477.33000000007
 20
5721097.58999999985
  0
VERTEX
  5
CC
100
AcDbEntity
  8
zakres
100
AcDbVertex
100
AcDb2dVertex
 10
7574467.37000000011
 20
5721059.88999999966
  0
VERTEX
  5
CD
100
AcDbEntity
  8
zakres
100
AcDbVertex
100
AcDb2dVertex
 10
7574086.90000000037
 20
5721168.19000000041
  0
VERTEX
  5
CE
100
AcDbEntity
  8
zakres
100
AcDbVertex
100
AcDb2dVertex
 10
7574096.1799999997
 20
5721204.1799999997
  0
SEQEND
  5
CF
100
AcDbEntity
  8
zakres
  0
POINT
  5
D0
100
AcDbEntity
  8
dzialka_podzial
100
AcDbPoint
 62
256
 10
7574094.31611124612
 20
5721188.41278876178
  0
POINT
  5
D1
100
AcDbEntity
  8
Dzialki
100
AcDbPoint
 62
256
 10
7574480.09999999963
 20
5721111.83999999985
  0
POINT
  5
D2
100
AcDbEntity
  8
Dzialki
100
AcDbPoint
 62
256
 10
7574101.98000000045
 20
5721216.76999999955
  0
POINT
  5
D3
100
AcDbEntity
  8
podgik_pkt
100
AcDbPoint
 62
256
 10
7574473.12000000011
 20
5721087.01999999955
  0
POINT
  5
D4
100
AcDbEntity
  8
podgik_pkt
100
AcDbPoint
 62
256
 10
7574474.99000000022
 20
5721093.63999999966
  0
POINT
  5
D5
100
AcDbEntity
  8
podgik_pkt
100
AcDbPoint
 62
256
 10
7574097.37000000011
 20
5721199.70999999996
  0
POINT
  5
D6
100
AcDbEntity
  8
podgik_pkt
100
AcDbPoint
 62
256
 10
7574095.46999999974
 20
5721192.6799999997
  0
POINT
  5
D7
100
AcDbEntity
  8
podgik_pkt
100
AcDbPoint
 62
256
 10
7574467.49000000022
 20
5721067.00999999978
  0
POINT
  5
D8
100
AcDbEntity
  8
podgik_pkt
100
AcDbPoint
 62
256
 10
7574469.33999999985
 20
5721073.54000000004
  0
POINT
  5
D9
100
AcDbEntity
  8
podgik_pkt
100
AcDbPoint
 62
256
 10
7574092.29000000004
 20
5721180.91999999993
  0
POINT
  5
DA
100
AcDbEntity
  8
podgik_pkt
100
AcDbPoint
 62
256
 10
7574090.30999999959
 20
5721173.59999999963
  0
POINT
  5
DB
100
AcDbEntity
  8
0
100
AcDbPoint
 62
256
 10
7574471.44000000041
 20
5721081.00999999978
  0
TEXT
  5
DC
100
AcDbEntity
  8
czolowki_nowe
370
18
100
AcDbText
 10
7574092.24968327861
 20
5721182.15384356864
 40
1.80
  1
-7.76-
 50
-285.20
 41
0.66
  7
STANDARD
 72
1
 11
7574093.53660395835
 21
5721184.60207459703
100
AcDbText
 73
1
  0
TEXT
  5
DD
100
AcDbEntity
  8
czolowki_nowe
370
18
100
AcDbText
 10
7574093.84406767879
 20
5721188.03200551961
 40
1.80
  1
-4.42-
 50
-285.10
 41
0.66
  7
STANDARD
 72
1
 11
7574095.12671343051
 21
5721190.48247891758
100
AcDbText
 73
1
  0
TEXT
  5
DE
100
AcDbEntity
  8
czolowki_nowe
370
18
100
AcDbText
 10
7574279.5163566051
 20
5721136.04248005804
 40
1.80
  1
-392.12-
 50
-15.90
 41
0.66
  7
STANDARD
 72
1
 11
7574282.81424978841
 21
5721134.47918208502
100
AcDbText
 73
1
  0
TEXT
  5
DF
100
AcDbEntity
  8
czolowki_nowe
370
18
100
AcDbText
 10
7574469.31280976813
 20
5721074.77314844541
 40
1.80
  1
-7.76-
 50
-285.70
 41
0.66
  7
STANDARD
 72
1
 11
7574470.62104601972
 21
5721077.21005589329
100
AcDbText
 73
1
  0
TEXT
  5
E0
100
AcDbEntity
  8
czolowki_nowe
370
18
100
AcDbText
 10
7574471.20717796125
 20
5721081.51127220504
 40
1.80
  1
-6.24-
 50
-285.60
 41
0.66
  7
STANDARD
 72
1
 11
7574472.51115901675
 21
5721083.9504592428
100
AcDbText
 73
1
  0
TEXT
  5
E1
100
AcDbEntity
  8
czolowki_stare
370
18
100
AcDbText
 10
7574280.92442589439
 20
5721141.16484987736
 40
1.80
  1
-392.15-
 50
-15.60
 41
0.66
  7
STANDARD
 72
1
 11
7574284.23045924306
 21
5721139.61884098314
100
AcDbText
 73
1
  0
TEXT
  5
E2
100
AcDbEntity
  8
czolowki_stare
370
18
100
AcDbText
 10
7574277.45135660376
 20
5721128.56248005852
 40
1.80
  1
-392.04-
 50
-15.90
 41
0.66
  7
STANDARD
 72
1
 11
7574280.74924978707
 21
5721126.99918208551
100
AcDbText
 73
1
  0
TEXT
  5
E3
100
AcDbEntity
  8
Dzialki
370
20
100
AcDbText
 10
7574286.2349999994
 20
5721153.20499999914
 40
2.00
  1
518/2
 50
0.00
 41
0.66
  7
STANDARD
 72
1
 11
7574288.7349999994
 21
5721155.20499999914
100
AcDbText
 73
3
  0
TEXT
  5
E4
100
AcDbEntity
  8
Numery_dzialek
420
536870911
370
20
100
AcDbText
 10
7574252.55999999586
 20
5721150.64999999758
 40
2.00
  1
14-519/1
 50
0.00
 41
0.66
  7
STANDARD
 72
0
 11
7574252.55999999586
 21
5721152.64999999758
100
AcDbText
 73
3
  0
TEXT
  5
E5
100
AcDbEntity
  8
Numery_dzialek
420
536870911
370
20
100
AcDbText
 10
7574240.27999999654
 20
5721131.89999999758
 40
2.00
  1
14-519/3
 50
0.00
 41
0.66
  7
STANDARD
 72
0
 11
7574240.27999999654
 21
5721133.89999999758
100
AcDbText
 73
3
  0
TEXT
  5
E6
100
AcDbEntity
  8
Numery_dzialek
370
20
100
AcDbText
 10
7574213.00999999605
 20
5721151.52999999747
 40
2.00
  1
%%U14-519/2
 50
0.00
 41
0.66
  7
STANDARD
 72
0
 11
7574213.00999999605
 21
5721153.52999999747
100
AcDbText
 73
3
  0
TEXT
  5
E7
100
AcDbEntity
  8
Numery_dzialek
420
536870911
370
20
100
AcDbText
 10
7574278.03471910302
 20
5721115.16759862285
 40
2.00
  1
14-520/1
 50
0.00
 41
0.66
  7
STANDARD
 72
0
 11
7574278.03471910302
 21
5721117.16759862285
100
AcDbText
 73
3
  0
TEXT
  5
E8
100
AcDbEntity
  8
Numery_dzialek
420
536870911
370
20
100
AcDbText
 10
7574473.95999999624
 20
5721079.41999999713
 40
2.00
  1
14-526
 50
0.00
 41
0.66
  7
STANDARD
 72
0
 11
7574473.95999999624
 21
5721081.41999999713
100
AcDbText
 73
3
  0
TEXT
  5
E9
100
AcDbEntity
  8
Numery_dzialek
420
536870911
370
20
100
AcDbText
 10
7574286.7395189302
 20
5721146.70392889623
 40
2.00
  1
14-518/2
 50
0.00
 41
0.66
  7
STANDARD
 72
0
 11
7574286.7395189302
 21
5721148.70392889623
100
AcDbText
 73
3
  0
TEXT
  5
EA
100
AcDbEntity
  8
Numery_dzialek
420
536870911
370
20
100
AcDbText
 10
7574076.25999999605
 20
5721184.0699999975
 40
2.00
  1
12-141/2
 50
0.00
 41
0.66
  7
STANDARD
 72
0
 11
7574076.25999999605
 21
5721186.0699999975
100
AcDbText
 73
3
  0
TEXT
  5
EB
100
AcDbEntity
  8
Numery_dzialek
370
20
100
AcDbText
 10
7574213.19999999832
 20
5721148.29999999888
 40
2.00
  1
0.5032 [ha]
 50
0.00
 41
0.66
  7
STANDARD
 72
0
 11
7574213.19999999832
 21
5721150.29999999888
100
AcDbText
 73
3
  0
TEXT
  5
EC
100
AcDbEntity
  8
Numery_konturow
370
20
100
AcDbText
 10
7574438.39999999851
 20
5721087.0999999987
 40
2.00
  1
RIVb
 50
0.00
 41
0.66
  7
STANDARD
 72
0
 11
7574438.39999999851
 21
5721089.0999999987
100
AcDbText
 73
3
  0
TEXT
  5
ED
100
AcDbEntity
  8
Numery_konturow
370
20
100
AcDbText
 10
7574329.08964937367
 20
5721115.44294079673
 40
2.00
  1
RIIIb
 50
0.00
 41
0.66
  7
STANDARD
 72
0
 11
7574329.08964937367
 21
5721117.44294079673
100
AcDbText
 73
3
  0
TEXT
  5
EE
100
AcDbEntity
  8
Numery_konturow
370
20
100
AcDbText
 10
7574082.42999999598
 20
5721174.70999999717
 40
2.00
  1
RIIIb
 50
0.00
 41
0.66
  7
STANDARD
 72
0
 11
7574082.42999999598
 21
5721176.70999999717
100
AcDbText
 73
3
  0
TEXT
  5
EF
100
AcDbEntity
  8
Numery_konturow
370
20
100
AcDbText
 10
7574379.79564338736
 20
5721099.61415801663
 40
2.00
  1
RIVa
 50
0.00
 41
0.66
  7
STANDARD
 72
0
 11
7574379.79564338736
 21
5721101.61415801663
100
AcDbText
 73
3
  0
TEXT
  5
F0
100
AcDbEntity
  8
Numery_konturow
370
20
100
AcDbText
 10
7574196.99999999814
 20
5721154.0999999987
 40
2.00
  1
RIVa
 50
0.00
 41
0.66
  7
STANDARD
 72
0
 11
7574196.99999999814
 21
5721156.0999999987
100
AcDbText
 73
3
  0
TEXT
  5
F1
100
AcDbEntity
  8
Numery_uzytkow
370
20
100
AcDbText
 10
7574477.77999999654
 20
5721076.02999999747
 40
2.00
  1
dr
 50
0.00
 41
0.66
  7
STANDARD
 72
0
 11
7574477.77999999654
 21
5721078.02999999747
100
AcDbText
 73
3
  0
TEXT
  5
F2
100
AcDbEntity
  8
Numery_uzytkow
370
20
100
AcDbText
 10
7574302.15999999642
 20
5721130.59999999683
 40
2.00
  1
R
 50
0.00
 41
0.66
  7
STANDARD
 72
0
 11
7574302.15999999642
 21
5721132.59999999683
100
AcDbText
 73
3
  0
TEXT
  5
F3
100
AcDbEntity
  8
Numery_uzytkow
370
20
100
AcDbText
 10
7574085.9899999965
 20
5721178.72999999672
 40
2.00
  1
R
 50
0.00
 41
0.66
  7
STANDARD
 72
0
 11
7574085.9899999965
 21
5721180.72999999672
100
AcDbText
 73
3
  0
TEXT
  5
F4
100
AcDbEntity
  8
opis_wstepny_proj
370
35
100
AcDbText
 10
7574258.89999999851
 20
5721285.5999999987
 40
3.50
  1
SKALA 1:1000
 50
0.00
 41
0.66
  7
STANDARD
 72
0
 11
7574258.89999999851
 21
5721289.0999999987
100
AcDbText
 73
3
  0
TEXT
  5
F5
100
AcDbEntity
  8
opis_wstepny_proj
370
25
100
AcDbText
 10
7574446.99999999814
 20
5721294.29999999888
 40
2.50
  1
woj. lubelskie
 50
0.00
 41
0.66
  7
STANDARD
 72
0
 11
7574446.99999999814
 21
5721293.46666666586
100
AcDbText
 73
1
  0
TEXT
  5
F6
100
AcDbEntity
  8
opis_wstepny_proj
370
25
100
AcDbText
 10
7574446.99999999814
 20
5721290.54999999888
 40
2.50
  1
pow. rycki
 50
0.00
 41
0.66
  7
STANDARD
 72
0
 11
7574446.99999999814
 21
5721289.71666666586
100
AcDbText
 73
1
  0
TEXT
  5
F7
100
AcDbEntity
  8
opis_wstepny_proj
370
25
100
AcDbText
 10
7574446.99999999814
 20
5721286.79999999888
 40
2.50
  1
gm. 061603_2 Nowodwór
 50
0.00
 41
0.66
  7
STANDARD
 72
0
 11
7574446.99999999814
 21
5721285.96666666586
100
AcDbText
 73
1
  0
TEXT
  5
F8
100
AcDbEntity
  8
opis_wstepny_proj
370
25
100
AcDbText
 10
7574446.99999999814
 20
5721283.04999999888
 40
2.50
  1
obr. 0014 Wrzosówka
 50
0.00
 41
0.66
  7
STANDARD
 72
0
 11
7574446.99999999814
 21
5721282.21666666586
100
AcDbText
 73
1
  0
TEXT
  5
F9
100
AcDbEntity
  8
opis_wstepny_proj
370
25
100
AcDbText
 10
7574446.99999999814
 20
5721279.29999999888
 40
2.50
  1
Dzia³ka: 061603_2.0014.519/2
 50
0.00
 41
0.66
  7
STANDARD
 72
0
 11
7574446.99999999814
 21
5721278.46666666586
100
AcDbText
 73
1
  0
TEXT
  5
FA
100
AcDbEntity
  8
opis_wstepny_proj
370
25
100
AcDbText
 10
7574446.99999999814
 20
5721275.54999999888
 40
2.50
  1
Sekcja mapy: 7.160.30.17.3, .4
 50
0.00
 41
0.66
  7
STANDARD
 72
0
 11
7574446.99999999814
 21
5721274.71666666586
100
AcDbText
 73
1
  0
TEXT
  5
FB
100
AcDbEntity
  8
opis_wstepny_proj
370
25
100
AcDbText
 10
7574446.99999999814
 20
5721271.79999999888
 40
2.50
  1
Id zg³. GK.6640.450.2024
 50
0.00
 41
0.66
  7
STANDARD
 72
0
 11
7574446.99999999814
 21
5721270.96666666586
100
AcDbText
 73
1
  0
TEXT
  5
FC
100
AcDbEntity
  8
opis_wstepny_proj
370
25
100
AcDbText
 10
7574146.29999999795
 20
5721259.14999999851
 40
2.50
  1
STAN PRZED PODZIA£EM: 
 50
0.00
 41
0.66
  7
STANDARD
 72
0
 11
7574146.29999999795
 21
5721258.31666666549
100
AcDbText
 73
1
  0
TEXT
  5
FD
100
AcDbEntity
  8
opis_wstepny_proj
370
25
100
AcDbText
 10
7574146.29999999795
 20
5721255.39999999851
 40
2.50
  1
dz. 519/2 - 0.5132 [ha]
 50
0.00
 41
0.66
  7
STANDARD
 72
0
 11
7574146.29999999795
 21
5721254.56666666549
100
AcDbText
 73
1
  0
TEXT
  5
FE
100
AcDbEntity
  8
opis_wstepny_proj
370
25
100
AcDbText
 10
7574145.49999999814
 20
5721230.49999999907
 40
2.50
  1
dn. 20.05.2024 r.
 50
0.00
 41
0.66
  7
STANDARD
 72
0
 11
7574145.49999999814
 21
5721229.66666666605
100
AcDbText
 73
1
  0
TEXT
  5
FF
100
AcDbEntity
  8
opis_wstepny_proj
370
25
100
AcDbText
 10
7574145.49999999814
 20
5721226.74999999907
 40
2.50
  1
Edward Majek
 50
0.00
 41
0.66
  7
STANDARD
 72
0
 11
7574145.49999999814
 21
5721225.91666666605
100
AcDbText
 73
1
  0
TEXT
  5
100
100
AcDbEntity
  8
opis_wstepny_proj
370
25
100
AcDbText
 10
7574145.49999999814
 20
5721222.99999999907
 40
2.50
  1
upr. GUGiK nr 1345
 50
0.00
 41
0.66
  7
STANDARD
 72
0
 11
7574145.49999999814
 21
5721222.16666666605
100
AcDbText
 73
1
  0
TEXT
  5
101
100
AcDbEntity
  8
po_podziale
420
16711680
370
20
100
AcDbText
 10
7574231.1699999962
 20
5721153.0699999975
 40
2.00
  1
%%U14-519/4
 50
0.00
 41
0.66
  7
STANDARD
 72
0
 11
7574231.1699999962
 21
5721155.0699999975
100
AcDbText
 73
3
  0
TEXT
  5
102
100
AcDbEntity
  8
po_podziale
420
16711680
370
20
100
AcDbText
 10
7574227.78999999631
 20
5721145.12999999709
 40
2.00
  1
%%U14-519/5
 50
0.00
 41
0.66
  7
STANDARD
 72
0
 11
7574227.78999999631
 21
5721147.12999999709
100
AcDbText
 73
3
  0
TEXT
  5
103
100
AcDbEntity
  8
po_podziale
370
20
100
AcDbText
 10
7574231.67999999598
 20
5721150.0599999968
 40
2.00
  1
0.2089 ha
 50
0.00
 41
0.66
  7
STANDARD
 72
0
 11
7574231.67999999598
 21
5721152.0599999968
100
AcDbText
 73
3
  0
TEXT
  5
104
100
AcDbEntity
  8
po_podziale
370
20
100
AcDbText
 10
7574227.85999999661
 20
5721142.11999999732
 40
2.00
  1
0.3043 ha
 50
0.00
 41
0.66
  7
STANDARD
 72
0
 11
7574227.85999999661
 21
5721144.11999999732
100
AcDbText
 73
3
  0
TEXT
  5
105
100
AcDbEntity
  8
po_podziale
370
25
100
AcDbText
 10
7574145.89999999851
 20
5721246.39999999851
 40
2.50
  1
STAN PO PODZIALE: 
 50
0.00
 41
0.66
  7
STANDARD
 72
0
 11
7574145.89999999851
 21
5721245.56666666549
100
AcDbText
 73
1
  0
TEXT
  5
106
100
AcDbEntity
  8
po_podziale
370
25
100
AcDbText
 10
7574145.89999999851
 20
5721242.64999999851
 40
2.50
  1
dz. 519/3 - 0.2089 [ha]
 50
0.00
 41
0.66
  7
STANDARD
 72
0
 11
7574145.89999999851
 21
5721241.81666666549
100
AcDbText
 73
1
  0
TEXT
  5
107
100
AcDbEntity
  8
po_podziale
370
25
100
AcDbText
 10
7574145.89999999851
 20
5721238.89999999851
 40
2.50
  1
dz, 519/4 - 0.3043 [ha]
 50
0.00
 41
0.66
  7
STANDARD
 72
0
 11
7574145.89999999851
 21
5721238.06666666549
100
AcDbText
 73
1
  0
TEXT
  5
108
100
AcDbEntity
  8
uwagi_SD
370
18
100
AcDbText
 10
7574250.69999999832
 20
5721172.19999999926
 40
1.80
  1
HUBERT STANIS£AW DRÓZD
 50
0.00
 41
0.66
  7
STANDARD
 72
0
 11
7574250.69999999832
 21
5721173.99999999907
100
AcDbText
 73
3
  0
TEXT
  5
109
100
AcDbEntity
  8
uwagi_SD
370
18
100
AcDbText
 10
7574250.69999999832
 20
5721169.49999999907
 40
1.80
  1
AGNIESZKA DRÓZD
 50
0.00
 41
0.66
  7
STANDARD
 72
0
 11
7574250.69999999832
 21
5721171.29999999888
100
AcDbText
 73
3
  0
TEXT
  5
10A
100
AcDbEntity
  8
uwagi_SD
370
18
100
AcDbText
 10
7574250.69999999832
 20
5721166.79999999888
 40
1.80
  1
0.2778 ha
 50
0.00
 41
0.66
  7
STANDARD
 72
0
 11
7574250.69999999832
 21
5721168.5999999987
100
AcDbText
 73
3
  0
TEXT
  5
10B
100
AcDbEntity
  8
uwagi_SD
370
18
100
AcDbText
 10
7574251.28999999631
 20
5721137.33999999706
 40
1.80
  1
ZBIGNIEW WAC£AW GRZELAK
 50
0.00
 41
0.66
  7
STANDARD
 72
0
 11
7574251.28999999631
 21
5721139.13999999687
100
AcDbText
 73
3
  0
TEXT
  5
10C
100
AcDbEntity
  8
uwagi_SD
370
18
100
AcDbText
 10
7574251.28999999631
 20
5721134.63999999687
 40
1.80
  1
0.5132 ha
 50
0.00
 41
0.66
  7
STANDARD
 72
0
 11
7574251.28999999631
 21
5721136.43999999668
100
AcDbText
 73
3
  0
TEXT
  5
10D
100
AcDbEntity
  8
uwagi_SD
370
18
100
AcDbText
 10
7574243.39999999851
 20
5721112.79999999888
 40
1.80
  1
HUBERT STANIS£AW DRÓZD
 50
0.00
 41
0.66
  7
STANDARD
 72
0
 11
7574243.39999999851
 21
5721114.5999999987
100
AcDbText
 73
3
  0
TEXT
  5
10E
100
AcDbEntity
  8
uwagi_SD
370
18
100
AcDbText
 10
7574243.39999999851
 20
5721110.0999999987
 40
1.80
  1
AGNIESZKA DRÓZD
 50
0.00
 41
0.66
  7
STANDARD
 72
0
 11
7574243.39999999851
 21
5721111.89999999851
100
AcDbText
 73
3
  0
TEXT
  5
10F
100
AcDbEntity
  8
uwagi_SD
370
18
100
AcDbText
 10
7574243.39999999851
 20
5721107.39999999851
 40
1.80
  1
0.2820 ha
 50
0.00
 41
0.66
  7
STANDARD
 72
0
 11
7574243.39999999851
 21
5721109.19999999832
100
AcDbText
 73
3
  0
TEXT
  5
110
100
AcDbEntity
  8
uwagi_SD
370
18
100
AcDbText
 10
7574287.19999999832
 20
5721140.5999999987
 40
1.80
  1
0.5132-0.2778-0.0265= 0.2089 ha
 50
0.00
 41
0.66
  7
STANDARD
 72
0
 11
7574287.19999999832
 21
5721142.39999999851
100
AcDbText
 73
3
  0
POLYLINE
  5
111
100
AcDbEntity
  8
uwagi_SD
  6
CONTINUOUS
370
18
100
AcDb2dPolyline
 66
1
 70
128
  0
VERTEX
  5
112
100
AcDbEntity
  8
uwagi_SD
100
AcDbVertex
100
AcDb2dVertex
 10
7574276.89372632094
 20
5721136.88999999687
  0
VERTEX
  5
113
100
AcDbEntity
  8
uwagi_SD
100
AcDbVertex
100
AcDb2dVertex
 10
7574251.28999999631
 20
5721136.88999999687
  0
VERTEX
  5
114
100
AcDbEntity
  8
uwagi_SD
100
AcDbVertex
100
AcDb2dVertex
 10
7574235.19999999832
 20
5721145.79999999888
  0
SEQEND
  5
115
100
AcDbEntity
  8
uwagi_SD
  0
POLYLINE
  5
116
100
AcDbEntity
  8
uwagi_SD
  6
CONTINUOUS
370
18
100
AcDb2dPolyline
 66
1
 70
128
  0
VERTEX
  5
117
100
AcDbEntity
  8
uwagi_SD
100
AcDbVertex
100
AcDb2dVertex
 10
7574275.4763831012
 20
5721171.74999999907
  0
VERTEX
  5
118
100
AcDbEntity
  8
uwagi_SD
100
AcDbVertex
100
AcDb2dVertex
 10
7574250.69999999832
 20
5721171.74999999907
  0
VERTEX
  5
119
100
AcDbEntity
  8
uwagi_SD
100
AcDbVertex
100
AcDb2dVertex
 10
7574238.0999999987
 20
5721156.49999999907
  0
SEQEND
  5
11A
100
AcDbEntity
  8
uwagi_SD
  0
POLYLINE
  5
11B
100
AcDbEntity
  8
uwagi_SD
  6
CONTINUOUS
370
18
100
AcDb2dPolyline
 66
1
 70
128
  0
VERTEX
  5
11C
100
AcDbEntity
  8
uwagi_SD
100
AcDbVertex
100
AcDb2dVertex
 10
7574268.17638310138
 20
5721112.3499999987
  0
VERTEX
  5
11D
100
AcDbEntity
  8
uwagi_SD
100
AcDbVertex
100
AcDb2dVertex
 10
7574243.39999999851
 20
5721112.3499999987
  0
VERTEX
  5
11E
100
AcDbEntity
  8
uwagi_SD
100
AcDbVertex
100
AcDb2dVertex
 10
7574227.69999999832
 20
5721136.39999999851
  0
SEQEND
  5
11F
100
AcDbEntity
  8
uwagi_SD
  0
POLYLINE
  5
120
100
AcDbEntity
  8
uwagi_SD
  6
CONTINUOUS
370
18
100
AcDb2dPolyline
 66
1
 70
128
  0
VERTEX
  5
121
100
AcDbEntity
  8
uwagi_SD
100
AcDbVertex
100
AcDb2dVertex
 10
7574320.00689624995
 20
5721140.14999999851
  0
VERTEX
  5
122
100
AcDbEntity
  8
uwagi_SD
100
AcDbVertex
100
AcDb2dVertex
 10
7574287.19999999832
 20
5721140.14999999851
  0
VERTEX
  5
123
100
AcDbEntity
  8
uwagi_SD
100
AcDbVertex
100
AcDb2dVertex
 10
7574278.19999999832
 20
5721135.79999999888
  0
SEQEND
  5
124
100
AcDbEntity
  8
uwagi_SD
  0
ENDSEC
  0
SECTION
  2
OBJECTS
  0
DICTIONARY
  5
125
330
0
100
AcDbDictionary
280
0
281
1
  3
ACAD_GROUP
350
126
  3
ACAD_LAYOUT
350
127
  3
ACAD_MLINESTYLE
350
128
  3
ACAD_PLOTSETTINGS
350
129
  3
ACAD_PLOTSTYLENAME
350
12A
  0
DICTIONARY
  5
126
102
{ACAD_REACTORS
330
125
102
}
330
125
100
AcDbDictionary
280
0
281
1
  0
DICTIONARY
  5
127
102
{ACAD_REACTORS
330
125
102
}
330
125
100
AcDbDictionary
280
0
281
1
  3
Layout
350
2F
  3
Model
350
2D
  0
DICTIONARY
  5
128
102
{ACAD_REACTORS
330
125
102
}
330
125
100
AcDbDictionary
280
0
281
1
  3
Standard
350
12B
  3
L_0_02
350
7
  0
DICTIONARY
  5
129
102
{ACAD_REACTORS
330
125
102
}
330
125
100
AcDbDictionary
280
0
281
1
  0
ACDBDICTIONARYWDFLT
  5
12A
102
{ACAD_REACTORS
330
125
102
}
330
125
100
AcDbDictionary
281
1
  3
Normal
350
10
100
AcDbDictionaryWithDefault
340
10
  0
LAYOUT
  5
2F
100
AcDbPlotSettings
  1

  2

  4

  6

 40
0.0
 41
0.0
 42
0.0
 43
0.0
 44
0.0
 45
0.0
 46
0.0
 47
0.0
 48
0.0
 49
0.0
140
0.0
141
0.0
142
1.0
143
1.0
 70
688
 72
1
 73
0
 74
5
  7

 75
0
147
1.0
148
0.0
149
0.0
100
AcDbLayout
  1
Layout
 70
1
 71
1
 10
0.0
 20
0.0
 11
420.0
 21
297.0
 12
0.0
 22
0.0
 32
0.0
 14
100000000000000000000.0
 24
100000000000000000000.0
 34
100000000000000000000.0
 15
-100000000000000000000.0
 25
-100000000000000000000.0
 35
-100000000000000000000.0
146
0.0
 13
0.0
 23
0.0
 33
0.0
 16
1.0
 26
0.0
 36
0.0
 17
0.0
 27
1.0
 37
0.0
 76
0
330
2E
  0
LAYOUT
  5
2D
100
AcDbPlotSettings
  1

  2

  4

  6

 40
0.0
 41
0.0
 42
0.0
 43
0.0
 44
0.0
 45
0.0
 46
0.0
 47
0.0
 48
0.0
 49
0.0
140
0.0
141
0.0
142
1.0
143
1.0
 70
1712
 72
1
 73
0
 74
0
  7

 75
0
147
1.0
148
0.0
149
0.0
100
AcDbLayout
  1
Model
 70
1
 71
0
 10
0.0
 20
0.0
 11
12.0
 21
9.0
 12
0.0
 22
0.0
 32
0.0
 14
0.0
 24
0.0
 34
0.0
 15
0.0
 25
0.0
 35
0.0
146
0.0
 13
0.0
 23
0.0
 33
0.0
 16
1.0
 26
0.0
 36
0.0
 17
0.0
 27
1.0
 37
0.0
 76
0
330
2C
  0
MLINESTYLE
  5
12B
102
{ACAD_REACTORS
330
128
102
}
330
128
100
AcDbMlineStyle
  2
Standard
 70
0
  3

 62
256
 51
90.0
 52
90.0
  2
Standard
 71
2
 49
0.5
 62
256
  6
ByLayer
 49
-0.5
 62
256
  6
ByLayer
  0
MLINESTYLE
  5
7
100
AcDbMlineStyle
  2
L_0_02
 70
0
  3

 51
90.0
 52
90.0
 71
1
 49
0.0
 62
256
  6
CONTINUOUS
  0
ACDBPLACEHOLDER
  5
10
  0
ENDSEC
  0
EOF
