  0
SECTION
  2
HEADER
  9
$ACADVER
  1
AC1018
  9
$HANDSEED
  5
FFFFFF
  9
$EXTMAX
 10
7576581.38999999966
 20
5706720.50999999978
 30
1000000.00
  9
$EXTMIN
 10
7576482.50999999978
 20
5706316.59999999963
 30
0.00
  9
$LIMMIN
 10
7576482.50999999978
 20
5706316.59999999963
  9
$LIMMAX
 10
7576581.38999999966
 20
5706720.50999999978
  9
$DIMASZ
 40
2.5
  9
$DIMGAP
 40
0.625
  9
$INSUNITS
 70
6
  9
$MEASUREMENT
 70
1
  9
$DIMEXO
 40
0.625
  9
$DIMTXT
 40
2.5
  9
$DIMSTYLE
  2
Standard
  9
$PLIMMIN
 10
0.0
 20
0.0
  9
$PLIMMAX
 10
210.0
 20
297.0
  9
$DIMEXE
 40
1.25
  9
$TEXTSIZE
 40
2.5
  9
$TEXTSTYLE
  7
Standard
  9
$LWDISPLAY
290
1
  9
$TDCREATE
 40
45775.634553322
  9
$TDUCREATE
 40
45775.551219988
  9
$TDUPDATE
 40
45775.634553322
  9
$TDUUPDATE
 40
45775.551219988
  9
$TDINDWG
 40
0.0
  9
$TDUSRTIMER
 40
0.0
  9
$USRTIMER
 70
1
  0
ENDSEC
  0
SECTION
  2
CLASSES
  0
CLASS
  1
WIPEOUT
  2
AcDbWipeout
  3
WipeOut
 90
127
 91
1
280
0
281
1
  0
CLASS
  1
WIPEOUTVARIABLES
  2
AcDbWipeoutVariables
  3
WipeOut
 90
0
 91
1
280
0
281
0
  0
ENDSEC
  0
SECTION
  2
TABLES
  0
TABLE
  2
VPORT
  5
1
100
AcDbSymbolTable
 70
1
  0
VPORT
  5
2
100
AcDbSymbolTableRecord
100
AcDbViewportTableRecord
  2
*ACTIVE
 70
0
 10
0.0
 20
0.0
 11
1.0
 21
1.0
 12
7576531.95
 22
5706518.55
 13
0.0
 23
0.0
 14
1.0
 24
1.0
 15
0.0
 25
0.0
 16
0.0
 26
0.0
 36
1.0
 17
0.0
 27
0.0
 37
0.0
 40
403.91
 41
0.24
 42
50.0
 43
0.0
 44
0.0
 50
0.0
 51
0.0
 71
0
 72
100
 73
1
 74
1
 75
0
 76
0
 77
0
 78
0
  0
ENDTAB
  0
TABLE
  2
LTYPE
  5
3
100
AcDbSymbolTable
 70
3
  0
LTYPE
  5
4
100
AcDbSymbolTableRecord
100
AcDbLinetypeTableRecord
  2
ByBlock
 70
0
  3

 72
65
 73
0
 40
0.0
  0
LTYPE
  5
5
100
AcDbSymbolTableRecord
100
AcDbLinetypeTableRecord
  2
ByLayer
 70
0
  3

 72
65
 73
0
 40
0.0
  0
LTYPE
  5
6
100
AcDbSymbolTableRecord
100
AcDbLinetypeTableRecord
  2
CONTINUOUS
 70
0
  3
Solid line
 72
65
 73
0
 40
0.0
  0
LTYPE
  5
8
100
AcDbSymbolTableRecord
100
AcDbLinetypeTableRecord
  2
L_0_02
 70
0
  3
Dzialka_ewidencyjna (MLineStyle)
 72
65
 73
0
 40
0.0
  0
LTYPE
  5
9
100
AcDbSymbolTableRecord
100
AcDbLinetypeTableRecord
  2
L_0_03
 70
0
  3
Uzytek_gruntowy
 72
65
 73
2
 40
1.0
 49
0.5
 74
0
 49
-0.5
 74
0
  0
LTYPE
  5
A
100
AcDbSymbolTableRecord
100
AcDbLinetypeTableRecord
  2
L_0_04
 70
0
  3
Budynek_projektowany
 72
65
 73
2
 40
1.5
 49
1.0
 74
0
 49
-0.5
 74
0
  0
LTYPE
  5
B
100
AcDbSymbolTableRecord
100
AcDbLinetypeTableRecord
  2
L_0_06
 70
0
  3
Granica_konturu_klasyfikacyjnego_Krawedz_chodnika
 72
65
 73
2
 40
2.0
 49
1.5
 74
0
 49
-0.5
 74
0
  0
ENDTAB
  0
TABLE
  2
LAYER
  5
C
100
AcDbSymbolTable
 70
293
  0
LAYER
  5
D
100
AcDbSymbolTableRecord
100
AcDbLayerTableRecord
  2
0
 70
0
 62
7
  6
CONTINUOUS
370
18
390
E
  0
LAYER
  5
F
100
AcDbSymbolTableRecord
100
AcDbLayerTableRecord
  2
Dzialki
 70
0
 62
7
  6
CONTINUOUS
370
18
390
E
  0
LAYER
  5
10
100
AcDbSymbolTableRecord
100
AcDbLayerTableRecord
  2
EGBA
 70
0
 62
7
  6
CONTINUOUS
370
18
390
E
  0
LAYER
  5
11
100
AcDbSymbolTableRecord
100
AcDbLayerTableRecord
  2
EGBD
 70
0
 62
7
  6
CONTINUOUS
370
18
390
E
  0
LAYER
  5
12
100
AcDbSymbolTableRecord
100
AcDbLayerTableRecord
  2
EGBI
 70
0
 62
7
  6
CONTINUOUS
370
18
390
E
  0
LAYER
  5
13
100
AcDbSymbolTableRecord
100
AcDbLayerTableRecord
  2
EGBJ
 70
0
 62
7
  6
CONTINUOUS
370
18
390
E
  0
LAYER
  5
14
100
AcDbSymbolTableRecord
100
AcDbLayerTableRecord
  2
EGBL
 70
0
 62
7
  6
CONTINUOUS
370
18
390
E
  0
LAYER
  5
15
100
AcDbSymbolTableRecord
100
AcDbLayerTableRecord
  2
EGBN
 70
0
 62
7
  6
CONTINUOUS
370
13
390
E
  0
LAYER
  5
16
100
AcDbSymbolTableRecord
100
AcDbLayerTableRecord
  2
EGBO
 70
0
 62
7
  6
CONTINUOUS
370
18
390
E
  0
LAYER
  5
17
100
AcDbSymbolTableRecord
100
AcDbLayerTableRecord
  2
EGBO_P
 70
0
 62
7
  6
CONTINUOUS
370
18
390
E
  0
LAYER
  5
18
100
AcDbSymbolTableRecord
100
AcDbLayerTableRecord
  2
EGBP
 70
0
 62
7
  6
CONTINUOUS
370
18
390
E
  0
LAYER
  5
19
100
AcDbSymbolTableRecord
100
AcDbLayerTableRecord
  2
EGBR
 70
0
 62
7
  6
CONTINUOUS
370
18
390
E
  0
LAYER
  5
1A
100
AcDbSymbolTableRecord
100
AcDbLayerTableRecord
  2
EGBS
 70
0
 62
7
  6
CONTINUOUS
370
18
390
E
  0
LAYER
  5
1B
100
AcDbSymbolTableRecord
100
AcDbLayerTableRecord
  2
EGBT
 70
0
 62
7
  6
CONTINUOUS
370
18
390
E
  0
LAYER
  5
1C
100
AcDbSymbolTableRecord
100
AcDbLayerTableRecord
  2
EGBU
 70
0
 62
7
  6
CONTINUOUS
370
13
390
E
  0
LAYER
  5
1D
100
AcDbSymbolTableRecord
100
AcDbLayerTableRecord
  2
EGBW
 70
0
 62
7
  6
CONTINUOUS
370
18
390
E
  0
LAYER
  5
1E
100
AcDbSymbolTableRecord
100
AcDbLayerTableRecord
  2
EGBY
 70
0
 62
7
  6
CONTINUOUS
370
18
390
E
  0
LAYER
  5
1F
100
AcDbSymbolTableRecord
100
AcDbLayerTableRecord
  2
EGBZ
 70
0
 62
7
  6
CONTINUOUS
370
18
390
E
  0
LAYER
  5
20
100
AcDbSymbolTableRecord
100
AcDbLayerTableRecord
  2
EGB_AdresNieruchomosci
 70
0
 62
7
  6
CONTINUOUS
370
18
390
E
  0
LAYER
  5
21
100
AcDbSymbolTableRecord
100
AcDbLayerTableRecord
  2
EGB_BlokBudynku
 70
0
 62
7
  6
CONTINUOUS
370
18
390
E
  0
LAYER
  5
22
100
AcDbSymbolTableRecord
100
AcDbLayerTableRecord
  2
EGB_Budynek
 70
0
 62
7
  6
CONTINUOUS
370
50
390
E
  0
LAYER
  5
23
100
AcDbSymbolTableRecord
100
AcDbLayerTableRecord
  2
EGB_DzialkaEwidencyjna
 70
0
 62
7
  6
L_0_02
370
18
390
E
  0
LAYER
  5
24
100
AcDbSymbolTableRecord
100
AcDbLayerTableRecord
  2
EGB_JednostkaEwidencyjna
 70
0
 62
7
  6
CONTINUOUS
370
18
390
E
  0
LAYER
  5
25
100
AcDbSymbolTableRecord
100
AcDbLayerTableRecord
  2
EGB_Klasouzytek
 70
0
 62
96
  6
L_0_03
370
18
390
E
  0
LAYER
  5
26
100
AcDbSymbolTableRecord
100
AcDbLayerTableRecord
  2
EGB_KonturKlasyfikacyjny
 70
0
 62
82
  6
L_0_06
370
18
390
E
  0
LAYER
  5
27
100
AcDbSymbolTableRecord
100
AcDbLayerTableRecord
  2
EGB_KonturUzytkuGruntowego
 70
0
 62
96
  6
L_0_03
370
18
390
E
  0
LAYER
  5
28
100
AcDbSymbolTableRecord
100
AcDbLayerTableRecord
  2
EGB_ObiektTrwaleZwiazanyZBudynkiem
 70
0
 62
7
  6
CONTINUOUS
370
18
390
E
  0
LAYER
  5
29
100
AcDbSymbolTableRecord
100
AcDbLayerTableRecord
  2
EGB_ObiektTrwaleZwiazanyZBudynkiem_P
 70
0
 62
7
  6
CONTINUOUS
370
18
390
E
  0
LAYER
  5
2A
100
AcDbSymbolTableRecord
100
AcDbLayerTableRecord
  2
EGB_ObrebEwidencyjny
 70
0
 62
7
  6
CONTINUOUS
370
18
390
E
  0
LAYER
  5
2B
100
AcDbSymbolTableRecord
100
AcDbLayerTableRecord
  2
EGB_PunktGraniczny
 70
0
 62
7
  6
CONTINUOUS
370
18
390
E
  0
LAYER
  5
2C
100
AcDbSymbolTableRecord
100
AcDbLayerTableRecord
  2
EGDE
 70
0
 62
7
  6
CONTINUOUS
370
13
390
E
  0
LAYER
  5
2D
100
AcDbSymbolTableRecord
100
AcDbLayerTableRecord
  2
EGJE
 70
0
 62
7
  6
CONTINUOUS
370
13
390
E
  0
LAYER
  5
2E
100
AcDbSymbolTableRecord
100
AcDbLayerTableRecord
  2
EGKK
 70
0
 62
7
  6
CONTINUOUS
370
13
390
E
  0
LAYER
  5
2F
100
AcDbSymbolTableRecord
100
AcDbLayerTableRecord
  2
EGOE
 70
0
 62
7
  6
CONTINUOUS
370
13
390
E
  0
LAYER
  5
30
100
AcDbSymbolTableRecord
100
AcDbLayerTableRecord
  2
EGPG_N
 70
0
 62
7
  6
CONTINUOUS
370
13
390
E
  0
LAYER
  5
31
100
AcDbSymbolTableRecord
100
AcDbLayerTableRecord
  2
EGUG
 70
0
 62
7
  6
CONTINUOUS
370
13
390
E
  0
LAYER
  5
32
100
AcDbSymbolTableRecord
100
AcDbLayerTableRecord
  2
GES_InneUrzadzeniaTowarzyszace
 70
0
 62
7
  6
CONTINUOUS
370
18
390
E
  0
LAYER
  5
33
100
AcDbSymbolTableRecord
100
AcDbLayerTableRecord
  2
GES_InneUrzadzeniaTowarzyszace_Projektowane
 70
0
 62
7
  6
CONTINUOUS
370
18
390
E
  0
LAYER
  5
34
100
AcDbSymbolTableRecord
100
AcDbLayerTableRecord
  2
GES_InneUrzadzeniaTowarzyszace_P
 70
0
 62
7
  6
CONTINUOUS
370
18
390
E
  0
LAYER
  5
35
100
AcDbSymbolTableRecord
100
AcDbLayerTableRecord
  2
GES_InneUrzadzeniaTowarzyszace_P_Projektowane
 70
0
 62
7
  6
CONTINUOUS
370
18
390
E
  0
LAYER
  5
36
100
AcDbSymbolTableRecord
100
AcDbLayerTableRecord
  2
GES_PrzewodCieplowniczy
 70
0
 62
212
  6
CONTINUOUS
370
18
390
E
  0
LAYER
  5
37
100
AcDbSymbolTableRecord
100
AcDbLayerTableRecord
  2
GES_PrzewodCieplowniczy_Projektowany
 70
0
 62
212
  6
CONTINUOUS
370
18
390
E
  0
LAYER
  5
38
100
AcDbSymbolTableRecord
100
AcDbLayerTableRecord
  2
GES_PrzewodElektroenergetyczny
 70
0
 62
1
  6
CONTINUOUS
370
18
390
E
  0
LAYER
  5
39
100
AcDbSymbolTableRecord
100
AcDbLayerTableRecord
  2
GES_PrzewodElektroenergetyczny_Projektowany
 70
0
 62
1
  6
CONTINUOUS
370
18
390
E
  0
LAYER
  5
3A
100
AcDbSymbolTableRecord
100
AcDbLayerTableRecord
  2
GES_PrzewodGazowy
 70
0
 62
52
  6
CONTINUOUS
370
18
390
E
  0
LAYER
  5
3B
100
AcDbSymbolTableRecord
100
AcDbLayerTableRecord
  2
GES_PrzewodGazowy_Projektowany
 70
0
 62
52
  6
CONTINUOUS
370
18
390
E
  0
LAYER
  5
3C
100
AcDbSymbolTableRecord
100
AcDbLayerTableRecord
  2
GES_PrzewodKanalizacyjny
 70
0
 62
36
  6
CONTINUOUS
370
18
390
E
  0
LAYER
  5
3D
100
AcDbSymbolTableRecord
100
AcDbLayerTableRecord
  2
GES_PrzewodKanalizacyjny_Projektowany
 70
0
 62
36
  6
CONTINUOUS
370
18
390
E
  0
LAYER
  5
3E
100
AcDbSymbolTableRecord
100
AcDbLayerTableRecord
  2
GES_PrzewodNiezidentyfikowany
 70
0
 62
7
  6
CONTINUOUS
370
18
390
E
  0
LAYER
  5
3F
100
AcDbSymbolTableRecord
100
AcDbLayerTableRecord
  2
GES_PrzewodNiezidentyfikowany_Projektowany
 70
0
 62
7
  6
CONTINUOUS
370
18
390
E
  0
LAYER
  5
40
100
AcDbSymbolTableRecord
100
AcDbLayerTableRecord
  2
GES_PrzewodSpecjalny
 70
0
 62
7
  6
CONTINUOUS
370
18
390
E
  0
LAYER
  5
41
100
AcDbSymbolTableRecord
100
AcDbLayerTableRecord
  2
GES_PrzewodSpecjalny_Projektowany
 70
0
 62
7
  6
CONTINUOUS
370
18
390
E
  0
LAYER
  5
42
100
AcDbSymbolTableRecord
100
AcDbLayerTableRecord
  2
GES_PrzewodTelekomunikacyjny
 70
0
 62
30
  6
CONTINUOUS
370
18
390
E
  0
LAYER
  5
43
100
AcDbSymbolTableRecord
100
AcDbLayerTableRecord
  2
GES_PrzewodTelekomunikacyjny_Projektowany
 70
0
 62
30
  6
CONTINUOUS
370
18
390
E
  0
LAYER
  5
44
100
AcDbSymbolTableRecord
100
AcDbLayerTableRecord
  2
GES_PrzewodWodociagowy
 70
0
 62
5
  6
CONTINUOUS
370
18
390
E
  0
LAYER
  5
45
100
AcDbSymbolTableRecord
100
AcDbLayerTableRecord
  2
GES_PrzewodWodociagowy_Projektowany
 70
0
 62
5
  6
CONTINUOUS
370
18
390
E
  0
LAYER
  5
46
100
AcDbSymbolTableRecord
100
AcDbLayerTableRecord
  2
GES_Rzedna
 70
0
 62
7
  6
CONTINUOUS
370
18
390
E
  0
LAYER
  5
47
100
AcDbSymbolTableRecord
100
AcDbLayerTableRecord
  2
GES_UrzadzeniaSiecCieplownicza
 70
0
 62
7
  6
CONTINUOUS
370
18
390
E
  0
LAYER
  5
48
100
AcDbSymbolTableRecord
100
AcDbLayerTableRecord
  2
GES_UrzadzeniaSiecCieplownicza_Projektowane
 70
0
 62
212
  6
CONTINUOUS
370
18
390
E
  0
LAYER
  5
49
100
AcDbSymbolTableRecord
100
AcDbLayerTableRecord
  2
GES_UrzadzeniaSiecCieplownicza_P
 70
0
 62
7
  6
CONTINUOUS
370
18
390
E
  0
LAYER
  5
4A
100
AcDbSymbolTableRecord
100
AcDbLayerTableRecord
  2
GES_UrzadzeniaSiecCieplownicza_P_Projektowane
 70
0
 62
212
  6
CONTINUOUS
370
18
390
E
  0
LAYER
  5
4B
100
AcDbSymbolTableRecord
100
AcDbLayerTableRecord
  2
GES_UrzadzeniaSiecElektroenergetyczna
 70
0
 62
7
  6
CONTINUOUS
370
18
390
E
  0
LAYER
  5
4C
100
AcDbSymbolTableRecord
100
AcDbLayerTableRecord
  2
GES_UrzadzeniaSiecElektroenergetyczna_Projektowane
 70
0
 62
1
  6
CONTINUOUS
370
18
390
E
  0
LAYER
  5
4D
100
AcDbSymbolTableRecord
100
AcDbLayerTableRecord
  2
GES_UrzadzeniaSiecElektroenergetyczna_P
 70
0
 62
7
  6
CONTINUOUS
370
18
390
E
  0
LAYER
  5
4E
100
AcDbSymbolTableRecord
100
AcDbLayerTableRecord
  2
GES_UrzadzeniaSiecElektroenergetyczna_P_Projektowane
 70
0
 62
1
  6
CONTINUOUS
370
18
390
E
  0
LAYER
  5
4F
100
AcDbSymbolTableRecord
100
AcDbLayerTableRecord
  2
GES_UrzadzeniaSiecGazowa
 70
0
 62
7
  6
CONTINUOUS
370
18
390
E
  0
LAYER
  5
50
100
AcDbSymbolTableRecord
100
AcDbLayerTableRecord
  2
GES_UrzadzeniaSiecGazowa_Projektowane
 70
0
 62
52
  6
CONTINUOUS
370
18
390
E
  0
LAYER
  5
51
100
AcDbSymbolTableRecord
100
AcDbLayerTableRecord
  2
GES_UrzadzeniaSiecGazowa_P
 70
0
 62
7
  6
CONTINUOUS
370
18
390
E
  0
LAYER
  5
52
100
AcDbSymbolTableRecord
100
AcDbLayerTableRecord
  2
GES_UrzadzeniaSiecGazowa_P_Projektowane
 70
0
 62
52
  6
CONTINUOUS
370
18
390
E
  0
LAYER
  5
53
100
AcDbSymbolTableRecord
100
AcDbLayerTableRecord
  2
GES_UrzadzeniaSiecKanalizacyjna
 70
0
 62
7
  6
CONTINUOUS
370
18
390
E
  0
LAYER
  5
54
100
AcDbSymbolTableRecord
100
AcDbLayerTableRecord
  2
GES_UrzadzeniaSiecKanalizacyjna_Projektowane
 70
0
 62
36
  6
CONTINUOUS
370
18
390
E
  0
LAYER
  5
55
100
AcDbSymbolTableRecord
100
AcDbLayerTableRecord
  2
GES_UrzadzeniaSiecKanalizacyjna_P
 70
0
 62
7
  6
CONTINUOUS
370
18
390
E
  0
LAYER
  5
56
100
AcDbSymbolTableRecord
100
AcDbLayerTableRecord
  2
GES_UrzadzeniaSiecKanalizacyjna_P_Projektowane
 70
0
 62
36
  6
CONTINUOUS
370
18
390
E
  0
LAYER
  5
57
100
AcDbSymbolTableRecord
100
AcDbLayerTableRecord
  2
GES_UrzadzeniaSiecTelekomunikacyjna
 70
0
 62
7
  6
CONTINUOUS
370
18
390
E
  0
LAYER
  5
58
100
AcDbSymbolTableRecord
100
AcDbLayerTableRecord
  2
GES_UrzadzeniaSiecTelekomunikacyjna_Projektowane
 70
0
 62
30
  6
CONTINUOUS
370
18
390
E
  0
LAYER
  5
59
100
AcDbSymbolTableRecord
100
AcDbLayerTableRecord
  2
GES_UrzadzeniaSiecTelekomunikacyjna_P
 70
0
 62
7
  6
CONTINUOUS
370
18
390
E
  0
LAYER
  5
5A
100
AcDbSymbolTableRecord
100
AcDbLayerTableRecord
  2
GES_UrzadzeniaSiecTelekomunikacyjna_P_Projektowane
 70
0
 62
30
  6
CONTINUOUS
370
18
390
E
  0
LAYER
  5
5B
100
AcDbSymbolTableRecord
100
AcDbLayerTableRecord
  2
GES_UrzadzeniaSiecWodociagowa
 70
0
 62
7
  6
CONTINUOUS
370
18
390
E
  0
LAYER
  5
5C
100
AcDbSymbolTableRecord
100
AcDbLayerTableRecord
  2
GES_UrzadzeniaSiecWodociagowa_Projektowane
 70
0
 62
5
  6
CONTINUOUS
370
18
390
E
  0
LAYER
  5
5D
100
AcDbSymbolTableRecord
100
AcDbLayerTableRecord
  2
GES_UrzadzeniaSiecWodociagowa_P
 70
0
 62
7
  6
CONTINUOUS
370
18
390
E
  0
LAYER
  5
5E
100
AcDbSymbolTableRecord
100
AcDbLayerTableRecord
  2
GES_UrzadzeniaSiecWodociagowa_P_Projektowane
 70
0
 62
5
  6
CONTINUOUS
370
18
390
E
  0
LAYER
  5
5F
100
AcDbSymbolTableRecord
100
AcDbLayerTableRecord
  2
GES_UrzadzeniaTechniczneSieciSpecjalnej
 70
0
 62
7
  6
CONTINUOUS
370
18
390
E
  0
LAYER
  5
60
100
AcDbSymbolTableRecord
100
AcDbLayerTableRecord
  2
GES_UrzadzeniaTechniczneSieciSpecjalnej_Projektowane
 70
0
 62
7
  6
CONTINUOUS
370
18
390
E
  0
LAYER
  5
61
100
AcDbSymbolTableRecord
100
AcDbLayerTableRecord
  2
GES_UrzadzeniaTechniczneSieciSpecjalnej_P
 70
0
 62
7
  6
CONTINUOUS
370
18
390
E
  0
LAYER
  5
62
100
AcDbSymbolTableRecord
100
AcDbLayerTableRecord
  2
GES_UrzadzeniaTechniczneSieciSpecjalnej_P_Projektowane
 70
0
 62
7
  6
CONTINUOUS
370
18
390
E
  0
LAYER
  5
63
100
AcDbSymbolTableRecord
100
AcDbLayerTableRecord
  2
GES_UrzadzeniaTowarzyszczaceLiniowe
 70
0
 62
7
  6
CONTINUOUS
370
18
390
E
  0
LAYER
  5
64
100
AcDbSymbolTableRecord
100
AcDbLayerTableRecord
  2
GES_UrzadzeniaTowarzyszczaceLiniowe_Projektowane
 70
0
 62
7
  6
CONTINUOUS
370
18
390
E
  0
LAYER
  5
65
100
AcDbSymbolTableRecord
100
AcDbLayerTableRecord
  2
GES_UrzadzenieNiezidentyfikowane
 70
0
 62
7
  6
CONTINUOUS
370
18
390
E
  0
LAYER
  5
66
100
AcDbSymbolTableRecord
100
AcDbLayerTableRecord
  2
GES_UrzadzenieNiezidentyfikowane_Projektowane
 70
0
 62
7
  6
CONTINUOUS
370
18
390
E
  0
LAYER
  5
67
100
AcDbSymbolTableRecord
100
AcDbLayerTableRecord
  2
GES_UrzadzenieNiezidentyfikowane_P
 70
0
 62
7
  6
CONTINUOUS
370
18
390
E
  0
LAYER
  5
68
100
AcDbSymbolTableRecord
100
AcDbLayerTableRecord
  2
GES_UrzadzenieNiezidentyfikowane_P_Projektowane
 70
0
 62
7
  6
CONTINUOUS
370
18
390
E
  0
LAYER
  5
69
100
AcDbSymbolTableRecord
100
AcDbLayerTableRecord
  2
Kontury
 70
0
 62
3
  6
L_0_06
370
18
390
E
  0
LAYER
  5
6A
100
AcDbSymbolTableRecord
100
AcDbLayerTableRecord
  2
KR_ObiektKarto
 70
0
 62
7
  6
CONTINUOUS
370
18
390
E
  0
LAYER
  5
6B
100
AcDbSymbolTableRecord
100
AcDbLayerTableRecord
  2
KR_ObiektKarto_P
 70
0
 62
7
  6
CONTINUOUS
370
18
390
E
  0
LAYER
  5
6C
100
AcDbSymbolTableRecord
100
AcDbLayerTableRecord
  2
Numery_dzialek
 70
0
 62
7
  6
CONTINUOUS
370
18
390
E
  0
LAYER
  5
6D
100
AcDbSymbolTableRecord
100
AcDbLayerTableRecord
  2
Numery_konturow
 70
0
 62
3
  6
CONTINUOUS
370
13
390
E
  0
LAYER
  5
6E
100
AcDbSymbolTableRecord
100
AcDbLayerTableRecord
  2
Numery_punktow
 70
0
 62
-7
  6
CONTINUOUS
370
13
390
E
  0
LAYER
  5
6F
100
AcDbSymbolTableRecord
100
AcDbLayerTableRecord
  2
Numery_uzytkow
 70
0
 62
3
  6
CONTINUOUS
370
13
390
E
  0
LAYER
  5
70
100
AcDbSymbolTableRecord
100
AcDbLayerTableRecord
  2
OSGB
 70
0
 62
7
  6
CONTINUOUS
370
18
390
E
  0
LAYER
  5
71
100
AcDbSymbolTableRecord
100
AcDbLayerTableRecord
  2
OSGF
 70
0
 62
7
  6
CONTINUOUS
370
18
390
E
  0
LAYER
  5
72
100
AcDbSymbolTableRecord
100
AcDbLayerTableRecord
  2
OSHB
 70
0
 62
7
  6
CONTINUOUS
370
18
390
E
  0
LAYER
  5
73
100
AcDbSymbolTableRecord
100
AcDbLayerTableRecord
  2
OSHF
 70
0
 62
7
  6
CONTINUOUS
370
18
390
E
  0
LAYER
  5
74
100
AcDbSymbolTableRecord
100
AcDbLayerTableRecord
  2
OSMB
 70
0
 62
7
  6
CONTINUOUS
370
18
390
E
  0
LAYER
  5
75
100
AcDbSymbolTableRecord
100
AcDbLayerTableRecord
  2
OSMF
 70
0
 62
7
  6
CONTINUOUS
370
18
390
E
  0
LAYER
  5
76
100
AcDbSymbolTableRecord
100
AcDbLayerTableRecord
  2
OSPB
 70
0
 62
7
  6
CONTINUOUS
370
18
390
E
  0
LAYER
  5
77
100
AcDbSymbolTableRecord
100
AcDbLayerTableRecord
  2
OSPF
 70
0
 62
7
  6
CONTINUOUS
370
18
390
E
  0
LAYER
  5
78
100
AcDbSymbolTableRecord
100
AcDbLayerTableRecord
  2
OSSH
 70
0
 62
7
  6
CONTINUOUS
370
18
390
E
  0
LAYER
  5
79
100
AcDbSymbolTableRecord
100
AcDbLayerTableRecord
  2
OSSP
 70
0
 62
7
  6
CONTINUOUS
370
18
390
E
  0
LAYER
  5
7A
100
AcDbSymbolTableRecord
100
AcDbLayerTableRecord
  2
OS_PunktOsnowyGrawimetrycznej
 70
0
 62
7
  6
CONTINUOUS
370
18
390
E
  0
LAYER
  5
7B
100
AcDbSymbolTableRecord
100
AcDbLayerTableRecord
  2
OS_PunktOsnowyMagnetycznej
 70
0
 62
7
  6
CONTINUOUS
370
18
390
E
  0
LAYER
  5
7C
100
AcDbSymbolTableRecord
100
AcDbLayerTableRecord
  2
OS_PunktOsnowyPoziomej
 70
0
 62
7
  6
CONTINUOUS
370
18
390
E
  0
LAYER
  5
7D
100
AcDbSymbolTableRecord
100
AcDbLayerTableRecord
  2
OS_PunktOsnowyWysokosciowej
 70
0
 62
7
  6
CONTINUOUS
370
18
390
E
  0
LAYER
  5
7E
100
AcDbSymbolTableRecord
100
AcDbLayerTableRecord
  2
OTBA
 70
0
 62
7
  6
CONTINUOUS
370
18
390
E
  0
LAYER
  5
7F
100
AcDbSymbolTableRecord
100
AcDbLayerTableRecord
  2
OTBB
 70
0
 62
7
  6
CONTINUOUS
370
18
390
E
  0
LAYER
  5
80
100
AcDbSymbolTableRecord
100
AcDbLayerTableRecord
  2
OTBD
 70
0
 62
7
  6
CONTINUOUS
370
18
390
E
  0
LAYER
  5
81
100
AcDbSymbolTableRecord
100
AcDbLayerTableRecord
  2
OTBI
 70
0
 62
7
  6
CONTINUOUS
370
18
390
E
  0
LAYER
  5
82
100
AcDbSymbolTableRecord
100
AcDbLayerTableRecord
  2
OTBJ
 70
0
 62
7
  6
CONTINUOUS
370
18
390
E
  0
LAYER
  5
83
100
AcDbSymbolTableRecord
100
AcDbLayerTableRecord
  2
OTBL
 70
0
 62
7
  6
CONTINUOUS
370
18
390
E
  0
LAYER
  5
84
100
AcDbSymbolTableRecord
100
AcDbLayerTableRecord
  2
OTBN
 70
0
 62
7
  6
CONTINUOUS
370
18
390
E
  0
LAYER
  5
85
100
AcDbSymbolTableRecord
100
AcDbLayerTableRecord
  2
OTBO
 70
0
 62
7
  6
CONTINUOUS
370
18
390
E
  0
LAYER
  5
86
100
AcDbSymbolTableRecord
100
AcDbLayerTableRecord
  2
OTBO_P
 70
0
 62
7
  6
CONTINUOUS
370
18
390
E
  0
LAYER
  5
87
100
AcDbSymbolTableRecord
100
AcDbLayerTableRecord
  2
OTBP
 70
0
 62
7
  6
CONTINUOUS
370
18
390
E
  0
LAYER
  5
88
100
AcDbSymbolTableRecord
100
AcDbLayerTableRecord
  2
OTBR
 70
0
 62
7
  6
CONTINUOUS
370
18
390
E
  0
LAYER
  5
89
100
AcDbSymbolTableRecord
100
AcDbLayerTableRecord
  2
OTBS
 70
0
 62
7
  6
CONTINUOUS
370
18
390
E
  0
LAYER
  5
8A
100
AcDbSymbolTableRecord
100
AcDbLayerTableRecord
  2
OTBT
 70
0
 62
7
  6
CONTINUOUS
370
18
390
E
  0
LAYER
  5
8B
100
AcDbSymbolTableRecord
100
AcDbLayerTableRecord
  2
OTBU
 70
0
 62
7
  6
CONTINUOUS
370
18
390
E
  0
LAYER
  5
8C
100
AcDbSymbolTableRecord
100
AcDbLayerTableRecord
  2
OTBW
 70
0
 62
7
  6
CONTINUOUS
370
18
390
E
  0
LAYER
  5
8D
100
AcDbSymbolTableRecord
100
AcDbLayerTableRecord
  2
OTBY
 70
0
 62
7
  6
CONTINUOUS
370
18
390
E
  0
LAYER
  5
8E
100
AcDbSymbolTableRecord
100
AcDbLayerTableRecord
  2
OTBZ
 70
0
 62
7
  6
CONTINUOUS
370
18
390
E
  0
LAYER
  5
8F
100
AcDbSymbolTableRecord
100
AcDbLayerTableRecord
  2
OTDA
 70
0
 62
7
  6
CONTINUOUS
370
13
390
E
  0
LAYER
  5
90
100
AcDbSymbolTableRecord
100
AcDbLayerTableRecord
  2
OTDB
 70
0
 62
7
  6
CONTINUOUS
370
13
390
E
  0
LAYER
  5
91
100
AcDbSymbolTableRecord
100
AcDbLayerTableRecord
  2
OTDC
 70
0
 62
7
  6
CONTINUOUS
370
18
390
E
  0
LAYER
  5
92
100
AcDbSymbolTableRecord
100
AcDbLayerTableRecord
  2
OTDD
 70
0
 62
7
  6
CONTINUOUS
370
18
390
E
  0
LAYER
  5
93
100
AcDbSymbolTableRecord
100
AcDbLayerTableRecord
  2
OTDD_P
 70
0
 62
7
  6
CONTINUOUS
370
18
390
E
  0
LAYER
  5
94
100
AcDbSymbolTableRecord
100
AcDbLayerTableRecord
  2
OTDF
 70
0
 62
7
  6
CONTINUOUS
370
18
390
E
  0
LAYER
  5
95
100
AcDbSymbolTableRecord
100
AcDbLayerTableRecord
  2
OTDI
 70
0
 62
7
  6
CONTINUOUS
370
13
390
E
  0
LAYER
  5
96
100
AcDbSymbolTableRecord
100
AcDbLayerTableRecord
  2
OTDI_P
 70
0
 62
7
  6
CONTINUOUS
370
13
390
E
  0
LAYER
  5
97
100
AcDbSymbolTableRecord
100
AcDbLayerTableRecord
  2
OTDK
 70
0
 62
7
  6
CONTINUOUS
370
18
390
E
  0
LAYER
  5
98
100
AcDbSymbolTableRecord
100
AcDbLayerTableRecord
  2
OTDM
 70
0
 62
7
  6
CONTINUOUS
370
18
390
E
  0
LAYER
  5
99
100
AcDbSymbolTableRecord
100
AcDbLayerTableRecord
  2
OTDN
 70
0
 62
7
  6
CONTINUOUS
370
13
390
E
  0
LAYER
  5
9A
100
AcDbSymbolTableRecord
100
AcDbLayerTableRecord
  2
OTDO
 70
0
 62
7
  6
CONTINUOUS
370
18
390
E
  0
LAYER
  5
9B
100
AcDbSymbolTableRecord
100
AcDbLayerTableRecord
  2
OTDR
 70
0
 62
7
  6
CONTINUOUS
370
13
390
E
  0
LAYER
  5
9C
100
AcDbSymbolTableRecord
100
AcDbLayerTableRecord
  2
OTDS
 70
0
 62
7
  6
CONTINUOUS
370
18
390
E
  0
LAYER
  5
9D
100
AcDbSymbolTableRecord
100
AcDbLayerTableRecord
  2
OTDT_P
 70
0
 62
7
  6
CONTINUOUS
370
18
390
E
  0
LAYER
  5
9E
100
AcDbSymbolTableRecord
100
AcDbLayerTableRecord
  2
OTDW
 70
0
 62
7
  6
CONTINUOUS
370
18
390
E
  0
LAYER
  5
9F
100
AcDbSymbolTableRecord
100
AcDbLayerTableRecord
  2
OTDZ
 70
0
 62
7
  6
CONTINUOUS
370
18
390
E
  0
LAYER
  5
A0
100
AcDbSymbolTableRecord
100
AcDbLayerTableRecord
  2
OTKA
 70
0
 62
7
  6
CONTINUOUS
370
18
390
E
  0
LAYER
  5
A1
100
AcDbSymbolTableRecord
100
AcDbLayerTableRecord
  2
OTKB
 70
0
 62
7
  6
CONTINUOUS
370
18
390
E
  0
LAYER
  5
A2
100
AcDbSymbolTableRecord
100
AcDbLayerTableRecord
  2
OTKC
 70
0
 62
7
  6
CONTINUOUS
370
13
390
E
  0
LAYER
  5
A3
100
AcDbSymbolTableRecord
100
AcDbLayerTableRecord
  2
OTKE
 70
0
 62
7
  6
CONTINUOUS
370
18
390
E
  0
LAYER
  5
A4
100
AcDbSymbolTableRecord
100
AcDbLayerTableRecord
  2
OTKG
 70
0
 62
7
  6
CONTINUOUS
370
13
390
E
  0
LAYER
  5
A5
100
AcDbSymbolTableRecord
100
AcDbLayerTableRecord
  2
OTKI
 70
0
 62
7
  6
CONTINUOUS
370
18
390
E
  0
LAYER
  5
A6
100
AcDbSymbolTableRecord
100
AcDbLayerTableRecord
  2
OTKJ
 70
0
 62
7
  6
CONTINUOUS
370
13
390
E
  0
LAYER
  5
A7
100
AcDbSymbolTableRecord
100
AcDbLayerTableRecord
  2
OTKK
 70
0
 62
7
  6
CONTINUOUS
370
13
390
E
  0
LAYER
  5
A8
100
AcDbSymbolTableRecord
100
AcDbLayerTableRecord
  2
OTKL
 70
0
 62
7
  6
CONTINUOUS
370
18
390
E
  0
LAYER
  5
A9
100
AcDbSymbolTableRecord
100
AcDbLayerTableRecord
  2
OTKM
 70
0
 62
7
  6
CONTINUOUS
370
18
390
E
  0
LAYER
  5
AA
100
AcDbSymbolTableRecord
100
AcDbLayerTableRecord
  2
OTKN
 70
0
 62
7
  6
CONTINUOUS
370
18
390
E
  0
LAYER
  5
AB
100
AcDbSymbolTableRecord
100
AcDbLayerTableRecord
  2
OTKR
 70
0
 62
7
  6
CONTINUOUS
370
18
390
E
  0
LAYER
  5
AC
100
AcDbSymbolTableRecord
100
AcDbLayerTableRecord
  2
OTKS
 70
0
 62
7
  6
CONTINUOUS
370
18
390
E
  0
LAYER
  5
AD
100
AcDbSymbolTableRecord
100
AcDbLayerTableRecord
  2
OTKT
 70
0
 62
7
  6
CONTINUOUS
370
18
390
E
  0
LAYER
  5
AE
100
AcDbSymbolTableRecord
100
AcDbLayerTableRecord
  2
OTKU
 70
0
 62
7
  6
CONTINUOUS
370
13
390
E
  0
LAYER
  5
AF
100
AcDbSymbolTableRecord
100
AcDbLayerTableRecord
  2
OTKW
 70
0
 62
7
  6
CONTINUOUS
370
18
390
E
  0
LAYER
  5
B0
100
AcDbSymbolTableRecord
100
AcDbLayerTableRecord
  2
OTKY
 70
0
 62
7
  6
CONTINUOUS
370
18
390
E
  0
LAYER
  5
B1
100
AcDbSymbolTableRecord
100
AcDbLayerTableRecord
  2
OTKZ
 70
0
 62
7
  6
CONTINUOUS
370
13
390
E
  0
LAYER
  5
B2
100
AcDbSymbolTableRecord
100
AcDbLayerTableRecord
  2
OTK_E_T_0
 70
0
 62
7
  6
CONTINUOUS
370
18
390
E
  0
LAYER
  5
B3
100
AcDbSymbolTableRecord
100
AcDbLayerTableRecord
  2
OTK_L_0
 70
0
 62
7
  6
L_0_04
370
18
390
E
  0
LAYER
  5
B4
100
AcDbSymbolTableRecord
100
AcDbLayerTableRecord
  2
OTOB
 70
0
 62
7
  6
CONTINUOUS
370
13
390
E
  0
LAYER
  5
B5
100
AcDbSymbolTableRecord
100
AcDbLayerTableRecord
  2
OTOF
 70
0
 62
7
  6
CONTINUOUS
370
13
390
E
  0
LAYER
  5
B6
100
AcDbSymbolTableRecord
100
AcDbLayerTableRecord
  2
OTOO
 70
0
 62
7
  6
CONTINUOUS
370
13
390
E
  0
LAYER
  5
B7
100
AcDbSymbolTableRecord
100
AcDbLayerTableRecord
  2
OTRK
 70
0
 62
7
  6
CONTINUOUS
370
18
390
E
  0
LAYER
  5
B8
100
AcDbSymbolTableRecord
100
AcDbLayerTableRecord
  2
OTRN
 70
0
 62
7
  6
CONTINUOUS
370
13
390
E
  0
LAYER
  5
B9
100
AcDbSymbolTableRecord
100
AcDbLayerTableRecord
  2
OTRS
 70
0
 62
7
  6
CONTINUOUS
370
13
390
E
  0
LAYER
  5
BA
100
AcDbSymbolTableRecord
100
AcDbLayerTableRecord
  2
OTRU
 70
0
 62
7
  6
CONTINUOUS
370
18
390
E
  0
LAYER
  5
BB
100
AcDbSymbolTableRecord
100
AcDbLayerTableRecord
  2
OTR_T_1
 70
0
 62
7
  6
CONTINUOUS
370
18
390
E
  0
LAYER
  5
BC
100
AcDbSymbolTableRecord
100
AcDbLayerTableRecord
  2
OTSB
 70
0
 62
7
  6
CONTINUOUS
370
18
390
E
  0
LAYER
  5
BD
100
AcDbSymbolTableRecord
100
AcDbLayerTableRecord
  2
OTSI
 70
0
 62
7
  6
CONTINUOUS
370
18
390
E
  0
LAYER
  5
BE
100
AcDbSymbolTableRecord
100
AcDbLayerTableRecord
  2
OTSP
 70
0
 62
7
  6
CONTINUOUS
370
18
390
E
  0
LAYER
  5
BF
100
AcDbSymbolTableRecord
100
AcDbLayerTableRecord
  2
OTSW
 70
0
 62
7
  6
CONTINUOUS
370
18
390
E
  0
LAYER
  5
C0
100
AcDbSymbolTableRecord
100
AcDbLayerTableRecord
  2
OTSZ
 70
0
 62
7
  6
CONTINUOUS
370
13
390
E
  0
LAYER
  5
C1
100
AcDbSymbolTableRecord
100
AcDbLayerTableRecord
  2
OTWG
 70
0
 62
7
  6
CONTINUOUS
370
18
390
E
  0
LAYER
  5
C2
100
AcDbSymbolTableRecord
100
AcDbLayerTableRecord
  2
OTWI
 70
0
 62
7
  6
CONTINUOUS
370
18
390
E
  0
LAYER
  5
C3
100
AcDbSymbolTableRecord
100
AcDbLayerTableRecord
  2
OTWI_P
 70
0
 62
7
  6
CONTINUOUS
370
13
390
E
  0
LAYER
  5
C4
100
AcDbSymbolTableRecord
100
AcDbLayerTableRecord
  2
OTWJ
 70
0
 62
7
  6
CONTINUOUS
370
18
390
E
  0
LAYER
  5
C5
100
AcDbSymbolTableRecord
100
AcDbLayerTableRecord
  2
OTWL
 70
0
 62
7
  6
CONTINUOUS
370
18
390
E
  0
LAYER
  5
C6
100
AcDbSymbolTableRecord
100
AcDbLayerTableRecord
  2
OTWM
 70
0
 62
7
  6
CONTINUOUS
370
18
390
E
  0
LAYER
  5
C7
100
AcDbSymbolTableRecord
100
AcDbLayerTableRecord
  2
OTWO
 70
0
 62
7
  6
CONTINUOUS
370
18
390
E
  0
LAYER
  5
C8
100
AcDbSymbolTableRecord
100
AcDbLayerTableRecord
  2
OTWP
 70
0
 62
7
  6
CONTINUOUS
370
18
390
E
  0
LAYER
  5
C9
100
AcDbSymbolTableRecord
100
AcDbLayerTableRecord
  2
OTWS
 70
0
 62
7
  6
CONTINUOUS
370
13
390
E
  0
LAYER
  5
CA
100
AcDbSymbolTableRecord
100
AcDbLayerTableRecord
  2
OTWT
 70
0
 62
7
  6
CONTINUOUS
370
18
390
E
  0
LAYER
  5
CB
100
AcDbSymbolTableRecord
100
AcDbLayerTableRecord
  2
OTWW
 70
0
 62
7
  6
CONTINUOUS
370
18
390
E
  0
LAYER
  5
CC
100
AcDbSymbolTableRecord
100
AcDbLayerTableRecord
  2
OTWZ
 70
0
 62
7
  6
CONTINUOUS
370
18
390
E
  0
LAYER
  5
CD
100
AcDbSymbolTableRecord
100
AcDbLayerTableRecord
  2
OTZC
 70
0
 62
7
  6
CONTINUOUS
370
18
390
E
  0
LAYER
  5
CE
100
AcDbSymbolTableRecord
100
AcDbLayerTableRecord
  2
OTZG
 70
0
 62
7
  6
CONTINUOUS
370
13
390
E
  0
LAYER
  5
CF
100
AcDbSymbolTableRecord
100
AcDbLayerTableRecord
  2
OTZI
 70
0
 62
7
  6
CONTINUOUS
370
18
390
E
  0
LAYER
  5
D0
100
AcDbSymbolTableRecord
100
AcDbLayerTableRecord
  2
OTZI_P
 70
0
 62
7
  6
CONTINUOUS
370
18
390
E
  0
LAYER
  5
D1
100
AcDbSymbolTableRecord
100
AcDbLayerTableRecord
  2
OTZK
 70
0
 62
7
  6
CONTINUOUS
370
13
390
E
  0
LAYER
  5
D2
100
AcDbSymbolTableRecord
100
AcDbLayerTableRecord
  2
OTZL
 70
0
 62
7
  6
CONTINUOUS
370
13
390
E
  0
LAYER
  5
D3
100
AcDbSymbolTableRecord
100
AcDbLayerTableRecord
  2
OTZT
 70
0
 62
7
  6
CONTINUOUS
370
18
390
E
  0
LAYER
  5
D4
100
AcDbSymbolTableRecord
100
AcDbLayerTableRecord
  2
OTZZ
 70
0
 62
7
  6
CONTINUOUS
370
13
390
E
  0
LAYER
  5
D5
100
AcDbSymbolTableRecord
100
AcDbLayerTableRecord
  2
OTZ_T_0
 70
0
 62
96
  6
CONTINUOUS
370
18
390
E
  0
LAYER
  5
D6
100
AcDbSymbolTableRecord
100
AcDbLayerTableRecord
  2
OT_BlokBudynku
 70
0
 62
7
  6
CONTINUOUS
370
18
390
E
  0
LAYER
  5
D7
100
AcDbSymbolTableRecord
100
AcDbLayerTableRecord
  2
OT_Budowle
 70
0
 62
7
  6
CONTINUOUS
370
18
390
E
  0
LAYER
  5
D8
100
AcDbSymbolTableRecord
100
AcDbLayerTableRecord
  2
OT_Budowle_P
 70
0
 62
7
  6
CONTINUOUS
370
18
390
E
  0
LAYER
  5
D9
100
AcDbSymbolTableRecord
100
AcDbLayerTableRecord
  2
OT_BudynekNiewykazanyWEGIB
 70
0
 62
7
  6
CONTINUOUS
370
18
390
E
  0
LAYER
  5
DA
100
AcDbSymbolTableRecord
100
AcDbLayerTableRecord
  2
OT_Komunikacja
 70
0
 62
7
  6
CONTINUOUS
370
18
390
E
  0
LAYER
  5
DB
100
AcDbSymbolTableRecord
100
AcDbLayerTableRecord
  2
OT_ObiektTrwaleZwiazanyZBudynkami
 70
0
 62
7
  6
CONTINUOUS
370
18
390
E
  0
LAYER
  5
DC
100
AcDbSymbolTableRecord
100
AcDbLayerTableRecord
  2
OT_ObiektTrwaleZwiazanyZBudynkami_P
 70
0
 62
7
  6
CONTINUOUS
370
18
390
E
  0
LAYER
  5
DD
100
AcDbSymbolTableRecord
100
AcDbLayerTableRecord
  2
OT_Ogrodzenia
 70
0
 62
7
  6
CONTINUOUS
370
18
390
E
  0
LAYER
  5
DE
100
AcDbSymbolTableRecord
100
AcDbLayerTableRecord
  2
OT_Rzedna
 70
0
 62
7
  6
CONTINUOUS
370
18
390
E
  0
LAYER
  5
DF
100
AcDbSymbolTableRecord
100
AcDbLayerTableRecord
  2
OT_Skarpa
 70
0
 62
7
  6
CONTINUOUS
370
18
390
E
  0
LAYER
  5
E0
100
AcDbSymbolTableRecord
100
AcDbLayerTableRecord
  2
OT_SportIRekreacja
 70
0
 62
7
  6
CONTINUOUS
370
18
390
E
  0
LAYER
  5
E1
100
AcDbSymbolTableRecord
100
AcDbLayerTableRecord
  2
OT_Wody
 70
0
 62
7
  6
CONTINUOUS
370
18
390
E
  0
LAYER
  5
E2
100
AcDbSymbolTableRecord
100
AcDbLayerTableRecord
  2
OT_Wody_P
 70
0
 62
7
  6
CONTINUOUS
370
18
390
E
  0
LAYER
  5
E3
100
AcDbSymbolTableRecord
100
AcDbLayerTableRecord
  2
OT_ZagospodarowanieTerenu
 70
0
 62
7
  6
CONTINUOUS
370
18
390
E
  0
LAYER
  5
E4
100
AcDbSymbolTableRecord
100
AcDbLayerTableRecord
  2
OT_ZagospodarowanieTerenu_P
 70
0
 62
7
  6
CONTINUOUS
370
18
390
E
  0
LAYER
  5
E5
100
AcDbSymbolTableRecord
100
AcDbLayerTableRecord
  2
PrezentacjaGraficzna
 70
0
 62
7
  6
CONTINUOUS
370
13
390
E
  0
LAYER
  5
E6
100
AcDbSymbolTableRecord
100
AcDbLayerTableRecord
  2
PrezentacjaGraficzna_P
 70
0
 62
7
  6
CONTINUOUS
370
18
390
E
  0
LAYER
  5
E7
100
AcDbSymbolTableRecord
100
AcDbLayerTableRecord
  2
PRG_Granica
 70
0
 62
7
  6
CONTINUOUS
370
18
390
E
  0
LAYER
  5
E8
100
AcDbSymbolTableRecord
100
AcDbLayerTableRecord
  2
PRG_PunktGranicyPanstwa
 70
0
 62
7
  6
CONTINUOUS
370
18
390
E
  0
LAYER
  5
E9
100
AcDbSymbolTableRecord
100
AcDbLayerTableRecord
  2
Punkty
 70
0
 62
-7
  6
CONTINUOUS
370
18
390
E
  0
LAYER
  5
EA
100
AcDbSymbolTableRecord
100
AcDbLayerTableRecord
  2
SUCP
 70
0
 62
7
  6
CONTINUOUS
370
18
390
E
  0
LAYER
  5
EB
100
AcDbSymbolTableRecord
100
AcDbLayerTableRecord
  2
SUCU
 70
0
 62
7
  6
CONTINUOUS
370
18
390
E
  0
LAYER
  5
EC
100
AcDbSymbolTableRecord
100
AcDbLayerTableRecord
  2
SUCU_P
 70
0
 62
7
  6
CONTINUOUS
370
18
390
E
  0
LAYER
  5
ED
100
AcDbSymbolTableRecord
100
AcDbLayerTableRecord
  2
SUCW
 70
0
 62
7
  6
CONTINUOUS
370
18
390
E
  0
LAYER
  5
EE
100
AcDbSymbolTableRecord
100
AcDbLayerTableRecord
  2
SUEA
 70
0
 62
7
  6
CONTINUOUS
370
18
390
E
  0
LAYER
  5
EF
100
AcDbSymbolTableRecord
100
AcDbLayerTableRecord
  2
SUEA_P
 70
0
 62
7
  6
CONTINUOUS
370
18
390
E
  0
LAYER
  5
F0
100
AcDbSymbolTableRecord
100
AcDbLayerTableRecord
  2
SUEL
 70
0
 62
7
  6
CONTINUOUS
370
18
390
E
  0
LAYER
  5
F1
100
AcDbSymbolTableRecord
100
AcDbLayerTableRecord
  2
SUEM
 70
0
 62
7
  6
CONTINUOUS
370
18
390
E
  0
LAYER
  5
F2
100
AcDbSymbolTableRecord
100
AcDbLayerTableRecord
  2
SUEM_P
 70
0
 62
7
  6
CONTINUOUS
370
18
390
E
  0
LAYER
  5
F3
100
AcDbSymbolTableRecord
100
AcDbLayerTableRecord
  2
SUEO
 70
0
 62
7
  6
CONTINUOUS
370
13
390
E
  0
LAYER
  5
F4
100
AcDbSymbolTableRecord
100
AcDbLayerTableRecord
  2
SUEP
 70
0
 62
7
  6
CONTINUOUS
370
13
390
E
  0
LAYER
  5
F5
100
AcDbSymbolTableRecord
100
AcDbLayerTableRecord
  2
SUES
 70
0
 62
7
  6
CONTINUOUS
370
18
390
E
  0
LAYER
  5
F6
100
AcDbSymbolTableRecord
100
AcDbLayerTableRecord
  2
SUES_P
 70
0
 62
7
  6
CONTINUOUS
370
18
390
E
  0
LAYER
  5
F7
100
AcDbSymbolTableRecord
100
AcDbLayerTableRecord
  2
SUET
 70
0
 62
7
  6
CONTINUOUS
370
18
390
E
  0
LAYER
  5
F8
100
AcDbSymbolTableRecord
100
AcDbLayerTableRecord
  2
SUEU
 70
0
 62
7
  6
CONTINUOUS
370
18
390
E
  0
LAYER
  5
F9
100
AcDbSymbolTableRecord
100
AcDbLayerTableRecord
  2
SUEU_P
 70
0
 62
7
  6
CONTINUOUS
370
18
390
E
  0
LAYER
  5
FA
100
AcDbSymbolTableRecord
100
AcDbLayerTableRecord
  2
SUGN
 70
0
 62
7
  6
CONTINUOUS
370
18
390
E
  0
LAYER
  5
FB
100
AcDbSymbolTableRecord
100
AcDbLayerTableRecord
  2
SUGP
 70
0
 62
7
  6
CONTINUOUS
370
18
390
E
  0
LAYER
  5
FC
100
AcDbSymbolTableRecord
100
AcDbLayerTableRecord
  2
SUGS
 70
0
 62
7
  6
CONTINUOUS
370
18
390
E
  0
LAYER
  5
FD
100
AcDbSymbolTableRecord
100
AcDbLayerTableRecord
  2
SUGS_P
 70
0
 62
7
  6
CONTINUOUS
370
18
390
E
  0
LAYER
  5
FE
100
AcDbSymbolTableRecord
100
AcDbLayerTableRecord
  2
SUGU
 70
0
 62
7
  6
CONTINUOUS
370
18
390
E
  0
LAYER
  5
FF
100
AcDbSymbolTableRecord
100
AcDbLayerTableRecord
  2
SUGU_P
 70
0
 62
7
  6
CONTINUOUS
370
18
390
E
  0
LAYER
  5
100
100
AcDbSymbolTableRecord
100
AcDbLayerTableRecord
  2
SUGV
 70
0
 62
7
  6
CONTINUOUS
370
18
390
E
  0
LAYER
  5
101
100
AcDbSymbolTableRecord
100
AcDbLayerTableRecord
  2
SUKD
 70
0
 62
7
  6
CONTINUOUS
370
18
390
E
  0
LAYER
  5
102
100
AcDbSymbolTableRecord
100
AcDbLayerTableRecord
  2
SUKE
 70
0
 62
7
  6
CONTINUOUS
370
18
390
E
  0
LAYER
  5
103
100
AcDbSymbolTableRecord
100
AcDbLayerTableRecord
  2
SUKK
 70
0
 62
7
  6
CONTINUOUS
370
13
390
E
  0
LAYER
  5
104
100
AcDbSymbolTableRecord
100
AcDbLayerTableRecord
  2
SUKK_P
 70
0
 62
7
  6
CONTINUOUS
370
18
390
E
  0
LAYER
  5
105
100
AcDbSymbolTableRecord
100
AcDbLayerTableRecord
  2
SUKL
 70
0
 62
7
  6
CONTINUOUS
370
18
390
E
  0
LAYER
  5
106
100
AcDbSymbolTableRecord
100
AcDbLayerTableRecord
  2
SUKM
 70
0
 62
7
  6
CONTINUOUS
370
18
390
E
  0
LAYER
  5
107
100
AcDbSymbolTableRecord
100
AcDbLayerTableRecord
  2
SUKM_P
 70
0
 62
7
  6
CONTINUOUS
370
13
390
E
  0
LAYER
  5
108
100
AcDbSymbolTableRecord
100
AcDbLayerTableRecord
  2
SUKN
 70
0
 62
7
  6
CONTINUOUS
370
18
390
E
  0
LAYER
  5
109
100
AcDbSymbolTableRecord
100
AcDbLayerTableRecord
  2
SUKP
 70
0
 62
7
  6
CONTINUOUS
370
13
390
E
  0
LAYER
  5
10A
100
AcDbSymbolTableRecord
100
AcDbLayerTableRecord
  2
SUKS
 70
0
 62
7
  6
CONTINUOUS
370
13
390
E
  0
LAYER
  5
10B
100
AcDbSymbolTableRecord
100
AcDbLayerTableRecord
  2
SUKS_P
 70
0
 62
7
  6
CONTINUOUS
370
18
390
E
  0
LAYER
  5
10C
100
AcDbSymbolTableRecord
100
AcDbLayerTableRecord
  2
SUKU
 70
0
 62
7
  6
CONTINUOUS
370
18
390
E
  0
LAYER
  5
10D
100
AcDbSymbolTableRecord
100
AcDbLayerTableRecord
  2
SUKU_P
 70
0
 62
7
  6
CONTINUOUS
370
13
390
E
  0
LAYER
  5
10E
100
AcDbSymbolTableRecord
100
AcDbLayerTableRecord
  2
SUKW
 70
0
 62
7
  6
CONTINUOUS
370
18
390
E
  0
LAYER
  5
10F
100
AcDbSymbolTableRecord
100
AcDbLayerTableRecord
  2
SULL
 70
0
 62
7
  6
CONTINUOUS
370
18
390
E
  0
LAYER
  5
110
100
AcDbSymbolTableRecord
100
AcDbLayerTableRecord
  2
SUNP
 70
0
 62
7
  6
CONTINUOUS
370
18
390
E
  0
LAYER
  5
111
100
AcDbSymbolTableRecord
100
AcDbLayerTableRecord
  2
SUNU
 70
0
 62
7
  6
CONTINUOUS
370
18
390
E
  0
LAYER
  5
112
100
AcDbSymbolTableRecord
100
AcDbLayerTableRecord
  2
SUNU_P
 70
0
 62
7
  6
CONTINUOUS
370
18
390
E
  0
LAYER
  5
113
100
AcDbSymbolTableRecord
100
AcDbLayerTableRecord
  2
SUPB
 70
0
 62
7
  6
CONTINUOUS
370
18
390
E
  0
LAYER
  5
114
100
AcDbSymbolTableRecord
100
AcDbLayerTableRecord
  2
SUPI_P
 70
0
 62
7
  6
CONTINUOUS
370
18
390
E
  0
LAYER
  5
115
100
AcDbSymbolTableRecord
100
AcDbLayerTableRecord
  2
SUPK
 70
0
 62
7
  6
CONTINUOUS
370
13
390
E
  0
LAYER
  5
116
100
AcDbSymbolTableRecord
100
AcDbLayerTableRecord
  2
SUPK_P
 70
0
 62
7
  6
CONTINUOUS
370
13
390
E
  0
LAYER
  5
117
100
AcDbSymbolTableRecord
100
AcDbLayerTableRecord
  2
SUPN
 70
0
 62
7
  6
CONTINUOUS
370
18
390
E
  0
LAYER
  5
118
100
AcDbSymbolTableRecord
100
AcDbLayerTableRecord
  2
SUPN_P
 70
0
 62
7
  6
CONTINUOUS
370
18
390
E
  0
LAYER
  5
119
100
AcDbSymbolTableRecord
100
AcDbLayerTableRecord
  2
SUPP
 70
0
 62
7
  6
CONTINUOUS
370
13
390
E
  0
LAYER
  5
11A
100
AcDbSymbolTableRecord
100
AcDbLayerTableRecord
  2
SUPP_P
 70
0
 62
7
  6
CONTINUOUS
370
13
390
E
  0
LAYER
  5
11B
100
AcDbSymbolTableRecord
100
AcDbLayerTableRecord
  2
SUPW_O
 70
0
 62
7
  6
CONTINUOUS
370
13
390
E
  0
LAYER
  5
11C
100
AcDbSymbolTableRecord
100
AcDbLayerTableRecord
  2
SUPW_P
 70
0
 62
7
  6
CONTINUOUS
370
18
390
E
  0
LAYER
  5
11D
100
AcDbSymbolTableRecord
100
AcDbLayerTableRecord
  2
SUPY
 70
0
 62
7
  6
CONTINUOUS
370
18
390
E
  0
LAYER
  5
11E
100
AcDbSymbolTableRecord
100
AcDbLayerTableRecord
  2
SUSP
 70
0
 62
7
  6
CONTINUOUS
370
18
390
E
  0
LAYER
  5
11F
100
AcDbSymbolTableRecord
100
AcDbLayerTableRecord
  2
SUSU
 70
0
 62
7
  6
CONTINUOUS
370
18
390
E
  0
LAYER
  5
120
100
AcDbSymbolTableRecord
100
AcDbLayerTableRecord
  2
SUSU_P
 70
0
 62
7
  6
CONTINUOUS
370
18
390
E
  0
LAYER
  5
121
100
AcDbSymbolTableRecord
100
AcDbLayerTableRecord
  2
SUTK
 70
0
 62
7
  6
CONTINUOUS
370
13
390
E
  0
LAYER
  5
122
100
AcDbSymbolTableRecord
100
AcDbLayerTableRecord
  2
SUTP
 70
0
 62
7
  6
CONTINUOUS
370
13
390
E
  0
LAYER
  5
123
100
AcDbSymbolTableRecord
100
AcDbLayerTableRecord
  2
SUTS
 70
0
 62
7
  6
CONTINUOUS
370
13
390
E
  0
LAYER
  5
124
100
AcDbSymbolTableRecord
100
AcDbLayerTableRecord
  2
SUTS_P
 70
0
 62
7
  6
CONTINUOUS
370
18
390
E
  0
LAYER
  5
125
100
AcDbSymbolTableRecord
100
AcDbLayerTableRecord
  2
SUTU
 70
0
 62
7
  6
CONTINUOUS
370
18
390
E
  0
LAYER
  5
126
100
AcDbSymbolTableRecord
100
AcDbLayerTableRecord
  2
SUTU_P
 70
0
 62
7
  6
CONTINUOUS
370
18
390
E
  0
LAYER
  5
127
100
AcDbSymbolTableRecord
100
AcDbLayerTableRecord
  2
SUTW
 70
0
 62
7
  6
CONTINUOUS
370
18
390
E
  0
LAYER
  5
128
100
AcDbSymbolTableRecord
100
AcDbLayerTableRecord
  2
SUTW_P
 70
0
 62
7
  6
CONTINUOUS
370
18
390
E
  0
LAYER
  5
129
100
AcDbSymbolTableRecord
100
AcDbLayerTableRecord
  2
SUWD
 70
0
 62
7
  6
CONTINUOUS
370
13
390
E
  0
LAYER
  5
12A
100
AcDbSymbolTableRecord
100
AcDbLayerTableRecord
  2
SUWG
 70
0
 62
7
  6
CONTINUOUS
370
13
390
E
  0
LAYER
  5
12B
100
AcDbSymbolTableRecord
100
AcDbLayerTableRecord
  2
SUWH
 70
0
 62
7
  6
CONTINUOUS
370
13
390
E
  0
LAYER
  5
12C
100
AcDbSymbolTableRecord
100
AcDbLayerTableRecord
  2
SUWP
 70
0
 62
7
  6
CONTINUOUS
370
13
390
E
  0
LAYER
  5
12D
100
AcDbSymbolTableRecord
100
AcDbLayerTableRecord
  2
SUWR
 70
0
 62
7
  6
CONTINUOUS
370
18
390
E
  0
LAYER
  5
12E
100
AcDbSymbolTableRecord
100
AcDbLayerTableRecord
  2
SUWS
 70
0
 62
7
  6
CONTINUOUS
370
13
390
E
  0
LAYER
  5
12F
100
AcDbSymbolTableRecord
100
AcDbLayerTableRecord
  2
SUWU
 70
0
 62
7
  6
CONTINUOUS
370
18
390
E
  0
LAYER
  5
130
100
AcDbSymbolTableRecord
100
AcDbLayerTableRecord
  2
SUWU_P
 70
0
 62
7
  6
CONTINUOUS
370
18
390
E
  0
LAYER
  5
131
100
AcDbSymbolTableRecord
100
AcDbLayerTableRecord
  2
SUWW
 70
0
 62
7
  6
CONTINUOUS
370
13
390
E
  0
LAYER
  5
132
100
AcDbSymbolTableRecord
100
AcDbLayerTableRecord
  2
Uzytki
 70
0
 62
3
  6
L_0_03
370
18
390
E
  0
ENDTAB
  0
TABLE
  2
STYLE
  5
133
100
AcDbSymbolTable
 70
2
  0
STYLE
  5
134
100
AcDbSymbolTableRecord
100
AcDbTextStyleTableRecord
  2
STANDARD
 70
0
 40
0.0
 41
1.0
 50
0.0
 71
0
  3
simplex.shx
  4

  0
STYLE
  5
135
100
AcDbSymbolTableRecord
100
AcDbTextStyleTableRecord
  2
STANDARD_ITALIC
 70
0
 40
0.0
 41
1.0
 50
15.0
 71
0
  3
simplex.shx
  4

  0
ENDTAB
  0
TABLE
  2
VIEW
  5
136
100
AcDbSymbolTable
 70
0
  0
ENDTAB
  0
TABLE
  2
UCS
  5
137
100
AcDbSymbolTable
 70
0
  0
ENDTAB
  0
TABLE
  2
APPID
  5
138
100
AcDbSymbolTable
 70
1
  0
APPID
  5
139
100
AcDbSymbolTableRecord
100
AcDbRegAppTableRecord
  2
ACAD
 70
0
  0
ENDTAB
  0
TABLE
  2
DIMSTYLE
  5
13A
100
AcDbSymbolTable
 70
1
100
AcDbDimStyleTable
  0
DIMSTYLE
105
13B
100
AcDbSymbolTableRecord
100
AcDbDimStyleTableRecord
  2
Standard
 70
0
340
134
  0
ENDTAB
  0
TABLE
  2
BLOCK_RECORD
  5
13C
100
AcDbSymbolTable
 70
7
  0
BLOCK_RECORD
  5
13D
100
AcDbSymbolTableRecord
100
AcDbBlockTableRecord
  2
*Model_Space
340
13E
  0
BLOCK_RECORD
  5
13F
100
AcDbSymbolTableRecord
100
AcDbBlockTableRecord
  2
*Paper_Space
340
140
  0
BLOCK_RECORD
  5
141
100
AcDbSymbolTableRecord
100
AcDbBlockTableRecord
  2
OSHF
340
142
  0
BLOCK_RECORD
  5
143
100
AcDbSymbolTableRecord
100
AcDbBlockTableRecord
  2
OTZL
340
144
  0
BLOCK_RECORD
  5
145
100
AcDbSymbolTableRecord
100
AcDbBlockTableRecord
  2
OTRN
340
146
  0
BLOCK_RECORD
  5
147
100
AcDbSymbolTableRecord
100
AcDbBlockTableRecord
  2
L_0_02_1
340
148
  0
BLOCK_RECORD
  5
149
100
AcDbSymbolTableRecord
100
AcDbBlockTableRecord
  2
L_0_02_2
340
14A
  0
ENDTAB
  0
ENDSEC
  0
SECTION
  2
BLOCKS
  0
BLOCK
  5
14B
100
AcDbEntity
  8
0
100
AcDbBlockBegin
  2
*Model_Space
 70
0
 10
0.0
 20
0.0
 30
0.0
  3
*Model_Space
  1

  0
ENDBLK
  5
14C
100
AcDbEntity
  8
0
100
AcDbBlockEnd
  0
BLOCK
  5
14D
100
AcDbEntity
 67
1
  8
0
100
AcDbBlockBegin
  2
*Paper_Space
 70
0
 10
0.0
 20
0.0
 30
0.0
  3
*Paper_Space
  1

  0
ENDBLK
  5
14E
100
AcDbEntity
 67
1
  8
0
100
AcDbBlockEnd
  0
BLOCK
  5
142
100
AcDbEntity
  8
0
100
AcDbBlockBegin
 62
0
370
13
  2
OSHF
 70
0
 10
0
 20
0
 30
0
  3
OSHF
  0
WIPEOUT
  5
14F
100
AcDbEntity
  8
0
  6
CONTINUOUS
 62
0
370
18
100
AcDbWipeout
 90
0
 10
-2.0
 20
-2.0
 30
0.0
 11
4.0
 21
0.0
 31
0.0
 12
0.0
 22
4.0
 32
0.0
 13
1.0
 23
1.0
 70
7
280
1
281
100
282
100
283
0
 71
2
 91
13
 14
0.0
 24
0.5
 14
0.25
 24
0.433012701892
 14
0.433012701892
 24
0.25
 14
0.5
 24
0.0
 14
0.433012701892
 24
-0.25
 14
0.25
 24
-0.433012701892
 14
0.0
 24
-0.5
 14
-0.25
 24
-0.433012701892
 14
-0.433012701892
 24
-0.25
 14
-0.5
 24
0.0
 14
-0.433012701892
 24
0.25
 14
-0.25
 24
0.433012701892
 14
0.0
 24
0.5
  0
CIRCLE
  5
150
100
AcDbEntity
  8
0
  6
CONTINUOUS
 62
0
370
18
100
AcDbCircle
 10
0.0
 20
-0.0
 40
2.0
  0
HATCH
  5
151
100
AcDbEntity
  8
0
  6
CONTINUOUS
 62
0
370
18
100
AcDbHatch
 10
0.0
 20
0.0
 30
0.0
210
0.0
220
0.0
230
1.0
  2
SOLID
 70
1
 71
1
 91
1
 92
3
 72
0
 73
1
 93
4
 10
-1.7
 20
1.0
 10
1.7
 20
1.0
 10
0.0
 20
-2.0
 10
-1.7
 20
0.9
 97
0
 75
0
 76
1
 98
0
  0
POLYLINE
  5
152
100
AcDbEntity
  8
0
  6
CONTINUOUS
 62
0
370
18
100
AcDb2dPolyline
 66
1
 70
129
  0
VERTEX
  5
153
100
AcDbEntity
  8
0
100
AcDbVertex
100
AcDb2dVertex
 10
-1.7
 20
1.0
  0
VERTEX
  5
154
100
AcDbEntity
  8
0
100
AcDbVertex
100
AcDb2dVertex
 10
1.7
 20
1.0
  0
VERTEX
  5
155
100
AcDbEntity
  8
0
100
AcDbVertex
100
AcDb2dVertex
 10
0.0
 20
-2.0
  0
VERTEX
  5
156
100
AcDbEntity
  8
0
100
AcDbVertex
100
AcDb2dVertex
 10
-1.7
 20
0.9
  0
SEQEND
  5
157
100
AcDbEntity
  8
0
  0
WIPEOUT
  5
158
100
AcDbEntity
  8
0
  6
CONTINUOUS
 62
0
370
18
100
AcDbWipeout
 90
0
 10
-0.22360679775
 20
-0.22360679775
 30
0.0
 11
0.4472135955
 21
0.0
 31
0.0
 12
0.0
 22
0.4472135955
 32
0.0
 13
1.0
 23
1.0
 70
7
280
1
281
100
282
100
283
0
 71
2
 91
13
 14
0.0
 24
0.5
 14
0.25
 24
0.433012701892
 14
0.433012701892
 24
0.25
 14
0.5
 24
0.0
 14
0.433012701892
 24
-0.25
 14
0.25
 24
-0.433012701892
 14
0.0
 24
-0.5
 14
-0.25
 24
-0.433012701892
 14
-0.433012701892
 24
-0.25
 14
-0.5
 24
0.0
 14
-0.433012701892
 24
0.25
 14
-0.25
 24
0.433012701892
 14
0.0
 24
0.5
  0
ENDBLK
  5
159
100
AcDbEntity
  8
0
100
AcDbBlockEnd
  0
BLOCK
  5
144
100
AcDbEntity
  8
0
100
AcDbBlockBegin
 62
0
370
13
  2
OTZL
 70
0
 10
0
 20
0
 30
0
  3
OTZL
  0
WIPEOUT
  5
15A
100
AcDbEntity
  8
0
  6
CONTINUOUS
 62
0
370
13
100
AcDbWipeout
 90
0
 10
-1.538830724934
 20
-1.538830724934
 30
0.0
 11
3.077661449867
 21
0.0
 31
0.0
 12
0.0
 22
3.077661449867
 32
0.0
 13
1.0
 23
1.0
 70
7
280
1
281
100
282
100
283
0
 71
2
 91
13
 14
0.0
 24
0.5
 14
0.25
 24
0.433012701892
 14
0.433012701892
 24
0.25
 14
0.5
 24
0.0
 14
0.433012701892
 24
-0.25
 14
0.25
 24
-0.433012701892
 14
0.0
 24
-0.5
 14
-0.25
 24
-0.433012701892
 14
-0.433012701892
 24
-0.25
 14
-0.5
 24
0.0
 14
-0.433012701892
 24
0.25
 14
-0.25
 24
0.433012701892
 14
0.0
 24
0.5
  0
ARC
  5
15B
100
AcDbEntity
  8
0
  6
CONTINUOUS
 62
0
370
18
100
AcDbCircle
 10
-0.0200000000
 20
0.8200000000
 30
0
 40
0.6800000000
100
AcDbArc
 50
29.5387822596
 51
149.6208739886
  0
ARC
  5
15C
100
AcDbEntity
  8
0
  6
CONTINUOUS
 62
0
370
18
100
AcDbCircle
 10
0.7800000000
 20
0.2400000000
 30
0
 40
0.7000000000
100
AcDbArc
 50
318.5035316448
 51
78.3663660011
  0
ARC
  5
15D
100
AcDbEntity
  8
0
  6
CONTINUOUS
 62
0
370
18
100
AcDbCircle
 10
0.4600000000
 20
-0.6600000000
 30
0
 40
0.7000000000
100
AcDbArc
 50
249.4439547804
 51
4.8990924538
  0
ARC
  5
15E
100
AcDbEntity
  8
0
  6
CONTINUOUS
 62
0
370
18
100
AcDbCircle
 10
-0.4600000000
 20
-0.6400000000
 30
0
 40
0.7000000000
100
AcDbArc
 50
175.1009075462
 51
291.5014343240
  0
ARC
  5
15F
100
AcDbEntity
  8
0
  6
CONTINUOUS
 62
0
370
18
100
AcDbCircle
 10
-0.8000000000
 20
0.2400000000
 30
0
 40
0.7000000000
100
AcDbArc
 50
101.6336339989
 51
222.6140559696
  0
HATCH
  5
160
100
AcDbEntity
  8
0
  6
CONTINUOUS
 62
0
370
18
100
AcDbHatch
 10
0.0
 20
0.0
 30
0.0
210
0.0
220
0.0
230
1.0
  2
SOLID
 70
1
 71
1
 91
1
 92
3
 72
1
 73
1
 93
2
 10
0.0
 20
-0.072111025509
 42
1.0
 10
0.0
 20
0.072111025509
 42
1.0
 97
0
 75
0
 76
1
 98
0
  0
CIRCLE
  5
161
100
AcDbEntity
  8
0
  6
CONTINUOUS
 62
0
370
18
100
AcDbCircle
 10
0.0
 20
-0.0
 40
0.072111025509
  0
ENDBLK
  5
162
100
AcDbEntity
  8
0
100
AcDbBlockEnd
  0
BLOCK
  5
146
100
AcDbEntity
  8
0
100
AcDbBlockBegin
 62
0
370
13
  2
OTRN
 70
0
 10
0
 20
0
 30
0
  3
OTRN
  0
HATCH
  5
163
100
AcDbEntity
  8
0
  6
CONTINUOUS
 62
0
370
13
100
AcDbHatch
 10
0.0
 20
0.0
 30
0.0
210
0.0
220
0.0
230
1.0
  2
SOLID
 70
1
 71
1
 91
1
 92
3
 72
1
 73
1
 93
2
 10
0.0
 20
-0.090553851381
 42
1.0
 10
0.0
 20
0.090553851381
 42
1.0
 97
0
 75
0
 76
1
 98
0
  0
CIRCLE
  5
164
100
AcDbEntity
  8
0
  6
CONTINUOUS
 62
0
370
13
100
AcDbCircle
 10
0.0
 20
-0.0
 40
0.090553851381
  0
ENDBLK
  5
165
100
AcDbEntity
  8
0
100
AcDbBlockEnd
  0
BLOCK
  5
148
100
AcDbEntity
  8
0
100
AcDbBlockBegin
 62
0
370
13
  2
L_0_02_1
 70
0
 10
0
 20
0
 30
0
  3
L_0_02_1
  0
POINT
  5
166
100
AcDbEntity
  8
0
100
AcDbPoint
 62
0
 10
0.0
 20
0.0
 30
0.00
  0
ENDBLK
  5
167
100
AcDbEntity
  8
0
100
AcDbBlockEnd
  0
BLOCK
  5
14A
100
AcDbEntity
  8
0
100
AcDbBlockBegin
 62
0
370
13
  2
L_0_02_2
 70
0
 10
0
 20
0
 30
0
  3
L_0_02_2
  0
POINT
  5
168
100
AcDbEntity
  8
0
100
AcDbPoint
 62
0
 10
-0.0
 20
-0.0
 30
0.00
  0
ENDBLK
  5
169
100
AcDbEntity
  8
0
100
AcDbBlockEnd
  0
ENDSEC
  0
SECTION
  2
ENTITIES
  0
POLYLINE
  5
16A
100
AcDbEntity
  8
Dzialki
  6
CONTINUOUS
370
18
100
AcDb2dPolyline
 66
1
 70
128
  0
VERTEX
  5
16B
100
AcDbEntity
  8
Dzialki
100
AcDbVertex
100
AcDb2dVertex
 10
7576581.38999999966
 20
5706686.55999999959
  0
VERTEX
  5
16C
100
AcDbEntity
  8
Dzialki
100
AcDbVertex
100
AcDb2dVertex
 10
7576563.53000000026
 20
5706657.8200000003
  0
SEQEND
  5
16D
100
AcDbEntity
  8
Dzialki
  0
POLYLINE
  5
16E
100
AcDbEntity
  8
Dzialki
  6
CONTINUOUS
370
18
100
AcDb2dPolyline
 66
1
 70
128
  0
VERTEX
  5
16F
100
AcDbEntity
  8
Dzialki
100
AcDbVertex
100
AcDb2dVertex
 10
7576563.53000000026
 20
5706657.8200000003
  0
VERTEX
  5
170
100
AcDbEntity
  8
Dzialki
100
AcDbVertex
100
AcDb2dVertex
 10
7576528.45999999996
 20
5706316.59999999963
  0
SEQEND
  5
171
100
AcDbEntity
  8
Dzialki
  0
POLYLINE
  5
172
100
AcDbEntity
  8
Dzialki
  6
CONTINUOUS
370
18
100
AcDb2dPolyline
 66
1
 70
128
  0
VERTEX
  5
173
100
AcDbEntity
  8
Dzialki
100
AcDbVertex
100
AcDb2dVertex
 10
7576563.53000000026
 20
5706657.8200000003
  0
VERTEX
  5
174
100
AcDbEntity
  8
Dzialki
100
AcDbVertex
100
AcDb2dVertex
 10
7576532.33999999985
 20
5706612.28000000026
  0
SEQEND
  5
175
100
AcDbEntity
  8
Dzialki
  0
POLYLINE
  5
176
100
AcDbEntity
  8
Dzialki
  6
CONTINUOUS
370
18
100
AcDb2dPolyline
 66
1
 70
128
  0
VERTEX
  5
177
100
AcDbEntity
  8
Dzialki
100
AcDbVertex
100
AcDb2dVertex
 10
7576532.33999999985
 20
5706612.28000000026
  0
VERTEX
  5
178
100
AcDbEntity
  8
Dzialki
100
AcDbVertex
100
AcDb2dVertex
 10
7576500.95999999996
 20
5706321.3200000003
  0
SEQEND
  5
179
100
AcDbEntity
  8
Dzialki
  0
POLYLINE
  5
17A
100
AcDbEntity
  8
Dzialki
  6
CONTINUOUS
370
18
100
AcDb2dPolyline
 66
1
 70
128
  0
VERTEX
  5
17B
100
AcDbEntity
  8
Dzialki
100
AcDbVertex
100
AcDb2dVertex
 10
7576532.33999999985
 20
5706612.28000000026
  0
VERTEX
  5
17C
100
AcDbEntity
  8
Dzialki
100
AcDbVertex
100
AcDb2dVertex
 10
7576482.50999999978
 20
5706539.54000000004
  0
SEQEND
  5
17D
100
AcDbEntity
  8
Dzialki
  0
POLYLINE
  5
17E
100
AcDbEntity
  8
Dzialki
  6
CONTINUOUS
370
18
100
AcDb2dPolyline
 66
1
 70
128
  0
VERTEX
  5
17F
100
AcDbEntity
  8
Dzialki
100
AcDbVertex
100
AcDb2dVertex
 10
7576535.59999999963
 20
5706642.48000000045
  0
VERTEX
  5
180
100
AcDbEntity
  8
Dzialki
100
AcDbVertex
100
AcDb2dVertex
 10
7576567.99000000022
 20
5706689.54000000004
  0
SEQEND
  5
181
100
AcDbEntity
  8
Dzialki
  0
POLYLINE
  5
182
100
AcDbEntity
  8
Dzialki
  6
CONTINUOUS
370
18
100
AcDb2dPolyline
 66
1
 70
128
  0
VERTEX
  5
183
100
AcDbEntity
  8
Dzialki
100
AcDbVertex
100
AcDb2dVertex
 10
7576544.00999999978
 20
5706720.50999999978
  0
VERTEX
  5
184
100
AcDbEntity
  8
Dzialki
100
AcDbVertex
100
AcDb2dVertex
 10
7576535.59999999963
 20
5706642.48000000045
  0
SEQEND
  5
185
100
AcDbEntity
  8
Dzialki
  0
POLYLINE
  5
186
100
AcDbEntity
  8
Dzialki
  6
CONTINUOUS
370
18
100
AcDb2dPolyline
 66
1
 70
128
  0
VERTEX
  5
187
100
AcDbEntity
  8
Dzialki
100
AcDbVertex
100
AcDb2dVertex
 10
7576485.84999999963
 20
5706570.21999999974
  0
VERTEX
  5
188
100
AcDbEntity
  8
Dzialki
100
AcDbVertex
100
AcDb2dVertex
 10
7576535.59999999963
 20
5706642.48000000045
  0
SEQEND
  5
189
100
AcDbEntity
  8
Dzialki
  0
POLYLINE
  5
18A
100
AcDbEntity
  8
Kontury
  6
L_0_06
 62
3
370
18
100
AcDb2dPolyline
 66
1
 70
128
  0
VERTEX
  5
18B
100
AcDbEntity
  8
Kontury
100
AcDbVertex
100
AcDb2dVertex
 10
7576614.8200000003
 20
5706597.20999999996
  0
VERTEX
  5
18C
100
AcDbEntity
  8
Kontury
100
AcDbVertex
100
AcDb2dVertex
 10
7576532.33999999985
 20
5706612.28000000026
  0
SEQEND
  5
18D
100
AcDbEntity
  8
Kontury
  0
POLYLINE
  5
18E
100
AcDbEntity
  8
Kontury
  6
L_0_06
 62
3
370
18
100
AcDb2dPolyline
 66
1
 70
128
  0
VERTEX
  5
18F
100
AcDbEntity
  8
Kontury
100
AcDbVertex
100
AcDb2dVertex
 10
7576532.33999999985
 20
5706612.28000000026
  0
VERTEX
  5
190
100
AcDbEntity
  8
Kontury
100
AcDbVertex
100
AcDb2dVertex
 10
7576476.53000000026
 20
5706484.51999999862
  0
SEQEND
  5
191
100
AcDbEntity
  8
Kontury
  0
POLYLINE
  5
192
100
AcDbEntity
  8
Kontury
  6
L_0_06
 62
3
370
18
100
AcDb2dPolyline
 66
1
 70
128
  0
VERTEX
  5
193
100
AcDbEntity
  8
Kontury
100
AcDbVertex
100
AcDb2dVertex
 10
7576532.33999999985
 20
5706612.28000000026
  0
VERTEX
  5
194
100
AcDbEntity
  8
Kontury
100
AcDbVertex
100
AcDb2dVertex
 10
7576482.50999999978
 20
5706539.54000000004
  0
SEQEND
  5
195
100
AcDbEntity
  8
Kontury
  0
POLYLINE
  5
196
100
AcDbEntity
  8
Kontury
  6
L_0_06
 62
3
370
18
100
AcDb2dPolyline
 66
1
 70
128
  0
VERTEX
  5
197
100
AcDbEntity
  8
Kontury
100
AcDbVertex
100
AcDb2dVertex
 10
7576485.84999999963
 20
5706570.21999999974
  0
VERTEX
  5
198
100
AcDbEntity
  8
Kontury
100
AcDbVertex
100
AcDb2dVertex
 10
7576535.59999999963
 20
5706642.48000000045
  0
SEQEND
  5
199
100
AcDbEntity
  8
Kontury
  0
POLYLINE
  5
19A
100
AcDbEntity
  8
Kontury
  6
L_0_06
 62
3
370
18
100
AcDb2dPolyline
 66
1
 70
128
  0
VERTEX
  5
19B
100
AcDbEntity
  8
Kontury
100
AcDbVertex
100
AcDb2dVertex
 10
7576535.59999999963
 20
5706642.48000000045
  0
VERTEX
  5
19C
100
AcDbEntity
  8
Kontury
100
AcDbVertex
100
AcDb2dVertex
 10
7576567.99000000022
 20
5706689.54000000004
  0
SEQEND
  5
19D
100
AcDbEntity
  8
Kontury
  0
POLYLINE
  5
19E
100
AcDbEntity
  8
Kontury
  6
L_0_06
 62
3
370
18
100
AcDb2dPolyline
 66
1
 70
128
  0
VERTEX
  5
19F
100
AcDbEntity
  8
Kontury
100
AcDbVertex
100
AcDb2dVertex
 10
7576581.38999999966
 20
5706686.55999999959
  0
VERTEX
  5
1A0
100
AcDbEntity
  8
Kontury
100
AcDbVertex
100
AcDb2dVertex
 10
7576563.53000000026
 20
5706657.8200000003
  0
SEQEND
  5
1A1
100
AcDbEntity
  8
Kontury
  0
POLYLINE
  5
1A2
100
AcDbEntity
  8
Kontury
  6
L_0_06
 62
3
370
18
100
AcDb2dPolyline
 66
1
 70
128
  0
VERTEX
  5
1A3
100
AcDbEntity
  8
Kontury
100
AcDbVertex
100
AcDb2dVertex
 10
7576563.53000000026
 20
5706657.8200000003
  0
VERTEX
  5
1A4
100
AcDbEntity
  8
Kontury
100
AcDbVertex
100
AcDb2dVertex
 10
7576554.91999999993
 20
5706645.25999999978
  0
SEQEND
  5
1A5
100
AcDbEntity
  8
Kontury
  0
POLYLINE
  5
1A6
100
AcDbEntity
  8
Kontury
  6
L_0_06
 62
3
370
18
100
AcDb2dPolyline
 66
1
 70
128
  0
VERTEX
  5
1A7
100
AcDbEntity
  8
Kontury
100
AcDbVertex
100
AcDb2dVertex
 10
7576554.91999999993
 20
5706645.25999999978
  0
VERTEX
  5
1A8
100
AcDbEntity
  8
Kontury
100
AcDbVertex
100
AcDb2dVertex
 10
7576646.11000000034
 20
5706629.08999999985
  0
SEQEND
  5
1A9
100
AcDbEntity
  8
Kontury
  0
POLYLINE
  5
1AA
100
AcDbEntity
  8
Kontury
  6
L_0_06
 62
3
370
18
100
AcDb2dPolyline
 66
1
 70
128
  0
VERTEX
  5
1AB
100
AcDbEntity
  8
Kontury
100
AcDbVertex
100
AcDb2dVertex
 10
7576554.91999999993
 20
5706645.25999999978
  0
VERTEX
  5
1AC
100
AcDbEntity
  8
Kontury
100
AcDbVertex
100
AcDb2dVertex
 10
7576532.33999999985
 20
5706612.28000000026
  0
SEQEND
  5
1AD
100
AcDbEntity
  8
Kontury
  0
POLYLINE
  5
1AE
100
AcDbEntity
  8
OTK_L_0
  6
ByLayer
370
18
100
AcDb2dPolyline
 66
1
 70
128
  0
VERTEX
  5
1AF
100
AcDbEntity
  8
OTK_L_0
100
AcDbVertex
100
AcDb2dVertex
 10
7576561.31340422109
 20
5706673.00770159997
  0
VERTEX
  5
1B0
100
AcDbEntity
  8
OTK_L_0
100
AcDbVertex
100
AcDb2dVertex
 10
7576547.83999999985
 20
5706652.11000000034
  0
SEQEND
  5
1B1
100
AcDbEntity
  8
OTK_L_0
  0
POLYLINE
  5
1B2
100
AcDbEntity
  8
OTK_L_0
  6
ByLayer
370
18
100
AcDb2dPolyline
 66
1
 70
128
  0
VERTEX
  5
1B3
100
AcDbEntity
  8
OTK_L_0
100
AcDbVertex
100
AcDb2dVertex
 10
7576547.83999999985
 20
5706652.11000000034
  0
VERTEX
  5
1B4
100
AcDbEntity
  8
OTK_L_0
100
AcDbVertex
100
AcDb2dVertex
 10
7576533.95000000019
 20
5706631.5
  0
SEQEND
  5
1B5
100
AcDbEntity
  8
OTK_L_0
  0
POLYLINE
  5
1B6
100
AcDbEntity
  8
OTK_L_0
  6
ByLayer
370
18
100
AcDb2dPolyline
 66
1
 70
128
  0
VERTEX
  5
1B7
100
AcDbEntity
  8
OTK_L_0
100
AcDbVertex
100
AcDb2dVertex
 10
7576533.95000000019
 20
5706631.5
  0
VERTEX
  5
1B8
100
AcDbEntity
  8
OTK_L_0
100
AcDbVertex
100
AcDb2dVertex
 10
7576520.79999999981
 20
5706612.59999999963
  0
SEQEND
  5
1B9
100
AcDbEntity
  8
OTK_L_0
  0
POLYLINE
  5
1BA
100
AcDbEntity
  8
OTK_L_0
  6
ByLayer
370
18
100
AcDb2dPolyline
 66
1
 70
128
  0
VERTEX
  5
1BB
100
AcDbEntity
  8
OTK_L_0
100
AcDbVertex
100
AcDb2dVertex
 10
7576520.79999999981
 20
5706612.59999999963
  0
VERTEX
  5
1BC
100
AcDbEntity
  8
OTK_L_0
100
AcDbVertex
100
AcDb2dVertex
 10
7576508.09999999963
 20
5706592.25
  0
SEQEND
  5
1BD
100
AcDbEntity
  8
OTK_L_0
  0
POLYLINE
  5
1BE
100
AcDbEntity
  8
OTK_L_0
  6
ByLayer
370
18
100
AcDb2dPolyline
 66
1
 70
128
  0
VERTEX
  5
1BF
100
AcDbEntity
  8
OTK_L_0
100
AcDbVertex
100
AcDb2dVertex
 10
7576511.45999999996
 20
5706590.28000000026
  0
VERTEX
  5
1C0
100
AcDbEntity
  8
OTK_L_0
100
AcDbVertex
100
AcDb2dVertex
 10
7576524.45999999996
 20
5706609.51999999862
  0
SEQEND
  5
1C1
100
AcDbEntity
  8
OTK_L_0
  0
POLYLINE
  5
1C2
100
AcDbEntity
  8
OTK_L_0
  6
ByLayer
370
18
100
AcDb2dPolyline
 66
1
 70
128
  0
VERTEX
  5
1C3
100
AcDbEntity
  8
OTK_L_0
100
AcDbVertex
100
AcDb2dVertex
 10
7576524.45999999996
 20
5706609.51999999862
  0
VERTEX
  5
1C4
100
AcDbEntity
  8
OTK_L_0
100
AcDbVertex
100
AcDb2dVertex
 10
7576537.70000000019
 20
5706629.26999999862
  0
SEQEND
  5
1C5
100
AcDbEntity
  8
OTK_L_0
  0
POLYLINE
  5
1C6
100
AcDbEntity
  8
OTK_L_0
  6
ByLayer
370
18
100
AcDb2dPolyline
 66
1
 70
128
  0
VERTEX
  5
1C7
100
AcDbEntity
  8
OTK_L_0
100
AcDbVertex
100
AcDb2dVertex
 10
7576537.70000000019
 20
5706629.26999999862
  0
VERTEX
  5
1C8
100
AcDbEntity
  8
OTK_L_0
100
AcDbVertex
100
AcDb2dVertex
 10
7576551.84999999963
 20
5706649.79000000004
  0
SEQEND
  5
1C9
100
AcDbEntity
  8
OTK_L_0
  0
POLYLINE
  5
1CA
100
AcDbEntity
  8
OTK_L_0
  6
ByLayer
370
18
100
AcDb2dPolyline
 66
1
 70
128
  0
VERTEX
  5
1CB
100
AcDbEntity
  8
OTK_L_0
100
AcDbVertex
100
AcDb2dVertex
 10
7576551.84999999963
 20
5706649.79000000004
  0
VERTEX
  5
1CC
100
AcDbEntity
  8
OTK_L_0
100
AcDbVertex
100
AcDb2dVertex
 10
7576565.75690762047
 20
5706670.53288657032
  0
SEQEND
  5
1CD
100
AcDbEntity
  8
OTK_L_0
  0
POLYLINE
  5
1CE
100
AcDbEntity
  8
OTK_L_0
  6
ByLayer
370
18
100
AcDb2dPolyline
 66
1
 70
128
  0
VERTEX
  5
1CF
100
AcDbEntity
  8
OTK_L_0
100
AcDbVertex
100
AcDb2dVertex
 10
7576565.75690762047
 20
5706670.53288657032
  0
VERTEX
  5
1D0
100
AcDbEntity
  8
OTK_L_0
100
AcDbVertex
100
AcDb2dVertex
 10
7576561.31340422109
 20
5706673.00770159997
  0
SEQEND
  5
1D1
100
AcDbEntity
  8
OTK_L_0
  0
POLYLINE
  5
1D2
100
AcDbEntity
  8
OTK_L_0
  6
ByLayer
370
18
100
AcDb2dPolyline
 66
1
 70
128
  0
VERTEX
  5
1D3
100
AcDbEntity
  8
OTK_L_0
100
AcDbVertex
100
AcDb2dVertex
 10
7576561.31340422109
 20
5706673.00770159997
  0
VERTEX
  5
1D4
100
AcDbEntity
  8
OTK_L_0
100
AcDbVertex
100
AcDb2dVertex
 10
7576575.09480897989
 20
5706693.04126439057
  0
SEQEND
  5
1D5
100
AcDbEntity
  8
OTK_L_0
  0
POLYLINE
  5
1D6
100
AcDbEntity
  8
OTK_L_0
  6
ByLayer
370
18
100
AcDb2dPolyline
 66
1
 70
128
  0
VERTEX
  5
1D7
100
AcDbEntity
  8
OTK_L_0
100
AcDbVertex
100
AcDb2dVertex
 10
7576579.31379020121
 20
5706691.61246509943
  0
VERTEX
  5
1D8
100
AcDbEntity
  8
OTK_L_0
100
AcDbVertex
100
AcDb2dVertex
 10
7576565.75690762047
 20
5706670.53288657032
  0
SEQEND
  5
1D9
100
AcDbEntity
  8
OTK_L_0
  0
POLYLINE
  5
1DA
100
AcDbEntity
  8
Uzytki
  6
L_0_03
 62
3
370
18
100
AcDb2dPolyline
 66
1
 70
128
  0
VERTEX
  5
1DB
100
AcDbEntity
  8
Uzytki
100
AcDbVertex
100
AcDb2dVertex
 10
7576485.84999999963
 20
5706570.21999999974
  0
VERTEX
  5
1DC
100
AcDbEntity
  8
Uzytki
100
AcDbVertex
100
AcDb2dVertex
 10
7576535.59999999963
 20
5706642.48000000045
  0
SEQEND
  5
1DD
100
AcDbEntity
  8
Uzytki
  0
POLYLINE
  5
1DE
100
AcDbEntity
  8
Uzytki
  6
L_0_03
 62
3
370
18
100
AcDb2dPolyline
 66
1
 70
128
  0
VERTEX
  5
1DF
100
AcDbEntity
  8
Uzytki
100
AcDbVertex
100
AcDb2dVertex
 10
7576535.59999999963
 20
5706642.48000000045
  0
VERTEX
  5
1E0
100
AcDbEntity
  8
Uzytki
100
AcDbVertex
100
AcDb2dVertex
 10
7576567.99000000022
 20
5706689.54000000004
  0
SEQEND
  5
1E1
100
AcDbEntity
  8
Uzytki
  0
POLYLINE
  5
1E2
100
AcDbEntity
  8
Uzytki
  6
L_0_03
 62
3
370
18
100
AcDb2dPolyline
 66
1
 70
128
  0
VERTEX
  5
1E3
100
AcDbEntity
  8
Uzytki
100
AcDbVertex
100
AcDb2dVertex
 10
7576581.38999999966
 20
5706686.55999999959
  0
VERTEX
  5
1E4
100
AcDbEntity
  8
Uzytki
100
AcDbVertex
100
AcDb2dVertex
 10
7576563.53000000026
 20
5706657.8200000003
  0
SEQEND
  5
1E5
100
AcDbEntity
  8
Uzytki
  0
POLYLINE
  5
1E6
100
AcDbEntity
  8
Uzytki
  6
L_0_03
 62
3
370
18
100
AcDb2dPolyline
 66
1
 70
128
  0
VERTEX
  5
1E7
100
AcDbEntity
  8
Uzytki
100
AcDbVertex
100
AcDb2dVertex
 10
7576563.53000000026
 20
5706657.8200000003
  0
VERTEX
  5
1E8
100
AcDbEntity
  8
Uzytki
100
AcDbVertex
100
AcDb2dVertex
 10
7576554.91999999993
 20
5706645.25999999978
  0
SEQEND
  5
1E9
100
AcDbEntity
  8
Uzytki
  0
POLYLINE
  5
1EA
100
AcDbEntity
  8
Uzytki
  6
L_0_03
 62
3
370
18
100
AcDb2dPolyline
 66
1
 70
128
  0
VERTEX
  5
1EB
100
AcDbEntity
  8
Uzytki
100
AcDbVertex
100
AcDb2dVertex
 10
7576554.91999999993
 20
5706645.25999999978
  0
VERTEX
  5
1EC
100
AcDbEntity
  8
Uzytki
100
AcDbVertex
100
AcDb2dVertex
 10
7576532.33999999985
 20
5706612.28000000026
  0
SEQEND
  5
1ED
100
AcDbEntity
  8
Uzytki
  0
POLYLINE
  5
1EE
100
AcDbEntity
  8
Uzytki
  6
L_0_03
 62
3
370
18
100
AcDb2dPolyline
 66
1
 70
128
  0
VERTEX
  5
1EF
100
AcDbEntity
  8
Uzytki
100
AcDbVertex
100
AcDb2dVertex
 10
7576532.33999999985
 20
5706612.28000000026
  0
VERTEX
  5
1F0
100
AcDbEntity
  8
Uzytki
100
AcDbVertex
100
AcDb2dVertex
 10
7576482.50999999978
 20
5706539.54000000004
  0
SEQEND
  5
1F1
100
AcDbEntity
  8
Uzytki
  0
POINT
  5
1F2
100
AcDbEntity
  8
Dzialki
100
AcDbPoint
 62
256
 10
7576581.38999999966
 20
5706686.55999999959
  0
POINT
  5
1F3
100
AcDbEntity
  8
Dzialki
100
AcDbPoint
 62
256
 10
7576563.53000000026
 20
5706657.8200000003
  0
POINT
  5
1F4
100
AcDbEntity
  8
Dzialki
100
AcDbPoint
 62
256
 10
7576563.53000000026
 20
5706657.8200000003
  0
POINT
  5
1F5
100
AcDbEntity
  8
Dzialki
100
AcDbPoint
 62
256
 10
7576528.45999999996
 20
5706316.59999999963
  0
POINT
  5
1F6
100
AcDbEntity
  8
Dzialki
100
AcDbPoint
 62
256
 10
7576563.53000000026
 20
5706657.8200000003
  0
POINT
  5
1F7
100
AcDbEntity
  8
Dzialki
100
AcDbPoint
 62
256
 10
7576532.33999999985
 20
5706612.28000000026
  0
POINT
  5
1F8
100
AcDbEntity
  8
Dzialki
100
AcDbPoint
 62
256
 10
7576532.33999999985
 20
5706612.28000000026
  0
POINT
  5
1F9
100
AcDbEntity
  8
Dzialki
100
AcDbPoint
 62
256
 10
7576500.95999999996
 20
5706321.3200000003
  0
POINT
  5
1FA
100
AcDbEntity
  8
Dzialki
100
AcDbPoint
 62
256
 10
7576532.33999999985
 20
5706612.28000000026
  0
POINT
  5
1FB
100
AcDbEntity
  8
Dzialki
100
AcDbPoint
 62
256
 10
7576482.50999999978
 20
5706539.54000000004
  0
POINT
  5
1FC
100
AcDbEntity
  8
Dzialki
100
AcDbPoint
 62
256
 10
7576535.59999999963
 20
5706642.48000000045
  0
POINT
  5
1FD
100
AcDbEntity
  8
Dzialki
100
AcDbPoint
 62
256
 10
7576567.99000000022
 20
5706689.54000000004
  0
POINT
  5
1FE
100
AcDbEntity
  8
Dzialki
100
AcDbPoint
 62
256
 10
7576544.00999999978
 20
5706720.50999999978
  0
POINT
  5
1FF
100
AcDbEntity
  8
Dzialki
100
AcDbPoint
 62
256
 10
7576535.59999999963
 20
5706642.48000000045
  0
POINT
  5
200
100
AcDbEntity
  8
Dzialki
100
AcDbPoint
 62
256
 10
7576485.84999999963
 20
5706570.21999999974
  0
POINT
  5
201
100
AcDbEntity
  8
Dzialki
100
AcDbPoint
 62
256
 10
7576535.59999999963
 20
5706642.48000000045
  0
POINT
  5
202
100
AcDbEntity
  8
Kontury
100
AcDbPoint
 62
256
 10
7576614.8200000003
 20
5706597.20999999996
  0
POINT
  5
203
100
AcDbEntity
  8
Kontury
100
AcDbPoint
 62
256
 10
7576532.33999999985
 20
5706612.28000000026
  0
POINT
  5
204
100
AcDbEntity
  8
Kontury
100
AcDbPoint
 62
256
 10
7576532.33999999985
 20
5706612.28000000026
  0
POINT
  5
205
100
AcDbEntity
  8
Kontury
100
AcDbPoint
 62
256
 10
7576476.53000000026
 20
5706484.51999999862
  0
POINT
  5
206
100
AcDbEntity
  8
Kontury
100
AcDbPoint
 62
256
 10
7576532.33999999985
 20
5706612.28000000026
  0
POINT
  5
207
100
AcDbEntity
  8
Kontury
100
AcDbPoint
 62
256
 10
7576482.50999999978
 20
5706539.54000000004
  0
POINT
  5
208
100
AcDbEntity
  8
Kontury
100
AcDbPoint
 62
256
 10
7576485.84999999963
 20
5706570.21999999974
  0
POINT
  5
209
100
AcDbEntity
  8
Kontury
100
AcDbPoint
 62
256
 10
7576535.59999999963
 20
5706642.48000000045
  0
POINT
  5
20A
100
AcDbEntity
  8
Kontury
100
AcDbPoint
 62
256
 10
7576535.59999999963
 20
5706642.48000000045
  0
POINT
  5
20B
100
AcDbEntity
  8
Kontury
100
AcDbPoint
 62
256
 10
7576567.99000000022
 20
5706689.54000000004
  0
POINT
  5
20C
100
AcDbEntity
  8
Kontury
100
AcDbPoint
 62
256
 10
7576581.38999999966
 20
5706686.55999999959
  0
POINT
  5
20D
100
AcDbEntity
  8
Kontury
100
AcDbPoint
 62
256
 10
7576563.53000000026
 20
5706657.8200000003
  0
POINT
  5
20E
100
AcDbEntity
  8
Kontury
100
AcDbPoint
 62
256
 10
7576563.53000000026
 20
5706657.8200000003
  0
POINT
  5
20F
100
AcDbEntity
  8
Kontury
100
AcDbPoint
 62
256
 10
7576554.91999999993
 20
5706645.25999999978
  0
POINT
  5
210
100
AcDbEntity
  8
Kontury
100
AcDbPoint
 62
256
 10
7576554.91999999993
 20
5706645.25999999978
  0
POINT
  5
211
100
AcDbEntity
  8
Kontury
100
AcDbPoint
 62
256
 10
7576646.11000000034
 20
5706629.08999999985
  0
POINT
  5
212
100
AcDbEntity
  8
Kontury
100
AcDbPoint
 62
256
 10
7576554.91999999993
 20
5706645.25999999978
  0
POINT
  5
213
100
AcDbEntity
  8
Kontury
100
AcDbPoint
 62
256
 10
7576532.33999999985
 20
5706612.28000000026
  0
POINT
  5
214
100
AcDbEntity
  8
OTK_L_0
100
AcDbPoint
 62
256
 10
7576561.31340422109
 20
5706673.00770159997
  0
POINT
  5
215
100
AcDbEntity
  8
OTK_L_0
100
AcDbPoint
 62
256
 10
7576547.83999999985
 20
5706652.11000000034
  0
POINT
  5
216
100
AcDbEntity
  8
OTK_L_0
100
AcDbPoint
 62
256
 10
7576547.83999999985
 20
5706652.11000000034
  0
POINT
  5
217
100
AcDbEntity
  8
OTK_L_0
100
AcDbPoint
 62
256
 10
7576533.95000000019
 20
5706631.5
  0
POINT
  5
218
100
AcDbEntity
  8
OTK_L_0
100
AcDbPoint
 62
256
 10
7576533.95000000019
 20
5706631.5
  0
POINT
  5
219
100
AcDbEntity
  8
OTK_L_0
100
AcDbPoint
 62
256
 10
7576520.79999999981
 20
5706612.59999999963
  0
POINT
  5
21A
100
AcDbEntity
  8
OTK_L_0
100
AcDbPoint
 62
256
 10
7576520.79999999981
 20
5706612.59999999963
  0
POINT
  5
21B
100
AcDbEntity
  8
OTK_L_0
100
AcDbPoint
 62
256
 10
7576508.09999999963
 20
5706592.25
  0
POINT
  5
21C
100
AcDbEntity
  8
OTK_L_0
100
AcDbPoint
 62
256
 10
7576511.45999999996
 20
5706590.28000000026
  0
POINT
  5
21D
100
AcDbEntity
  8
OTK_L_0
100
AcDbPoint
 62
256
 10
7576524.45999999996
 20
5706609.51999999862
  0
POINT
  5
21E
100
AcDbEntity
  8
OTK_L_0
100
AcDbPoint
 62
256
 10
7576524.45999999996
 20
5706609.51999999862
  0
POINT
  5
21F
100
AcDbEntity
  8
OTK_L_0
100
AcDbPoint
 62
256
 10
7576537.70000000019
 20
5706629.26999999862
  0
POINT
  5
220
100
AcDbEntity
  8
OTK_L_0
100
AcDbPoint
 62
256
 10
7576537.70000000019
 20
5706629.26999999862
  0
POINT
  5
221
100
AcDbEntity
  8
OTK_L_0
100
AcDbPoint
 62
256
 10
7576551.84999999963
 20
5706649.79000000004
  0
POINT
  5
222
100
AcDbEntity
  8
OTK_L_0
100
AcDbPoint
 62
256
 10
7576551.84999999963
 20
5706649.79000000004
  0
POINT
  5
223
100
AcDbEntity
  8
OTK_L_0
100
AcDbPoint
 62
256
 10
7576565.75690762047
 20
5706670.53288657032
  0
POINT
  5
224
100
AcDbEntity
  8
OTK_L_0
100
AcDbPoint
 62
256
 10
7576565.75690762047
 20
5706670.53288657032
  0
POINT
  5
225
100
AcDbEntity
  8
OTK_L_0
100
AcDbPoint
 62
256
 10
7576561.31340422109
 20
5706673.00770159997
  0
POINT
  5
226
100
AcDbEntity
  8
OTK_L_0
100
AcDbPoint
 62
256
 10
7576561.31340422109
 20
5706673.00770159997
  0
POINT
  5
227
100
AcDbEntity
  8
OTK_L_0
100
AcDbPoint
 62
256
 10
7576575.09480897989
 20
5706693.04126439057
  0
POINT
  5
228
100
AcDbEntity
  8
OTK_L_0
100
AcDbPoint
 62
256
 10
7576579.31379020121
 20
5706691.61246509943
  0
POINT
  5
229
100
AcDbEntity
  8
OTK_L_0
100
AcDbPoint
 62
256
 10
7576565.75690762047
 20
5706670.53288657032
  0
POINT
  5
22A
100
AcDbEntity
  8
OTR_T_1
100
AcDbPoint
 62
7
 10
7576570.92082682997
 20
5706666.17110805959
  0
INSERT
  5
22B
100
AcDbEntity
  8
OTR_T_1
  6
CONTINUOUS
 62
7
100
AcDbBlockReference
 66
0
  2
OTRN
 10
7576570.92082682997
 20
5706666.17110805959
 41
0.50
 42
0.50
 43
0.50
 50
0.00
  0
POINT
  5
22C
100
AcDbEntity
  8
OTR_T_1
100
AcDbPoint
 62
7
 10
7576568.86135097966
 20
5706667.17634708062
  0
INSERT
  5
22D
100
AcDbEntity
  8
OTR_T_1
  6
CONTINUOUS
 62
7
100
AcDbBlockReference
 66
0
  2
OTRN
 10
7576568.86135097966
 20
5706667.17634708062
 41
0.50
 42
0.50
 43
0.50
 50
0.00
  0
POINT
  5
22E
100
AcDbEntity
  8
OTZ_T_0
100
AcDbPoint
 62
96
 10
7576567.83291640133
 20
5706669.91459405981
  0
INSERT
  5
22F
100
AcDbEntity
  8
OTZ_T_0
  6
CONTINUOUS
 62
96
100
AcDbBlockReference
 66
0
  2
OTZL
 10
7576567.83291640133
 20
5706669.91459405981
 41
0.50
 42
0.50
 43
0.50
 50
0.00
  0
POINT
  5
230
100
AcDbEntity
  8
OTZ_T_0
100
AcDbPoint
 62
96
 10
7576576.85979608074
 20
5706683.47094758973
  0
INSERT
  5
231
100
AcDbEntity
  8
OTZ_T_0
  6
CONTINUOUS
 62
96
100
AcDbBlockReference
 66
0
  2
OTZL
 10
7576576.85979608074
 20
5706683.47094758973
 41
0.50
 42
0.50
 43
0.50
 50
0.00
  0
POINT
  5
232
100
AcDbEntity
  8
Punkty
100
AcDbPoint
 62
7
 10
7576581.38999999966
 20
5706686.55999999959
  0
INSERT
  5
233
100
AcDbEntity
  8
Punkty
  6
CONTINUOUS
 62
7
100
AcDbBlockReference
 66
0
  2
OSHF
 10
7576581.38999999966
 20
5706686.55999999959
 41
0.50
 42
0.50
 43
0.50
 50
0.00
  0
POINT
  5
234
100
AcDbEntity
  8
Punkty
100
AcDbPoint
 62
7
 10
7576563.53000000026
 20
5706657.8200000003
  0
INSERT
  5
235
100
AcDbEntity
  8
Punkty
  6
CONTINUOUS
 62
7
100
AcDbBlockReference
 66
0
  2
OSHF
 10
7576563.53000000026
 20
5706657.8200000003
 41
0.50
 42
0.50
 43
0.50
 50
0.00
  0
POINT
  5
236
100
AcDbEntity
  8
Punkty
100
AcDbPoint
 62
7
 10
7576528.45999999996
 20
5706316.59999999963
  0
INSERT
  5
237
100
AcDbEntity
  8
Punkty
  6
CONTINUOUS
 62
7
100
AcDbBlockReference
 66
0
  2
OSHF
 10
7576528.45999999996
 20
5706316.59999999963
 41
0.50
 42
0.50
 43
0.50
 50
0.00
  0
POINT
  5
238
100
AcDbEntity
  8
Punkty
100
AcDbPoint
 62
7
 10
7576500.95999999996
 20
5706321.3200000003
  0
INSERT
  5
239
100
AcDbEntity
  8
Punkty
  6
CONTINUOUS
 62
7
100
AcDbBlockReference
 66
0
  2
OSHF
 10
7576500.95999999996
 20
5706321.3200000003
 41
0.50
 42
0.50
 43
0.50
 50
0.00
  0
POINT
  5
23A
100
AcDbEntity
  8
Punkty
100
AcDbPoint
 62
7
 10
7576532.33999999985
 20
5706612.28000000026
  0
INSERT
  5
23B
100
AcDbEntity
  8
Punkty
  6
CONTINUOUS
 62
7
100
AcDbBlockReference
 66
0
  2
OSHF
 10
7576532.33999999985
 20
5706612.28000000026
 41
0.50
 42
0.50
 43
0.50
 50
0.00
  0
POINT
  5
23C
100
AcDbEntity
  8
Punkty
100
AcDbPoint
 62
7
 10
7576482.50999999978
 20
5706539.54000000004
  0
INSERT
  5
23D
100
AcDbEntity
  8
Punkty
  6
CONTINUOUS
 62
7
100
AcDbBlockReference
 66
0
  2
OSHF
 10
7576482.50999999978
 20
5706539.54000000004
 41
0.50
 42
0.50
 43
0.50
 50
0.00
  0
POINT
  5
23E
100
AcDbEntity
  8
Punkty
100
AcDbPoint
 62
7
 10
7576535.59999999963
 20
5706642.48000000045
  0
INSERT
  5
23F
100
AcDbEntity
  8
Punkty
  6
CONTINUOUS
 62
7
100
AcDbBlockReference
 66
0
  2
OSHF
 10
7576535.59999999963
 20
5706642.48000000045
 41
0.50
 42
0.50
 43
0.50
 50
0.00
  0
POINT
  5
240
100
AcDbEntity
  8
Punkty
100
AcDbPoint
 62
7
 10
7576567.99000000022
 20
5706689.54000000004
  0
INSERT
  5
241
100
AcDbEntity
  8
Punkty
  6
CONTINUOUS
 62
7
100
AcDbBlockReference
 66
0
  2
OSHF
 10
7576567.99000000022
 20
5706689.54000000004
 41
0.50
 42
0.50
 43
0.50
 50
0.00
  0
POINT
  5
242
100
AcDbEntity
  8
Punkty
100
AcDbPoint
 62
7
 10
7576544.00999999978
 20
5706720.50999999978
  0
INSERT
  5
243
100
AcDbEntity
  8
Punkty
  6
CONTINUOUS
 62
7
100
AcDbBlockReference
 66
0
  2
OSHF
 10
7576544.00999999978
 20
5706720.50999999978
 41
0.50
 42
0.50
 43
0.50
 50
0.00
  0
POINT
  5
244
100
AcDbEntity
  8
Punkty
100
AcDbPoint
 62
7
 10
7576485.84999999963
 20
5706570.21999999974
  0
INSERT
  5
245
100
AcDbEntity
  8
Punkty
  6
CONTINUOUS
 62
7
100
AcDbBlockReference
 66
0
  2
OSHF
 10
7576485.84999999963
 20
5706570.21999999974
 41
0.50
 42
0.50
 43
0.50
 50
0.00
  0
POINT
  5
246
100
AcDbEntity
  8
Uzytki
100
AcDbPoint
 62
256
 10
7576485.84999999963
 20
5706570.21999999974
  0
POINT
  5
247
100
AcDbEntity
  8
Uzytki
100
AcDbPoint
 62
256
 10
7576535.59999999963
 20
5706642.48000000045
  0
POINT
  5
248
100
AcDbEntity
  8
Uzytki
100
AcDbPoint
 62
256
 10
7576535.59999999963
 20
5706642.48000000045
  0
POINT
  5
249
100
AcDbEntity
  8
Uzytki
100
AcDbPoint
 62
256
 10
7576567.99000000022
 20
5706689.54000000004
  0
POINT
  5
24A
100
AcDbEntity
  8
Uzytki
100
AcDbPoint
 62
256
 10
7576581.38999999966
 20
5706686.55999999959
  0
POINT
  5
24B
100
AcDbEntity
  8
Uzytki
100
AcDbPoint
 62
256
 10
7576563.53000000026
 20
5706657.8200000003
  0
POINT
  5
24C
100
AcDbEntity
  8
Uzytki
100
AcDbPoint
 62
256
 10
7576563.53000000026
 20
5706657.8200000003
  0
POINT
  5
24D
100
AcDbEntity
  8
Uzytki
100
AcDbPoint
 62
256
 10
7576554.91999999993
 20
5706645.25999999978
  0
POINT
  5
24E
100
AcDbEntity
  8
Uzytki
100
AcDbPoint
 62
256
 10
7576554.91999999993
 20
5706645.25999999978
  0
POINT
  5
24F
100
AcDbEntity
  8
Uzytki
100
AcDbPoint
 62
256
 10
7576532.33999999985
 20
5706612.28000000026
  0
POINT
  5
250
100
AcDbEntity
  8
Uzytki
100
AcDbPoint
 62
256
 10
7576532.33999999985
 20
5706612.28000000026
  0
POINT
  5
251
100
AcDbEntity
  8
Uzytki
100
AcDbPoint
 62
256
 10
7576482.50999999978
 20
5706539.54000000004
  0
TEXT
  5
252
100
AcDbEntity
  8
Numery_dzialek
 62
7
370
20
100
AcDbText
 10
7576563.73097793478
 20
5706589.5504474137
 40
1.00
  1
15-391/1
 50
0.00
 41
0.66
  7
STANDARD
 72
0
 11
7576563.73097793478
 21
5706590.5504474137
100
AcDbText
 73
3
  0
TEXT
  5
253
100
AcDbEntity
  8
Numery_dzialek
 62
7
370
20
100
AcDbText
 10
7576541.42861232534
 20
5706585.43996116333
 40
1.00
  1
15-389
 50
0.00
 41
0.66
  7
STANDARD
 72
0
 11
7576541.42861232534
 21
5706586.43996116333
100
AcDbText
 73
3
  0
TEXT
  5
254
100
AcDbEntity
  8
Numery_dzialek
 62
7
370
20
100
AcDbText
 10
7576516.63763354905
 20
5706553.86431285925
 40
1.00
  1
15-387
 50
0.00
 41
0.66
  7
STANDARD
 72
0
 11
7576516.63763354905
 21
5706554.86431285925
100
AcDbText
 73
3
  0
TEXT
  5
255
100
AcDbEntity
  8
Numery_dzialek
 62
7
370
20
100
AcDbText
 10
7576539.77999999654
 20
5706657.35999999754
 40
1.00
  1
15-388
 50
0.00
 41
0.66
  7
STANDARD
 72
0
 11
7576539.77999999654
 21
5706658.35999999754
100
AcDbText
 73
3
  0
TEXT
  5
256
100
AcDbEntity
  8
Numery_dzialek
 62
7
370
20
100
AcDbText
 10
7576527.46128956787
 20
5706640.55525299069
 40
1.00
  1
15-386
 50
0.00
 41
0.66
  7
STANDARD
 72
0
 11
7576527.46128956787
 21
5706641.55525299069
100
AcDbText
 73
3
  0
TEXT
  5
257
100
AcDbEntity
  8
Numery_dzialek
 62
7
370
20
100
AcDbText
 10
7576540.6962303631
 20
5706633.49487884715
 40
1.00
  1
15-1761/2
 50
0.00
 41
0.66
  7
STANDARD
 72
0
 11
7576540.6962303631
 21
5706634.49487884715
100
AcDbText
 73
3
  0
TEXT
  5
258
100
AcDbEntity
  8
Numery_konturow
 62
3
370
20
100
AcDbText
 10
7576527.73401449434
 20
5706557.97891226225
 40
1.00
  1
RIIIb
 50
0.00
 41
0.82
  7
STANDARD
 72
0
 11
7576527.73401449434
 21
5706558.97891226225
100
AcDbText
 73
3
  0
TEXT
  5
259
100
AcDbEntity
  8
Numery_konturow
 62
3
370
20
100
AcDbText
 10
7576509.44303524308
 20
5706581.98136517592
 40
1.00
  1
RIVa
 50
0.00
 41
0.82
  7
STANDARD
 72
0
 11
7576509.44303524308
 21
5706582.98136517592
100
AcDbText
 73
3
  0
TEXT
  5
25A
100
AcDbEntity
  8
Numery_konturow
 62
3
370
20
100
AcDbText
 10
7576520.85602449067
 20
5706643.45254469011
 40
1.00
  1
RIVa
 50
0.00
 41
0.82
  7
STANDARD
 72
0
 11
7576520.85602449067
 21
5706644.45254469011
100
AcDbText
 73
3
  0
TEXT
  5
25B
100
AcDbEntity
  8
Numery_konturow
 62
3
370
20
100
AcDbText
 10
7576563.90984314773
 20
5706656.63756357878
 40
1.00
  1
RIIIb
 50
0.00
 41
0.82
  7
STANDARD
 72
0
 11
7576563.90984314773
 21
5706657.63756357878
100
AcDbText
 73
3
  0
TEXT
  5
25C
100
AcDbEntity
  8
Numery_konturow
 62
3
370
20
100
AcDbText
 10
7576547.43766841572
 20
5706621.332512605
 40
1.00
  1
RIVa
 50
0.00
 41
0.82
  7
STANDARD
 72
0
 11
7576547.43766841572
 21
5706622.332512605
100
AcDbText
 73
3
  0
TEXT
  5
25D
100
AcDbEntity
  8
Numery_punktow
 62
7
370
18
100
AcDbText
 10
7576581.38999999966
 20
5706685.66000002343
 40
0.90
  1
15-1703
 50
0.00
 41
0.66
  7
STANDARD
 72
0
 11
7576581.38999999966
 21
5706686.55999999959
100
AcDbText
 73
3
  0
TEXT
  5
25E
100
AcDbEntity
  8
Numery_punktow
 62
7
370
18
100
AcDbText
 10
7576563.53000000026
 20
5706656.92000002414
 40
0.90
  1
15-1702
 50
0.00
 41
0.66
  7
STANDARD
 72
0
 11
7576563.53000000026
 21
5706657.8200000003
100
AcDbText
 73
3
  0
TEXT
  5
25F
100
AcDbEntity
  8
Numery_punktow
 62
7
370
18
100
AcDbText
 10
7576528.45999999996
 20
5706315.70000002347
 40
0.90
  1
15-1706
 50
0.00
 41
0.66
  7
STANDARD
 72
0
 11
7576528.45999999996
 21
5706316.59999999963
100
AcDbText
 73
3
  0
TEXT
  5
260
100
AcDbEntity
  8
Numery_punktow
 62
7
370
18
100
AcDbText
 10
7576500.95999999996
 20
5706320.42000002414
 40
0.90
  1
15-1019
 50
0.00
 41
0.66
  7
STANDARD
 72
0
 11
7576500.95999999996
 21
5706321.3200000003
100
AcDbText
 73
3
  0
TEXT
  5
261
100
AcDbEntity
  8
Numery_punktow
 62
7
370
18
100
AcDbText
 10
7576532.33999999985
 20
5706611.3800000241
 40
0.90
  1
15-868
 50
0.00
 41
0.66
  7
STANDARD
 72
0
 11
7576532.33999999985
 21
5706612.28000000026
100
AcDbText
 73
3
  0
TEXT
  5
262
100
AcDbEntity
  8
Numery_punktow
 62
7
370
18
100
AcDbText
 10
7576482.50999999978
 20
5706538.64000002388
 40
0.90
  1
15-867
 50
0.00
 41
0.66
  7
STANDARD
 72
0
 11
7576482.50999999978
 21
5706539.54000000004
100
AcDbText
 73
3
  0
TEXT
  5
263
100
AcDbEntity
  8
Numery_punktow
 62
7
370
18
100
AcDbText
 10
7576535.59999999963
 20
5706641.58000002429
 40
0.90
  1
15-859
 50
0.00
 41
0.66
  7
STANDARD
 72
0
 11
7576535.59999999963
 21
5706642.48000000045
100
AcDbText
 73
3
  0
TEXT
  5
264
100
AcDbEntity
  8
Numery_punktow
 62
7
370
18
100
AcDbText
 10
7576567.99000000022
 20
5706688.64000002388
 40
0.90
  1
15-858
 50
0.00
 41
0.66
  7
STANDARD
 72
0
 11
7576567.99000000022
 21
5706689.54000000004
100
AcDbText
 73
3
  0
TEXT
  5
265
100
AcDbEntity
  8
Numery_punktow
 62
7
370
18
100
AcDbText
 10
7576544.00999999978
 20
5706719.61000002362
 40
0.90
  1
15-881
 50
0.00
 41
0.66
  7
STANDARD
 72
0
 11
7576544.00999999978
 21
5706720.50999999978
100
AcDbText
 73
3
  0
TEXT
  5
266
100
AcDbEntity
  8
Numery_punktow
 62
7
370
18
100
AcDbText
 10
7576485.84999999963
 20
5706569.32000002358
 40
0.90
  1
15-860
 50
0.00
 41
0.66
  7
STANDARD
 72
0
 11
7576485.84999999963
 21
5706570.21999999974
100
AcDbText
 73
3
  0
TEXT
  5
267
100
AcDbEntity
  8
Numery_uzytkow
 62
3
370
20
100
AcDbText
 10
7576528.397563993
 20
5706644.70254469104
 40
1.00
  1
R
 50
0.00
 41
0.82
  7
STANDARD
 72
0
 11
7576528.397563993
 21
5706645.70254469104
100
AcDbText
 73
3
  0
TEXT
  5
268
100
AcDbEntity
  8
Numery_uzytkow
 62
3
370
20
100
AcDbText
 10
7576543.79285663739
 20
5706584.85162681434
 40
1.00
  1
R
 50
0.00
 41
0.82
  7
STANDARD
 72
0
 11
7576543.79285663739
 21
5706585.85162681434
100
AcDbText
 73
3
  0
TEXT
  5
269
100
AcDbEntity
  8
Numery_uzytkow
 62
3
370
20
100
AcDbText
 10
7576541.56877377443
 20
5706634.86441047303
 40
1.00
  1
dr
 50
0.00
 41
0.82
  7
STANDARD
 72
0
 11
7576541.56877377443
 21
5706635.86441047303
100
AcDbText
 73
3
  0
TEXT
  5
26A
100
AcDbEntity
  8
OTK_E_T_0
 62
7
370
15
100
AcDbText
 10
7576539.22071231157
 20
5706635.14545052499
 40
0.75
  1
j.gr.
 50
55.80
 41
0.66
  7
STANDARD
 72
0
 11
7576538.60040188115
 21
5706635.56701305881
100
AcDbText
 73
3
  0
TEXT
  5
26B
100
AcDbEntity
  8
OTR_T_1
 62
7
370
15
100
AcDbText
 10
7576570.92082682997
 20
5706665.42110805958
 40
0.75
  1
164.2
 50
0.00
 41
0.66
  7
STANDARD
 72
0
 11
7576570.92082682997
 21
5706666.17110805959
100
AcDbText
 73
3
  0
TEXT
  5
26C
100
AcDbEntity
  8
OTR_T_1
 62
7
370
15
100
AcDbText
 10
7576568.86135097966
 20
5706667.17634708062
 40
0.75
  1
164.2
 50
0.00
 41
0.66
  7
STANDARD
 72
0
 11
7576568.86135097966
 21
5706667.92634708062
100
AcDbText
 73
3
  0
ENDSEC
  0
SECTION
  2
OBJECTS
  0
DICTIONARY
  5
26D
330
0
100
AcDbDictionary
280
0
281
1
  3
ACAD_GROUP
350
26E
  3
ACAD_LAYOUT
350
26F
  3
ACAD_MLINESTYLE
350
270
  3
ACAD_PLOTSETTINGS
350
271
  3
ACAD_PLOTSTYLENAME
350
272
  3
ACAD_WIPEOUT_VARS
350
273
  0
DICTIONARY
  5
26E
102
{ACAD_REACTORS
330
26D
102
}
330
26D
100
AcDbDictionary
280
0
281
1
  0
DICTIONARY
  5
26F
102
{ACAD_REACTORS
330
26D
102
}
330
26D
100
AcDbDictionary
280
0
281
1
  3
Layout
350
140
  3
Model
350
13E
  0
DICTIONARY
  5
270
102
{ACAD_REACTORS
330
26D
102
}
330
26D
100
AcDbDictionary
280
0
281
1
  3
Standard
350
274
  3
L_0_02
350
7
  0
DICTIONARY
  5
271
102
{ACAD_REACTORS
330
26D
102
}
330
26D
100
AcDbDictionary
280
0
281
1
  0
ACDBDICTIONARYWDFLT
  5
272
102
{ACAD_REACTORS
330
26D
102
}
330
26D
100
AcDbDictionary
281
1
  3
Normal
350
E
100
AcDbDictionaryWithDefault
340
E
  0
WIPEOUTVARIABLES
  5
273
102
{ACAD_REACTORS
330
26D
102
}
330
26D
100
AcDbWipeoutVariables
 70
0
  0
LAYOUT
  5
140
100
AcDbPlotSettings
  1

  2

  4

  6

 40
0.0
 41
0.0
 42
0.0
 43
0.0
 44
0.0
 45
0.0
 46
0.0
 47
0.0
 48
0.0
 49
0.0
140
0.0
141
0.0
142
1.0
143
1.0
 70
688
 72
1
 73
0
 74
5
  7

 75
0
147
1.0
148
0.0
149
0.0
100
AcDbLayout
  1
Layout
 70
1
 71
1
 10
0.0
 20
0.0
 11
420.0
 21
297.0
 12
0.0
 22
0.0
 32
0.0
 14
100000000000000000000.0
 24
100000000000000000000.0
 34
100000000000000000000.0
 15
-100000000000000000000.0
 25
-100000000000000000000.0
 35
-100000000000000000000.0
146
0.0
 13
0.0
 23
0.0
 33
0.0
 16
1.0
 26
0.0
 36
0.0
 17
0.0
 27
1.0
 37
0.0
 76
0
330
13F
  0
LAYOUT
  5
13E
100
AcDbPlotSettings
  1

  2

  4

  6

 40
0.0
 41
0.0
 42
0.0
 43
0.0
 44
0.0
 45
0.0
 46
0.0
 47
0.0
 48
0.0
 49
0.0
140
0.0
141
0.0
142
1.0
143
1.0
 70
1712
 72
1
 73
0
 74
0
  7

 75
0
147
1.0
148
0.0
149
0.0
100
AcDbLayout
  1
Model
 70
1
 71
0
 10
0.0
 20
0.0
 11
12.0
 21
9.0
 12
0.0
 22
0.0
 32
0.0
 14
0.0
 24
0.0
 34
0.0
 15
0.0
 25
0.0
 35
0.0
146
0.0
 13
0.0
 23
0.0
 33
0.0
 16
1.0
 26
0.0
 36
0.0
 17
0.0
 27
1.0
 37
0.0
 76
0
330
13D
  0
MLINESTYLE
  5
274
102
{ACAD_REACTORS
330
270
102
}
330
270
100
AcDbMlineStyle
  2
Standard
 70
0
  3

 62
256
 51
90.0
 52
90.0
  2
Standard
 71
2
 49
0.5
 62
256
  6
ByLayer
 49
-0.5
 62
256
  6
ByLayer
  0
MLINESTYLE
  5
7
100
AcDbMlineStyle
  2
L_0_02
 70
0
  3

 51
90.0
 52
90.0
 71
1
 49
0.0
 62
256
  6
CONTINUOUS
  0
ACDBPLACEHOLDER
  5
E
  0
ENDSEC
  0
EOF
