  0
SECTION
  2
HEADER
  9
$ACADVER
  1
AC1018
  9
$HANDSEED
  5
FFFFFF
  9
$EXTMAX
 10
7585164.84999999963
 20
5719235.81500000041
 30
1000000.00
  9
$EXTMIN
 10
7558367.04200000036
 20
5692438.00700000022
 30
0.00
  9
$LIMMIN
 10
7558367.04200000036
 20
5692438.00700000022
  9
$LIMMAX
 10
7585164.84999999963
 20
5719235.81500000041
  9
$DIMASZ
 40
2.5
  9
$DIMGAP
 40
0.625
  9
$INSUNITS
 70
6
  9
$DIMEXO
 40
0.625
  9
$DIMTXT
 40
2.5
  9
$DIMSTYLE
  2
Standard
  9
$PLIMMIN
 10
0.0
 20
0.0
  9
$PLIMMAX
 10
210.0
 20
297.0
  9
$DIMEXE
 40
1.25
  9
$TEXTSIZE
 40
2.5
  9
$TEXTSTYLE
  7
Standard
  9
$LWDISPLAY
290
1
  9
$TDCREATE
 40
45184.889341956
  9
$TDUCREATE
 40
45184.806008623
  9
$TDUPDATE
 40
45184.889341956
  9
$TDUUPDATE
 40
45184.806008623
  9
$TDINDWG
 40
0.0
  9
$TDUSRTIMER
 40
0.0
  9
$USRTIMER
 70
1
  0
ENDSEC
  0
SECTION
  2
TABLES
  0
TABLE
  2
VPORT
  5
1
100
AcDbSymbolTable
 70
1
  0
VPORT
  5
2
100
AcDbSymbolTableRecord
100
AcDbViewportTableRecord
  2
*ACTIVE
 70
0
 10
0.0
 20
0.0
 11
1.0
 21
1.0
 12
7571765.946
 22
5705836.911
 13
0.0
 23
0.0
 14
1.0
 24
1.0
 15
0.0
 25
0.0
 16
0.0
 26
0.0
 36
1.0
 17
0.0
 27
0.0
 37
0.0
 40
26797.808
 41
1.000
 42
50.0
 43
0.0
 44
0.0
 50
0.0
 51
0.0
 71
0
 72
100
 73
1
 74
1
 75
0
 76
0
 77
0
 78
0
  0
ENDTAB
  0
TABLE
  2
LTYPE
  5
3
100
AcDbSymbolTable
 70
3
  0
LTYPE
  5
4
100
AcDbSymbolTableRecord
100
AcDbLinetypeTableRecord
  2
ByBlock
 70
0
  3

 72
65
 73
0
 40
0.0
  0
LTYPE
  5
5
100
AcDbSymbolTableRecord
100
AcDbLinetypeTableRecord
  2
ByLayer
 70
0
  3

 72
65
 73
0
 40
0.0
  0
LTYPE
  5
6
100
AcDbSymbolTableRecord
100
AcDbLinetypeTableRecord
  2
CONTINUOUS
 70
0
  3
Solid line
 72
65
 73
0
 40
0.0
  0
LTYPE
  5
7
100
AcDbSymbolTableRecord
100
AcDbLinetypeTableRecord
  2
L_0_03
 70
0
  3
Uzytek_gruntowy
 72
65
 73
2
 40
0.5
 49
0.25
 74
0
 49
-0.25
 74
0
  0
LTYPE
  5
8
100
AcDbSymbolTableRecord
100
AcDbLinetypeTableRecord
  2
L_0_04
 70
0
  3
Budynek_projektowany
 72
65
 73
2
 40
0.75
 49
0.5
 74
0
 49
-0.25
 74
0
  0
ENDTAB
  0
TABLE
  2
LAYER
  5
9
100
AcDbSymbolTable
 70
7
  0
LAYER
  5
A
100
AcDbSymbolTableRecord
100
AcDbLayerTableRecord
  2
0
 70
0
420
0
  6
CONTINUOUS
370
18
390
B
  0
LAYER
  5
C
100
AcDbSymbolTableRecord
100
AcDbLayerTableRecord
  2
dzialka
 70
0
420
32768
  6
CONTINUOUS
370
18
390
B
  0
LAYER
  5
D
100
AcDbSymbolTableRecord
100
AcDbLayerTableRecord
  2
Level_1
 70
0
420
0
  6
CONTINUOUS
370
18
390
B
  0
LAYER
  5
E
100
AcDbSymbolTableRecord
100
AcDbLayerTableRecord
  2
Osie
 70
0
420
16711680
  6
L_0_03
370
18
390
B
  0
LAYER
  5
F
100
AcDbSymbolTableRecord
100
AcDbLayerTableRecord
  2
przylacze_kablowe
 70
0
420
16711680
  6
CONTINUOUS
370
35
390
B
  0
LAYER
  5
10
100
AcDbSymbolTableRecord
100
AcDbLayerTableRecord
  2
WODA
 70
0
420
255
  6
CONTINUOUS
370
35
390
B
  0
LAYER
  5
11
100
AcDbSymbolTableRecord
100
AcDbLayerTableRecord
  2
ZUD_WOD_L_0
 70
0
420
255
  6
L_0_04
370
13
390
B
  0
ENDTAB
  0
TABLE
  2
STYLE
  5
12
100
AcDbSymbolTable
 70
2
  0
STYLE
  5
13
100
AcDbSymbolTableRecord
100
AcDbTextStyleTableRecord
  2
STANDARD
 70
0
 40
0.0
 41
1.0
 50
0.0
 71
0
  3
simplex.shx
  4

  0
STYLE
  5
14
100
AcDbSymbolTableRecord
100
AcDbTextStyleTableRecord
  2
STANDARD_ITALIC
 70
0
 40
0.0
 41
1.0
 50
15.0
 71
0
  3
simplex.shx
  4

  0
ENDTAB
  0
TABLE
  2
VIEW
  5
15
100
AcDbSymbolTable
 70
0
  0
ENDTAB
  0
TABLE
  2
UCS
  5
16
100
AcDbSymbolTable
 70
0
  0
ENDTAB
  0
TABLE
  2
APPID
  5
17
100
AcDbSymbolTable
 70
1
  0
APPID
  5
18
100
AcDbSymbolTableRecord
100
AcDbRegAppTableRecord
  2
ACAD
 70
0
  0
ENDTAB
  0
TABLE
  2
DIMSTYLE
  5
19
100
AcDbSymbolTable
 70
1
100
AcDbDimStyleTable
  0
DIMSTYLE
105
1A
100
AcDbSymbolTableRecord
100
AcDbDimStyleTableRecord
  2
Standard
 70
0
340
13
  0
ENDTAB
  0
TABLE
  2
BLOCK_RECORD
  5
1B
100
AcDbSymbolTable
 70
2
  0
BLOCK_RECORD
  5
1C
100
AcDbSymbolTableRecord
100
AcDbBlockTableRecord
  2
*Model_Space
340
1D
  0
BLOCK_RECORD
  5
1E
100
AcDbSymbolTableRecord
100
AcDbBlockTableRecord
  2
*Paper_Space
340
1F
  0
ENDTAB
  0
ENDSEC
  0
SECTION
  2
BLOCKS
  0
BLOCK
  5
20
100
AcDbEntity
  8
0
100
AcDbBlockBegin
  2
*Model_Space
 70
0
 10
0.0
 20
0.0
 30
0.0
  3
*Model_Space
  1

  0
ENDBLK
  5
21
100
AcDbEntity
  8
0
100
AcDbBlockEnd
  0
BLOCK
  5
22
100
AcDbEntity
 67
1
  8
0
100
AcDbBlockBegin
  2
*Paper_Space
 70
0
 10
0.0
 20
0.0
 30
0.0
  3
*Paper_Space
  1

  0
ENDBLK
  5
23
100
AcDbEntity
 67
1
  8
0
100
AcDbBlockEnd
  0
ENDSEC
  0
SECTION
  2
ENTITIES
  0
POLYLINE
  5
24
100
AcDbEntity
  8
dzialka
  6
CONTINUOUS
370
18
100
AcDb2dPolyline
 66
1
 70
129
  0
VERTEX
  5
25
100
AcDbEntity
  8
dzialka
100
AcDbVertex
100
AcDb2dVertex
 10
7571566.29999999981
 20
5705166.04999999981
  0
VERTEX
  5
26
100
AcDbEntity
  8
dzialka
100
AcDbVertex
100
AcDb2dVertex
 10
7571546.1799999997
 20
5705158.0
  0
VERTEX
  5
27
100
AcDbEntity
  8
dzialka
100
AcDbVertex
100
AcDb2dVertex
 10
7571654.16000000015
 20
5705735.95999999996
  0
VERTEX
  5
28
100
AcDbEntity
  8
dzialka
100
AcDbVertex
100
AcDb2dVertex
 10
7571674.3200000003
 20
5705744.26999999955
  0
SEQEND
  5
29
100
AcDbEntity
  8
dzialka
  0
POLYLINE
  5
2A
100
AcDbEntity
  8
dzialka
  6
CONTINUOUS
370
18
100
AcDb2dPolyline
 66
1
 70
129
  0
VERTEX
  5
2B
100
AcDbEntity
  8
dzialka
100
AcDbVertex
100
AcDb2dVertex
 10
7571577.36000000034
 20
5705646.12000000011
  0
VERTEX
  5
2C
100
AcDbEntity
  8
dzialka
100
AcDbVertex
100
AcDb2dVertex
 10
7571576.61000000034
 20
5705646.25999999978
  0
VERTEX
  5
2D
100
AcDbEntity
  8
dzialka
100
AcDbVertex
100
AcDb2dVertex
 10
7571569.71999999974
 20
5705647.58999999985
  0
VERTEX
  5
2E
100
AcDbEntity
  8
dzialka
100
AcDbVertex
100
AcDb2dVertex
 10
7571550.95000000019
 20
5705651.05999999959
  0
VERTEX
  5
2F
100
AcDbEntity
  8
dzialka
100
AcDbVertex
100
AcDb2dVertex
 10
7571572.74000000022
 20
5705767.62999999989
  0
VERTEX
  5
30
100
AcDbEntity
  8
dzialka
100
AcDbVertex
100
AcDb2dVertex
 10
7571596.62000000011
 20
5705749.11000000034
  0
SEQEND
  5
31
100
AcDbEntity
  8
dzialka
  0
POLYLINE
  5
32
100
AcDbEntity
  8
dzialka
  6
CONTINUOUS
370
18
100
AcDb2dPolyline
 66
1
 70
129
  0
VERTEX
  5
33
100
AcDbEntity
  8
dzialka
100
AcDbVertex
100
AcDb2dVertex
 10
7571903.21999999974
 20
5705849.88999999966
  0
VERTEX
  5
34
100
AcDbEntity
  8
dzialka
100
AcDbVertex
100
AcDb2dVertex
 10
7571949.05999999959
 20
5706102.04999999981
  0
VERTEX
  5
35
100
AcDbEntity
  8
dzialka
100
AcDbVertex
100
AcDb2dVertex
 10
7571989.94000000041
 20
5706065.44000000041
  0
VERTEX
  5
36
100
AcDbEntity
  8
dzialka
100
AcDbVertex
100
AcDb2dVertex
 10
7571948.8200000003
 20
5705846.59999999963
  0
VERTEX
  5
37
100
AcDbEntity
  8
dzialka
100
AcDbVertex
100
AcDb2dVertex
 10
7571916.04000000004
 20
5705855.59999999963
  0
SEQEND
  5
38
100
AcDbEntity
  8
dzialka
  0
POLYLINE
  5
39
100
AcDbEntity
  8
dzialka
  6
CONTINUOUS
370
18
100
AcDb2dPolyline
 66
1
 70
129
  0
VERTEX
  5
3A
100
AcDbEntity
  8
dzialka
100
AcDbVertex
100
AcDb2dVertex
 10
7571948.8200000003
 20
5705846.59999999963
  0
VERTEX
  5
3B
100
AcDbEntity
  8
dzialka
100
AcDbVertex
100
AcDb2dVertex
 10
7571989.94000000041
 20
5706065.44000000041
  0
VERTEX
  5
3C
100
AcDbEntity
  8
dzialka
100
AcDbVertex
100
AcDb2dVertex
 10
7572031.16000000015
 20
5706028.51999999955
  0
VERTEX
  5
3D
100
AcDbEntity
  8
dzialka
100
AcDbVertex
100
AcDb2dVertex
 10
7571995.11000000034
 20
5705833.88999999966
  0
SEQEND
  5
3E
100
AcDbEntity
  8
dzialka
  0
POLYLINE
  5
3F
100
AcDbEntity
  8
dzialka
  6
CONTINUOUS
370
18
100
AcDb2dPolyline
 66
1
 70
129
  0
VERTEX
  5
40
100
AcDbEntity
  8
dzialka
100
AcDbVertex
100
AcDb2dVertex
 10
7571933.00999999978
 20
5705744.16999999993
  0
VERTEX
  5
41
100
AcDbEntity
  8
dzialka
100
AcDbVertex
100
AcDb2dVertex
 10
7571951.04999999981
 20
5705840.79999999981
  0
VERTEX
  5
42
100
AcDbEntity
  8
dzialka
100
AcDbVertex
100
AcDb2dVertex
 10
7571978.55999999959
 20
5705833.25
  0
VERTEX
  5
43
100
AcDbEntity
  8
dzialka
100
AcDbVertex
100
AcDb2dVertex
 10
7571964.96999999974
 20
5705764.74000000022
  0
VERTEX
  5
44
100
AcDbEntity
  8
dzialka
100
AcDbVertex
100
AcDb2dVertex
 10
7571977.23000000045
 20
5705761.84999999963
  0
VERTEX
  5
45
100
AcDbEntity
  8
dzialka
100
AcDbVertex
100
AcDb2dVertex
 10
7571972.12999999989
 20
5705736.87000000011
  0
SEQEND
  5
46
100
AcDbEntity
  8
dzialka
  0
POLYLINE
  5
47
100
AcDbEntity
  8
dzialka
  6
CONTINUOUS
370
18
100
AcDb2dPolyline
 66
1
 70
129
  0
VERTEX
  5
48
100
AcDbEntity
  8
dzialka
100
AcDbVertex
100
AcDb2dVertex
 10
7571763.19000000041
 20
5705999.83999999985
  0
VERTEX
  5
49
100
AcDbEntity
  8
dzialka
100
AcDbVertex
100
AcDb2dVertex
 10
7571806.37000000011
 20
5706229.87000000011
  0
VERTEX
  5
4A
100
AcDbEntity
  8
dzialka
100
AcDbVertex
100
AcDb2dVertex
 10
7571849.5700000003
 20
5706191.1799999997
  0
VERTEX
  5
4B
100
AcDbEntity
  8
dzialka
100
AcDbVertex
100
AcDb2dVertex
 10
7571775.04000000004
 20
5705792.79999999981
  0
VERTEX
  5
4C
100
AcDbEntity
  8
dzialka
100
AcDbVertex
100
AcDb2dVertex
 10
7571719.71999999974
 20
5705768.23000000045
  0
SEQEND
  5
4D
100
AcDbEntity
  8
dzialka
  0
POLYLINE
  5
4E
100
AcDbEntity
  8
dzialka
  6
CONTINUOUS
370
18
100
AcDb2dPolyline
 66
1
 70
129
  0
VERTEX
  5
4F
100
AcDbEntity
  8
dzialka
100
AcDbVertex
100
AcDb2dVertex
 10
7571903.21999999974
 20
5705849.88999999966
  0
VERTEX
  5
50
100
AcDbEntity
  8
dzialka
100
AcDbVertex
100
AcDb2dVertex
 10
7571840.83999999985
 20
5705822.11000000034
  0
VERTEX
  5
51
100
AcDbEntity
  8
dzialka
100
AcDbVertex
100
AcDb2dVertex
 10
7571855.33000000007
 20
5705901.66999999993
  0
VERTEX
  5
52
100
AcDbEntity
  8
dzialka
100
AcDbVertex
100
AcDb2dVertex
 10
7571899.84999999963
 20
5706146.13999999966
  0
VERTEX
  5
53
100
AcDbEntity
  8
dzialka
100
AcDbVertex
100
AcDb2dVertex
 10
7571949.05999999959
 20
5706102.04999999981
  0
SEQEND
  5
54
100
AcDbEntity
  8
dzialka
  0
POLYLINE
  5
55
100
AcDbEntity
  8
dzialka
  6
CONTINUOUS
370
18
100
AcDb2dPolyline
 66
1
 70
129
  0
VERTEX
  5
56
100
AcDbEntity
  8
dzialka
100
AcDbVertex
100
AcDb2dVertex
 10
7571775.04000000004
 20
5705792.79999999981
  0
VERTEX
  5
57
100
AcDbEntity
  8
dzialka
100
AcDbVertex
100
AcDb2dVertex
 10
7571849.5700000003
 20
5706191.1799999997
  0
VERTEX
  5
58
100
AcDbEntity
  8
dzialka
100
AcDbVertex
100
AcDb2dVertex
 10
7571862.62000000011
 20
5706179.48000000045
  0
VERTEX
  5
59
100
AcDbEntity
  8
dzialka
100
AcDbVertex
100
AcDb2dVertex
 10
7571809.09999999963
 20
5705891.26999999955
  0
VERTEX
  5
5A
100
AcDbEntity
  8
dzialka
100
AcDbVertex
100
AcDb2dVertex
 10
7571792.24000000022
 20
5705800.45999999996
  0
SEQEND
  5
5B
100
AcDbEntity
  8
dzialka
  0
POLYLINE
  5
5C
100
AcDbEntity
  8
dzialka
  6
CONTINUOUS
370
18
100
AcDb2dPolyline
 66
1
 70
129
  0
VERTEX
  5
5D
100
AcDbEntity
  8
dzialka
100
AcDbVertex
100
AcDb2dVertex
 10
7571840.83999999985
 20
5705822.11000000034
  0
VERTEX
  5
5E
100
AcDbEntity
  8
dzialka
100
AcDbVertex
100
AcDb2dVertex
 10
7571792.24000000022
 20
5705800.45999999996
  0
VERTEX
  5
5F
100
AcDbEntity
  8
dzialka
100
AcDbVertex
100
AcDb2dVertex
 10
7571809.09999999963
 20
5705891.26999999955
  0
VERTEX
  5
60
100
AcDbEntity
  8
dzialka
100
AcDbVertex
100
AcDb2dVertex
 10
7571855.33000000007
 20
5705901.66999999993
  0
SEQEND
  5
61
100
AcDbEntity
  8
dzialka
  0
POLYLINE
  5
62
100
AcDbEntity
  8
dzialka
  6
CONTINUOUS
370
18
100
AcDb2dPolyline
 66
1
 70
129
  0
VERTEX
  5
63
100
AcDbEntity
  8
dzialka
100
AcDbVertex
100
AcDb2dVertex
 10
7571899.84999999963
 20
5706146.13999999966
  0
VERTEX
  5
64
100
AcDbEntity
  8
dzialka
100
AcDbVertex
100
AcDb2dVertex
 10
7571855.33000000007
 20
5705901.66999999993
  0
VERTEX
  5
65
100
AcDbEntity
  8
dzialka
100
AcDbVertex
100
AcDb2dVertex
 10
7571809.09999999963
 20
5705891.26999999955
  0
VERTEX
  5
66
100
AcDbEntity
  8
dzialka
100
AcDbVertex
100
AcDb2dVertex
 10
7571862.62000000011
 20
5706179.48000000045
  0
SEQEND
  5
67
100
AcDbEntity
  8
dzialka
  0
POLYLINE
  5
68
100
AcDbEntity
  8
dzialka
  6
CONTINUOUS
370
18
100
AcDb2dPolyline
 66
1
 70
129
  0
VERTEX
  5
69
100
AcDbEntity
  8
dzialka
100
AcDbVertex
100
AcDb2dVertex
 10
7571977.23000000045
 20
5705761.84999999963
  0
VERTEX
  5
6A
100
AcDbEntity
  8
dzialka
100
AcDbVertex
100
AcDb2dVertex
 10
7571964.96999999974
 20
5705764.74000000022
  0
VERTEX
  5
6B
100
AcDbEntity
  8
dzialka
100
AcDbVertex
100
AcDb2dVertex
 10
7571978.55999999959
 20
5705833.25
  0
VERTEX
  5
6C
100
AcDbEntity
  8
dzialka
100
AcDbVertex
100
AcDb2dVertex
 10
7572004.74000000022
 20
5705826.0700000003
  0
VERTEX
  5
6D
100
AcDbEntity
  8
dzialka
100
AcDbVertex
100
AcDb2dVertex
 10
7571994.28000000026
 20
5705771.05999999959
  0
VERTEX
  5
6E
100
AcDbEntity
  8
dzialka
100
AcDbVertex
100
AcDb2dVertex
 10
7571987.70000000019
 20
5705772.29999999981
  0
VERTEX
  5
6F
100
AcDbEntity
  8
dzialka
100
AcDbVertex
100
AcDb2dVertex
 10
7571979.61000000034
 20
5705773.83999999985
  0
SEQEND
  5
70
100
AcDbEntity
  8
dzialka
  0
POLYLINE
  5
71
100
AcDbEntity
  8
dzialka
  6
CONTINUOUS
370
18
100
AcDb2dPolyline
 66
1
 70
129
  0
VERTEX
  5
72
100
AcDbEntity
  8
dzialka
100
AcDbVertex
100
AcDb2dVertex
 10
7571760.99000000022
 20
5705234.16000000015
  0
VERTEX
  5
73
100
AcDbEntity
  8
dzialka
100
AcDbVertex
100
AcDb2dVertex
 10
7571871.1799999997
 20
5705830.13999999966
  0
VERTEX
  5
74
100
AcDbEntity
  8
dzialka
100
AcDbVertex
100
AcDb2dVertex
 10
7571913.21999999974
 20
5705848.86000000034
  0
VERTEX
  5
75
100
AcDbEntity
  8
dzialka
100
AcDbVertex
100
AcDb2dVertex
 10
7571801.75999999978
 20
5705248.50999999978
  0
SEQEND
  5
76
100
AcDbEntity
  8
dzialka
  0
POLYLINE
  5
77
100
AcDbEntity
  8
dzialka
  6
CONTINUOUS
370
18
100
AcDb2dPolyline
 66
1
 70
129
  0
VERTEX
  5
78
100
AcDbEntity
  8
dzialka
100
AcDbVertex
100
AcDb2dVertex
 10
7571933.00999999978
 20
5705744.16999999993
  0
VERTEX
  5
79
100
AcDbEntity
  8
dzialka
100
AcDbVertex
100
AcDb2dVertex
 10
7571843.16000000015
 20
5705263.08000000007
  0
VERTEX
  5
7A
100
AcDbEntity
  8
dzialka
100
AcDbVertex
100
AcDb2dVertex
 10
7571801.75999999978
 20
5705248.50999999978
  0
VERTEX
  5
7B
100
AcDbEntity
  8
dzialka
100
AcDbVertex
100
AcDb2dVertex
 10
7571913.21999999974
 20
5705848.86000000034
  0
VERTEX
  5
7C
100
AcDbEntity
  8
dzialka
100
AcDbVertex
100
AcDb2dVertex
 10
7571916.44000000041
 20
5705850.29999999981
  0
VERTEX
  5
7D
100
AcDbEntity
  8
dzialka
100
AcDbVertex
100
AcDb2dVertex
 10
7571951.04999999981
 20
5705840.79999999981
  0
SEQEND
  5
7E
100
AcDbEntity
  8
dzialka
  0
POLYLINE
  5
7F
100
AcDbEntity
  8
dzialka
  6
CONTINUOUS
370
18
100
AcDb2dPolyline
 66
1
 70
129
  0
VERTEX
  5
80
100
AcDbEntity
  8
dzialka
100
AcDbVertex
100
AcDb2dVertex
 10
7571933.00999999978
 20
5705744.16999999993
  0
VERTEX
  5
81
100
AcDbEntity
  8
dzialka
100
AcDbVertex
100
AcDb2dVertex
 10
7571972.12999999989
 20
5705736.87000000011
  0
VERTEX
  5
82
100
AcDbEntity
  8
dzialka
100
AcDbVertex
100
AcDb2dVertex
 10
7571881.11000000034
 20
5705276.4299999997
  0
VERTEX
  5
83
100
AcDbEntity
  8
dzialka
100
AcDbVertex
100
AcDb2dVertex
 10
7571843.16000000015
 20
5705263.08000000007
  0
SEQEND
  5
84
100
AcDbEntity
  8
dzialka
  0
POLYLINE
  5
85
100
AcDbEntity
  8
dzialka
  6
CONTINUOUS
370
18
100
AcDb2dPolyline
 66
1
 70
129
  0
VERTEX
  5
86
100
AcDbEntity
  8
dzialka
100
AcDbVertex
100
AcDb2dVertex
 10
7571972.12999999989
 20
5705736.87000000011
  0
VERTEX
  5
87
100
AcDbEntity
  8
dzialka
100
AcDbVertex
100
AcDb2dVertex
 10
7571977.23000000045
 20
5705761.84999999963
  0
VERTEX
  5
88
100
AcDbEntity
  8
dzialka
100
AcDbVertex
100
AcDb2dVertex
 10
7571979.61000000034
 20
5705773.83999999985
  0
VERTEX
  5
89
100
AcDbEntity
  8
dzialka
100
AcDbVertex
100
AcDb2dVertex
 10
7571987.70000000019
 20
5705772.29999999981
  0
VERTEX
  5
8A
100
AcDbEntity
  8
dzialka
100
AcDbVertex
100
AcDb2dVertex
 10
7571894.45999999996
 20
5705281.12999999989
  0
VERTEX
  5
8B
100
AcDbEntity
  8
dzialka
100
AcDbVertex
100
AcDb2dVertex
 10
7571881.11000000034
 20
5705276.4299999997
  0
SEQEND
  5
8C
100
AcDbEntity
  8
dzialka
  0
POLYLINE
  5
8D
100
AcDbEntity
  8
dzialka
  6
CONTINUOUS
370
18
100
AcDb2dPolyline
 66
1
 70
129
  0
VERTEX
  5
8E
100
AcDbEntity
  8
dzialka
100
AcDbVertex
100
AcDb2dVertex
 10
7571994.28000000026
 20
5705771.05999999959
  0
VERTEX
  5
8F
100
AcDbEntity
  8
dzialka
100
AcDbVertex
100
AcDb2dVertex
 10
7572004.74000000022
 20
5705826.0700000003
  0
VERTEX
  5
90
100
AcDbEntity
  8
dzialka
100
AcDbVertex
100
AcDb2dVertex
 10
7572061.1799999997
 20
5705810.45999999996
  0
VERTEX
  5
91
100
AcDbEntity
  8
dzialka
100
AcDbVertex
100
AcDb2dVertex
 10
7571998.0700000003
 20
5705475.84999999963
  0
VERTEX
  5
92
100
AcDbEntity
  8
dzialka
100
AcDbVertex
100
AcDb2dVertex
 10
7571977.29000000004
 20
5705484.87000000011
  0
VERTEX
  5
93
100
AcDbEntity
  8
dzialka
100
AcDbVertex
100
AcDb2dVertex
 10
7571956.16000000015
 20
5705494.04000000004
  0
VERTEX
  5
94
100
AcDbEntity
  8
dzialka
100
AcDbVertex
100
AcDb2dVertex
 10
7571917.08999999985
 20
5705289.09999999963
  0
VERTEX
  5
95
100
AcDbEntity
  8
dzialka
100
AcDbVertex
100
AcDb2dVertex
 10
7571894.45999999996
 20
5705281.12999999989
  0
VERTEX
  5
96
100
AcDbEntity
  8
dzialka
100
AcDbVertex
100
AcDb2dVertex
 10
7571987.70000000019
 20
5705772.29999999981
  0
SEQEND
  5
97
100
AcDbEntity
  8
dzialka
  0
POLYLINE
  5
98
100
AcDbEntity
  8
dzialka
  6
CONTINUOUS
370
18
100
AcDb2dPolyline
 66
1
 70
129
  0
VERTEX
  5
99
100
AcDbEntity
  8
dzialka
100
AcDbVertex
100
AcDb2dVertex
 10
7571654.16000000015
 20
5705735.95999999996
  0
VERTEX
  5
9A
100
AcDbEntity
  8
dzialka
100
AcDbVertex
100
AcDb2dVertex
 10
7571546.1799999997
 20
5705158.0
  0
VERTEX
  5
9B
100
AcDbEntity
  8
dzialka
100
AcDbVertex
100
AcDb2dVertex
 10
7571526.53000000026
 20
5705150.12999999989
  0
VERTEX
  5
9C
100
AcDbEntity
  8
dzialka
100
AcDbVertex
100
AcDb2dVertex
 10
7571526.88999999966
 20
5705152.0700000003
  0
VERTEX
  5
9D
100
AcDbEntity
  8
dzialka
100
AcDbVertex
100
AcDb2dVertex
 10
7571632.90000000037
 20
5705724.01999999955
  0
VERTEX
  5
9E
100
AcDbEntity
  8
dzialka
100
AcDbVertex
100
AcDb2dVertex
 10
7571633.54000000004
 20
5705727.45999999996
  0
SEQEND
  5
9F
100
AcDbEntity
  8
dzialka
  0
POLYLINE
  5
A0
100
AcDbEntity
  8
dzialka
  6
CONTINUOUS
370
18
100
AcDb2dPolyline
 66
1
 70
129
  0
VERTEX
  5
A1
100
AcDbEntity
  8
dzialka
100
AcDbVertex
100
AcDb2dVertex
 10
7571577.36000000034
 20
5705646.12000000011
  0
VERTEX
  5
A2
100
AcDbEntity
  8
dzialka
100
AcDbVertex
100
AcDb2dVertex
 10
7571596.62000000011
 20
5705749.11000000034
  0
VERTEX
  5
A3
100
AcDbEntity
  8
dzialka
100
AcDbVertex
100
AcDb2dVertex
 10
7571629.33000000007
 20
5705722.4299999997
  0
VERTEX
  5
A4
100
AcDbEntity
  8
dzialka
100
AcDbVertex
100
AcDb2dVertex
 10
7571632.90000000037
 20
5705724.01999999955
  0
VERTEX
  5
A5
100
AcDbEntity
  8
dzialka
100
AcDbVertex
100
AcDb2dVertex
 10
7571526.88999999966
 20
5705152.0700000003
  0
VERTEX
  5
A6
100
AcDbEntity
  8
dzialka
100
AcDbVertex
100
AcDb2dVertex
 10
7571480.11000000034
 20
5705135.70999999996
  0
SEQEND
  5
A7
100
AcDbEntity
  8
dzialka
  0
POLYLINE
  5
A8
100
AcDbEntity
  8
dzialka
  6
CONTINUOUS
370
18
100
AcDb2dPolyline
 66
1
 70
129
  0
VERTEX
  5
A9
100
AcDbEntity
  8
dzialka
100
AcDbVertex
100
AcDb2dVertex
 10
7571638.4299999997
 20
5706009.4299999997
  0
VERTEX
  5
AA
100
AcDbEntity
  8
dzialka
100
AcDbVertex
100
AcDb2dVertex
 10
7571674.59999999963
 20
5706206.16000000015
  0
VERTEX
  5
AB
100
AcDbEntity
  8
dzialka
100
AcDbVertex
100
AcDb2dVertex
 10
7571645.08999999985
 20
5706211.58000000007
  0
VERTEX
  5
AC
100
AcDbEntity
  8
dzialka
100
AcDbVertex
100
AcDb2dVertex
 10
7571655.23000000045
 20
5706266.75999999978
  0
VERTEX
  5
AD
100
AcDbEntity
  8
dzialka
100
AcDbVertex
100
AcDb2dVertex
 10
7571656.29999999981
 20
5706272.55999999959
  0
VERTEX
  5
AE
100
AcDbEntity
  8
dzialka
100
AcDbVertex
100
AcDb2dVertex
 10
7571672.33999999985
 20
5706269.61000000034
  0
VERTEX
  5
AF
100
AcDbEntity
  8
dzialka
100
AcDbVertex
100
AcDb2dVertex
 10
7571692.70000000019
 20
5706265.86000000034
  0
VERTEX
  5
B0
100
AcDbEntity
  8
dzialka
100
AcDbVertex
100
AcDb2dVertex
 10
7571703.51999999955
 20
5706320.29000000004
  0
VERTEX
  5
B1
100
AcDbEntity
  8
dzialka
100
AcDbVertex
100
AcDb2dVertex
 10
7571717.8200000003
 20
5706307.78000000026
  0
VERTEX
  5
B2
100
AcDbEntity
  8
dzialka
100
AcDbVertex
100
AcDb2dVertex
 10
7571613.69000000041
 20
5705745.33999999985
  0
VERTEX
  5
B3
100
AcDbEntity
  8
dzialka
100
AcDbVertex
100
AcDb2dVertex
 10
7571566.23000000045
 20
5705782.70999999996
  0
VERTEX
  5
B4
100
AcDbEntity
  8
dzialka
100
AcDbVertex
100
AcDb2dVertex
 10
7571573.66999999993
 20
5705823.20000000019
  0
VERTEX
  5
B5
100
AcDbEntity
  8
dzialka
100
AcDbVertex
100
AcDb2dVertex
 10
7571580.08999999985
 20
5705858.08000000007
  0
VERTEX
  5
B6
100
AcDbEntity
  8
dzialka
100
AcDbVertex
100
AcDb2dVertex
 10
7571608.91999999993
 20
5706014.86000000034
  0
SEQEND
  5
B7
100
AcDbEntity
  8
dzialka
  0
POLYLINE
  5
B8
100
AcDbEntity
  8
dzialka
  6
CONTINUOUS
370
18
100
AcDb2dPolyline
 66
1
 70
129
  0
VERTEX
  5
B9
100
AcDbEntity
  8
dzialka
100
AcDbVertex
100
AcDb2dVertex
 10
7571566.23000000045
 20
5705782.70999999996
  0
VERTEX
  5
BA
100
AcDbEntity
  8
dzialka
100
AcDbVertex
100
AcDb2dVertex
 10
7571613.69000000041
 20
5705745.33999999985
  0
VERTEX
  5
BB
100
AcDbEntity
  8
dzialka
100
AcDbVertex
100
AcDb2dVertex
 10
7571613.1799999997
 20
5705742.58999999985
  0
VERTEX
  5
BC
100
AcDbEntity
  8
dzialka
100
AcDbVertex
100
AcDb2dVertex
 10
7571565.71999999974
 20
5705779.95999999996
  0
SEQEND
  5
BD
100
AcDbEntity
  8
dzialka
  0
POLYLINE
  5
BE
100
AcDbEntity
  8
dzialka
  6
CONTINUOUS
370
18
100
AcDb2dPolyline
 66
1
 70
129
  0
VERTEX
  5
BF
100
AcDbEntity
  8
dzialka
100
AcDbVertex
100
AcDb2dVertex
 10
7571613.69000000041
 20
5705745.33999999985
  0
VERTEX
  5
C0
100
AcDbEntity
  8
dzialka
100
AcDbVertex
100
AcDb2dVertex
 10
7571717.8200000003
 20
5706307.78000000026
  0
VERTEX
  5
C1
100
AcDbEntity
  8
dzialka
100
AcDbVertex
100
AcDb2dVertex
 10
7571732.25
 20
5706295.20999999996
  0
VERTEX
  5
C2
100
AcDbEntity
  8
dzialka
100
AcDbVertex
100
AcDb2dVertex
 10
7571627.04000000004
 20
5705730.79000000004
  0
VERTEX
  5
C3
100
AcDbEntity
  8
dzialka
100
AcDbVertex
100
AcDb2dVertex
 10
7571613.1799999997
 20
5705742.58999999985
  0
SEQEND
  5
C4
100
AcDbEntity
  8
dzialka
  0
POLYLINE
  5
C5
100
AcDbEntity
  8
dzialka
  6
CONTINUOUS
370
18
100
AcDb2dPolyline
 66
1
 70
129
  0
VERTEX
  5
C6
100
AcDbEntity
  8
dzialka
100
AcDbVertex
100
AcDb2dVertex
 10
7571690.04000000004
 20
5705756.16999999993
  0
VERTEX
  5
C7
100
AcDbEntity
  8
dzialka
100
AcDbVertex
100
AcDb2dVertex
 10
7571660.0700000003
 20
5705743.80999999959
  0
VERTEX
  5
C8
100
AcDbEntity
  8
dzialka
100
AcDbVertex
100
AcDb2dVertex
 10
7571660.62999999989
 20
5705746.74000000022
  0
VERTEX
  5
C9
100
AcDbEntity
  8
dzialka
100
AcDbVertex
100
AcDb2dVertex
 10
7571685.08000000007
 20
5705756.83000000007
  0
VERTEX
  5
CA
100
AcDbEntity
  8
dzialka
100
AcDbVertex
100
AcDb2dVertex
 10
7571690.58999999985
 20
5705759.09999999963
  0
SEQEND
  5
CB
100
AcDbEntity
  8
dzialka
  0
POLYLINE
  5
CC
100
AcDbEntity
  8
dzialka
  6
CONTINUOUS
370
18
100
AcDb2dPolyline
 66
1
 70
129
  0
VERTEX
  5
CD
100
AcDbEntity
  8
dzialka
100
AcDbVertex
100
AcDb2dVertex
 10
7571763.19000000041
 20
5705999.83999999985
  0
VERTEX
  5
CE
100
AcDbEntity
  8
dzialka
100
AcDbVertex
100
AcDb2dVertex
 10
7571719.71999999974
 20
5705768.23000000045
  0
VERTEX
  5
CF
100
AcDbEntity
  8
dzialka
100
AcDbVertex
100
AcDb2dVertex
 10
7571689.75999999978
 20
5705754.66999999993
  0
VERTEX
  5
D0
100
AcDbEntity
  8
dzialka
100
AcDbVertex
100
AcDb2dVertex
 10
7571690.04000000004
 20
5705756.16999999993
  0
VERTEX
  5
D1
100
AcDbEntity
  8
dzialka
100
AcDbVertex
100
AcDb2dVertex
 10
7571690.58999999985
 20
5705759.09999999963
  0
VERTEX
  5
D2
100
AcDbEntity
  8
dzialka
100
AcDbVertex
100
AcDb2dVertex
 10
7571711.16999999993
 20
5705869.5
  0
VERTEX
  5
D3
100
AcDbEntity
  8
dzialka
100
AcDbVertex
100
AcDb2dVertex
 10
7571736.41000000015
 20
5706004.87000000011
  0
SEQEND
  5
D4
100
AcDbEntity
  8
dzialka
  0
POLYLINE
  5
D5
100
AcDbEntity
  8
dzialka
  6
CONTINUOUS
370
18
100
AcDb2dPolyline
 66
1
 70
129
  0
VERTEX
  5
D6
100
AcDbEntity
  8
dzialka
100
AcDbVertex
100
AcDb2dVertex
 10
7571709.55999999959
 20
5706140.90000000037
  0
VERTEX
  5
D7
100
AcDbEntity
  8
dzialka
100
AcDbVertex
100
AcDb2dVertex
 10
7571734.12999999989
 20
5706136.28000000026
  0
VERTEX
  5
D8
100
AcDbEntity
  8
dzialka
100
AcDbVertex
100
AcDb2dVertex
 10
7571682.65000000037
 20
5705862.8200000003
  0
VERTEX
  5
D9
100
AcDbEntity
  8
dzialka
100
AcDbVertex
100
AcDb2dVertex
 10
7571660.62999999989
 20
5705746.74000000022
  0
VERTEX
  5
DA
100
AcDbEntity
  8
dzialka
100
AcDbVertex
100
AcDb2dVertex
 10
7571660.0700000003
 20
5705743.80999999959
  0
VERTEX
  5
DB
100
AcDbEntity
  8
dzialka
100
AcDbVertex
100
AcDb2dVertex
 10
7571630.04999999981
 20
5705728.23000000045
  0
VERTEX
  5
DC
100
AcDbEntity
  8
dzialka
100
AcDbVertex
100
AcDb2dVertex
 10
7571627.04000000004
 20
5705730.79000000004
  0
VERTEX
  5
DD
100
AcDbEntity
  8
dzialka
100
AcDbVertex
100
AcDb2dVertex
 10
7571732.25
 20
5706295.20999999996
  0
VERTEX
  5
DE
100
AcDbEntity
  8
dzialka
100
AcDbVertex
100
AcDb2dVertex
 10
7571759.59999999963
 20
5706271.37000000011
  0
VERTEX
  5
DF
100
AcDbEntity
  8
dzialka
100
AcDbVertex
100
AcDb2dVertex
 10
7571757.59999999963
 20
5706261.08999999985
  0
VERTEX
  5
E0
100
AcDbEntity
  8
dzialka
100
AcDbVertex
100
AcDb2dVertex
 10
7571730.05999999959
 20
5706253.19000000041
  0
SEQEND
  5
E1
100
AcDbEntity
  8
dzialka
  0
POLYLINE
  5
E2
100
AcDbEntity
  8
dzialka
  6
CONTINUOUS
370
18
100
AcDb2dPolyline
 66
1
 70
129
  0
VERTEX
  5
E3
100
AcDbEntity
  8
dzialka
100
AcDbVertex
100
AcDb2dVertex
 10
7571685.08000000007
 20
5705756.83000000007
  0
VERTEX
  5
E4
100
AcDbEntity
  8
dzialka
100
AcDbVertex
100
AcDb2dVertex
 10
7571660.62999999989
 20
5705746.74000000022
  0
VERTEX
  5
E5
100
AcDbEntity
  8
dzialka
100
AcDbVertex
100
AcDb2dVertex
 10
7571682.65000000037
 20
5705862.8200000003
  0
VERTEX
  5
E6
100
AcDbEntity
  8
dzialka
100
AcDbVertex
100
AcDb2dVertex
 10
7571705.84999999963
 20
5705868.25999999978
  0
SEQEND
  5
E7
100
AcDbEntity
  8
dzialka
  0
POLYLINE
  5
E8
100
AcDbEntity
  8
dzialka
  6
CONTINUOUS
370
18
100
AcDb2dPolyline
 66
1
 70
129
  0
VERTEX
  5
E9
100
AcDbEntity
  8
dzialka
100
AcDbVertex
100
AcDb2dVertex
 10
7571690.58999999985
 20
5705759.09999999963
  0
VERTEX
  5
EA
100
AcDbEntity
  8
dzialka
100
AcDbVertex
100
AcDb2dVertex
 10
7571685.08000000007
 20
5705756.83000000007
  0
VERTEX
  5
EB
100
AcDbEntity
  8
dzialka
100
AcDbVertex
100
AcDb2dVertex
 10
7571705.84999999963
 20
5705868.25999999978
  0
VERTEX
  5
EC
100
AcDbEntity
  8
dzialka
100
AcDbVertex
100
AcDb2dVertex
 10
7571711.16999999993
 20
5705869.5
  0
SEQEND
  5
ED
100
AcDbEntity
  8
dzialka
  0
POLYLINE
  5
EE
100
AcDbEntity
  8
dzialka
  6
CONTINUOUS
370
18
100
AcDb2dPolyline
 66
1
 70
129
  0
VERTEX
  5
EF
100
AcDbEntity
  8
dzialka
100
AcDbVertex
100
AcDb2dVertex
 10
7571782.37999999989
 20
5706251.50999999978
  0
VERTEX
  5
F0
100
AcDbEntity
  8
dzialka
100
AcDbVertex
100
AcDb2dVertex
 10
7571779.96999999974
 20
5706238.5
  0
VERTEX
  5
F1
100
AcDbEntity
  8
dzialka
100
AcDbVertex
100
AcDb2dVertex
 10
7571736.41000000015
 20
5706004.87000000011
  0
VERTEX
  5
F2
100
AcDbEntity
  8
dzialka
100
AcDbVertex
100
AcDb2dVertex
 10
7571711.16999999993
 20
5705869.5
  0
VERTEX
  5
F3
100
AcDbEntity
  8
dzialka
100
AcDbVertex
100
AcDb2dVertex
 10
7571705.84999999963
 20
5705868.25999999978
  0
VERTEX
  5
F4
100
AcDbEntity
  8
dzialka
100
AcDbVertex
100
AcDb2dVertex
 10
7571682.65000000037
 20
5705862.8200000003
  0
VERTEX
  5
F5
100
AcDbEntity
  8
dzialka
100
AcDbVertex
100
AcDb2dVertex
 10
7571734.12999999989
 20
5706136.28000000026
  0
VERTEX
  5
F6
100
AcDbEntity
  8
dzialka
100
AcDbVertex
100
AcDb2dVertex
 10
7571757.59999999963
 20
5706261.08999999985
  0
VERTEX
  5
F7
100
AcDbEntity
  8
dzialka
100
AcDbVertex
100
AcDb2dVertex
 10
7571759.59999999963
 20
5706271.37000000011
  0
SEQEND
  5
F8
100
AcDbEntity
  8
dzialka
  0
POLYLINE
  5
F9
100
AcDbEntity
  8
dzialka
  6
CONTINUOUS
370
18
100
AcDb2dPolyline
 66
1
 70
129
  0
VERTEX
  5
FA
100
AcDbEntity
  8
dzialka
100
AcDbVertex
100
AcDb2dVertex
 10
7571760.99000000022
 20
5705234.16000000015
  0
VERTEX
  5
FB
100
AcDbEntity
  8
dzialka
100
AcDbVertex
100
AcDb2dVertex
 10
7571657.0700000003
 20
5705197.69000000041
  0
VERTEX
  5
FC
100
AcDbEntity
  8
dzialka
100
AcDbVertex
100
AcDb2dVertex
 10
7571703.38999999966
 20
5705443.91999999993
  0
VERTEX
  5
FD
100
AcDbEntity
  8
dzialka
100
AcDbVertex
100
AcDb2dVertex
 10
7571767.33999999985
 20
5705783.87999999989
  0
VERTEX
  5
FE
100
AcDbEntity
  8
dzialka
100
AcDbVertex
100
AcDb2dVertex
 10
7571871.1799999997
 20
5705830.13999999966
  0
SEQEND
  5
FF
100
AcDbEntity
  8
dzialka
  0
POLYLINE
  5
100
100
AcDbEntity
  8
dzialka
  6
CONTINUOUS
370
18
100
AcDb2dPolyline
 66
1
 70
129
  0
VERTEX
  5
101
100
AcDbEntity
  8
dzialka
100
AcDbVertex
100
AcDb2dVertex
 10
7571566.29999999981
 20
5705166.04999999981
  0
VERTEX
  5
102
100
AcDbEntity
  8
dzialka
100
AcDbVertex
100
AcDb2dVertex
 10
7571674.3200000003
 20
5705744.26999999955
  0
VERTEX
  5
103
100
AcDbEntity
  8
dzialka
100
AcDbVertex
100
AcDb2dVertex
 10
7571694.46999999974
 20
5705752.58999999985
  0
VERTEX
  5
104
100
AcDbEntity
  8
dzialka
100
AcDbVertex
100
AcDb2dVertex
 10
7571586.40000000037
 20
5705174.09999999963
  0
SEQEND
  5
105
100
AcDbEntity
  8
dzialka
  0
POLYLINE
  5
106
100
AcDbEntity
  8
dzialka
  6
CONTINUOUS
370
18
100
AcDb2dPolyline
 66
1
 70
129
  0
VERTEX
  5
107
100
AcDbEntity
  8
dzialka
100
AcDbVertex
100
AcDb2dVertex
 10
7571406.1799999997
 20
5705891.40000000037
  0
VERTEX
  5
108
100
AcDbEntity
  8
dzialka
100
AcDbVertex
100
AcDb2dVertex
 10
7571429.75
 20
5705880.99000000022
  0
VERTEX
  5
109
100
AcDbEntity
  8
dzialka
100
AcDbVertex
100
AcDb2dVertex
 10
7571442.40000000037
 20
5705875.70999999996
  0
VERTEX
  5
10A
100
AcDbEntity
  8
dzialka
100
AcDbVertex
100
AcDb2dVertex
 10
7571451.34999999963
 20
5705868.69000000041
  0
VERTEX
  5
10B
100
AcDbEntity
  8
dzialka
100
AcDbVertex
100
AcDb2dVertex
 10
7571450.8200000003
 20
5705865.87000000011
  0
VERTEX
  5
10C
100
AcDbEntity
  8
dzialka
100
AcDbVertex
100
AcDb2dVertex
 10
7571471.87999999989
 20
5705850.74000000022
  0
VERTEX
  5
10D
100
AcDbEntity
  8
dzialka
100
AcDbVertex
100
AcDb2dVertex
 10
7571472.1799999997
 20
5705852.37000000011
  0
VERTEX
  5
10E
100
AcDbEntity
  8
dzialka
100
AcDbVertex
100
AcDb2dVertex
 10
7571522.36000000034
 20
5705816.20000000019
  0
VERTEX
  5
10F
100
AcDbEntity
  8
dzialka
100
AcDbVertex
100
AcDb2dVertex
 10
7571521.84999999963
 20
5705813.45000000019
  0
VERTEX
  5
110
100
AcDbEntity
  8
dzialka
100
AcDbVertex
100
AcDb2dVertex
 10
7571565.71999999974
 20
5705779.95999999996
  0
VERTEX
  5
111
100
AcDbEntity
  8
dzialka
100
AcDbVertex
100
AcDb2dVertex
 10
7571613.1799999997
 20
5705742.58999999985
  0
VERTEX
  5
112
100
AcDbEntity
  8
dzialka
100
AcDbVertex
100
AcDb2dVertex
 10
7571627.04000000004
 20
5705730.79000000004
  0
VERTEX
  5
113
100
AcDbEntity
  8
dzialka
100
AcDbVertex
100
AcDb2dVertex
 10
7571630.04999999981
 20
5705728.23000000045
  0
VERTEX
  5
114
100
AcDbEntity
  8
dzialka
100
AcDbVertex
100
AcDb2dVertex
 10
7571660.0700000003
 20
5705743.80999999959
  0
VERTEX
  5
115
100
AcDbEntity
  8
dzialka
100
AcDbVertex
100
AcDb2dVertex
 10
7571690.04000000004
 20
5705756.16999999993
  0
VERTEX
  5
116
100
AcDbEntity
  8
dzialka
100
AcDbVertex
100
AcDb2dVertex
 10
7571689.75999999978
 20
5705754.66999999993
  0
VERTEX
  5
117
100
AcDbEntity
  8
dzialka
100
AcDbVertex
100
AcDb2dVertex
 10
7571719.71999999974
 20
5705768.23000000045
  0
VERTEX
  5
118
100
AcDbEntity
  8
dzialka
100
AcDbVertex
100
AcDb2dVertex
 10
7571775.04000000004
 20
5705792.79999999981
  0
VERTEX
  5
119
100
AcDbEntity
  8
dzialka
100
AcDbVertex
100
AcDb2dVertex
 10
7571792.24000000022
 20
5705800.45999999996
  0
VERTEX
  5
11A
100
AcDbEntity
  8
dzialka
100
AcDbVertex
100
AcDb2dVertex
 10
7571840.83999999985
 20
5705822.11000000034
  0
VERTEX
  5
11B
100
AcDbEntity
  8
dzialka
100
AcDbVertex
100
AcDb2dVertex
 10
7571903.21999999974
 20
5705849.88999999966
  0
VERTEX
  5
11C
100
AcDbEntity
  8
dzialka
100
AcDbVertex
100
AcDb2dVertex
 10
7571916.04000000004
 20
5705855.59999999963
  0
VERTEX
  5
11D
100
AcDbEntity
  8
dzialka
100
AcDbVertex
100
AcDb2dVertex
 10
7571948.8200000003
 20
5705846.59999999963
  0
VERTEX
  5
11E
100
AcDbEntity
  8
dzialka
100
AcDbVertex
100
AcDb2dVertex
 10
7571995.11000000034
 20
5705833.88999999966
  0
VERTEX
  5
11F
100
AcDbEntity
  8
dzialka
100
AcDbVertex
100
AcDb2dVertex
 10
7572062.13999999966
 20
5705815.49000000022
  0
VERTEX
  5
120
100
AcDbEntity
  8
dzialka
100
AcDbVertex
100
AcDb2dVertex
 10
7572061.1799999997
 20
5705810.45999999996
  0
VERTEX
  5
121
100
AcDbEntity
  8
dzialka
100
AcDbVertex
100
AcDb2dVertex
 10
7572004.74000000022
 20
5705826.0700000003
  0
VERTEX
  5
122
100
AcDbEntity
  8
dzialka
100
AcDbVertex
100
AcDb2dVertex
 10
7571978.55999999959
 20
5705833.25
  0
VERTEX
  5
123
100
AcDbEntity
  8
dzialka
100
AcDbVertex
100
AcDb2dVertex
 10
7571951.04999999981
 20
5705840.79999999981
  0
VERTEX
  5
124
100
AcDbEntity
  8
dzialka
100
AcDbVertex
100
AcDb2dVertex
 10
7571916.44000000041
 20
5705850.29999999981
  0
VERTEX
  5
125
100
AcDbEntity
  8
dzialka
100
AcDbVertex
100
AcDb2dVertex
 10
7571913.21999999974
 20
5705848.86000000034
  0
VERTEX
  5
126
100
AcDbEntity
  8
dzialka
100
AcDbVertex
100
AcDb2dVertex
 10
7571871.1799999997
 20
5705830.13999999966
  0
VERTEX
  5
127
100
AcDbEntity
  8
dzialka
100
AcDbVertex
100
AcDb2dVertex
 10
7571767.33999999985
 20
5705783.87999999989
  0
VERTEX
  5
128
100
AcDbEntity
  8
dzialka
100
AcDbVertex
100
AcDb2dVertex
 10
7571742.80999999959
 20
5705773.0
  0
VERTEX
  5
129
100
AcDbEntity
  8
dzialka
100
AcDbVertex
100
AcDb2dVertex
 10
7571731.12999999989
 20
5705767.8200000003
  0
VERTEX
  5
12A
100
AcDbEntity
  8
dzialka
100
AcDbVertex
100
AcDb2dVertex
 10
7571721.79000000004
 20
5705763.6799999997
  0
VERTEX
  5
12B
100
AcDbEntity
  8
dzialka
100
AcDbVertex
100
AcDb2dVertex
 10
7571718.61000000034
 20
5705762.38999999966
  0
VERTEX
  5
12C
100
AcDbEntity
  8
dzialka
100
AcDbVertex
100
AcDb2dVertex
 10
7571694.46999999974
 20
5705752.58999999985
  0
VERTEX
  5
12D
100
AcDbEntity
  8
dzialka
100
AcDbVertex
100
AcDb2dVertex
 10
7571674.3200000003
 20
5705744.26999999955
  0
VERTEX
  5
12E
100
AcDbEntity
  8
dzialka
100
AcDbVertex
100
AcDb2dVertex
 10
7571654.16000000015
 20
5705735.95999999996
  0
VERTEX
  5
12F
100
AcDbEntity
  8
dzialka
100
AcDbVertex
100
AcDb2dVertex
 10
7571633.54000000004
 20
5705727.45999999996
  0
VERTEX
  5
130
100
AcDbEntity
  8
dzialka
100
AcDbVertex
100
AcDb2dVertex
 10
7571632.90000000037
 20
5705724.01999999955
  0
VERTEX
  5
131
100
AcDbEntity
  8
dzialka
100
AcDbVertex
100
AcDb2dVertex
 10
7571629.33000000007
 20
5705722.4299999997
  0
VERTEX
  5
132
100
AcDbEntity
  8
dzialka
100
AcDbVertex
100
AcDb2dVertex
 10
7571596.62000000011
 20
5705749.11000000034
  0
VERTEX
  5
133
100
AcDbEntity
  8
dzialka
100
AcDbVertex
100
AcDb2dVertex
 10
7571572.74000000022
 20
5705767.62999999989
  0
VERTEX
  5
134
100
AcDbEntity
  8
dzialka
100
AcDbVertex
100
AcDb2dVertex
 10
7571545.21999999974
 20
5705788.54000000004
  0
VERTEX
  5
135
100
AcDbEntity
  8
dzialka
100
AcDbVertex
100
AcDb2dVertex
 10
7571518.5
 20
5705809.58000000007
  0
VERTEX
  5
136
100
AcDbEntity
  8
dzialka
100
AcDbVertex
100
AcDb2dVertex
 10
7571508.33999999985
 20
5705817.5700000003
  0
VERTEX
  5
137
100
AcDbEntity
  8
dzialka
100
AcDbVertex
100
AcDb2dVertex
 10
7571494.58999999985
 20
5705828.33000000007
  0
VERTEX
  5
138
100
AcDbEntity
  8
dzialka
100
AcDbVertex
100
AcDb2dVertex
 10
7571485.46999999974
 20
5705835.5
  0
VERTEX
  5
139
100
AcDbEntity
  8
dzialka
100
AcDbVertex
100
AcDb2dVertex
 10
7571467.79000000004
 20
5705847.54000000004
  0
VERTEX
  5
13A
100
AcDbEntity
  8
dzialka
100
AcDbVertex
100
AcDb2dVertex
 10
7571457.40000000037
 20
5705854.98000000045
  0
VERTEX
  5
13B
100
AcDbEntity
  8
dzialka
100
AcDbVertex
100
AcDb2dVertex
 10
7571447.54999999981
 20
5705862.01999999955
  0
VERTEX
  5
13C
100
AcDbEntity
  8
dzialka
100
AcDbVertex
100
AcDb2dVertex
 10
7571439.80999999959
 20
5705871.37999999989
  0
VERTEX
  5
13D
100
AcDbEntity
  8
dzialka
100
AcDbVertex
100
AcDb2dVertex
 10
7571424.76999999955
 20
5705878.70000000019
  0
VERTEX
  5
13E
100
AcDbEntity
  8
dzialka
100
AcDbVertex
100
AcDb2dVertex
 10
7571398.84999999963
 20
5705888.79999999981
  0
VERTEX
  5
13F
100
AcDbEntity
  8
dzialka
100
AcDbVertex
100
AcDb2dVertex
 10
7571371.54000000004
 20
5705901.23000000045
  0
VERTEX
  5
140
100
AcDbEntity
  8
dzialka
100
AcDbVertex
100
AcDb2dVertex
 10
7571367.45999999996
 20
5705903.08999999985
  0
VERTEX
  5
141
100
AcDbEntity
  8
dzialka
100
AcDbVertex
100
AcDb2dVertex
 10
7571361.45999999996
 20
5705905.71999999974
  0
VERTEX
  5
142
100
AcDbEntity
  8
dzialka
100
AcDbVertex
100
AcDb2dVertex
 10
7571357.33999999985
 20
5705907.53000000026
  0
VERTEX
  5
143
100
AcDbEntity
  8
dzialka
100
AcDbVertex
100
AcDb2dVertex
 10
7571348.78000000026
 20
5705911.28000000026
  0
VERTEX
  5
144
100
AcDbEntity
  8
dzialka
100
AcDbVertex
100
AcDb2dVertex
 10
7571321.05999999959
 20
5705923.41999999993
  0
VERTEX
  5
145
100
AcDbEntity
  8
dzialka
100
AcDbVertex
100
AcDb2dVertex
 10
7571284.13999999966
 20
5705939.59999999963
  0
VERTEX
  5
146
100
AcDbEntity
  8
dzialka
100
AcDbVertex
100
AcDb2dVertex
 10
7571281.3200000003
 20
5705940.83999999985
  0
VERTEX
  5
147
100
AcDbEntity
  8
dzialka
100
AcDbVertex
100
AcDb2dVertex
 10
7571282.50999999978
 20
5705946.12000000011
  0
VERTEX
  5
148
100
AcDbEntity
  8
dzialka
100
AcDbVertex
100
AcDb2dVertex
 10
7571285.78000000026
 20
5705944.66999999993
  0
VERTEX
  5
149
100
AcDbEntity
  8
dzialka
100
AcDbVertex
100
AcDb2dVertex
 10
7571291.1799999997
 20
5705942.28000000026
  0
VERTEX
  5
14A
100
AcDbEntity
  8
dzialka
100
AcDbVertex
100
AcDb2dVertex
 10
7571296.95999999996
 20
5705939.73000000045
  0
VERTEX
  5
14B
100
AcDbEntity
  8
dzialka
100
AcDbVertex
100
AcDb2dVertex
 10
7571332.69000000041
 20
5705923.91000000015
  0
VERTEX
  5
14C
100
AcDbEntity
  8
dzialka
100
AcDbVertex
100
AcDb2dVertex
 10
7571378.36000000034
 20
5705903.69000000041
  0
VERTEX
  5
14D
100
AcDbEntity
  8
dzialka
100
AcDbVertex
100
AcDb2dVertex
 10
7571382.12000000011
 20
5705902.03000000026
  0
SEQEND
  5
14E
100
AcDbEntity
  8
dzialka
  0
POLYLINE
  5
14F
100
AcDbEntity
  8
dzialka
  6
CONTINUOUS
370
18
100
AcDb2dPolyline
 66
1
 70
129
  0
VERTEX
  5
150
100
AcDbEntity
  8
dzialka
100
AcDbVertex
100
AcDb2dVertex
 10
7571694.46999999974
 20
5705752.58999999985
  0
VERTEX
  5
151
100
AcDbEntity
  8
dzialka
100
AcDbVertex
100
AcDb2dVertex
 10
7571718.61000000034
 20
5705762.38999999966
  0
VERTEX
  5
152
100
AcDbEntity
  8
dzialka
100
AcDbVertex
100
AcDb2dVertex
 10
7571610.11000000034
 20
5705181.58999999985
  0
VERTEX
  5
153
100
AcDbEntity
  8
dzialka
100
AcDbVertex
100
AcDb2dVertex
 10
7571586.40000000037
 20
5705174.09999999963
  0
SEQEND
  5
154
100
AcDbEntity
  8
dzialka
  0
POLYLINE
  5
155
100
AcDbEntity
  8
dzialka
  6
CONTINUOUS
370
18
100
AcDb2dPolyline
 66
1
 70
129
  0
VERTEX
  5
156
100
AcDbEntity
  8
dzialka
100
AcDbVertex
100
AcDb2dVertex
 10
7571621.12000000011
 20
5705185.0700000003
  0
VERTEX
  5
157
100
AcDbEntity
  8
dzialka
100
AcDbVertex
100
AcDb2dVertex
 10
7571610.11000000034
 20
5705181.58999999985
  0
VERTEX
  5
158
100
AcDbEntity
  8
dzialka
100
AcDbVertex
100
AcDb2dVertex
 10
7571718.61000000034
 20
5705762.38999999966
  0
VERTEX
  5
159
100
AcDbEntity
  8
dzialka
100
AcDbVertex
100
AcDb2dVertex
 10
7571721.79000000004
 20
5705763.6799999997
  0
VERTEX
  5
15A
100
AcDbEntity
  8
dzialka
100
AcDbVertex
100
AcDb2dVertex
 10
7571731.12999999989
 20
5705767.8200000003
  0
VERTEX
  5
15B
100
AcDbEntity
  8
dzialka
100
AcDbVertex
100
AcDb2dVertex
 10
7571742.80999999959
 20
5705773.0
  0
VERTEX
  5
15C
100
AcDbEntity
  8
dzialka
100
AcDbVertex
100
AcDb2dVertex
 10
7571727.8200000003
 20
5705696.51999999955
  0
VERTEX
  5
15D
100
AcDbEntity
  8
dzialka
100
AcDbVertex
100
AcDb2dVertex
 10
7571727.25
 20
5705693.29999999981
  0
VERTEX
  5
15E
100
AcDbEntity
  8
dzialka
100
AcDbVertex
100
AcDb2dVertex
 10
7571722.62000000011
 20
5705665.5700000003
  0
VERTEX
  5
15F
100
AcDbEntity
  8
dzialka
100
AcDbVertex
100
AcDb2dVertex
 10
7571725.37000000011
 20
5705665.11000000034
  0
VERTEX
  5
160
100
AcDbEntity
  8
dzialka
100
AcDbVertex
100
AcDb2dVertex
 10
7571723.83999999985
 20
5705655.99000000022
  0
VERTEX
  5
161
100
AcDbEntity
  8
dzialka
100
AcDbVertex
100
AcDb2dVertex
 10
7571721.08999999985
 20
5705656.45000000019
  0
VERTEX
  5
162
100
AcDbEntity
  8
dzialka
100
AcDbVertex
100
AcDb2dVertex
 10
7571633.80999999959
 20
5705189.51999999955
  0
SEQEND
  5
163
100
AcDbEntity
  8
dzialka
  0
POLYLINE
  5
164
100
AcDbEntity
  8
dzialka
  6
CONTINUOUS
370
18
100
AcDb2dPolyline
 66
1
 70
129
  0
VERTEX
  5
165
100
AcDbEntity
  8
dzialka
100
AcDbVertex
100
AcDb2dVertex
 10
7571703.38999999966
 20
5705443.91999999993
  0
VERTEX
  5
166
100
AcDbEntity
  8
dzialka
100
AcDbVertex
100
AcDb2dVertex
 10
7571657.0700000003
 20
5705197.69000000041
  0
VERTEX
  5
167
100
AcDbEntity
  8
dzialka
100
AcDbVertex
100
AcDb2dVertex
 10
7571633.80999999959
 20
5705189.51999999955
  0
VERTEX
  5
168
100
AcDbEntity
  8
dzialka
100
AcDbVertex
100
AcDb2dVertex
 10
7571721.08999999985
 20
5705656.45000000019
  0
VERTEX
  5
169
100
AcDbEntity
  8
dzialka
100
AcDbVertex
100
AcDb2dVertex
 10
7571723.83999999985
 20
5705655.99000000022
  0
VERTEX
  5
16A
100
AcDbEntity
  8
dzialka
100
AcDbVertex
100
AcDb2dVertex
 10
7571725.37000000011
 20
5705665.11000000034
  0
VERTEX
  5
16B
100
AcDbEntity
  8
dzialka
100
AcDbVertex
100
AcDb2dVertex
 10
7571722.62000000011
 20
5705665.5700000003
  0
VERTEX
  5
16C
100
AcDbEntity
  8
dzialka
100
AcDbVertex
100
AcDb2dVertex
 10
7571727.25
 20
5705693.29999999981
  0
VERTEX
  5
16D
100
AcDbEntity
  8
dzialka
100
AcDbVertex
100
AcDb2dVertex
 10
7571727.8200000003
 20
5705696.51999999955
  0
VERTEX
  5
16E
100
AcDbEntity
  8
dzialka
100
AcDbVertex
100
AcDb2dVertex
 10
7571742.80999999959
 20
5705773.0
  0
VERTEX
  5
16F
100
AcDbEntity
  8
dzialka
100
AcDbVertex
100
AcDb2dVertex
 10
7571767.33999999985
 20
5705783.87999999989
  0
SEQEND
  5
170
100
AcDbEntity
  8
dzialka
  0
POLYLINE
  5
171
100
AcDbEntity
  8
Level_1
  6
CONTINUOUS
420
3355443
370
50
100
AcDb2dPolyline
 66
1
 70
129
  0
VERTEX
  5
172
100
AcDbEntity
  8
Level_1
100
AcDbVertex
100
AcDb2dVertex
 10
7571821.22499999963
 20
5705851.14400000032
  0
VERTEX
  5
173
100
AcDbEntity
  8
Level_1
100
AcDbVertex
100
AcDb2dVertex
 10
7571837.45799999964
 20
5705848.18800000008
  0
VERTEX
  5
174
100
AcDbEntity
  8
Level_1
100
AcDbVertex
100
AcDb2dVertex
 10
7571835.65699999966
 20
5705838.30099999998
  0
VERTEX
  5
175
100
AcDbEntity
  8
Level_1
100
AcDbVertex
100
AcDb2dVertex
 10
7571819.42399999965
 20
5705841.25700000022
  0
SEQEND
  5
176
100
AcDbEntity
  8
Level_1
  0
POLYLINE
  5
177
100
AcDbEntity
  8
Level_1
  6
CONTINUOUS
420
3355443
370
50
100
AcDb2dPolyline
 66
1
 70
129
  0
VERTEX
  5
178
100
AcDbEntity
  8
Level_1
100
AcDbVertex
100
AcDb2dVertex
 10
7571834.56199999992
 20
5705871.07699999958
  0
VERTEX
  5
179
100
AcDbEntity
  8
Level_1
100
AcDbVertex
100
AcDb2dVertex
 10
7571845.33499999996
 20
5705869.11500000022
  0
VERTEX
  5
17A
100
AcDbEntity
  8
Level_1
100
AcDbVertex
100
AcDb2dVertex
 10
7571843.90199999977
 20
5705861.24500000011
  0
VERTEX
  5
17B
100
AcDbEntity
  8
Level_1
100
AcDbVertex
100
AcDb2dVertex
 10
7571833.12899999972
 20
5705863.2070000004
  0
SEQEND
  5
17C
100
AcDbEntity
  8
Level_1
  0
POLYLINE
  5
17D
100
AcDbEntity
  8
Osie
  6
ByLayer
370
18
100
AcDb2dPolyline
 66
1
 70
128
  0
VERTEX
  5
17E
100
AcDbEntity
  8
Osie
100
AcDbVertex
100
AcDb2dVertex
 10
7571819.80198501237
 20
5705841.51851412561
  0
VERTEX
  5
17F
100
AcDbEntity
  8
Osie
100
AcDbVertex
100
AcDb2dVertex
 10
7571826.73792254925
 20
5705840.25587752089
  0
VERTEX
  5
180
100
AcDbEntity
  8
Osie
100
AcDbVertex
100
AcDb2dVertex
 10
7571830.67327520438
 20
5705839.53933476284
  0
VERTEX
  5
181
100
AcDbEntity
  8
Osie
100
AcDbVertex
100
AcDb2dVertex
 10
7571835.39550110884
 20
5705838.67896299157
  0
SEQEND
  5
182
100
AcDbEntity
  8
Osie
  0
POLYLINE
  5
183
100
AcDbEntity
  8
Osie
  6
ByLayer
370
18
100
AcDb2dPolyline
 66
1
 70
128
  0
VERTEX
  5
184
100
AcDbEntity
  8
Osie
100
AcDbVertex
100
AcDb2dVertex
 10
7571837.08001498692
 20
5705847.92648587469
  0
VERTEX
  5
185
100
AcDbEntity
  8
Osie
100
AcDbVertex
100
AcDb2dVertex
 10
7571832.35727520473
 20
5705848.78633476235
  0
VERTEX
  5
186
100
AcDbEntity
  8
Osie
100
AcDbVertex
100
AcDb2dVertex
 10
7571828.42192254867
 20
5705849.5028775204
  0
VERTEX
  5
187
100
AcDbEntity
  8
Osie
100
AcDbVertex
100
AcDb2dVertex
 10
7571821.48649889044
 20
5705850.76603700873
  0
SEQEND
  5
188
100
AcDbEntity
  8
Osie
  0
POLYLINE
  5
189
100
AcDbEntity
  8
Osie
  6
ByLayer
370
18
100
AcDb2dPolyline
 66
1
 70
128
  0
VERTEX
  5
18A
100
AcDbEntity
  8
Osie
100
AcDbVertex
100
AcDb2dVertex
 10
7571821.48649889044
 20
5705850.76603700873
  0
VERTEX
  5
18B
100
AcDbEntity
  8
Osie
100
AcDbVertex
100
AcDb2dVertex
 10
7571819.80198501237
 20
5705841.51851412561
  0
SEQEND
  5
18C
100
AcDbEntity
  8
Osie
  0
POLYLINE
  5
18D
100
AcDbEntity
  8
Osie
  6
ByLayer
370
18
100
AcDb2dPolyline
 66
1
 70
128
  0
VERTEX
  5
18E
100
AcDbEntity
  8
Osie
100
AcDbVertex
100
AcDb2dVertex
 10
7571828.42192254867
 20
5705849.5028775204
  0
VERTEX
  5
18F
100
AcDbEntity
  8
Osie
100
AcDbVertex
100
AcDb2dVertex
 10
7571826.73792254925
 20
5705840.25587752089
  0
SEQEND
  5
190
100
AcDbEntity
  8
Osie
  0
POLYLINE
  5
191
100
AcDbEntity
  8
Osie
  6
ByLayer
370
18
100
AcDb2dPolyline
 66
1
 70
128
  0
VERTEX
  5
192
100
AcDbEntity
  8
Osie
100
AcDbVertex
100
AcDb2dVertex
 10
7571832.35727520473
 20
5705848.78633476235
  0
VERTEX
  5
193
100
AcDbEntity
  8
Osie
100
AcDbVertex
100
AcDb2dVertex
 10
7571830.67327520438
 20
5705839.53933476284
  0
SEQEND
  5
194
100
AcDbEntity
  8
Osie
  0
POLYLINE
  5
195
100
AcDbEntity
  8
Osie
  6
ByLayer
370
18
100
AcDb2dPolyline
 66
1
 70
128
  0
VERTEX
  5
196
100
AcDbEntity
  8
Osie
100
AcDbVertex
100
AcDb2dVertex
 10
7571837.07933024596
 20
5705847.92600171641
  0
VERTEX
  5
197
100
AcDbEntity
  8
Osie
100
AcDbVertex
100
AcDb2dVertex
 10
7571835.39533024654
 20
5705838.67900171597
  0
SEQEND
  5
198
100
AcDbEntity
  8
Osie
  0
POLYLINE
  5
199
100
AcDbEntity
  8
Osie
  6
ByLayer
370
18
100
AcDb2dPolyline
 66
1
 70
128
  0
VERTEX
  5
19A
100
AcDbEntity
  8
Osie
100
AcDbVertex
100
AcDb2dVertex
 10
7571833.27436946426
 20
5705863.30758114066
  0
VERTEX
  5
19B
100
AcDbEntity
  8
Osie
100
AcDbVertex
100
AcDb2dVertex
 10
7571843.80141514819
 20
5705861.3903748272
  0
SEQEND
  5
19C
100
AcDbEntity
  8
Osie
  0
POLYLINE
  5
19D
100
AcDbEntity
  8
Osie
  6
ByLayer
370
18
100
AcDb2dPolyline
 66
1
 70
128
  0
VERTEX
  5
19E
100
AcDbEntity
  8
Osie
100
AcDbVertex
100
AcDb2dVertex
 10
7571843.80141514819
 20
5705861.3903748272
  0
VERTEX
  5
19F
100
AcDbEntity
  8
Osie
100
AcDbVertex
100
AcDb2dVertex
 10
7571845.18963053543
 20
5705869.01441885997
  0
SEQEND
  5
1A0
100
AcDbEntity
  8
Osie
  0
POLYLINE
  5
1A1
100
AcDbEntity
  8
Osie
  6
ByLayer
370
18
100
AcDb2dPolyline
 66
1
 70
128
  0
VERTEX
  5
1A2
100
AcDbEntity
  8
Osie
100
AcDbVertex
100
AcDb2dVertex
 10
7571845.18963053543
 20
5705869.01441885997
  0
VERTEX
  5
1A3
100
AcDbEntity
  8
Osie
100
AcDbVertex
100
AcDb2dVertex
 10
7571834.6625848515
 20
5705870.9316251725
  0
SEQEND
  5
1A4
100
AcDbEntity
  8
Osie
  0
POLYLINE
  5
1A5
100
AcDbEntity
  8
Osie
  6
ByLayer
370
18
100
AcDb2dPolyline
 66
1
 70
128
  0
VERTEX
  5
1A6
100
AcDbEntity
  8
Osie
100
AcDbVertex
100
AcDb2dVertex
 10
7571834.6625848515
 20
5705870.9316251725
  0
VERTEX
  5
1A7
100
AcDbEntity
  8
Osie
100
AcDbVertex
100
AcDb2dVertex
 10
7571833.27436946426
 20
5705863.30758114066
  0
SEQEND
  5
1A8
100
AcDbEntity
  8
Osie
  0
POLYLINE
  5
1A9
100
AcDbEntity
  8
Osie
  6
ByLayer
370
18
100
AcDb2dPolyline
 66
1
 70
128
  0
VERTEX
  5
1AA
100
AcDbEntity
  8
Osie
100
AcDbVertex
100
AcDb2dVertex
 10
7571830.72777662799
 20
5705871.6489497982
  0
VERTEX
  5
1AB
100
AcDbEntity
  8
Osie
100
AcDbVertex
100
AcDb2dVertex
 10
7571829.33877662849
 20
5705864.02494979836
  0
SEQEND
  5
1AC
100
AcDbEntity
  8
Osie
  0
POLYLINE
  5
1AD
100
AcDbEntity
  8
Osie
  6
ByLayer
370
18
100
AcDb2dPolyline
 66
1
 70
128
  0
VERTEX
  5
1AE
100
AcDbEntity
  8
Osie
100
AcDbVertex
100
AcDb2dVertex
 10
7571830.72777662799
 20
5705871.6489497982
  0
VERTEX
  5
1AF
100
AcDbEntity
  8
Osie
100
AcDbVertex
100
AcDb2dVertex
 10
7571834.6625848515
 20
5705870.9316251725
  0
SEQEND
  5
1B0
100
AcDbEntity
  8
Osie
  0
POLYLINE
  5
1B1
100
AcDbEntity
  8
Osie
  6
ByLayer
370
18
100
AcDb2dPolyline
 66
1
 70
128
  0
VERTEX
  5
1B2
100
AcDbEntity
  8
Osie
100
AcDbVertex
100
AcDb2dVertex
 10
7571829.33877662849
 20
5705864.02494979836
  0
VERTEX
  5
1B3
100
AcDbEntity
  8
Osie
100
AcDbVertex
100
AcDb2dVertex
 10
7571833.27436946426
 20
5705863.30758114066
  0
SEQEND
  5
1B4
100
AcDbEntity
  8
Osie
  0
POLYLINE
  5
1B5
100
AcDbEntity
  8
przylacze_kablowe
  6
CONTINUOUS
370
35
100
AcDb2dPolyline
 66
1
 70
128
  0
VERTEX
  5
1B6
100
AcDbEntity
  8
przylacze_kablowe
100
AcDbVertex
100
AcDb2dVertex
 10
7571841.05300000031
 20
5705825.50999999978
  0
VERTEX
  5
1B7
100
AcDbEntity
  8
przylacze_kablowe
100
AcDbVertex
100
AcDb2dVertex
 10
7571840.76599999983
 20
5705823.93800000008
  0
VERTEX
  5
1B8
100
AcDbEntity
  8
przylacze_kablowe
100
AcDbVertex
100
AcDb2dVertex
 10
7571797.31500000041
 20
5705804.58299999964
  0
SEQEND
  5
1B9
100
AcDbEntity
  8
przylacze_kablowe
  0
POLYLINE
  5
1BA
100
AcDbEntity
  8
przylacze_kablowe
  6
CONTINUOUS
370
35
100
AcDb2dPolyline
 66
1
 70
128
  0
VERTEX
  5
1BB
100
AcDbEntity
  8
przylacze_kablowe
100
AcDbVertex
100
AcDb2dVertex
 10
7571797.31500000041
 20
5705804.58299999964
  0
VERTEX
  5
1BC
100
AcDbEntity
  8
przylacze_kablowe
100
AcDbVertex
100
AcDb2dVertex
 10
7571794.98699999973
 20
5705806.06300000008
  0
VERTEX
  5
1BD
100
AcDbEntity
  8
przylacze_kablowe
100
AcDbVertex
100
AcDb2dVertex
 10
7571793.68099999987
 20
5705805.48099999968
  0
VERTEX
  5
1BE
100
AcDbEntity
  8
przylacze_kablowe
100
AcDbVertex
100
AcDb2dVertex
 10
7571793.17100000009
 20
5705802.73699999973
  0
VERTEX
  5
1BF
100
AcDbEntity
  8
przylacze_kablowe
100
AcDbVertex
100
AcDb2dVertex
 10
7571720.54600000009
 20
5705770.38599999994
  0
VERTEX
  5
1C0
100
AcDbEntity
  8
przylacze_kablowe
100
AcDbVertex
100
AcDb2dVertex
 10
7571691.62600000016
 20
5705758.44000000041
  0
VERTEX
  5
1C1
100
AcDbEntity
  8
przylacze_kablowe
100
AcDbVertex
100
AcDb2dVertex
 10
7571691.28199999966
 20
5705758.80099999998
  0
SEQEND
  5
1C2
100
AcDbEntity
  8
przylacze_kablowe
  0
POLYLINE
  5
1C3
100
AcDbEntity
  8
przylacze_kablowe
  6
CONTINUOUS
370
35
100
AcDb2dPolyline
 66
1
 70
128
  0
VERTEX
  5
1C4
100
AcDbEntity
  8
przylacze_kablowe
100
AcDbVertex
100
AcDb2dVertex
 10
7571824.9299999997
 20
5705840.70399999991
  0
VERTEX
  5
1C5
100
AcDbEntity
  8
przylacze_kablowe
100
AcDbVertex
100
AcDb2dVertex
 10
7571824.38399999961
 20
5705837.7089999998
  0
VERTEX
  5
1C6
100
AcDbEntity
  8
przylacze_kablowe
100
AcDbVertex
100
AcDb2dVertex
 10
7571842.07799999975
 20
5705834.48599999957
  0
VERTEX
  5
1C7
100
AcDbEntity
  8
przylacze_kablowe
100
AcDbVertex
100
AcDb2dVertex
 10
7571840.64199999999
 20
5705826.60599999968
  0
VERTEX
  5
1C8
100
AcDbEntity
  8
przylacze_kablowe
100
AcDbVertex
100
AcDb2dVertex
 10
7571840.87100000028
 20
5705825.79700000025
  0
SEQEND
  5
1C9
100
AcDbEntity
  8
przylacze_kablowe
  0
POLYLINE
  5
1CA
100
AcDbEntity
  8
przylacze_kablowe
  6
CONTINUOUS
370
35
100
AcDb2dPolyline
 66
1
 70
128
  0
VERTEX
  5
1CB
100
AcDbEntity
  8
przylacze_kablowe
100
AcDbVertex
100
AcDb2dVertex
 10
7571835.19011042919
 20
5705835.79126910306
  0
VERTEX
  5
1CC
100
AcDbEntity
  8
przylacze_kablowe
100
AcDbVertex
100
AcDb2dVertex
 10
7571841.8379777018
 20
5705834.58051495627
  0
SEQEND
  5
1CD
100
AcDbEntity
  8
przylacze_kablowe
  0
POLYLINE
  5
1CE
100
AcDbEntity
  8
przylacze_kablowe
  6
CONTINUOUS
370
35
100
AcDb2dPolyline
 66
1
 70
128
  0
VERTEX
  5
1CF
100
AcDbEntity
  8
przylacze_kablowe
100
AcDbVertex
100
AcDb2dVertex
 10
7571835.17181271594
 20
5705835.69295662828
  0
VERTEX
  5
1D0
100
AcDbEntity
  8
przylacze_kablowe
100
AcDbVertex
100
AcDb2dVertex
 10
7571841.82005977724
 20
5705834.48213331215
  0
SEQEND
  5
1D1
100
AcDbEntity
  8
przylacze_kablowe
  0
POLYLINE
  5
1D2
100
AcDbEntity
  8
przylacze_kablowe
  6
CONTINUOUS
370
35
100
AcDb2dPolyline
 66
1
 70
128
  0
VERTEX
  5
1D3
100
AcDbEntity
  8
przylacze_kablowe
100
AcDbVertex
100
AcDb2dVertex
 10
7571844.08100000024
 20
5705862.22900000028
  0
VERTEX
  5
1D4
100
AcDbEntity
  8
przylacze_kablowe
100
AcDbVertex
100
AcDb2dVertex
 10
7571847.03199999966
 20
5705861.69099999964
  0
VERTEX
  5
1D5
100
AcDbEntity
  8
przylacze_kablowe
100
AcDbVertex
100
AcDb2dVertex
 10
7571842.1129999999
 20
5705834.68300000019
  0
VERTEX
  5
1D6
100
AcDbEntity
  8
przylacze_kablowe
100
AcDbVertex
100
AcDb2dVertex
 10
7571824.5120000001
 20
5705837.88900000043
  0
VERTEX
  5
1D7
100
AcDbEntity
  8
przylacze_kablowe
100
AcDbVertex
100
AcDb2dVertex
 10
7571825.02300000004
 20
5705840.6950000003
  0
SEQEND
  5
1D8
100
AcDbEntity
  8
przylacze_kablowe
  0
POLYLINE
  5
1D9
100
AcDbEntity
  8
przylacze_kablowe
  6
CONTINUOUS
370
35
100
AcDb2dPolyline
 66
1
 70
128
  0
VERTEX
  5
1DA
100
AcDbEntity
  8
przylacze_kablowe
100
AcDbVertex
100
AcDb2dVertex
 10
7571841.85589562636
 20
5705834.67889660131
  0
VERTEX
  5
1DB
100
AcDbEntity
  8
przylacze_kablowe
100
AcDbVertex
100
AcDb2dVertex
 10
7571835.20840814244
 20
5705835.88958157785
  0
SEQEND
  5
1DC
100
AcDbEntity
  8
przylacze_kablowe
  0
POLYLINE
  5
1DD
100
AcDbEntity
  8
przylacze_kablowe
  6
CONTINUOUS
370
35
100
AcDb2dPolyline
 66
1
 70
128
  0
VERTEX
  5
1DE
100
AcDbEntity
  8
przylacze_kablowe
100
AcDbVertex
100
AcDb2dVertex
 10
7571841.87381355092
 20
5705834.77727824543
  0
VERTEX
  5
1DF
100
AcDbEntity
  8
przylacze_kablowe
100
AcDbVertex
100
AcDb2dVertex
 10
7571835.22670585569
 20
5705835.98789405264
  0
SEQEND
  5
1E0
100
AcDbEntity
  8
przylacze_kablowe
  0
POLYLINE
  5
1E1
100
AcDbEntity
  8
przylacze_kablowe
  6
CONTINUOUS
420
255
370
13
100
AcDb2dPolyline
 66
1
 70
128
  0
VERTEX
  5
1E2
100
AcDbEntity
  8
przylacze_kablowe
100
AcDbVertex
100
AcDb2dVertex
 10
7571824.97872653417
 20
5705840.6948481556
  0
VERTEX
  5
1E3
100
AcDbEntity
  8
przylacze_kablowe
100
AcDbVertex
100
AcDb2dVertex
 10
7571824.44216467068
 20
5705837.7487570243
  0
VERTEX
  5
1E4
100
AcDbEntity
  8
przylacze_kablowe
100
AcDbVertex
100
AcDb2dVertex
 10
7571829.13092088699
 20
5705836.89480931498
  0
SEQEND
  5
1E5
100
AcDbEntity
  8
przylacze_kablowe
  0
POLYLINE
  5
1E6
100
AcDbEntity
  8
przylacze_kablowe
  6
CONTINUOUS
420
255
370
13
100
AcDb2dPolyline
 66
1
 70
128
  0
VERTEX
  5
1E7
100
AcDbEntity
  8
przylacze_kablowe
100
AcDbVertex
100
AcDb2dVertex
 10
7571824.88034489006
 20
5705840.71276608016
  0
VERTEX
  5
1E8
100
AcDbEntity
  8
przylacze_kablowe
100
AcDbVertex
100
AcDb2dVertex
 10
7571824.325865102
 20
5705837.66829330474
  0
VERTEX
  5
1E9
100
AcDbEntity
  8
przylacze_kablowe
100
AcDbVertex
100
AcDb2dVertex
 10
7571829.11262317374
 20
5705836.79649684019
  0
SEQEND
  5
1EA
100
AcDbEntity
  8
przylacze_kablowe
  0
POLYLINE
  5
1EB
100
AcDbEntity
  8
przylacze_kablowe
  6
CONTINUOUS
420
255
370
13
100
AcDb2dPolyline
 66
1
 70
128
  0
VERTEX
  5
1EC
100
AcDbEntity
  8
przylacze_kablowe
100
AcDbVertex
100
AcDb2dVertex
 10
7571829.14921859931
 20
5705836.99312178977
  0
VERTEX
  5
1ED
100
AcDbEntity
  8
przylacze_kablowe
100
AcDbVertex
100
AcDb2dVertex
 10
7571824.45364039764
 20
5705837.84831196535
  0
VERTEX
  5
1EE
100
AcDbEntity
  8
przylacze_kablowe
100
AcDbVertex
100
AcDb2dVertex
 10
7571824.97381643485
 20
5705840.70443371776
  0
SEQEND
  5
1EF
100
AcDbEntity
  8
przylacze_kablowe
  0
POLYLINE
  5
1F0
100
AcDbEntity
  8
przylacze_kablowe
  6
CONTINUOUS
420
255
370
13
100
AcDb2dPolyline
 66
1
 70
128
  0
VERTEX
  5
1F1
100
AcDbEntity
  8
przylacze_kablowe
100
AcDbVertex
100
AcDb2dVertex
 10
7571829.16751631256
 20
5705837.09143426456
  0
VERTEX
  5
1F2
100
AcDbEntity
  8
przylacze_kablowe
100
AcDbVertex
100
AcDb2dVertex
 10
7571824.56993996631
 20
5705837.92877568491
  0
VERTEX
  5
1F3
100
AcDbEntity
  8
przylacze_kablowe
100
AcDbVertex
100
AcDb2dVertex
 10
7571825.07219807897
 20
5705840.6865157932
  0
SEQEND
  5
1F4
100
AcDbEntity
  8
przylacze_kablowe
  0
POLYLINE
  5
1F5
100
AcDbEntity
  8
przylacze_kablowe
  6
CONTINUOUS
370
35
100
AcDb2dPolyline
 66
1
 70
129
  0
VERTEX
  5
1F6
100
AcDbEntity
  8
przylacze_kablowe
100
AcDbVertex
100
AcDb2dVertex
 10
7571841.49095533509
 20
5705825.68419074174
  0
VERTEX
  5
1F7
100
AcDbEntity
  8
przylacze_kablowe
100
AcDbVertex
100
AcDb2dVertex
 10
7571841.44616052322
 20
5705825.43823662959
  0
VERTEX
  5
1F8
100
AcDbEntity
  8
przylacze_kablowe
100
AcDbVertex
100
AcDb2dVertex
 10
7571840.65910736751
 20
5705825.58158002608
  0
VERTEX
  5
1F9
100
AcDbEntity
  8
przylacze_kablowe
100
AcDbVertex
100
AcDb2dVertex
 10
7571840.70390217844
 20
5705825.82753413729
  0
SEQEND
  5
1FA
100
AcDbEntity
  8
przylacze_kablowe
  0
POLYLINE
  5
1FB
100
AcDbEntity
  8
przylacze_kablowe
  6
CONTINUOUS
370
35
100
AcDb2dPolyline
 66
1
 70
129
  0
VERTEX
  5
1FC
100
AcDbEntity
  8
przylacze_kablowe
100
AcDbVertex
100
AcDb2dVertex
 10
7571841.49095533509
 20
5705825.68419074174
  0
VERTEX
  5
1FD
100
AcDbEntity
  8
przylacze_kablowe
100
AcDbVertex
100
AcDb2dVertex
 10
7571841.44616052322
 20
5705825.43823662959
  0
VERTEX
  5
1FE
100
AcDbEntity
  8
przylacze_kablowe
100
AcDbVertex
100
AcDb2dVertex
 10
7571840.65910736751
 20
5705825.58158002608
  0
VERTEX
  5
1FF
100
AcDbEntity
  8
przylacze_kablowe
100
AcDbVertex
100
AcDb2dVertex
 10
7571840.70390217844
 20
5705825.82753413729
  0
SEQEND
  5
200
100
AcDbEntity
  8
przylacze_kablowe
  0
HATCH
  5
201
100
AcDbEntity
  8
przylacze_kablowe
  6
CONTINUOUS
 62
256
370
35
100
AcDbHatch
 10
0.0
 20
0.0
 30
0.0
210
-0.0
220
-0.0
230
1.0
  2
SOLID
 70
1
 71
1
 91
1
 92
3
 72
0
 73
1
 93
4
 10
7571841.49095533509
 20
5705825.68419074174
 10
7571841.44616052322
 20
5705825.43823662959
 10
7571840.65910736751
 20
5705825.58158002608
 10
7571840.70390217844
 20
5705825.82753413729
 97
0
 75
0
 76
1
 98
0
  0
POLYLINE
  5
202
100
AcDbEntity
  8
WODA
  6
CONTINUOUS
370
35
100
AcDb2dPolyline
 66
1
 70
128
  0
VERTEX
  5
203
100
AcDbEntity
  8
WODA
100
AcDbVertex
100
AcDb2dVertex
 10
7571720.95247844793
 20
5705769.47288414463
  0
VERTEX
  5
204
100
AcDbEntity
  8
WODA
100
AcDbVertex
100
AcDb2dVertex
 10
7571824.11833630875
 20
5705815.42770842928
  0
SEQEND
  5
205
100
AcDbEntity
  8
WODA
  0
POLYLINE
  5
206
100
AcDbEntity
  8
WODA
  6
CONTINUOUS
370
35
100
AcDb2dPolyline
 66
1
 70
128
  0
VERTEX
  5
207
100
AcDbEntity
  8
WODA
100
AcDbVertex
100
AcDb2dVertex
 10
7571695.17677781731
 20
5705751.85621751938
  0
VERTEX
  5
208
100
AcDbEntity
  8
WODA
100
AcDbVertex
100
AcDb2dVertex
 10
7571723.57212700788
 20
5705763.59228728712
  0
SEQEND
  5
209
100
AcDbEntity
  8
WODA
  0
POLYLINE
  5
20A
100
AcDbEntity
  8
WODA
  6
CONTINUOUS
370
35
100
AcDb2dPolyline
 66
1
 70
128
  0
VERTEX
  5
20B
100
AcDbEntity
  8
WODA
100
AcDbVertex
100
AcDb2dVertex
 10
7571723.57212700788
 20
5705763.59228728712
  0
VERTEX
  5
20C
100
AcDbEntity
  8
WODA
100
AcDbVertex
100
AcDb2dVertex
 10
7571720.95247844793
 20
5705769.47288414463
  0
SEQEND
  5
20D
100
AcDbEntity
  8
WODA
  0
POLYLINE
  5
20E
100
AcDbEntity
  8
WODA
  6
CONTINUOUS
370
35
100
AcDb2dPolyline
 66
1
 70
128
  0
VERTEX
  5
20F
100
AcDbEntity
  8
WODA
100
AcDbVertex
100
AcDb2dVertex
 10
7571691.25561204087
 20
5705730.90887188353
  0
VERTEX
  5
210
100
AcDbEntity
  8
WODA
100
AcDbVertex
100
AcDb2dVertex
 10
7571695.17677781731
 20
5705751.85621751938
  0
SEQEND
  5
211
100
AcDbEntity
  8
WODA
  0
POLYLINE
  5
212
100
AcDbEntity
  8
WODA
  6
CONTINUOUS
370
35
100
AcDb2dPolyline
 66
1
 70
128
  0
VERTEX
  5
213
100
AcDbEntity
  8
WODA
100
AcDbVertex
100
AcDb2dVertex
 10
7571824.11833630875
 20
5705815.42770842928
  0
VERTEX
  5
214
100
AcDbEntity
  8
WODA
100
AcDbVertex
100
AcDb2dVertex
 10
7571840.99188706093
 20
5705822.94396502711
  0
SEQEND
  5
215
100
AcDbEntity
  8
WODA
  0
POLYLINE
  5
216
100
AcDbEntity
  8
WODA
  6
CONTINUOUS
370
35
100
AcDb2dPolyline
 66
1
 70
128
  0
VERTEX
  5
217
100
AcDbEntity
  8
WODA
100
AcDbVertex
100
AcDb2dVertex
 10
7571690.53607358132
 20
5705731.53064514324
  0
VERTEX
  5
218
100
AcDbEntity
  8
WODA
100
AcDbVertex
100
AcDb2dVertex
 10
7571692.13348763343
 20
5705731.27448373288
  0
SEQEND
  5
219
100
AcDbEntity
  8
WODA
  0
POLYLINE
  5
21A
100
AcDbEntity
  8
WODA
  6
CONTINUOUS
370
35
100
AcDb2dPolyline
 66
1
 70
128
  0
VERTEX
  5
21B
100
AcDbEntity
  8
WODA
100
AcDbVertex
100
AcDb2dVertex
 10
7571723.57212700788
 20
5705763.59228728712
  0
VERTEX
  5
21C
100
AcDbEntity
  8
WODA
100
AcDbVertex
100
AcDb2dVertex
 10
7571720.95247844793
 20
5705769.47288414463
  0
SEQEND
  5
21D
100
AcDbEntity
  8
WODA
  0
CIRCLE
  5
21E
100
AcDbEntity
  8
ZUD_WOD_L_0
  6
ByLayer
370
13
100
AcDbCircle
 10
7571794.98467639834
 20
5705804.28682987113
 40
0.328273250721
  0
POLYLINE
  5
21F
100
AcDbEntity
  8
ZUD_WOD_L_0
  6
ByLayer
370
13
100
AcDb2dPolyline
 66
1
 70
128
  0
VERTEX
  5
220
100
AcDbEntity
  8
ZUD_WOD_L_0
100
AcDbVertex
100
AcDb2dVertex
 10
7571824.11799999978
 20
5705815.42800000031
  0
VERTEX
  5
221
100
AcDbEntity
  8
ZUD_WOD_L_0
100
AcDbVertex
100
AcDb2dVertex
 10
7571828.61400000006
 20
5705839.58299999964
  0
SEQEND
  5
222
100
AcDbEntity
  8
ZUD_WOD_L_0
  0
POLYLINE
  5
223
100
AcDbEntity
  8
ZUD_WOD_L_0
  6
ByLayer
370
13
100
AcDb2dPolyline
 66
1
 70
128
  0
VERTEX
  5
224
100
AcDbEntity
  8
ZUD_WOD_L_0
100
AcDbVertex
100
AcDb2dVertex
 10
7571795.6594700627
 20
5705802.73595880158
  0
VERTEX
  5
225
100
AcDbEntity
  8
ZUD_WOD_L_0
100
AcDbVertex
100
AcDb2dVertex
 10
7571794.98467639834
 20
5705804.28682987113
  0
SEQEND
  5
226
100
AcDbEntity
  8
ZUD_WOD_L_0
  0
POLYLINE
  5
227
100
AcDbEntity
  8
ZUD_WOD_L_0
  6
ByLayer
370
13
100
AcDb2dPolyline
 66
1
 70
128
  0
VERTEX
  5
228
100
AcDbEntity
  8
ZUD_WOD_L_0
100
AcDbVertex
100
AcDb2dVertex
 10
7571795.07606607769
 20
5705803.19240327459
  0
VERTEX
  5
229
100
AcDbEntity
  8
ZUD_WOD_L_0
100
AcDbVertex
100
AcDb2dVertex
 10
7571795.70381710771
 20
5705803.47240667697
  0
SEQEND
  5
22A
100
AcDbEntity
  8
ZUD_WOD_L_0
  0
POLYLINE
  5
22B
100
AcDbEntity
  8
ZUD_WOD_L_0
  6
ByLayer
370
13
100
AcDb2dPolyline
 66
1
 70
128
  0
VERTEX
  5
22C
100
AcDbEntity
  8
ZUD_WOD_L_0
100
AcDbVertex
100
AcDb2dVertex
 10
7571823.91554415505
 20
5705815.88455072697
  0
VERTEX
  5
22D
100
AcDbEntity
  8
ZUD_WOD_L_0
100
AcDbVertex
100
AcDb2dVertex
 10
7571824.54329518601
 20
5705816.16455412935
  0
SEQEND
  5
22E
100
AcDbEntity
  8
ZUD_WOD_L_0
  0
POLYLINE
  5
22F
100
AcDbEntity
  8
ZUD_WOD_L_0
  6
ByLayer
370
13
100
AcDb2dPolyline
 66
1
 70
129
  0
VERTEX
  5
230
100
AcDbEntity
  8
ZUD_WOD_L_0
100
AcDbVertex
100
AcDb2dVertex
 10
7571794.85370335914
 20
5705804.58784380741
  0
VERTEX
  5
231
100
AcDbEntity
  8
ZUD_WOD_L_0
100
AcDbVertex
100
AcDb2dVertex
 10
7571795.17665567901
 20
5705804.5531140836
  0
VERTEX
  5
232
100
AcDbEntity
  8
ZUD_WOD_L_0
100
AcDbVertex
100
AcDb2dVertex
 10
7571795.31165305432
 20
5705804.25768208969
  0
VERTEX
  5
233
100
AcDbEntity
  8
ZUD_WOD_L_0
100
AcDbVertex
100
AcDb2dVertex
 10
7571795.25096061174
 20
5705804.09485058952
  0
VERTEX
  5
234
100
AcDbEntity
  8
ZUD_WOD_L_0
100
AcDbVertex
100
AcDb2dVertex
 10
7571795.11564943753
 20
5705803.98581593391
  0
SEQEND
  5
235
100
AcDbEntity
  8
ZUD_WOD_L_0
  0
HATCH
  5
236
100
AcDbEntity
  8
ZUD_WOD_L_0
  6
CONTINUOUS
 62
256
370
13
100
AcDbHatch
 10
0.0
 20
0.0
 30
0.0
210
0.0
220
0.0
230
1.0
  2
SOLID
 70
1
 71
1
 91
1
 92
3
 72
0
 73
1
 93
5
 10
7571794.85370335914
 20
5705804.58784380741
 10
7571795.17665567901
 20
5705804.5531140836
 10
7571795.31165305432
 20
5705804.25768208969
 10
7571795.25096061174
 20
5705804.09485058952
 10
7571795.11564943753
 20
5705803.98581593391
 97
0
 75
0
 76
1
 98
0
  0
POINT
  5
237
100
AcDbEntity
  8
dzialka
100
AcDbPoint
 62
256
 10
7571840.83999999985
 20
5705822.11000000034
  0
POINT
  5
238
100
AcDbEntity
  8
dzialka
100
AcDbPoint
 62
256
 10
7571792.24000000022
 20
5705800.45999999996
  0
POINT
  5
239
100
AcDbEntity
  8
dzialka
100
AcDbPoint
 62
256
 10
7571809.09999999963
 20
5705891.26999999955
  0
POINT
  5
23A
100
AcDbEntity
  8
dzialka
100
AcDbPoint
 62
256
 10
7571855.33000000007
 20
5705901.66999999993
  0
POINT
  5
23B
100
AcDbEntity
  8
Level_1
100
AcDbPoint
 62
256
 10
7571819.42399999965
 20
5705841.25700000022
  0
POINT
  5
23C
100
AcDbEntity
  8
Level_1
100
AcDbPoint
 62
256
 10
7571835.65699999966
 20
5705838.30099999998
  0
POINT
  5
23D
100
AcDbEntity
  8
Level_1
100
AcDbPoint
 62
256
 10
7571837.45799999964
 20
5705848.18800000008
  0
POINT
  5
23E
100
AcDbEntity
  8
Level_1
100
AcDbPoint
 62
256
 10
7571821.22499999963
 20
5705851.14400000032
  0
POINT
  5
23F
100
AcDbEntity
  8
Level_1
100
AcDbPoint
 62
256
 10
7571833.12899999972
 20
5705863.2070000004
  0
POINT
  5
240
100
AcDbEntity
  8
Level_1
100
AcDbPoint
 62
256
 10
7571843.90199999977
 20
5705861.24500000011
  0
POINT
  5
241
100
AcDbEntity
  8
Level_1
100
AcDbPoint
 62
256
 10
7571845.33499999996
 20
5705869.11500000022
  0
POINT
  5
242
100
AcDbEntity
  8
Level_1
100
AcDbPoint
 62
256
 10
7571834.56199999992
 20
5705871.07699999958
  0
POINT
  5
243
100
AcDbEntity
  8
Level_1
100
AcDbPoint
 62
256
 10
7571833.12899999972
 20
5705863.2070000004
  0
POINT
  5
244
100
AcDbEntity
  8
przylacze_kablowe
100
AcDbPoint
 62
256
 10
7571840.70390217844
 20
5705825.82753413729
  0
POINT
  5
245
100
AcDbEntity
  8
przylacze_kablowe
100
AcDbPoint
 62
256
 10
7571840.65910736751
 20
5705825.58158002608
  0
POINT
  5
246
100
AcDbEntity
  8
przylacze_kablowe
100
AcDbPoint
 62
256
 10
7571841.44616052322
 20
5705825.43823662959
  0
POINT
  5
247
100
AcDbEntity
  8
przylacze_kablowe
100
AcDbPoint
 62
256
 10
7571841.49095533509
 20
5705825.68419074174
  0
POINT
  5
248
100
AcDbEntity
  8
przylacze_kablowe
100
AcDbPoint
 62
256
 10
7571824.92953571212
 20
5705840.70380711835
  0
POINT
  5
249
100
AcDbEntity
  8
przylacze_kablowe
100
AcDbPoint
 62
256
 10
7571824.38401488587
 20
5705837.70852516405
  0
POINT
  5
24A
100
AcDbEntity
  8
przylacze_kablowe
100
AcDbPoint
 62
256
 10
7571842.07756062876
 20
5705834.4860580191
  0
POINT
  5
24B
100
AcDbEntity
  8
przylacze_kablowe
100
AcDbPoint
 62
256
 10
7571840.64247241802
 20
5705826.60644349828
  0
POINT
  5
24C
100
AcDbEntity
  8
przylacze_kablowe
100
AcDbPoint
 62
256
 10
7571840.87086001784
 20
5705825.7971266564
  0
POINT
  5
24D
100
AcDbEntity
  8
przylacze_kablowe
100
AcDbPoint
 62
256
 10
7571835.19011042919
 20
5705835.79126910306
  0
POINT
  5
24E
100
AcDbEntity
  8
przylacze_kablowe
100
AcDbPoint
 62
256
 10
7571841.8379777018
 20
5705834.58051495627
  0
POINT
  5
24F
100
AcDbEntity
  8
przylacze_kablowe
100
AcDbPoint
 62
256
 10
7571835.17181271594
 20
5705835.69295662828
  0
POINT
  5
250
100
AcDbEntity
  8
przylacze_kablowe
100
AcDbPoint
 62
256
 10
7571841.82005977724
 20
5705834.48213331215
  0
POINT
  5
251
100
AcDbEntity
  8
przylacze_kablowe
100
AcDbPoint
 62
256
 10
7571844.08086277731
 20
5705862.22856575809
  0
POINT
  5
252
100
AcDbEntity
  8
przylacze_kablowe
100
AcDbPoint
 62
256
 10
7571847.03231211286
 20
5705861.69102802221
  0
POINT
  5
253
100
AcDbEntity
  8
przylacze_kablowe
100
AcDbPoint
 62
256
 10
7571842.11339647789
 20
5705834.68282130826
  0
POINT
  5
254
100
AcDbEntity
  8
przylacze_kablowe
100
AcDbPoint
 62
256
 10
7571824.51179018151
 20
5705837.8885438256
  0
POINT
  5
255
100
AcDbEntity
  8
przylacze_kablowe
100
AcDbPoint
 62
256
 10
7571825.02300725691
 20
5705840.69547475502
  0
POINT
  5
256
100
AcDbEntity
  8
przylacze_kablowe
100
AcDbPoint
 62
256
 10
7571841.85589562636
 20
5705834.67889660131
  0
POINT
  5
257
100
AcDbEntity
  8
przylacze_kablowe
100
AcDbPoint
 62
256
 10
7571835.20840814244
 20
5705835.88958157785
  0
POINT
  5
258
100
AcDbEntity
  8
przylacze_kablowe
100
AcDbPoint
 62
256
 10
7571841.87381355092
 20
5705834.77727824543
  0
POINT
  5
259
100
AcDbEntity
  8
przylacze_kablowe
100
AcDbPoint
 62
256
 10
7571835.22670585569
 20
5705835.98789405264
  0
POINT
  5
25A
100
AcDbEntity
  8
przylacze_kablowe
100
AcDbPoint
 62
256
 10
7571824.97872653417
 20
5705840.6948481556
  0
POINT
  5
25B
100
AcDbEntity
  8
przylacze_kablowe
100
AcDbPoint
 62
256
 10
7571824.44216467068
 20
5705837.7487570243
  0
POINT
  5
25C
100
AcDbEntity
  8
przylacze_kablowe
100
AcDbPoint
 62
256
 10
7571829.13092088699
 20
5705836.89480931498
  0
POINT
  5
25D
100
AcDbEntity
  8
przylacze_kablowe
100
AcDbPoint
 62
256
 10
7571824.88034489006
 20
5705840.71276608016
  0
POINT
  5
25E
100
AcDbEntity
  8
przylacze_kablowe
100
AcDbPoint
 62
256
 10
7571824.325865102
 20
5705837.66829330474
  0
POINT
  5
25F
100
AcDbEntity
  8
przylacze_kablowe
100
AcDbPoint
 62
256
 10
7571829.11262317374
 20
5705836.79649684019
  0
POINT
  5
260
100
AcDbEntity
  8
przylacze_kablowe
100
AcDbPoint
 62
256
 10
7571829.14921859931
 20
5705836.99312178977
  0
POINT
  5
261
100
AcDbEntity
  8
przylacze_kablowe
100
AcDbPoint
 62
256
 10
7571824.45364039764
 20
5705837.84831196535
  0
POINT
  5
262
100
AcDbEntity
  8
przylacze_kablowe
100
AcDbPoint
 62
256
 10
7571824.97381643485
 20
5705840.70443371776
  0
POINT
  5
263
100
AcDbEntity
  8
przylacze_kablowe
100
AcDbPoint
 62
256
 10
7571829.16751631256
 20
5705837.09143426456
  0
POINT
  5
264
100
AcDbEntity
  8
przylacze_kablowe
100
AcDbPoint
 62
256
 10
7571824.56993996631
 20
5705837.92877568491
  0
POINT
  5
265
100
AcDbEntity
  8
przylacze_kablowe
100
AcDbPoint
 62
256
 10
7571825.07219807897
 20
5705840.6865157932
  0
POINT
  5
266
100
AcDbEntity
  8
przylacze_kablowe
100
AcDbPoint
 62
256
 10
7571797.31500000041
 20
5705804.58299999964
  0
POINT
  5
267
100
AcDbEntity
  8
przylacze_kablowe
100
AcDbPoint
 62
256
 10
7571794.98699999973
 20
5705806.06300000008
  0
POINT
  5
268
100
AcDbEntity
  8
przylacze_kablowe
100
AcDbPoint
 62
256
 10
7571793.68099999987
 20
5705805.48099999968
  0
POINT
  5
269
100
AcDbEntity
  8
przylacze_kablowe
100
AcDbPoint
 62
256
 10
7571793.17100000009
 20
5705802.73699999973
  0
POINT
  5
26A
100
AcDbEntity
  8
przylacze_kablowe
100
AcDbPoint
 62
256
 10
7571720.54600000009
 20
5705770.38599999994
  0
POINT
  5
26B
100
AcDbEntity
  8
przylacze_kablowe
100
AcDbPoint
 62
256
 10
7571691.62600000016
 20
5705758.44000000041
  0
POINT
  5
26C
100
AcDbEntity
  8
przylacze_kablowe
100
AcDbPoint
 62
256
 10
7571691.28199999966
 20
5705758.80099999998
  0
POINT
  5
26D
100
AcDbEntity
  8
przylacze_kablowe
100
AcDbPoint
 62
256
 10
7571841.05300000031
 20
5705825.50999999978
  0
POINT
  5
26E
100
AcDbEntity
  8
przylacze_kablowe
100
AcDbPoint
 62
256
 10
7571840.76599999983
 20
5705823.93800000008
  0
POINT
  5
26F
100
AcDbEntity
  8
przylacze_kablowe
100
AcDbPoint
 62
256
 10
7571824.9299999997
 20
5705840.70399999991
  0
POINT
  5
270
100
AcDbEntity
  8
przylacze_kablowe
100
AcDbPoint
 62
256
 10
7571824.38399999961
 20
5705837.7089999998
  0
POINT
  5
271
100
AcDbEntity
  8
przylacze_kablowe
100
AcDbPoint
 62
256
 10
7571842.07799999975
 20
5705834.48599999957
  0
POINT
  5
272
100
AcDbEntity
  8
przylacze_kablowe
100
AcDbPoint
 62
256
 10
7571840.64199999999
 20
5705826.60599999968
  0
POINT
  5
273
100
AcDbEntity
  8
przylacze_kablowe
100
AcDbPoint
 62
256
 10
7571840.87100000028
 20
5705825.79700000025
  0
POINT
  5
274
100
AcDbEntity
  8
przylacze_kablowe
100
AcDbPoint
 62
256
 10
7571835.17499999981
 20
5705835.74299999978
  0
POINT
  5
275
100
AcDbEntity
  8
przylacze_kablowe
100
AcDbPoint
 62
256
 10
7571829.1129999999
 20
5705836.84800000023
  0
POINT
  5
276
100
AcDbEntity
  8
przylacze_kablowe
100
AcDbPoint
 62
256
 10
7571844.08100000024
 20
5705862.22900000028
  0
POINT
  5
277
100
AcDbEntity
  8
przylacze_kablowe
100
AcDbPoint
 62
256
 10
7571847.03199999966
 20
5705861.69099999964
  0
POINT
  5
278
100
AcDbEntity
  8
przylacze_kablowe
100
AcDbPoint
 62
256
 10
7571842.1129999999
 20
5705834.68300000019
  0
POINT
  5
279
100
AcDbEntity
  8
przylacze_kablowe
100
AcDbPoint
 62
256
 10
7571824.5120000001
 20
5705837.88900000043
  0
POINT
  5
27A
100
AcDbEntity
  8
przylacze_kablowe
100
AcDbPoint
 62
256
 10
7571825.02300000004
 20
5705840.6950000003
  0
POINT
  5
27B
100
AcDbEntity
  8
przylacze_kablowe
100
AcDbPoint
 62
256
 10
7571829.15699999966
 20
5705837.0429999996
  0
POINT
  5
27C
100
AcDbEntity
  8
przylacze_kablowe
100
AcDbPoint
 62
256
 10
7571835.21600000002
 20
5705835.93900000025
  0
POINT
  5
27D
100
AcDbEntity
  8
WODA
100
AcDbPoint
 62
256
 10
7571720.95247844793
 20
5705769.47288414463
  0
POINT
  5
27E
100
AcDbEntity
  8
WODA
100
AcDbPoint
 62
256
 10
7571824.11833630875
 20
5705815.42770842928
  0
POINT
  5
27F
100
AcDbEntity
  8
WODA
100
AcDbPoint
 62
256
 10
7571695.17677781731
 20
5705751.85621751938
  0
POINT
  5
280
100
AcDbEntity
  8
WODA
100
AcDbPoint
 62
256
 10
7571723.57212700788
 20
5705763.59228728712
  0
POINT
  5
281
100
AcDbEntity
  8
WODA
100
AcDbPoint
 62
256
 10
7571691.25561204087
 20
5705730.90887188353
  0
POINT
  5
282
100
AcDbEntity
  8
WODA
100
AcDbPoint
 62
256
 10
7571840.99188706093
 20
5705822.94396502711
  0
POINT
  5
283
100
AcDbEntity
  8
WODA
100
AcDbPoint
 62
256
 10
7571690.53607358132
 20
5705731.53064514324
  0
POINT
  5
284
100
AcDbEntity
  8
WODA
100
AcDbPoint
 62
256
 10
7571692.13348763343
 20
5705731.27448373288
  0
POINT
  5
285
100
AcDbEntity
  8
WODA
100
AcDbPoint
 62
256
 10
7571795.65600000042
 20
5705802.74899999984
  0
POINT
  5
286
100
AcDbEntity
  8
WODA
100
AcDbPoint
 62
256
 10
7571794.98300000001
 20
5705804.29000000004
  0
POINT
  5
287
100
AcDbEntity
  8
WODA
100
AcDbPoint
 62
256
 10
7571720.96100000013
 20
5705769.47699999996
  0
POINT
  5
288
100
AcDbEntity
  8
WODA
100
AcDbPoint
 62
256
 10
7571723.55900000036
 20
5705763.62299999967
  0
POINT
  5
289
100
AcDbEntity
  8
WODA
100
AcDbPoint
 62
256
 10
7571695.17599999998
 20
5705751.85099999979
  0
POINT
  5
28A
100
AcDbEntity
  8
WODA
100
AcDbPoint
 62
256
 10
7571691.25800000038
 20
5705730.92200000025
  0
POINT
  5
28B
100
AcDbEntity
  8
WODA
100
AcDbPoint
 62
256
 10
7571840.98599999957
 20
5705822.94099999964
  0
POINT
  5
28C
100
AcDbEntity
  8
ZUD_WOD_L_0
100
AcDbPoint
 62
256
 10
7571828.61414358392
 20
5705839.58340157755
  0
POINT
  5
28D
100
AcDbEntity
  8
ZUD_WOD_L_0
100
AcDbPoint
 62
256
 10
7571795.11564943753
 20
5705803.98581593391
  0
POINT
  5
28E
100
AcDbEntity
  8
ZUD_WOD_L_0
100
AcDbPoint
 62
256
 10
7571795.31165305432
 20
5705804.25768208969
  0
POINT
  5
28F
100
AcDbEntity
  8
ZUD_WOD_L_0
100
AcDbPoint
 62
256
 10
7571794.85370335914
 20
5705804.58784380741
  0
POINT
  5
290
100
AcDbEntity
  8
ZUD_WOD_L_0
100
AcDbPoint
 62
256
 10
7571795.6594700627
 20
5705802.73595880158
  0
POINT
  5
291
100
AcDbEntity
  8
ZUD_WOD_L_0
100
AcDbPoint
 62
256
 10
7571794.98467639834
 20
5705804.28682987113
  0
POINT
  5
292
100
AcDbEntity
  8
ZUD_WOD_L_0
100
AcDbPoint
 62
256
 10
7571795.07606607769
 20
5705803.19240327459
  0
POINT
  5
293
100
AcDbEntity
  8
ZUD_WOD_L_0
100
AcDbPoint
 62
256
 10
7571795.70381710771
 20
5705803.47240667697
  0
POINT
  5
294
100
AcDbEntity
  8
ZUD_WOD_L_0
100
AcDbPoint
 62
256
 10
7571823.91554415505
 20
5705815.88455072697
  0
POINT
  5
295
100
AcDbEntity
  8
ZUD_WOD_L_0
100
AcDbPoint
 62
256
 10
7571824.54329518601
 20
5705816.16455412935
  0
POINT
  5
296
100
AcDbEntity
  8
ZUD_WOD_L_0
100
AcDbPoint
 62
256
 10
7571824.11799999978
 20
5705815.42800000031
  0
POINT
  5
297
100
AcDbEntity
  8
ZUD_WOD_L_0
100
AcDbPoint
 62
256
 10
7571828.61400000006
 20
5705839.58299999964
  0
MTEXT
  5
298
100
AcDbEntity
  8
dzialka
370
25
100
AcDbMText
 10
7571610.25
 20
5705451.13499999978
 40
0.6250
 41
0.0
 71
5
 72
1
  1
\W0.6563x;152/2
  7
STANDARD
 11
1.00000000
 21
0.00000000
 44
0.90
 90
3
 63
0
 45
1.0
  0
MTEXT
  5
299
100
AcDbEntity
  8
dzialka
370
25
100
AcDbMText
 10
7571573.78500000015
 20
5705706.875
 40
0.6250
 41
0.0
 71
5
 72
1
  1
\W0.6563x;150/2
  7
STANDARD
 11
1.00000000
 21
0.00000000
 44
0.90
 90
3
 63
0
 45
1.0
  0
MTEXT
  5
29A
100
AcDbEntity
  8
dzialka
370
25
100
AcDbMText
 10
7571946.58000000007
 20
5705974.32499999926
 40
0.6250
 41
0.0
 71
5
 72
1
  1
\W0.6563x;119/1
  7
STANDARD
 11
1.00000000
 21
0.00000000
 44
0.90
 90
3
 63
0
 45
1.0
  0
MTEXT
  5
29B
100
AcDbEntity
  8
dzialka
370
25
100
AcDbMText
 10
7571989.99000000022
 20
5705949.66500000004
 40
0.6250
 41
0.0
 71
5
 72
1
  1
\W0.6563x;121
  7
STANDARD
 11
1.00000000
 21
0.00000000
 44
0.90
 90
3
 63
0
 45
1.0
  0
MTEXT
  5
29C
100
AcDbEntity
  8
dzialka
370
25
100
AcDbMText
 10
7571955.78500000015
 20
5705788.83499999996
 40
0.6250
 41
0.0
 71
5
 72
1
  1
\W0.6563x;157/4
  7
STANDARD
 11
1.00000000
 21
0.00000000
 44
0.90
 90
3
 63
0
 45
1.0
  0
MTEXT
  5
29D
100
AcDbEntity
  8
dzialka
370
25
100
AcDbMText
 10
7571784.64499999955
 20
5705999.05000000074
 40
0.6250
 41
0.0
 71
5
 72
1
  1
\W0.6563x;111/1
  7
STANDARD
 11
1.00000000
 21
0.00000000
 44
0.90
 90
3
 63
0
 45
1.0
  0
MTEXT
  5
29E
100
AcDbEntity
  8
dzialka
370
25
100
AcDbMText
 10
7571894.94999999926
 20
5705984.125
 40
0.6250
 41
0.0
 71
5
 72
1
  1
\W0.6563x;117/1
  7
STANDARD
 11
1.00000000
 21
0.00000000
 44
0.90
 90
3
 63
0
 45
1.0
  0
MTEXT
  5
29F
100
AcDbEntity
  8
dzialka
370
25
100
AcDbMText
 10
7571818.83000000007
 20
5705991.99000000022
 40
0.6250
 41
0.0
 71
5
 72
1
  1
\W0.6563x;113/1
  7
STANDARD
 11
1.00000000
 21
0.00000000
 44
0.90
 90
3
 63
0
 45
1.0
  0
MTEXT
  5
2A0
100
AcDbEntity
  8
dzialka
370
25
100
AcDbMText
 10
7571823.78500000015
 20
5705851.06499999948
 40
0.6250
 41
0.0
 71
5
 72
1
  1
\W0.6563x;116
  7
STANDARD
 11
1.00000000
 21
0.00000000
 44
0.90
 90
3
 63
0
 45
1.0
  0
MTEXT
  5
2A1
100
AcDbEntity
  8
dzialka
370
25
100
AcDbMText
 10
7571854.47499999963
 20
5706035.375
 40
0.6250
 41
0.0
 71
5
 72
1
  1
\W0.6563x;115
  7
STANDARD
 11
1.00000000
 21
0.00000000
 44
0.90
 90
3
 63
0
 45
1.0
  0
MTEXT
  5
2A2
100
AcDbEntity
  8
dzialka
370
25
100
AcDbMText
 10
7571984.85500000045
 20
5705797.54999999981
 40
0.6250
 41
0.0
 71
5
 72
1
  1
\W0.6563x;157/3
  7
STANDARD
 11
1.00000000
 21
0.00000000
 44
0.90
 90
3
 63
0
 45
1.0
  0
MTEXT
  5
2A3
100
AcDbEntity
  8
dzialka
370
25
100
AcDbMText
 10
7571837.10500000045
 20
5705541.50999999978
 40
0.6250
 41
0.0
 71
5
 72
1
  1
\W0.6563x;155
  7
STANDARD
 11
1.00000000
 21
0.00000000
 44
0.90
 90
3
 63
0
 45
1.0
  0
MTEXT
  5
2A4
100
AcDbEntity
  8
dzialka
370
25
100
AcDbMText
 10
7571876.40499999933
 20
5705549.40499999933
 40
0.6250
 41
0.0
 71
5
 72
1
  1
\W0.6563x;156
  7
STANDARD
 11
1.00000000
 21
0.00000000
 44
0.90
 90
3
 63
0
 45
1.0
  0
MTEXT
  5
2A5
100
AcDbEntity
  8
dzialka
370
25
100
AcDbMText
 10
7571907.64499999955
 20
5705503.625
 40
0.6250
 41
0.0
 71
5
 72
1
  1
\W0.6563x;157/5
  7
STANDARD
 11
1.00000000
 21
0.00000000
 44
0.90
 90
3
 63
0
 45
1.0
  0
MTEXT
  5
2A6
100
AcDbEntity
  8
dzialka
370
25
100
AcDbMText
 10
7571934.40500000026
 20
5705525.13499999978
 40
0.6250
 41
0.0
 71
5
 72
1
  1
\W0.6563x;157/2
  7
STANDARD
 11
1.00000000
 21
0.00000000
 44
0.90
 90
3
 63
0
 45
1.0
  0
MTEXT
  5
2A7
100
AcDbEntity
  8
dzialka
370
25
100
AcDbMText
 10
7571977.8200000003
 20
5705553.59999999963
 40
0.6250
 41
0.0
 71
5
 72
1
  1
\W0.6563x;158
  7
STANDARD
 11
1.00000000
 21
0.00000000
 44
0.90
 90
3
 63
0
 45
1.0
  0
MTEXT
  5
2A8
100
AcDbEntity
  8
dzialka
370
25
100
AcDbMText
 10
7571590.34500000067
 20
5705443.04499999993
 40
0.6250
 41
0.0
 71
5
 72
1
  1
\W0.6563x;152/3
  7
STANDARD
 11
1.00000000
 21
0.00000000
 44
0.90
 90
3
 63
0
 45
1.0
  0
MTEXT
  5
2A9
100
AcDbEntity
  8
dzialka
370
25
100
AcDbMText
 10
7571556.50500000082
 20
5705442.41000000015
 40
0.6250
 41
0.0
 71
5
 72
1
  1
\W0.6563x;151
  7
STANDARD
 11
1.00000000
 21
0.00000000
 44
0.90
 90
3
 63
0
 45
1.0
  0
MTEXT
  5
2AA
100
AcDbEntity
  8
dzialka
370
25
100
AcDbMText
 10
7571654.82126138452
 20
5706032.81499999948
 40
0.6250
 41
0.0
 71
5
 72
1
  1
\W0.6563x;100/6
  7
STANDARD
 11
1.00000000
 21
0.00000000
 44
0.90
 90
3
 63
0
 45
1.0
  0
MTEXT
  5
2AB
100
AcDbEntity
  8
dzialka
370
25
100
AcDbMText
 10
7571589.70500000007
 20
5705762.65000000037
 40
0.6250
 41
0.0
 71
5
 72
1
  1
\W0.6563x;100/7
  7
STANDARD
 11
1.00000000
 21
0.00000000
 44
0.90
 90
3
 63
0
 45
1.0
  0
MTEXT
  5
2AC
100
AcDbEntity
  8
dzialka
370
25
100
AcDbMText
 10
7571672.71499999985
 20
5706019.28500000015
 40
0.6250
 41
0.0
 71
5
 72
1
  1
\W0.6563x;103/1
  7
STANDARD
 11
1.00000000
 21
0.00000000
 44
0.90
 90
3
 63
0
 45
1.0
  0
MTEXT
  5
2AD
100
AcDbEntity
  8
dzialka
370
25
100
AcDbMText
 10
7571675.33000000007
 20
5705751.45500000007
 40
0.6250
 41
0.0
 71
5
 72
1
  1
\W0.6563x;109/10
  7
STANDARD
 11
1.00000000
 21
0.00000000
 44
0.90
 90
3
 63
0
 45
1.0
  0
MTEXT
  5
2AE
100
AcDbEntity
  8
dzialka
370
25
100
AcDbMText
 10
7571726.47499999963
 20
5705879.76999999955
 40
0.6250
 41
0.0
 71
5
 72
1
  1
\W0.6563x;109/7
  7
STANDARD
 11
1.00000000
 21
0.00000000
 44
0.90
 90
3
 63
0
 45
1.0
  0
MTEXT
  5
2AF
100
AcDbEntity
  8
dzialka
370
25
100
AcDbMText
 10
7571693.3200000003
 20
5706011.72000000067
 40
0.6250
 41
0.0
 71
5
 72
1
  1
\W0.6563x;106/3
  7
STANDARD
 11
1.00000000
 21
0.00000000
 44
0.90
 90
3
 63
0
 45
1.0
  0
MTEXT
  5
2B0
100
AcDbEntity
  8
dzialka
370
25
100
AcDbMText
 10
7571683.24000000022
 20
5705807.5
 40
0.6250
 41
0.0
 71
5
 72
1
  1
\W0.6563x;109/9
  7
STANDARD
 11
1.00000000
 21
0.00000000
 44
0.90
 90
3
 63
0
 45
1.0
  0
MTEXT
  5
2B1
100
AcDbEntity
  8
dzialka
370
25
100
AcDbMText
 10
7571698.125
 20
5705813.16500000004
 40
0.6250
 41
0.0
 71
5
 72
1
  1
\W0.6563x;109/11
  7
STANDARD
 11
1.00000000
 21
0.00000000
 44
0.90
 90
3
 63
0
 45
1.0
  0
MTEXT
  5
2B2
100
AcDbEntity
  8
dzialka
370
25
100
AcDbMText
 10
7571732.5150000006
 20
5706067.09500000067
 40
0.6250
 41
0.0
 71
5
 72
1
  1
\W0.6563x;109/8
  7
STANDARD
 11
1.00000000
 21
0.00000000
 44
0.90
 90
3
 63
0
 45
1.0
  0
MTEXT
  5
2B3
100
AcDbEntity
  8
dzialka
370
25
100
AcDbMText
 10
7571764.125
 20
5705513.91500000004
 40
0.6250
 41
0.0
 71
5
 72
1
  1
\W0.6563x;154
  7
STANDARD
 11
1.00000000
 21
0.00000000
 44
0.90
 90
3
 63
0
 45
1.0
  0
MTEXT
  5
2B4
100
AcDbEntity
  8
dzialka
370
25
100
AcDbMText
 10
7571630.38499999978
 20
5705459.3200000003
 40
0.6250
 41
0.0
 71
5
 72
1
  1
\W0.6563x;152/1
  7
STANDARD
 11
1.00000000
 21
0.00000000
 44
0.90
 90
3
 63
0
 45
1.0
  0
MTEXT
  5
2B5
100
AcDbEntity
  8
dzialka
370
25
100
AcDbMText
 10
7571984.26651160978
 20
5705834.27500000037
 40
0.6250
 41
0.0
 71
5
 72
1
  1
\W0.6563x;1374
  7
STANDARD
 11
1.00000000
 21
0.00000000
 44
0.90
 90
3
 63
0
 45
1.0
  0
MTEXT
  5
2B6
100
AcDbEntity
  8
dzialka
370
25
100
AcDbMText
 10
7571652.50500000082
 20
5705468.24499999918
 40
0.6250
 41
0.0
 71
5
 72
1
  1
\W0.6563x;1899/1
  7
STANDARD
 11
1.00000000
 21
0.00000000
 44
0.90
 90
3
 63
0
 45
1.0
  0
MTEXT
  5
2B7
100
AcDbEntity
  8
dzialka
370
25
100
AcDbMText
 10
7571676.45999999996
 20
5705477.29499999993
 40
0.6250
 41
0.0
 71
5
 72
1
  1
\W0.6563x;1899/2
  7
STANDARD
 11
1.00000000
 21
0.00000000
 44
0.90
 90
3
 63
0
 45
1.0
  0
MTEXT
  5
2B8
100
AcDbEntity
  8
dzialka
370
25
100
AcDbMText
 10
7571700.57499999926
 20
5705486.69999999926
 40
0.6250
 41
0.0
 71
5
 72
1
  1
\W0.6563x;1899/3
  7
STANDARD
 11
1.00000000
 21
0.00000000
 44
0.90
 90
3
 63
0
 45
1.0
  0
TEXT
  5
2B9
100
AcDbEntity
  8
Level_1
370
18
100
AcDbText
 39
0.18
 10
7571826.55367301777
 20
5705838.1462833574
 40
0.45
  1
-16.500-
 50
-10.00
 41
0.66
  7
STANDARD
 72
1
 11
7571827.41395276878
 21
5705837.84227883443
100
AcDbText
 73
1
  0
TEXT
  5
2BA
100
AcDbEntity
  8
Level_1
370
18
100
AcDbText
 39
0.18
 10
7571837.49371663667
 20
5705842.0536730187
 40
0.45
  1
-10.050-
 50
-280.00
 41
0.66
  7
STANDARD
 72
1
 11
7571837.79772115964
 21
5705842.91395276971
100
AcDbText
 73
1
  0
TEXT
  5
2BB
100
AcDbEntity
  8
Level_1
370
18
100
AcDbText
 39
0.18
 10
7571828.22941096872
 20
5705850.4735212652
 40
0.45
  1
-16.500-
 50
-10.00
 41
0.66
  7
STANDARD
 72
1
 11
7571829.08969071973
 21
5705850.16951674223
100
AcDbText
 73
1
  0
TEXT
  5
2BC
100
AcDbEntity
  8
Level_1
370
18
100
AcDbText
 39
0.18
 10
7571820.00371663645
 20
5705845.31367301941
 40
0.45
  1
-10.050-
 50
-280.00
 41
0.66
  7
STANDARD
 72
1
 11
7571820.30772115942
 21
5705846.17395277042
100
AcDbText
 73
1
  0
TEXT
  5
2BD
100
AcDbEntity
  8
Osie
370
18
100
AcDbText
 39
0.18
 10
7571821.49325205665
 20
5705845.3244638918
 40
0.45
  1
-9.399-
 50
-280.00
 41
0.66
  7
STANDARD
 72
1
 11
7571821.77772115916
 21
5705846.07395276986
100
AcDbText
 73
1
  0
TEXT
  5
2BE
100
AcDbEntity
  8
Osie
370
18
100
AcDbText
 39
0.18
 10
7571827.2659092145
 20
5705844.1350980876
 40
0.45
  1
-9.399-
 50
-280.00
 41
0.66
  7
STANDARD
 72
1
 11
7571827.55037831701
 21
5705844.88458696567
100
AcDbText
 73
1
  0
TEXT
  5
2BF
100
AcDbEntity
  8
Osie
370
18
100
AcDbText
 39
0.18
 10
7571831.20126186963
 20
5705843.41855532955
 40
0.45
  1
-9.399-
 50
-280.00
 41
0.66
  7
STANDARD
 72
1
 11
7571831.48573097214
 21
5705844.16804420762
100
AcDbText
 73
1
  0
TEXT
  5
2C0
100
AcDbEntity
  8
Osie
370
18
100
AcDbText
 39
0.18
 10
7571833.82446389087
 20
5705847.41674793698
 40
0.45
  1
-4.801-
 50
-10.00
 41
0.66
  7
STANDARD
 72
1
 11
7571834.57395276893
 21
5705847.13227883447
100
AcDbText
 73
1
  0
TEXT
  5
2C1
100
AcDbEntity
  8
Osie
370
18
100
AcDbText
 39
0.18
 10
7571829.52446389105
 20
5705848.3267479362
 40
0.45
  1
-4.000-
 50
-10.00
 41
0.66
  7
STANDARD
 72
1
 11
7571830.27395276912
 21
5705848.04227883369
100
AcDbText
 73
1
  0
TEXT
  5
2C2
100
AcDbEntity
  8
Osie
370
18
100
AcDbText
 39
0.18
 10
7571823.99446389079
 20
5705849.26674793661
 40
0.45
  1
-7.050-
 50
-10.00
 41
0.66
  7
STANDARD
 72
1
 11
7571824.74395276885
 21
5705848.9822788341
100
AcDbText
 73
1
  0
TEXT
  5
2C3
100
AcDbEntity
  8
Osie
370
18
100
AcDbText
 39
0.18
 10
7571822.52567434777
 20
5705841.20120915864
 40
0.45
  1
-7.050-
 50
-10.00
 41
0.66
  7
STANDARD
 72
1
 11
7571823.27516322583
 21
5705840.91674005613
100
AcDbText
 73
1
  0
TEXT
  5
2C4
100
AcDbEntity
  8
Osie
370
18
100
AcDbText
 39
0.18
 10
7571827.96131944377
 20
5705840.21161947679
 40
0.45
  1
-4.000-
 50
-10.00
 41
0.66
  7
STANDARD
 72
1
 11
7571828.71080832183
 21
5705839.92715037428
100
AcDbText
 73
1
  0
TEXT
  5
2C5
100
AcDbEntity
  8
Osie
370
18
100
AcDbText
 39
0.18
 10
7571832.29010872357
 20
5705839.42316221166
 40
0.45
  1
-4.801-
 50
-10.00
 41
0.66
  7
STANDARD
 72
1
 11
7571833.03959760163
 21
5705839.13869310915
100
AcDbText
 73
1
  0
TEXT
  5
2C6
100
AcDbEntity
  8
Osie
370
18
100
AcDbText
 39
0.18
 10
7571837.07891933992
 20
5705861.20854951255
 40
0.45
  1
-10.700-
 50
-10.00
 41
0.66
  7
STANDARD
 72
1
 11
7571837.93919909094
 21
5705860.90454498958
100
AcDbText
 73
1
  0
TEXT
  5
2C7
100
AcDbEntity
  8
Osie
370
18
100
AcDbText
 39
0.18
 10
7571844.18150950689
 20
5705864.45811741054
 40
0.45
  1
-7.749-
 50
-280.00
 41
0.66
  7
STANDARD
 72
1
 11
7571844.4659786094
 21
5705865.2076062886
100
AcDbText
 73
1
  0
TEXT
  5
2C8
100
AcDbEntity
  8
Osie
370
18
100
AcDbText
 39
0.18
 10
7571839.07103738748
 20
5705870.30657077115
 40
0.45
  1
-10.700-
 50
-10.00
 41
0.66
  7
STANDARD
 72
1
 11
7571839.93131713849
 21
5705870.00256624818
100
AcDbText
 73
1
  0
TEXT
  5
2C9
100
AcDbEntity
  8
Osie
370
18
100
AcDbText
 39
0.18
 10
7571833.65446382295
 20
5705866.375323724
 40
0.45
  1
-7.749-
 50
-280.00
 41
0.66
  7
STANDARD
 72
1
 11
7571833.93893292546
 21
5705867.12481260207
100
AcDbText
 73
1
  0
TEXT
  5
2CA
100
AcDbEntity
  8
Osie
370
18
100
AcDbText
 39
0.18
 10
7571830.00999999605
 20
5705871.46999999694
 40
0.45
  1
A
 50
0.00
 41
0.66
  7
STANDARD
 72
0
 11
7571830.00999999605
 21
5705871.91999999713
100
AcDbText
 73
3
  0
TEXT
  5
2CB
100
AcDbEntity
  8
Osie
370
18
100
AcDbText
 39
0.18
 10
7571846.03291490767
 20
5705869.14806319494
 40
0.45
  1
A
 50
0.00
 41
0.66
  7
STANDARD
 72
0
 11
7571846.03291490767
 21
5705869.59806319512
100
AcDbText
 73
3
  0
TEXT
  5
2CC
100
AcDbEntity
  8
Osie
370
18
100
AcDbText
 39
0.18
 10
7571828.42999999598
 20
5705864.06999999657
 40
0.45
  1
B
 50
0.00
 41
0.66
  7
STANDARD
 72
0
 11
7571828.42999999598
 21
5705864.51999999676
100
AcDbText
 73
3
  0
TEXT
  5
2CD
100
AcDbEntity
  8
Osie
370
18
100
AcDbText
 39
0.18
 10
7571844.49197339918
 20
5705860.68724176567
 40
0.45
  1
B
 50
0.00
 41
0.66
  7
STANDARD
 72
0
 11
7571844.49197339918
 21
5705861.13724176586
100
AcDbText
 73
3
  0
TEXT
  5
2CE
100
AcDbEntity
  8
Osie
370
18
100
AcDbText
 39
0.18
 10
7571834.65999999642
 20
5705871.87999999709
 40
0.45
  1
1
 50
0.00
 41
0.66
  7
STANDARD
 72
0
 11
7571834.65999999642
 21
5705872.32999999728
100
AcDbText
 73
3
  0
TEXT
  5
2CF
100
AcDbEntity
  8
Osie
370
18
100
AcDbText
 39
0.18
 10
7571832.74677497614
 20
5705861.79154290445
 40
0.45
  1
1
 50
0.00
 41
0.66
  7
STANDARD
 72
0
 11
7571832.74677497614
 21
5705862.24154290464
100
AcDbText
 73
3
  0
TEXT
  5
2D0
100
AcDbEntity
  8
Osie
370
18
100
AcDbText
 39
0.18
 10
7571845.25999999605
 20
5705869.85999999661
 40
0.45
  1
2
 50
0.00
 41
0.66
  7
STANDARD
 72
0
 11
7571845.25999999605
 21
5705870.3099999968
100
AcDbText
 73
3
  0
TEXT
  5
2D1
100
AcDbEntity
  8
Osie
370
18
100
AcDbText
 39
0.18
 10
7571843.3818633724
 20
5705859.85056877416
 40
0.45
  1
2
 50
0.00
 41
0.66
  7
STANDARD
 72
0
 11
7571843.3818633724
 21
5705860.30056877434
100
AcDbText
 73
3
  0
TEXT
  5
2D2
100
AcDbEntity
  8
przylacze_kablowe
370
15
100
AcDbText
 39
0.15
 10
7571841.50229309965
 20
5705824.89602169022
 40
0.38
  1
ZK
 50
354.90
 41
0.66
  7
STANDARD
 72
0
 11
7571841.53562846128
 21
5705825.26953708939
100
AcDbText
 73
3
  0
TEXT
  5
2D3
100
AcDbEntity
  8
przylacze_kablowe
370
15
100
AcDbText
 39
0.15
 10
7571765.91264979821
 20
5705836.53728203848
 40
0.38
  1
Biologiczna oczyszczalnia œcieków
 50
354.90
 41
0.66
  7
STANDARD
 72
0
 11
7571765.94598515984
 21
5705836.91079743765
100
AcDbText
 73
3
  0
TEXT
  5
2D4
100
AcDbEntity
  8
przylacze_kablowe
370
15
100
AcDbText
 39
0.15
 10
7571764.84284669533
 20
5705830.12543782685
 40
0.38
  1
Studnia ch³onna 2- komorowa
 50
354.90
 41
0.66
  7
STANDARD
 72
0
 11
7571764.87618205696
 21
5705830.49895322602
100
AcDbText
 73
3
  0
TEXT
  5
2D5
100
AcDbEntity
  8
przylacze_kablowe
370
15
100
AcDbText
 39
0.15
 10
7571767.45617740974
 20
5705841.55672362074
 40
0.38
  1
Proj. przy³¹cze kanalizacji sanit.
 50
354.90
 41
0.66
  7
STANDARD
 72
0
 11
7571767.48951277137
 21
5705841.93023901992
100
AcDbText
 73
3
  0
TEXT
  5
2D6
100
AcDbEntity
  8
przylacze_kablowe
370
15
100
AcDbText
 39
0.15
 10
7571767.23349494301
 20
5705839.05869580526
 40
0.38
  1
PCV dn160 SN8
 50
354.90
 41
0.66
  7
STANDARD
 72
0
 11
7571767.26683030464
 21
5705839.43221120443
100
AcDbText
 73
3
  0
TEXT
  5
2D7
100
AcDbEntity
  8
przylacze_kablowe
370
15
100
AcDbText
 39
0.15
 10
7571764.66213270742
 20
5705823.18895653076
 40
0.38
  1
Proj. przy³¹cze wodoci¹gowe
 50
354.90
 41
0.66
  7
STANDARD
 72
0
 11
7571764.69546806905
 21
5705823.56247192994
100
AcDbText
 73
3
  0
TEXT
  5
2D8
100
AcDbEntity
  8
przylacze_kablowe
370
15
100
AcDbText
 39
0.15
 10
7571764.43945024069
 20
5705820.69092871528
 40
0.38
  1
PE100 dn40 SDR11
 50
354.90
 41
0.66
  7
STANDARD
 72
0
 11
7571764.47278560232
 21
5705821.06444411445
100
AcDbText
 73
3
  0
TEXT
  5
2D9
100
AcDbEntity
  8
WODA
370
15
100
AcDbText
 39
0.15
 10
7571824.97393197473
 20
5705817.90771724004
 40
0.38
  1
Z
 50
354.90
 41
0.66
  7
STANDARD
 72
0
 11
7571825.00726733636
 21
5705818.28123263922
100
AcDbText
 73
3
  0
TEXT
  5
2DA
100
AcDbEntity
  8
WODA
370
15
100
AcDbText
 39
0.15
 10
7571824.36171213444
 20
5705814.9992806213
 40
0.38
  1
W
 50
354.90
 41
0.66
  7
STANDARD
 72
0
 11
7571824.39504749607
 21
5705815.37279602047
100
AcDbText
 73
3
  0
ENDSEC
  0
SECTION
  2
OBJECTS
  0
DICTIONARY
  5
2DB
330
0
100
AcDbDictionary
280
0
281
1
  3
ACAD_GROUP
350
2DC
  3
ACAD_LAYOUT
350
2DD
  3
ACAD_MLINESTYLE
350
2DE
  3
ACAD_PLOTSETTINGS
350
2DF
  3
ACAD_PLOTSTYLENAME
350
2E0
  0
DICTIONARY
  5
2DC
102
{ACAD_REACTORS
330
2DB
102
}
330
2DB
100
AcDbDictionary
280
0
281
1
  0
DICTIONARY
  5
2DD
102
{ACAD_REACTORS
330
2DB
102
}
330
2DB
100
AcDbDictionary
280
0
281
1
  3
Layout
350
1F
  3
Model
350
1D
  0
DICTIONARY
  5
2DE
102
{ACAD_REACTORS
330
2DB
102
}
330
2DB
100
AcDbDictionary
280
0
281
1
  3
Standard
350
2E1
  0
DICTIONARY
  5
2DF
102
{ACAD_REACTORS
330
2DB
102
}
330
2DB
100
AcDbDictionary
280
0
281
1
  0
ACDBDICTIONARYWDFLT
  5
2E0
102
{ACAD_REACTORS
330
2DB
102
}
330
2DB
100
AcDbDictionary
281
1
  3
Normal
350
B
100
AcDbDictionaryWithDefault
340
B
  0
LAYOUT
  5
1F
100
AcDbPlotSettings
  1

  2

  4

  6

 40
0.0
 41
0.0
 42
0.0
 43
0.0
 44
0.0
 45
0.0
 46
0.0
 47
0.0
 48
0.0
 49
0.0
140
0.0
141
0.0
142
1.0
143
1.0
 70
688
 72
1
 73
0
 74
5
  7

 75
0
147
1.0
148
0.0
149
0.0
100
AcDbLayout
  1
Layout
 70
1
 71
1
 10
0.0
 20
0.0
 11
420.0
 21
297.0
 12
0.0
 22
0.0
 32
0.0
 14
100000000000000000000.0
 24
100000000000000000000.0
 34
100000000000000000000.0
 15
-100000000000000000000.0
 25
-100000000000000000000.0
 35
-100000000000000000000.0
146
0.0
 13
0.0
 23
0.0
 33
0.0
 16
1.0
 26
0.0
 36
0.0
 17
0.0
 27
1.0
 37
0.0
 76
0
330
1E
  0
LAYOUT
  5
1D
100
AcDbPlotSettings
  1

  2

  4

  6

 40
0.0
 41
0.0
 42
0.0
 43
0.0
 44
0.0
 45
0.0
 46
0.0
 47
0.0
 48
0.0
 49
0.0
140
0.0
141
0.0
142
1.0
143
1.0
 70
1712
 72
1
 73
0
 74
0
  7

 75
0
147
1.0
148
0.0
149
0.0
100
AcDbLayout
  1
Model
 70
1
 71
0
 10
0.0
 20
0.0
 11
12.0
 21
9.0
 12
0.0
 22
0.0
 32
0.0
 14
0.0
 24
0.0
 34
0.0
 15
0.0
 25
0.0
 35
0.0
146
0.0
 13
0.0
 23
0.0
 33
0.0
 16
1.0
 26
0.0
 36
0.0
 17
0.0
 27
1.0
 37
0.0
 76
0
330
1C
  0
MLINESTYLE
  5
2E1
102
{ACAD_REACTORS
330
2DE
102
}
330
2DE
100
AcDbMlineStyle
  2
Standard
 70
0
  3

 62
256
 51
90.0
 52
90.0
  2
Standard
 71
2
 49
0.5
 62
256
  6
ByLayer
 49
-0.5
 62
256
  6
ByLayer
  0
ACDBPLACEHOLDER
  5
B
  0
ENDSEC
  0
EOF
