  0
SECTION
  2
HEADER
  9
$ACADVER
  1
AC1018
  9
$HANDSEED
  5
FFFFFF
  9
$EXTMAX
 10
7582023.4299999997
 20
5715000.40000000037
 30
1000000.00
  9
$EXTMIN
 10
7574537.49000000022
 20
5709960.66999999993
 30
0.00
  9
$LIMMIN
 10
7574537.49000000022
 20
5709960.66999999993
  9
$LIMMAX
 10
7582023.4299999997
 20
5715000.40000000037
  9
$DIMASZ
 40
2.5
  9
$DIMGAP
 40
0.625
  9
$INSUNITS
 70
6
  9
$DIMEXO
 40
0.625
  9
$DIMTXT
 40
2.5
  9
$DIMSTYLE
  2
Standard
  9
$PLIMMIN
 10
0.0
 20
0.0
  9
$PLIMMAX
 10
210.0
 20
297.0
  9
$DIMEXE
 40
1.25
  9
$TEXTSIZE
 40
2.5
  9
$TEXTSTYLE
  7
Standard
  9
$LWDISPLAY
290
1
  9
$TDCREATE
 40
44536.424827407
  9
$TDUCREATE
 40
44536.383160741
  9
$TDUPDATE
 40
44536.424827407
  9
$TDUUPDATE
 40
44536.383160741
  9
$TDINDWG
 40
0.0
  9
$TDUSRTIMER
 40
0.0
  9
$USRTIMER
 70
1
  0
ENDSEC
  0
SECTION
  2
CLASSES
  0
CLASS
  1
WIPEOUT
  2
AcDbWipeout
  3
WipeOut
 90
127
 91
1
280
0
281
1
  0
CLASS
  1
WIPEOUTVARIABLES
  2
AcDbWipeoutVariables
  3
WipeOut
 90
0
 91
1
280
0
281
0
  0
ENDSEC
  0
SECTION
  2
TABLES
  0
TABLE
  2
VPORT
  5
1
100
AcDbSymbolTable
 70
1
  0
VPORT
  5
2
100
AcDbSymbolTableRecord
100
AcDbViewportTableRecord
  2
*ACTIVE
 70
0
 10
0.0
 20
0.0
 11
1.0
 21
1.0
 12
7578280.46
 22
5712480.54
 13
0.0
 23
0.0
 14
1.0
 24
1.0
 15
0.0
 25
0.0
 16
0.0
 26
0.0
 36
1.0
 17
0.0
 27
0.0
 37
0.0
 40
5039.73
 41
1.49
 42
50.0
 43
0.0
 44
0.0
 50
0.0
 51
0.0
 71
0
 72
100
 73
1
 74
1
 75
0
 76
0
 77
0
 78
0
  0
ENDTAB
  0
TABLE
  2
LTYPE
  5
3
100
AcDbSymbolTable
 70
3
  0
LTYPE
  5
4
100
AcDbSymbolTableRecord
100
AcDbLinetypeTableRecord
  2
ByBlock
 70
0
  3

 72
65
 73
0
 40
0.0
  0
LTYPE
  5
5
100
AcDbSymbolTableRecord
100
AcDbLinetypeTableRecord
  2
ByLayer
 70
0
  3

 72
65
 73
0
 40
0.0
  0
LTYPE
  5
6
100
AcDbSymbolTableRecord
100
AcDbLinetypeTableRecord
  2
CONTINUOUS
 70
0
  3
Solid line
 72
65
 73
0
 40
0.0
  0
LTYPE
  5
8
100
AcDbSymbolTableRecord
100
AcDbLinetypeTableRecord
  2
L_0_02
 70
0
  3
Dzialka_ewidencyjna (MLineStyle)
 72
65
 73
0
 40
0.0
  0
LTYPE
  5
9
100
AcDbSymbolTableRecord
100
AcDbLinetypeTableRecord
  2
L_0_03
 70
0
  3
Uzytek_gruntowy
 72
65
 73
2
 40
1.0
 49
0.5
 74
0
 49
-0.5
 74
0
  0
LTYPE
  5
A
100
AcDbSymbolTableRecord
100
AcDbLinetypeTableRecord
  2
L_0_04
 70
0
  3
Budynek_projektowany
 72
65
 73
2
 40
1.5
 49
1.0
 74
0
 49
-0.5
 74
0
  0
LTYPE
  5
B
100
AcDbSymbolTableRecord
100
AcDbLinetypeTableRecord
  2
L_0_06
 70
0
  3
Granica_konturu_klasyfikacyjnego_Krawedz_chodnika
 72
65
 73
2
 40
2.0
 49
1.5
 74
0
 49
-0.5
 74
0
  0
LTYPE
  5
D
100
AcDbSymbolTableRecord
100
AcDbLinetypeTableRecord
  2
L_0_E3_00
 70
0
  3
Budynek_w_budowie_dla_MZ2015_1_500___1_1000
 72
65
 73
3
 40
1.5
 49
0.0
 74
0
 49
1.0
 74
0
 49
-0.5
 74
0
  0
LTYPE
  5
E
100
AcDbSymbolTableRecord
100
AcDbLinetypeTableRecord
  2
L_0_E3
 70
0
  3
Budynek_w_budowie_dla_MZ2015_1_500___1_1000 (MLineStyle)
 72
65
 73
0
 40
0.0
  0
ENDTAB
  0
TABLE
  2
LAYER
  5
F
100
AcDbSymbolTable
 70
110
  0
LAYER
  5
10
100
AcDbSymbolTableRecord
100
AcDbLayerTableRecord
  2
0
 70
0
 62
7
  6
CONTINUOUS
370
18
390
11
  0
LAYER
  5
12
100
AcDbSymbolTableRecord
100
AcDbLayerTableRecord
  2
BDZ_BudowlaHydrotechniczna
 70
0
 62
7
  6
CONTINUOUS
370
18
390
11
  0
LAYER
  5
13
100
AcDbSymbolTableRecord
100
AcDbLayerTableRecord
  2
BDZ_BudowlaInzynierska
 70
0
 62
7
  6
CONTINUOUS
370
18
390
11
  0
LAYER
  5
14
100
AcDbSymbolTableRecord
100
AcDbLayerTableRecord
  2
BDZ_BudowlaSportowa
 70
0
 62
7
  6
CONTINUOUS
370
18
390
11
  0
LAYER
  5
15
100
AcDbSymbolTableRecord
100
AcDbLayerTableRecord
  2
BDZ_BudowlaZiemna
 70
0
 62
7
  6
CONTINUOUS
370
18
390
11
  0
LAYER
  5
16
100
AcDbSymbolTableRecord
100
AcDbLayerTableRecord
  2
BDZ_CiagRuchuPieszegoIRowerowego
 70
0
 62
7
  6
CONTINUOUS
370
18
390
11
  0
LAYER
  5
17
100
AcDbSymbolTableRecord
100
AcDbLayerTableRecord
  2
BDZ_Cmentarz
 70
0
 62
7
  6
CONTINUOUS
370
18
390
11
  0
LAYER
  5
18
100
AcDbSymbolTableRecord
100
AcDbLayerTableRecord
  2
BDZ_InnaBudowla
 70
0
 62
7
  6
CONTINUOUS
370
18
390
11
  0
LAYER
  5
19
100
AcDbSymbolTableRecord
100
AcDbLayerTableRecord
  2
BDZ_InnaBudowla_P
 70
0
 62
7
  6
CONTINUOUS
370
18
390
11
  0
LAYER
  5
1A
100
AcDbSymbolTableRecord
100
AcDbLayerTableRecord
  2
BDZ_Jezdnia
 70
0
 62
7
  6
CONTINUOUS
370
18
390
11
  0
LAYER
  5
1B
100
AcDbSymbolTableRecord
100
AcDbLayerTableRecord
  2
BDZ_Kraweznik
 70
0
 62
7
  6
CONTINUOUS
370
18
390
11
  0
LAYER
  5
1C
100
AcDbSymbolTableRecord
100
AcDbLayerTableRecord
  2
BDZ_Mokradlo
 70
0
 62
7
  6
CONTINUOUS
370
18
390
11
  0
LAYER
  5
1D
100
AcDbSymbolTableRecord
100
AcDbLayerTableRecord
  2
BDZ_ObiektOZnaczeniuOrientacyjnymWTerenie
 70
0
 62
7
  6
CONTINUOUS
370
18
390
11
  0
LAYER
  5
1E
100
AcDbSymbolTableRecord
100
AcDbLayerTableRecord
  2
BDZ_ObiektOZnaczeniuOrientacyjnymWTerenie_P
 70
0
 62
7
  6
CONTINUOUS
370
18
390
11
  0
LAYER
  5
1F
100
AcDbSymbolTableRecord
100
AcDbLayerTableRecord
  2
BDZ_ObiektPrzyrodniczy
 70
0
 62
7
  6
CONTINUOUS
370
18
390
11
  0
LAYER
  5
20
100
AcDbSymbolTableRecord
100
AcDbLayerTableRecord
  2
BDZ_ObiektPrzyrodniczy_P
 70
0
 62
7
  6
CONTINUOUS
370
18
390
11
  0
LAYER
  5
21
100
AcDbSymbolTableRecord
100
AcDbLayerTableRecord
  2
BDZ_ObiektZwiazanyZKomunikacja
 70
0
 62
7
  6
CONTINUOUS
370
18
390
11
  0
LAYER
  5
22
100
AcDbSymbolTableRecord
100
AcDbLayerTableRecord
  2
BDZ_Plac
 70
0
 62
7
  6
CONTINUOUS
370
18
390
11
  0
LAYER
  5
23
100
AcDbSymbolTableRecord
100
AcDbLayerTableRecord
  2
BDZ_Przeprawa
 70
0
 62
7
  6
CONTINUOUS
370
18
390
11
  0
LAYER
  5
24
100
AcDbSymbolTableRecord
100
AcDbLayerTableRecord
  2
BDZ_PunktOOkreslonejWysokosci
 70
0
 62
7
  6
CONTINUOUS
370
18
390
11
  0
LAYER
  5
25
100
AcDbSymbolTableRecord
100
AcDbLayerTableRecord
  2
BDZ_Row
 70
0
 62
7
  6
CONTINUOUS
370
18
390
11
  0
LAYER
  5
26
100
AcDbSymbolTableRecord
100
AcDbLayerTableRecord
  2
BDZ_Szuwary
 70
0
 62
7
  6
CONTINUOUS
370
18
390
11
  0
LAYER
  5
27
100
AcDbSymbolTableRecord
100
AcDbLayerTableRecord
  2
BDZ_TerenLesnyZadrzewionyLubZakrzewiony
 70
0
 62
7
  6
CONTINUOUS
370
18
390
11
  0
LAYER
  5
28
100
AcDbSymbolTableRecord
100
AcDbLayerTableRecord
  2
BDZ_TerenUprawTrwalychITrawnik
 70
0
 62
7
  6
CONTINUOUS
370
18
390
11
  0
LAYER
  5
29
100
AcDbSymbolTableRecord
100
AcDbLayerTableRecord
  2
BDZ_Tor
 70
0
 62
7
  6
CONTINUOUS
370
18
390
11
  0
LAYER
  5
2A
100
AcDbSymbolTableRecord
100
AcDbLayerTableRecord
  2
BDZ_Ulica
 70
0
 62
7
  6
CONTINUOUS
370
18
390
11
  0
LAYER
  5
2B
100
AcDbSymbolTableRecord
100
AcDbLayerTableRecord
  2
BDZ_UmocnienieDrogoweKolejoweLubWodne
 70
0
 62
7
  6
CONTINUOUS
370
18
390
11
  0
LAYER
  5
2C
100
AcDbSymbolTableRecord
100
AcDbLayerTableRecord
  2
BDZ_UrzadzenieTransportowe
 70
0
 62
7
  6
CONTINUOUS
370
18
390
11
  0
LAYER
  5
2D
100
AcDbSymbolTableRecord
100
AcDbLayerTableRecord
  2
BDZ_UrzadzenieTransportowe_P
 70
0
 62
7
  6
CONTINUOUS
370
18
390
11
  0
LAYER
  5
2E
100
AcDbSymbolTableRecord
100
AcDbLayerTableRecord
  2
BDZ_WodaPowierzchniowa
 70
0
 62
141
  6
CONTINUOUS
370
18
390
11
  0
LAYER
  5
2F
100
AcDbSymbolTableRecord
100
AcDbLayerTableRecord
  2
BDZ_WysokaBudowlaTechniczna
 70
0
 62
7
  6
CONTINUOUS
370
18
390
11
  0
LAYER
  5
30
100
AcDbSymbolTableRecord
100
AcDbLayerTableRecord
  2
BDZ_WysokaBudowlaTechniczna_P
 70
0
 62
7
  6
CONTINUOUS
370
18
390
11
  0
LAYER
  5
31
100
AcDbSymbolTableRecord
100
AcDbLayerTableRecord
  2
BDZ_ZbiornikTechniczny
 70
0
 62
7
  6
CONTINUOUS
370
18
390
11
  0
LAYER
  5
32
100
AcDbSymbolTableRecord
100
AcDbLayerTableRecord
  2
EGB_Adres
 70
0
 62
7
  6
CONTINUOUS
370
13
390
11
  0
LAYER
  5
33
100
AcDbSymbolTableRecord
100
AcDbLayerTableRecord
  2
EGB_ArkuszEwidencyjny
 70
0
 62
7
  6
CONTINUOUS
370
18
390
11
  0
LAYER
  5
34
100
AcDbSymbolTableRecord
100
AcDbLayerTableRecord
  2
EGB_BlokBudynku
 70
0
 62
7
  6
CONTINUOUS
370
18
390
11
  0
LAYER
  5
35
100
AcDbSymbolTableRecord
100
AcDbLayerTableRecord
  2
EGB_Budynek
 70
0
 62
7
  6
CONTINUOUS
370
50
390
11
  0
LAYER
  5
36
100
AcDbSymbolTableRecord
100
AcDbLayerTableRecord
  2
EGB_BudynekProjektowany
 70
0
 62
1
  6
L_0_04
370
18
390
11
  0
LAYER
  5
37
100
AcDbSymbolTableRecord
100
AcDbLayerTableRecord
  2
EGB_BudynekProjektowany_P
 70
0
 62
7
  6
L_0_04
370
18
390
11
  0
LAYER
  5
38
100
AcDbSymbolTableRecord
100
AcDbLayerTableRecord
  2
EGB_BudynekWBudowie
 70
0
 62
7
  6
L_0_E3
370
50
390
11
  0
LAYER
  5
39
100
AcDbSymbolTableRecord
100
AcDbLayerTableRecord
  2
EGB_Budynek_P
 70
0
 62
7
  6
CONTINUOUS
370
18
390
11
  0
LAYER
  5
3A
100
AcDbSymbolTableRecord
100
AcDbLayerTableRecord
  2
EGB_DzialkaEwidencyjna
 70
0
 62
96
  6
L_0_02
370
18
390
11
  0
LAYER
  5
3B
100
AcDbSymbolTableRecord
100
AcDbLayerTableRecord
  2
EGB_JednostkaEwidencyjna
 70
0
 62
7
  6
CONTINUOUS
370
18
390
11
  0
LAYER
  5
3C
100
AcDbSymbolTableRecord
100
AcDbLayerTableRecord
  2
EGB_Klasouzytek
 70
0
 62
96
  6
L_0_03
370
18
390
11
  0
LAYER
  5
3D
100
AcDbSymbolTableRecord
100
AcDbLayerTableRecord
  2
EGB_KonturKlasyfikacyjny
 70
0
 62
96
  6
L_0_06
370
18
390
11
  0
LAYER
  5
3E
100
AcDbSymbolTableRecord
100
AcDbLayerTableRecord
  2
EGB_KonturUzytkuGruntowego
 70
0
 62
96
  6
L_0_03
370
18
390
11
  0
LAYER
  5
3F
100
AcDbSymbolTableRecord
100
AcDbLayerTableRecord
  2
EGB_ObiektTrwaleZwiazanyZBudynkiem
 70
0
 62
7
  6
CONTINUOUS
370
18
390
11
  0
LAYER
  5
40
100
AcDbSymbolTableRecord
100
AcDbLayerTableRecord
  2
EGB_ObiektTrwaleZwiazanyZBudynkiem_P
 70
0
 62
7
  6
CONTINUOUS
370
18
390
11
  0
LAYER
  5
41
100
AcDbSymbolTableRecord
100
AcDbLayerTableRecord
  2
EGB_ObrebEwidencyjny
 70
0
 62
7
  6
CONTINUOUS
370
18
390
11
  0
LAYER
  5
42
100
AcDbSymbolTableRecord
100
AcDbLayerTableRecord
  2
EGB_PunktGraniczny
 70
0
 62
7
  6
CONTINUOUS
370
18
390
11
  0
LAYER
  5
43
100
AcDbSymbolTableRecord
100
AcDbLayerTableRecord
  2
ewns_dzialki
 70
0
 62
7
  6
CONTINUOUS
370
18
390
11
  0
LAYER
  5
44
100
AcDbSymbolTableRecord
100
AcDbLayerTableRecord
  2
GES_BudowlaPodziemna
 70
0
 62
7
  6
CONTINUOUS
370
18
390
11
  0
LAYER
  5
45
100
AcDbSymbolTableRecord
100
AcDbLayerTableRecord
  2
GES_BudowlaPodziemna_ProjLubWBud
 70
0
 62
7
  6
L_0_04
370
18
390
11
  0
LAYER
  5
46
100
AcDbSymbolTableRecord
100
AcDbLayerTableRecord
  2
GES_KorytarzPrzesylowy
 70
0
 62
254
  6
CONTINUOUS
370
18
390
11
  0
LAYER
  5
47
100
AcDbSymbolTableRecord
100
AcDbLayerTableRecord
  2
GES_ObudowaPrzewodu
 70
0
 62
7
  6
CONTINUOUS
370
18
390
11
  0
LAYER
  5
48
100
AcDbSymbolTableRecord
100
AcDbLayerTableRecord
  2
GES_ObudowaPrzewodu_ProjLubWBud
 70
0
 62
7
  6
L_0_04
370
18
390
11
  0
LAYER
  5
49
100
AcDbSymbolTableRecord
100
AcDbLayerTableRecord
  2
GES_PrzewodBenzynowy
 70
0
 62
7
  6
CONTINUOUS
370
18
390
11
  0
LAYER
  5
4A
100
AcDbSymbolTableRecord
100
AcDbLayerTableRecord
  2
GES_PrzewodBenzynowy_ProjLubWBud
 70
0
 62
7
  6
L_0_04
370
18
390
11
  0
LAYER
  5
4B
100
AcDbSymbolTableRecord
100
AcDbLayerTableRecord
  2
GES_PrzewodCieplowniczy
 70
0
 62
212
  6
CONTINUOUS
370
18
390
11
  0
LAYER
  5
4C
100
AcDbSymbolTableRecord
100
AcDbLayerTableRecord
  2
GES_PrzewodCieplowniczy_ProjLubWBud
 70
0
 62
212
  6
L_0_04
370
18
390
11
  0
LAYER
  5
4D
100
AcDbSymbolTableRecord
100
AcDbLayerTableRecord
  2
GES_PrzewodElektroenergetyczny
 70
0
 62
1
  6
CONTINUOUS
370
18
390
11
  0
LAYER
  5
4E
100
AcDbSymbolTableRecord
100
AcDbLayerTableRecord
  2
GES_PrzewodElektroenergetyczny_ProjLubWBud
 70
0
 62
1
  6
L_0_04
370
18
390
11
  0
LAYER
  5
4F
100
AcDbSymbolTableRecord
100
AcDbLayerTableRecord
  2
GES_PrzewodGazowy
 70
0
 62
52
  6
CONTINUOUS
370
18
390
11
  0
LAYER
  5
50
100
AcDbSymbolTableRecord
100
AcDbLayerTableRecord
  2
GES_PrzewodGazowy_ProjLubWBud
 70
0
 62
52
  6
L_0_04
370
18
390
11
  0
LAYER
  5
51
100
AcDbSymbolTableRecord
100
AcDbLayerTableRecord
  2
GES_PrzewodInny
 70
0
 62
7
  6
CONTINUOUS
370
18
390
11
  0
LAYER
  5
52
100
AcDbSymbolTableRecord
100
AcDbLayerTableRecord
  2
GES_PrzewodInny_ProjLubWBud
 70
0
 62
7
  6
L_0_04
370
18
390
11
  0
LAYER
  5
53
100
AcDbSymbolTableRecord
100
AcDbLayerTableRecord
  2
GES_PrzewodKanalizacyjny
 70
0
 62
36
  6
CONTINUOUS
370
18
390
11
  0
LAYER
  5
54
100
AcDbSymbolTableRecord
100
AcDbLayerTableRecord
  2
GES_PrzewodKanalizacyjny_ProjLubWBud
 70
0
 62
36
  6
L_0_04
370
18
390
11
  0
LAYER
  5
55
100
AcDbSymbolTableRecord
100
AcDbLayerTableRecord
  2
GES_PrzewodNaftowy
 70
0
 62
7
  6
CONTINUOUS
370
18
390
11
  0
LAYER
  5
56
100
AcDbSymbolTableRecord
100
AcDbLayerTableRecord
  2
GES_PrzewodNaftowy_ProjLubWBud
 70
0
 62
7
  6
L_0_04
370
18
390
11
  0
LAYER
  5
57
100
AcDbSymbolTableRecord
100
AcDbLayerTableRecord
  2
GES_PrzewodNiezidentyfikowany
 70
0
 62
7
  6
CONTINUOUS
370
18
390
11
  0
LAYER
  5
58
100
AcDbSymbolTableRecord
100
AcDbLayerTableRecord
  2
GES_PrzewodNiezidentyfikowany_ProjLubWBud
 70
0
 62
7
  6
L_0_04
370
18
390
11
  0
LAYER
  5
59
100
AcDbSymbolTableRecord
100
AcDbLayerTableRecord
  2
GES_PrzewodTelekomunikacyjny
 70
0
 62
30
  6
CONTINUOUS
370
18
390
11
  0
LAYER
  5
5A
100
AcDbSymbolTableRecord
100
AcDbLayerTableRecord
  2
GES_PrzewodTelekomunikacyjny_ProjLubWBud
 70
0
 62
30
  6
L_0_04
370
18
390
11
  0
LAYER
  5
5B
100
AcDbSymbolTableRecord
100
AcDbLayerTableRecord
  2
GES_PrzewodWodociagowy
 70
0
 62
5
  6
CONTINUOUS
370
18
390
11
  0
LAYER
  5
5C
100
AcDbSymbolTableRecord
100
AcDbLayerTableRecord
  2
GES_PrzewodWodociagowy_ProjLubWBud
 70
0
 62
5
  6
L_0_04
370
18
390
11
  0
LAYER
  5
5D
100
AcDbSymbolTableRecord
100
AcDbLayerTableRecord
  2
GES_PunktOOkreslonejWysokosci
 70
0
 62
7
  6
CONTINUOUS
370
18
390
11
  0
LAYER
  5
5E
100
AcDbSymbolTableRecord
100
AcDbLayerTableRecord
  2
GES_SlupIMaszt
 70
0
 62
7
  6
CONTINUOUS
370
18
390
11
  0
LAYER
  5
5F
100
AcDbSymbolTableRecord
100
AcDbLayerTableRecord
  2
GES_SlupIMaszt_ProjLubWBud
 70
0
 62
7
  6
L_0_04
370
18
390
11
  0
LAYER
  5
60
100
AcDbSymbolTableRecord
100
AcDbLayerTableRecord
  2
GES_SlupIMaszt_P
 70
0
 62
7
  6
CONTINUOUS
370
18
390
11
  0
LAYER
  5
61
100
AcDbSymbolTableRecord
100
AcDbLayerTableRecord
  2
GES_SlupIMaszt_P_ProjLubWBud
 70
0
 62
7
  6
L_0_04
370
18
390
11
  0
LAYER
  5
62
100
AcDbSymbolTableRecord
100
AcDbLayerTableRecord
  2
GES_UrzadzenieTechniczneZwiazaneZSiecia
 70
0
 62
7
  6
CONTINUOUS
370
18
390
11
  0
LAYER
  5
63
100
AcDbSymbolTableRecord
100
AcDbLayerTableRecord
  2
GES_UrzadzenieTechniczneZwiazaneZSiecia_ProjLubWBud
 70
0
 62
7
  6
L_0_04
370
18
390
11
  0
LAYER
  5
64
100
AcDbSymbolTableRecord
100
AcDbLayerTableRecord
  2
GES_UrzadzenieTechniczneZwiazaneZSiecia_P
 70
0
 62
7
  6
CONTINUOUS
370
18
390
11
  0
LAYER
  5
65
100
AcDbSymbolTableRecord
100
AcDbLayerTableRecord
  2
GES_UrzadzenieTechniczneZwiazaneZSiecia_P_ProjLubWBud
 70
0
 62
7
  6
L_0_04
370
18
390
11
  0
LAYER
  5
66
100
AcDbSymbolTableRecord
100
AcDbLayerTableRecord
  2
k1_obiekt
 70
0
 62
7
  6
CONTINUOUS
370
18
390
11
  0
LAYER
  5
67
100
AcDbSymbolTableRecord
100
AcDbLayerTableRecord
  2
k1_obiekt_p
 70
0
 62
7
  6
CONTINUOUS
370
18
390
11
  0
LAYER
  5
68
100
AcDbSymbolTableRecord
100
AcDbLayerTableRecord
  2
KR_Etykieta
 70
0
 62
7
  6
CONTINUOUS
370
18
390
11
  0
LAYER
  5
69
100
AcDbSymbolTableRecord
100
AcDbLayerTableRecord
  2
KR_ObiektKarto
 70
0
 62
7
  6
CONTINUOUS
370
18
390
11
  0
LAYER
  5
6A
100
AcDbSymbolTableRecord
100
AcDbLayerTableRecord
  2
KR_ObiektKarto_P
 70
0
 62
7
  6
CONTINUOUS
370
13
390
11
  0
LAYER
  5
6B
100
AcDbSymbolTableRecord
100
AcDbLayerTableRecord
  2
KR_Obiekty
 70
0
 62
7
  6
CONTINUOUS
370
18
390
11
  0
LAYER
  5
6C
100
AcDbSymbolTableRecord
100
AcDbLayerTableRecord
  2
KR_Punkty
 70
0
 62
7
  6
CONTINUOUS
370
18
390
11
  0
LAYER
  5
6D
100
AcDbSymbolTableRecord
100
AcDbLayerTableRecord
  2
OS_LiniaNiwelacyjna
 70
0
 62
7
  6
CONTINUOUS
370
18
390
11
  0
LAYER
  5
6E
100
AcDbSymbolTableRecord
100
AcDbLayerTableRecord
  2
OS_ObserwacjaAzymutu
 70
0
 62
7
  6
CONTINUOUS
370
18
390
11
  0
LAYER
  5
6F
100
AcDbSymbolTableRecord
100
AcDbLayerTableRecord
  2
OS_ObserwacjaGrawimetrycznaPrzeslo
 70
0
 62
7
  6
CONTINUOUS
370
18
390
11
  0
LAYER
  5
70
100
AcDbSymbolTableRecord
100
AcDbLayerTableRecord
  2
OS_ObserwacjaGrawimetrycznaPunkt
 70
0
 62
7
  6
CONTINUOUS
370
18
390
11
  0
LAYER
  5
71
100
AcDbSymbolTableRecord
100
AcDbLayerTableRecord
  2
OS_ObserwacjaKata
 70
0
 62
7
  6
CONTINUOUS
370
18
390
11
  0
LAYER
  5
72
100
AcDbSymbolTableRecord
100
AcDbLayerTableRecord
  2
OS_ObserwacjaKierunku
 70
0
 62
7
  6
CONTINUOUS
370
18
390
11
  0
LAYER
  5
73
100
AcDbSymbolTableRecord
100
AcDbLayerTableRecord
  2
OS_ObserwacjaMagnetyczna
 70
0
 62
7
  6
CONTINUOUS
370
18
390
11
  0
LAYER
  5
74
100
AcDbSymbolTableRecord
100
AcDbLayerTableRecord
  2
OS_ObserwacjaOdleglosci
 70
0
 62
7
  6
CONTINUOUS
370
18
390
11
  0
LAYER
  5
75
100
AcDbSymbolTableRecord
100
AcDbLayerTableRecord
  2
OS_OdcinekLiniiNiwelacyjnej
 70
0
 62
7
  6
CONTINUOUS
370
18
390
11
  0
LAYER
  5
76
100
AcDbSymbolTableRecord
100
AcDbLayerTableRecord
  2
OS_PrzesloGrawimetryczne
 70
0
 62
7
  6
CONTINUOUS
370
18
390
11
  0
LAYER
  5
77
100
AcDbSymbolTableRecord
100
AcDbLayerTableRecord
  2
OS_PunktKierunkowy
 70
0
 62
7
  6
CONTINUOUS
370
18
390
11
  0
LAYER
  5
78
100
AcDbSymbolTableRecord
100
AcDbLayerTableRecord
  2
OS_PunktOsnowyGrawimetrycznej
 70
0
 62
7
  6
CONTINUOUS
370
18
390
11
  0
LAYER
  5
79
100
AcDbSymbolTableRecord
100
AcDbLayerTableRecord
  2
OS_PunktOsnowyMagnetycznej
 70
0
 62
7
  6
CONTINUOUS
370
18
390
11
  0
LAYER
  5
7A
100
AcDbSymbolTableRecord
100
AcDbLayerTableRecord
  2
OS_PunktOsnowyPoziomej
 70
0
 62
7
  6
CONTINUOUS
370
18
390
11
  0
LAYER
  5
7B
100
AcDbSymbolTableRecord
100
AcDbLayerTableRecord
  2
OS_PunktOsnowyWysokosciowej
 70
0
 62
7
  6
CONTINUOUS
370
18
390
11
  0
LAYER
  5
7C
100
AcDbSymbolTableRecord
100
AcDbLayerTableRecord
  2
OS_RINEXFile
 70
0
 62
7
  6
CONTINUOUS
370
18
390
11
  0
LAYER
  5
7D
100
AcDbSymbolTableRecord
100
AcDbLayerTableRecord
  2
OS_WektorGNSS
 70
0
 62
7
  6
CONTINUOUS
370
18
390
11
  0
LAYER
  5
7E
100
AcDbSymbolTableRecord
100
AcDbLayerTableRecord
  2
PRG_Granica
 70
0
 62
7
  6
CONTINUOUS
370
18
390
11
  0
ENDTAB
  0
TABLE
  2
STYLE
  5
7F
100
AcDbSymbolTable
 70
2
  0
STYLE
  5
80
100
AcDbSymbolTableRecord
100
AcDbTextStyleTableRecord
  2
STANDARD
 70
0
 40
0.0
 41
1.0
 50
0.0
 71
0
  3
simplex.shx
  4

  0
STYLE
  5
81
100
AcDbSymbolTableRecord
100
AcDbTextStyleTableRecord
  2
STANDARD_ITALIC
 70
0
 40
0.0
 41
1.0
 50
15.0
 71
0
  3
simplex.shx
  4

  0
ENDTAB
  0
TABLE
  2
VIEW
  5
82
100
AcDbSymbolTable
 70
0
  0
ENDTAB
  0
TABLE
  2
UCS
  5
83
100
AcDbSymbolTable
 70
0
  0
ENDTAB
  0
TABLE
  2
APPID
  5
84
100
AcDbSymbolTable
 70
1
  0
APPID
  5
85
100
AcDbSymbolTableRecord
100
AcDbRegAppTableRecord
  2
ACAD
 70
0
  0
ENDTAB
  0
TABLE
  2
DIMSTYLE
  5
86
100
AcDbSymbolTable
 70
1
100
AcDbDimStyleTable
  0
DIMSTYLE
105
87
100
AcDbSymbolTableRecord
100
AcDbDimStyleTableRecord
  2
Standard
 70
0
340
80
  0
ENDTAB
  0
TABLE
  2
BLOCK_RECORD
  5
88
100
AcDbSymbolTable
 70
4
  0
BLOCK_RECORD
  5
89
100
AcDbSymbolTableRecord
100
AcDbBlockTableRecord
  2
*Model_Space
340
8A
  0
BLOCK_RECORD
  5
8B
100
AcDbSymbolTableRecord
100
AcDbBlockTableRecord
  2
*Paper_Space
340
8C
  0
BLOCK_RECORD
  5
8D
100
AcDbSymbolTableRecord
100
AcDbBlockTableRecord
  2
L_0_02_1
340
8E
  0
BLOCK_RECORD
  5
8F
100
AcDbSymbolTableRecord
100
AcDbBlockTableRecord
  2
L_0_02_2
340
90
  0
ENDTAB
  0
ENDSEC
  0
SECTION
  2
BLOCKS
  0
BLOCK
  5
91
100
AcDbEntity
  8
0
100
AcDbBlockBegin
  2
*Model_Space
 70
0
 10
0.0
 20
0.0
 30
0.0
  3
*Model_Space
  1

  0
ENDBLK
  5
92
100
AcDbEntity
  8
0
100
AcDbBlockEnd
  0
BLOCK
  5
93
100
AcDbEntity
 67
1
  8
0
100
AcDbBlockBegin
  2
*Paper_Space
 70
0
 10
0.0
 20
0.0
 30
0.0
  3
*Paper_Space
  1

  0
ENDBLK
  5
94
100
AcDbEntity
 67
1
  8
0
100
AcDbBlockEnd
  0
BLOCK
  5
8E
100
AcDbEntity
  8
0
100
AcDbBlockBegin
 62
0
370
13
  2
L_0_02_1
 70
0
 10
0
 20
0
 30
0
  3
L_0_02_1
  0
POINT
  5
95
100
AcDbEntity
  8
0
100
AcDbPoint
 62
0
 10
0.0
 20
0.0
 30
0.00
  0
ENDBLK
  5
96
100
AcDbEntity
  8
0
100
AcDbBlockEnd
  0
BLOCK
  5
90
100
AcDbEntity
  8
0
100
AcDbBlockBegin
 62
0
370
13
  2
L_0_02_2
 70
0
 10
0
 20
0
 30
0
  3
L_0_02_2
  0
POINT
  5
97
100
AcDbEntity
  8
0
100
AcDbPoint
 62
0
 10
-0.0
 20
-0.0
 30
0.00
  0
ENDBLK
  5
98
100
AcDbEntity
  8
0
100
AcDbBlockEnd
  0
ENDSEC
  0
SECTION
  2
ENTITIES
  0
POLYLINE
  5
99
100
AcDbEntity
  8
ewns_dzialki
  6
CONTINUOUS
370
18
100
AcDb2dPolyline
 66
1
 70
129
  0
VERTEX
  5
9A
100
AcDbEntity
  8
ewns_dzialki
100
AcDbVertex
100
AcDb2dVertex
 10
7577438.04000000004
 20
5714245.87000000011
  0
VERTEX
  5
9B
100
AcDbEntity
  8
ewns_dzialki
100
AcDbVertex
100
AcDb2dVertex
 10
7577448.78000000026
 20
5714244.80999999959
  0
VERTEX
  5
9C
100
AcDbEntity
  8
ewns_dzialki
100
AcDbVertex
100
AcDb2dVertex
 10
7577453.38999999966
 20
5713962.44000000041
  0
VERTEX
  5
9D
100
AcDbEntity
  8
ewns_dzialki
100
AcDbVertex
100
AcDb2dVertex
 10
7577455.05999999959
 20
5713847.01999999955
  0
VERTEX
  5
9E
100
AcDbEntity
  8
ewns_dzialki
100
AcDbVertex
100
AcDb2dVertex
 10
7577453.66000000015
 20
5713846.96999999974
  0
VERTEX
  5
9F
100
AcDbEntity
  8
ewns_dzialki
100
AcDbVertex
100
AcDb2dVertex
 10
7577444.73000000045
 20
5713846.73000000045
  0
VERTEX
  5
A0
100
AcDbEntity
  8
ewns_dzialki
100
AcDbVertex
100
AcDb2dVertex
 10
7577442.79000000004
 20
5713962.15000000037
  0
SEQEND
  5
A1
100
AcDbEntity
  8
ewns_dzialki
  0
POLYLINE
  5
A2
100
AcDbEntity
  8
ewns_dzialki
  6
CONTINUOUS
370
18
100
AcDb2dPolyline
 66
1
 70
129
  0
VERTEX
  5
A3
100
AcDbEntity
  8
ewns_dzialki
100
AcDbVertex
100
AcDb2dVertex
 10
7577448.78000000026
 20
5714244.80999999959
  0
VERTEX
  5
A4
100
AcDbEntity
  8
ewns_dzialki
100
AcDbVertex
100
AcDb2dVertex
 10
7577456.16999999993
 20
5714244.08000000007
  0
VERTEX
  5
A5
100
AcDbEntity
  8
ewns_dzialki
100
AcDbVertex
100
AcDb2dVertex
 10
7577458.95999999996
 20
5714003.91999999993
  0
VERTEX
  5
A6
100
AcDbEntity
  8
ewns_dzialki
100
AcDbVertex
100
AcDb2dVertex
 10
7577462.45999999996
 20
5713847.25999999978
  0
VERTEX
  5
A7
100
AcDbEntity
  8
ewns_dzialki
100
AcDbVertex
100
AcDb2dVertex
 10
7577455.05999999959
 20
5713847.01999999955
  0
VERTEX
  5
A8
100
AcDbEntity
  8
ewns_dzialki
100
AcDbVertex
100
AcDb2dVertex
 10
7577453.38999999966
 20
5713962.44000000041
  0
SEQEND
  5
A9
100
AcDbEntity
  8
ewns_dzialki
  0
POLYLINE
  5
AA
100
AcDbEntity
  8
ewns_dzialki
  6
CONTINUOUS
370
18
100
AcDb2dPolyline
 66
1
 70
129
  0
VERTEX
  5
AB
100
AcDbEntity
  8
ewns_dzialki
100
AcDbVertex
100
AcDb2dVertex
 10
7577456.16999999993
 20
5714244.08000000007
  0
VERTEX
  5
AC
100
AcDbEntity
  8
ewns_dzialki
100
AcDbVertex
100
AcDb2dVertex
 10
7577463.12000000011
 20
5714243.38999999966
  0
VERTEX
  5
AD
100
AcDbEntity
  8
ewns_dzialki
100
AcDbVertex
100
AcDb2dVertex
 10
7577469.84999999963
 20
5713847.5
  0
VERTEX
  5
AE
100
AcDbEntity
  8
ewns_dzialki
100
AcDbVertex
100
AcDb2dVertex
 10
7577462.45999999996
 20
5713847.25999999978
  0
VERTEX
  5
AF
100
AcDbEntity
  8
ewns_dzialki
100
AcDbVertex
100
AcDb2dVertex
 10
7577458.95999999996
 20
5714003.91999999993
  0
SEQEND
  5
B0
100
AcDbEntity
  8
ewns_dzialki
  0
POLYLINE
  5
B1
100
AcDbEntity
  8
ewns_dzialki
  6
CONTINUOUS
370
18
100
AcDb2dPolyline
 66
1
 70
129
  0
VERTEX
  5
B2
100
AcDbEntity
  8
ewns_dzialki
100
AcDbVertex
100
AcDb2dVertex
 10
7577463.12000000011
 20
5714243.38999999966
  0
VERTEX
  5
B3
100
AcDbEntity
  8
ewns_dzialki
100
AcDbVertex
100
AcDb2dVertex
 10
7577474.75999999978
 20
5714242.24000000022
  0
VERTEX
  5
B4
100
AcDbEntity
  8
ewns_dzialki
100
AcDbVertex
100
AcDb2dVertex
 10
7577482.25
 20
5713847.90000000037
  0
VERTEX
  5
B5
100
AcDbEntity
  8
ewns_dzialki
100
AcDbVertex
100
AcDb2dVertex
 10
7577469.84999999963
 20
5713847.5
  0
SEQEND
  5
B6
100
AcDbEntity
  8
ewns_dzialki
  0
POLYLINE
  5
B7
100
AcDbEntity
  8
ewns_dzialki
  6
CONTINUOUS
370
18
100
AcDb2dPolyline
 66
1
 70
129
  0
VERTEX
  5
B8
100
AcDbEntity
  8
ewns_dzialki
100
AcDbVertex
100
AcDb2dVertex
 10
7577474.75999999978
 20
5714242.24000000022
  0
VERTEX
  5
B9
100
AcDbEntity
  8
ewns_dzialki
100
AcDbVertex
100
AcDb2dVertex
 10
7577486.59999999963
 20
5714241.0700000003
  0
VERTEX
  5
BA
100
AcDbEntity
  8
ewns_dzialki
100
AcDbVertex
100
AcDb2dVertex
 10
7577492.44000000041
 20
5713848.23000000045
  0
VERTEX
  5
BB
100
AcDbEntity
  8
ewns_dzialki
100
AcDbVertex
100
AcDb2dVertex
 10
7577485.44000000041
 20
5713848.00999999978
  0
VERTEX
  5
BC
100
AcDbEntity
  8
ewns_dzialki
100
AcDbVertex
100
AcDb2dVertex
 10
7577482.25
 20
5713847.90000000037
  0
SEQEND
  5
BD
100
AcDbEntity
  8
ewns_dzialki
  0
POLYLINE
  5
BE
100
AcDbEntity
  8
ewns_dzialki
  6
CONTINUOUS
370
18
100
AcDb2dPolyline
 66
1
 70
129
  0
VERTEX
  5
BF
100
AcDbEntity
  8
ewns_dzialki
100
AcDbVertex
100
AcDb2dVertex
 10
7577421.62999999989
 20
5713845.95999999996
  0
VERTEX
  5
C0
100
AcDbEntity
  8
ewns_dzialki
100
AcDbVertex
100
AcDb2dVertex
 10
7577444.73000000045
 20
5713846.73000000045
  0
VERTEX
  5
C1
100
AcDbEntity
  8
ewns_dzialki
100
AcDbVertex
100
AcDb2dVertex
 10
7577453.66000000015
 20
5713846.96999999974
  0
VERTEX
  5
C2
100
AcDbEntity
  8
ewns_dzialki
100
AcDbVertex
100
AcDb2dVertex
 10
7577457.8200000003
 20
5713625.3200000003
  0
VERTEX
  5
C3
100
AcDbEntity
  8
ewns_dzialki
100
AcDbVertex
100
AcDb2dVertex
 10
7577450.6799999997
 20
5713625.30999999959
  0
VERTEX
  5
C4
100
AcDbEntity
  8
ewns_dzialki
100
AcDbVertex
100
AcDb2dVertex
 10
7577452.66999999993
 20
5713446.1799999997
  0
VERTEX
  5
C5
100
AcDbEntity
  8
ewns_dzialki
100
AcDbVertex
100
AcDb2dVertex
 10
7577427.98000000045
 20
5713448.94000000041
  0
SEQEND
  5
C6
100
AcDbEntity
  8
ewns_dzialki
  0
POLYLINE
  5
C7
100
AcDbEntity
  8
ewns_dzialki
  6
CONTINUOUS
370
18
100
AcDb2dPolyline
 66
1
 70
129
  0
VERTEX
  5
C8
100
AcDbEntity
  8
ewns_dzialki
100
AcDbVertex
100
AcDb2dVertex
 10
7577453.66000000015
 20
5713846.96999999974
  0
VERTEX
  5
C9
100
AcDbEntity
  8
ewns_dzialki
100
AcDbVertex
100
AcDb2dVertex
 10
7577455.05999999959
 20
5713847.01999999955
  0
VERTEX
  5
CA
100
AcDbEntity
  8
ewns_dzialki
100
AcDbVertex
100
AcDb2dVertex
 10
7577462.45999999996
 20
5713847.25999999978
  0
VERTEX
  5
CB
100
AcDbEntity
  8
ewns_dzialki
100
AcDbVertex
100
AcDb2dVertex
 10
7577469.84999999963
 20
5713847.5
  0
VERTEX
  5
CC
100
AcDbEntity
  8
ewns_dzialki
100
AcDbVertex
100
AcDb2dVertex
 10
7577482.25
 20
5713847.90000000037
  0
VERTEX
  5
CD
100
AcDbEntity
  8
ewns_dzialki
100
AcDbVertex
100
AcDb2dVertex
 10
7577485.44000000041
 20
5713848.00999999978
  0
VERTEX
  5
CE
100
AcDbEntity
  8
ewns_dzialki
100
AcDbVertex
100
AcDb2dVertex
 10
7577487.87000000011
 20
5713626.45000000019
  0
VERTEX
  5
CF
100
AcDbEntity
  8
ewns_dzialki
100
AcDbVertex
100
AcDb2dVertex
 10
7577477.5
 20
5713625.79000000004
  0
VERTEX
  5
D0
100
AcDbEntity
  8
ewns_dzialki
100
AcDbVertex
100
AcDb2dVertex
 10
7577478.9299999997
 20
5713443.25
  0
VERTEX
  5
D1
100
AcDbEntity
  8
ewns_dzialki
100
AcDbVertex
100
AcDb2dVertex
 10
7577452.66999999993
 20
5713446.1799999997
  0
VERTEX
  5
D2
100
AcDbEntity
  8
ewns_dzialki
100
AcDbVertex
100
AcDb2dVertex
 10
7577450.6799999997
 20
5713625.30999999959
  0
VERTEX
  5
D3
100
AcDbEntity
  8
ewns_dzialki
100
AcDbVertex
100
AcDb2dVertex
 10
7577457.8200000003
 20
5713625.3200000003
  0
SEQEND
  5
D4
100
AcDbEntity
  8
ewns_dzialki
  0
POLYLINE
  5
D5
100
AcDbEntity
  8
ewns_dzialki
  6
CONTINUOUS
370
18
100
AcDb2dPolyline
 66
1
 70
129
  0
VERTEX
  5
D6
100
AcDbEntity
  8
ewns_dzialki
100
AcDbVertex
100
AcDb2dVertex
 10
7577492.44000000041
 20
5713848.23000000045
  0
VERTEX
  5
D7
100
AcDbEntity
  8
ewns_dzialki
100
AcDbVertex
100
AcDb2dVertex
 10
7577504.9299999997
 20
5713848.65000000037
  0
VERTEX
  5
D8
100
AcDbEntity
  8
ewns_dzialki
100
AcDbVertex
100
AcDb2dVertex
 10
7577506.75
 20
5713848.70999999996
  0
VERTEX
  5
D9
100
AcDbEntity
  8
ewns_dzialki
100
AcDbVertex
100
AcDb2dVertex
 10
7577501.84999999963
 20
5713466.5
  0
VERTEX
  5
DA
100
AcDbEntity
  8
ewns_dzialki
100
AcDbVertex
100
AcDb2dVertex
 10
7577483.78000000026
 20
5713442.70999999996
  0
VERTEX
  5
DB
100
AcDbEntity
  8
ewns_dzialki
100
AcDbVertex
100
AcDb2dVertex
 10
7577478.9299999997
 20
5713443.25
  0
VERTEX
  5
DC
100
AcDbEntity
  8
ewns_dzialki
100
AcDbVertex
100
AcDb2dVertex
 10
7577477.5
 20
5713625.79000000004
  0
VERTEX
  5
DD
100
AcDbEntity
  8
ewns_dzialki
100
AcDbVertex
100
AcDb2dVertex
 10
7577487.87000000011
 20
5713626.45000000019
  0
VERTEX
  5
DE
100
AcDbEntity
  8
ewns_dzialki
100
AcDbVertex
100
AcDb2dVertex
 10
7577485.44000000041
 20
5713848.00999999978
  0
SEQEND
  5
DF
100
AcDbEntity
  8
ewns_dzialki
  0
POLYLINE
  5
E0
100
AcDbEntity
  8
ewns_dzialki
  6
CONTINUOUS
370
18
100
AcDb2dPolyline
 66
1
 70
129
  0
VERTEX
  5
E1
100
AcDbEntity
  8
ewns_dzialki
100
AcDbVertex
100
AcDb2dVertex
 10
7576788.03000000026
 20
5711355.62000000011
  0
VERTEX
  5
E2
100
AcDbEntity
  8
ewns_dzialki
100
AcDbVertex
100
AcDb2dVertex
 10
7576787.49000000022
 20
5711361.58999999985
  0
VERTEX
  5
E3
100
AcDbEntity
  8
ewns_dzialki
100
AcDbVertex
100
AcDb2dVertex
 10
7576868.66000000015
 20
5711369.79999999981
  0
VERTEX
  5
E4
100
AcDbEntity
  8
ewns_dzialki
100
AcDbVertex
100
AcDb2dVertex
 10
7576939.84999999963
 20
5711377.09999999963
  0
VERTEX
  5
E5
100
AcDbEntity
  8
ewns_dzialki
100
AcDbVertex
100
AcDb2dVertex
 10
7577133.44000000041
 20
5711396.9299999997
  0
VERTEX
  5
E6
100
AcDbEntity
  8
ewns_dzialki
100
AcDbVertex
100
AcDb2dVertex
 10
7577231.25999999978
 20
5711406.95000000019
  0
VERTEX
  5
E7
100
AcDbEntity
  8
ewns_dzialki
100
AcDbVertex
100
AcDb2dVertex
 10
7577343.13999999966
 20
5711418.51999999955
  0
VERTEX
  5
E8
100
AcDbEntity
  8
ewns_dzialki
100
AcDbVertex
100
AcDb2dVertex
 10
7577343.75999999978
 20
5711412.54999999981
  0
SEQEND
  5
E9
100
AcDbEntity
  8
ewns_dzialki
  0
POLYLINE
  5
EA
100
AcDbEntity
  8
ewns_dzialki
  6
CONTINUOUS
370
18
100
AcDb2dPolyline
 66
1
 70
129
  0
VERTEX
  5
EB
100
AcDbEntity
  8
ewns_dzialki
100
AcDbVertex
100
AcDb2dVertex
 10
7577133.44000000041
 20
5711396.9299999997
  0
VERTEX
  5
EC
100
AcDbEntity
  8
ewns_dzialki
100
AcDbVertex
100
AcDb2dVertex
 10
7576939.84999999963
 20
5711377.09999999963
  0
VERTEX
  5
ED
100
AcDbEntity
  8
ewns_dzialki
100
AcDbVertex
100
AcDb2dVertex
 10
7576929.54000000004
 20
5711477.08000000007
  0
VERTEX
  5
EE
100
AcDbEntity
  8
ewns_dzialki
100
AcDbVertex
100
AcDb2dVertex
 10
7577123.08999999985
 20
5711496.90000000037
  0
SEQEND
  5
EF
100
AcDbEntity
  8
ewns_dzialki
  0
POLYLINE
  5
F0
100
AcDbEntity
  8
ewns_dzialki
  6
CONTINUOUS
370
18
100
AcDb2dPolyline
 66
1
 70
129
  0
VERTEX
  5
F1
100
AcDbEntity
  8
ewns_dzialki
100
AcDbVertex
100
AcDb2dVertex
 10
7576939.84999999963
 20
5711377.09999999963
  0
VERTEX
  5
F2
100
AcDbEntity
  8
ewns_dzialki
100
AcDbVertex
100
AcDb2dVertex
 10
7576868.66000000015
 20
5711369.79999999981
  0
VERTEX
  5
F3
100
AcDbEntity
  8
ewns_dzialki
100
AcDbVertex
100
AcDb2dVertex
 10
7576858.40000000037
 20
5711469.79000000004
  0
VERTEX
  5
F4
100
AcDbEntity
  8
ewns_dzialki
100
AcDbVertex
100
AcDb2dVertex
 10
7576929.54000000004
 20
5711477.08000000007
  0
SEQEND
  5
F5
100
AcDbEntity
  8
ewns_dzialki
  0
POLYLINE
  5
F6
100
AcDbEntity
  8
ewns_dzialki
  6
CONTINUOUS
370
18
100
AcDb2dPolyline
 66
1
 70
129
  0
VERTEX
  5
F7
100
AcDbEntity
  8
ewns_dzialki
100
AcDbVertex
100
AcDb2dVertex
 10
7576787.49000000022
 20
5711361.58999999985
  0
VERTEX
  5
F8
100
AcDbEntity
  8
ewns_dzialki
100
AcDbVertex
100
AcDb2dVertex
 10
7576778.1799999997
 20
5711461.58000000007
  0
VERTEX
  5
F9
100
AcDbEntity
  8
ewns_dzialki
100
AcDbVertex
100
AcDb2dVertex
 10
7576858.40000000037
 20
5711469.79000000004
  0
VERTEX
  5
FA
100
AcDbEntity
  8
ewns_dzialki
100
AcDbVertex
100
AcDb2dVertex
 10
7576868.66000000015
 20
5711369.79999999981
  0
SEQEND
  5
FB
100
AcDbEntity
  8
ewns_dzialki
  0
POLYLINE
  5
FC
100
AcDbEntity
  8
ewns_dzialki
  6
CONTINUOUS
370
18
100
AcDb2dPolyline
 66
1
 70
129
  0
VERTEX
  5
FD
100
AcDbEntity
  8
ewns_dzialki
100
AcDbVertex
100
AcDb2dVertex
 10
7577332.53000000026
 20
5711518.40000000037
  0
VERTEX
  5
FE
100
AcDbEntity
  8
ewns_dzialki
100
AcDbVertex
100
AcDb2dVertex
 10
7577220.90000000037
 20
5711506.9299999997
  0
VERTEX
  5
FF
100
AcDbEntity
  8
ewns_dzialki
100
AcDbVertex
100
AcDb2dVertex
 10
7577123.08999999985
 20
5711496.90000000037
  0
VERTEX
  5
100
100
AcDbEntity
  8
ewns_dzialki
100
AcDbVertex
100
AcDb2dVertex
 10
7576929.54000000004
 20
5711477.08000000007
  0
VERTEX
  5
101
100
AcDbEntity
  8
ewns_dzialki
100
AcDbVertex
100
AcDb2dVertex
 10
7576858.40000000037
 20
5711469.79000000004
  0
VERTEX
  5
102
100
AcDbEntity
  8
ewns_dzialki
100
AcDbVertex
100
AcDb2dVertex
 10
7576778.1799999997
 20
5711461.58000000007
  0
VERTEX
  5
103
100
AcDbEntity
  8
ewns_dzialki
100
AcDbVertex
100
AcDb2dVertex
 10
7576776.09999999963
 20
5711484.36000000034
  0
VERTEX
  5
104
100
AcDbEntity
  8
ewns_dzialki
100
AcDbVertex
100
AcDb2dVertex
 10
7577330.16000000015
 20
5711541.16999999993
  0
SEQEND
  5
105
100
AcDbEntity
  8
ewns_dzialki
  0
POINT
  5
106
100
AcDbEntity
  8
ewns_dzialki
100
AcDbPoint
 62
0
 10
7576939.84999999963
 20
5711377.09999999963
  0
POINT
  5
107
100
AcDbEntity
  8
ewns_dzialki
100
AcDbPoint
 62
0
 10
7576868.66000000015
 20
5711369.79999999981
  0
POINT
  5
108
100
AcDbEntity
  8
ewns_dzialki
100
AcDbPoint
 62
0
 10
7576858.40000000037
 20
5711469.79000000004
  0
POINT
  5
109
100
AcDbEntity
  8
ewns_dzialki
100
AcDbPoint
 62
0
 10
7576929.54000000004
 20
5711477.08000000007
  0
POINT
  5
10A
100
AcDbEntity
  8
ewns_dzialki
100
AcDbPoint
 62
0
 10
7577453.66000000015
 20
5713846.96999999974
  0
POINT
  5
10B
100
AcDbEntity
  8
ewns_dzialki
100
AcDbPoint
 62
0
 10
7577455.05999999959
 20
5713847.01999999955
  0
POINT
  5
10C
100
AcDbEntity
  8
ewns_dzialki
100
AcDbPoint
 62
0
 10
7577462.45999999996
 20
5713847.25999999978
  0
POINT
  5
10D
100
AcDbEntity
  8
ewns_dzialki
100
AcDbPoint
 62
0
 10
7577469.84999999963
 20
5713847.5
  0
POINT
  5
10E
100
AcDbEntity
  8
ewns_dzialki
100
AcDbPoint
 62
0
 10
7577482.25
 20
5713847.90000000037
  0
POINT
  5
10F
100
AcDbEntity
  8
ewns_dzialki
100
AcDbPoint
 62
0
 10
7577485.44000000041
 20
5713848.00999999978
  0
POINT
  5
110
100
AcDbEntity
  8
ewns_dzialki
100
AcDbPoint
 62
0
 10
7577487.87000000011
 20
5713626.45000000019
  0
POINT
  5
111
100
AcDbEntity
  8
ewns_dzialki
100
AcDbPoint
 62
0
 10
7577477.5
 20
5713625.79000000004
  0
POINT
  5
112
100
AcDbEntity
  8
ewns_dzialki
100
AcDbPoint
 62
0
 10
7577478.9299999997
 20
5713443.25
  0
POINT
  5
113
100
AcDbEntity
  8
ewns_dzialki
100
AcDbPoint
 62
0
 10
7577452.66999999993
 20
5713446.1799999997
  0
POINT
  5
114
100
AcDbEntity
  8
ewns_dzialki
100
AcDbPoint
 62
0
 10
7577450.6799999997
 20
5713625.30999999959
  0
POINT
  5
115
100
AcDbEntity
  8
ewns_dzialki
100
AcDbPoint
 62
0
 10
7577457.8200000003
 20
5713625.3200000003
  0
ENDSEC
  0
SECTION
  2
OBJECTS
  0
DICTIONARY
  5
116
330
0
100
AcDbDictionary
280
0
281
1
  3
ACAD_GROUP
350
117
  3
ACAD_LAYOUT
350
118
  3
ACAD_MLINESTYLE
350
119
  3
ACAD_PLOTSETTINGS
350
11A
  3
ACAD_PLOTSTYLENAME
350
11B
  3
ACAD_WIPEOUT_VARS
350
11C
  0
DICTIONARY
  5
117
102
{ACAD_REACTORS
330
116
102
}
330
116
100
AcDbDictionary
280
0
281
1
  0
DICTIONARY
  5
118
102
{ACAD_REACTORS
330
116
102
}
330
116
100
AcDbDictionary
280
0
281
1
  3
Layout
350
8C
  3
Model
350
8A
  0
DICTIONARY
  5
119
102
{ACAD_REACTORS
330
116
102
}
330
116
100
AcDbDictionary
280
0
281
1
  3
Standard
350
11D
  3
L_0_02
350
7
  3
L_0_E3
350
C
  0
DICTIONARY
  5
11A
102
{ACAD_REACTORS
330
116
102
}
330
116
100
AcDbDictionary
280
0
281
1
  0
ACDBDICTIONARYWDFLT
  5
11B
102
{ACAD_REACTORS
330
116
102
}
330
116
100
AcDbDictionary
281
1
  3
Normal
350
11
100
AcDbDictionaryWithDefault
340
11
  0
WIPEOUTVARIABLES
  5
11C
102
{ACAD_REACTORS
330
116
102
}
330
116
100
AcDbWipeoutVariables
 70
0
  0
LAYOUT
  5
8C
100
AcDbPlotSettings
  1

  2

  4

  6

 40
0.0
 41
0.0
 42
0.0
 43
0.0
 44
0.0
 45
0.0
 46
0.0
 47
0.0
 48
0.0
 49
0.0
140
0.0
141
0.0
142
1.0
143
1.0
 70
688
 72
1
 73
0
 74
5
  7

 75
0
147
1.0
148
0.0
149
0.0
100
AcDbLayout
  1
Layout
 70
1
 71
1
 10
0.0
 20
0.0
 11
420.0
 21
297.0
 12
0.0
 22
0.0
 32
0.0
 14
100000000000000000000.0
 24
100000000000000000000.0
 34
100000000000000000000.0
 15
-100000000000000000000.0
 25
-100000000000000000000.0
 35
-100000000000000000000.0
146
0.0
 13
0.0
 23
0.0
 33
0.0
 16
1.0
 26
0.0
 36
0.0
 17
0.0
 27
1.0
 37
0.0
 76
0
330
8B
  0
LAYOUT
  5
8A
100
AcDbPlotSettings
  1

  2

  4

  6

 40
0.0
 41
0.0
 42
0.0
 43
0.0
 44
0.0
 45
0.0
 46
0.0
 47
0.0
 48
0.0
 49
0.0
140
0.0
141
0.0
142
1.0
143
1.0
 70
1712
 72
1
 73
0
 74
0
  7

 75
0
147
1.0
148
0.0
149
0.0
100
AcDbLayout
  1
Model
 70
1
 71
0
 10
0.0
 20
0.0
 11
12.0
 21
9.0
 12
0.0
 22
0.0
 32
0.0
 14
0.0
 24
0.0
 34
0.0
 15
0.0
 25
0.0
 35
0.0
146
0.0
 13
0.0
 23
0.0
 33
0.0
 16
1.0
 26
0.0
 36
0.0
 17
0.0
 27
1.0
 37
0.0
 76
0
330
89
  0
MLINESTYLE
  5
11D
102
{ACAD_REACTORS
330
119
102
}
330
119
100
AcDbMlineStyle
  2
Standard
 70
0
  3

 62
256
 51
90.0
 52
90.0
  2
Standard
 71
2
 49
0.5
 62
256
  6
ByLayer
 49
-0.5
 62
256
  6
ByLayer
  0
MLINESTYLE
  5
7
100
AcDbMlineStyle
  2
L_0_02
 70
0
  3

 51
90.0
 52
90.0
 71
1
 49
0.0
 62
256
  6
CONTINUOUS
  0
MLINESTYLE
  5
C
100
AcDbMlineStyle
  2
L_0_E3
 70
0
  3

 51
90.0
 52
90.0
 71
2
 49
0.0
 62
256
  6
CONTINUOUS
 49
-0.5
 62
256
  6
L_0_E3_00
  0
ACDBPLACEHOLDER
  5
11
  0
ENDSEC
  0
EOF
