  0
SECTION
  2
HEADER
  9
$ACADVER
  1
AC1018
  9
$HANDSEED
  5
FFFFFF
  9
$EXTMAX
 10
7581584.55099999998
 20
5690723.27099999972
 30
1000000.00
  9
$EXTMIN
 10
7581429.56099999975
 20
5690650.19699999969
 30
0.00
  9
$LIMMIN
 10
7581429.56099999975
 20
5690650.19699999969
  9
$LIMMAX
 10
7581584.55099999998
 20
5690723.27099999972
  9
$DIMASZ
 40
2.5
  9
$DIMGAP
 40
0.625
  9
$INSUNITS
 70
6
  9
$DIMEXO
 40
0.625
  9
$DIMTXT
 40
2.5
  9
$DIMSTYLE
  2
Standard
  9
$PLIMMIN
 10
0.0
 20
0.0
  9
$PLIMMAX
 10
210.0
 20
297.0
  9
$DIMEXE
 40
1.25
  9
$TEXTSIZE
 40
2.5
  9
$TEXTSTYLE
  7
Standard
  9
$LWDISPLAY
290
1
  9
$TDCREATE
 40
43389.711135197
  9
$TDUCREATE
 40
43389.627801863
  9
$TDUPDATE
 40
43389.711135197
  9
$TDUUPDATE
 40
43389.627801863
  9
$TDINDWG
 40
0.0
  9
$TDUSRTIMER
 40
0.0
  9
$USRTIMER
 70
1
  0
ENDSEC
  0
SECTION
  2
TABLES
  0
TABLE
  2
VPORT
  5
1
100
AcDbSymbolTable
 70
1
  0
VPORT
  5
2
100
AcDbSymbolTableRecord
100
AcDbViewportTableRecord
  2
*ACTIVE
 70
0
 10
0.0
 20
0.0
 11
1.0
 21
1.0
 12
7581507.056
 22
5690686.734
 13
0.0
 23
0.0
 14
1.0
 24
1.0
 15
0.0
 25
0.0
 16
0.0
 26
0.0
 36
1.0
 17
0.0
 27
0.0
 37
0.0
 40
73.074
 41
2.121
 42
50.0
 43
0.0
 44
0.0
 50
0.0
 51
0.0
 71
0
 72
100
 73
1
 74
1
 75
0
 76
0
 77
0
 78
0
  0
ENDTAB
  0
TABLE
  2
LTYPE
  5
3
100
AcDbSymbolTable
 70
385
  0
LTYPE
  5
4
100
AcDbSymbolTableRecord
100
AcDbLinetypeTableRecord
  2
ByBlock
 70
0
  3

 72
65
 73
0
 40
0.0
  0
LTYPE
  5
5
100
AcDbSymbolTableRecord
100
AcDbLinetypeTableRecord
  2
ByLayer
 70
0
  3

 72
65
 73
0
 40
0.0
  0
LTYPE
  5
6
100
AcDbSymbolTableRecord
100
AcDbLinetypeTableRecord
  2
CONTINUOUS
 70
0
  3
Solid line
 72
65
 73
0
 40
0.0
  0
ENDTAB
  0
TABLE
  2
LAYER
  5
7
100
AcDbSymbolTable
 70
9
  0
LAYER
  5
8
100
AcDbSymbolTableRecord
100
AcDbLayerTableRecord
  2
0
 70
0
420
0
  6
CONTINUOUS
370
18
390
9
  0
LAYER
  5
A
100
AcDbSymbolTableRecord
100
AcDbLayerTableRecord
  2
Budynek_SD
 70
0
420
13762770
  6
CONTINUOUS
370
25
390
9
  0
LAYER
  5
B
100
AcDbSymbolTableRecord
100
AcDbLayerTableRecord
  2
gaz
 70
0
420
16760576
  6
CONTINUOUS
370
35
390
9
  0
LAYER
  5
C
100
AcDbSymbolTableRecord
100
AcDbLayerTableRecord
  2
I___Kanalizacja
 70
0
420
10046464
  6
CONTINUOUS
370
35
390
9
  0
LAYER
  5
D
100
AcDbSymbolTableRecord
100
AcDbLayerTableRecord
  2
I___Woda
 70
0
420
255
  6
CONTINUOUS
370
35
390
9
  0
LAYER
  5
E
100
AcDbSymbolTableRecord
100
AcDbLayerTableRecord
  2
kanalizacja
 70
0
420
10046464
  6
CONTINUOUS
370
35
390
9
  0
LAYER
  5
F
100
AcDbSymbolTableRecord
100
AcDbLayerTableRecord
  2
osie
 70
0
420
255
  6
CONTINUOUS
370
18
390
9
  0
LAYER
  5
10
100
AcDbSymbolTableRecord
100
AcDbLayerTableRecord
  2
wlz
 70
0
420
16711680
  6
CONTINUOUS
370
50
390
9
  0
LAYER
  5
11
100
AcDbSymbolTableRecord
100
AcDbLayerTableRecord
  2
woda
 70
0
420
255
  6
CONTINUOUS
370
35
390
9
  0
ENDTAB
  0
TABLE
  2
STYLE
  5
12
100
AcDbSymbolTable
 70
1
  0
STYLE
  5
13
100
AcDbSymbolTableRecord
100
AcDbTextStyleTableRecord
  2
STANDARD
 70
0
 40
0.0
 41
1.0
 50
0.0
 71
0
  3
simplex.shx
  4

  0
ENDTAB
  0
TABLE
  2
VIEW
  5
14
100
AcDbSymbolTable
 70
0
  0
ENDTAB
  0
TABLE
  2
UCS
  5
15
100
AcDbSymbolTable
 70
0
  0
ENDTAB
  0
TABLE
  2
APPID
  5
16
100
AcDbSymbolTable
 70
1
  0
APPID
  5
17
100
AcDbSymbolTableRecord
100
AcDbRegAppTableRecord
  2
ACAD
 70
0
  0
ENDTAB
  0
TABLE
  2
DIMSTYLE
  5
18
100
AcDbSymbolTable
 70
1
100
AcDbDimStyleTable
  0
DIMSTYLE
105
19
100
AcDbSymbolTableRecord
100
AcDbDimStyleTableRecord
  2
Standard
 70
0
340
13
  0
ENDTAB
  0
TABLE
  2
BLOCK_RECORD
  5
1A
100
AcDbSymbolTable
 70
3
  0
BLOCK_RECORD
  5
1B
100
AcDbSymbolTableRecord
100
AcDbBlockTableRecord
  2
*Model_Space
340
1C
  0
BLOCK_RECORD
  5
1D
100
AcDbSymbolTableRecord
100
AcDbBlockTableRecord
  2
*Paper_Space
340
1E
  0
BLOCK_RECORD
  5
1F
100
AcDbSymbolTableRecord
100
AcDbBlockTableRecord
  2
pikieta
340
20
  0
ENDTAB
  0
ENDSEC
  0
SECTION
  2
BLOCKS
  0
BLOCK
  5
21
100
AcDbEntity
  8
0
100
AcDbBlockBegin
  2
*Model_Space
 70
0
 10
0.0
 20
0.0
 30
0.0
  3
*Model_Space
  1

  0
ENDBLK
  5
22
100
AcDbEntity
  8
0
100
AcDbBlockEnd
  0
BLOCK
  5
23
100
AcDbEntity
 67
1
  8
0
100
AcDbBlockBegin
  2
*Paper_Space
 70
0
 10
0.0
 20
0.0
 30
0.0
  3
*Paper_Space
  1

  0
ENDBLK
  5
24
100
AcDbEntity
 67
1
  8
0
100
AcDbBlockEnd
  0
BLOCK
  5
20
100
AcDbEntity
  8
0
100
AcDbBlockBegin
 62
0
370
13
  2
pikieta
 70
0
 10
0
 20
0
 30
0
  3
pikieta
  0
POINT
  5
25
100
AcDbEntity
  8
0
100
AcDbPoint
 62
0
 10
0.0
 20
0.0
 30
0.000
  0
ENDBLK
  5
26
100
AcDbEntity
  8
0
100
AcDbBlockEnd
  0
ENDSEC
  0
SECTION
  2
ENTITIES
  0
POLYLINE
  5
27
100
AcDbEntity
  8
Budynek_SD
  6
CONTINUOUS
370
25
100
AcDb2dPolyline
 66
1
 70
129
  0
VERTEX
  5
28
100
AcDbEntity
  8
Budynek_SD
100
AcDbVertex
100
AcDb2dVertex
 10
7581551.41999999992
 20
5690711.84999999963
  0
VERTEX
  5
29
100
AcDbEntity
  8
Budynek_SD
100
AcDbVertex
100
AcDb2dVertex
 10
7581560.4299999997
 20
5690711.51999999955
  0
VERTEX
  5
2A
100
AcDbEntity
  8
Budynek_SD
100
AcDbVertex
100
AcDb2dVertex
 10
7581560.20000000019
 20
5690705.23000000045
  0
VERTEX
  5
2B
100
AcDbEntity
  8
Budynek_SD
100
AcDbVertex
100
AcDb2dVertex
 10
7581561.0
 20
5690705.20000000019
  0
VERTEX
  5
2C
100
AcDbEntity
  8
Budynek_SD
100
AcDbVertex
100
AcDb2dVertex
 10
7581560.53000000026
 20
5690692.1799999997
  0
VERTEX
  5
2D
100
AcDbEntity
  8
Budynek_SD
100
AcDbVertex
100
AcDb2dVertex
 10
7581557.16999999993
 20
5690692.30999999959
  0
VERTEX
  5
2E
100
AcDbEntity
  8
Budynek_SD
100
AcDbVertex
100
AcDb2dVertex
 10
7581557.15000000037
 20
5690691.70999999996
  0
VERTEX
  5
2F
100
AcDbEntity
  8
Budynek_SD
100
AcDbVertex
100
AcDb2dVertex
 10
7581553.25
 20
5690691.84999999963
  0
VERTEX
  5
30
100
AcDbEntity
  8
Budynek_SD
100
AcDbVertex
100
AcDb2dVertex
 10
7581553.34999999963
 20
5690694.6799999997
  0
VERTEX
  5
31
100
AcDbEntity
  8
Budynek_SD
100
AcDbVertex
100
AcDb2dVertex
 10
7581550.0
 20
5690694.79999999981
  0
VERTEX
  5
32
100
AcDbEntity
  8
Budynek_SD
100
AcDbVertex
100
AcDb2dVertex
 10
7581550.38999999966
 20
5690705.58000000007
  0
VERTEX
  5
33
100
AcDbEntity
  8
Budynek_SD
100
AcDbVertex
100
AcDb2dVertex
 10
7581551.19000000041
 20
5690705.54999999981
  0
SEQEND
  5
34
100
AcDbEntity
  8
Budynek_SD
  0
POLYLINE
  5
35
100
AcDbEntity
  8
gaz
  6
CONTINUOUS
420
10051404
370
35
100
AcDb2dPolyline
 66
1
 70
128
  0
VERTEX
  5
36
100
AcDbEntity
  8
gaz
100
AcDbVertex
100
AcDb2dVertex
 10
7581432.70389562659
 20
5690659.52896562032
  0
VERTEX
  5
37
100
AcDbEntity
  8
gaz
100
AcDbVertex
100
AcDb2dVertex
 10
7581429.84134167619
 20
5690659.52170791011
  0
SEQEND
  5
38
100
AcDbEntity
  8
gaz
  0
POLYLINE
  5
39
100
AcDbEntity
  8
gaz
  6
CONTINUOUS
420
16760576
370
35
100
AcDb2dPolyline
 66
1
 70
128
  0
VERTEX
  5
3A
100
AcDbEntity
  8
gaz
100
AcDbVertex
100
AcDb2dVertex
 10
7581432.42380933277
 20
5690650.20448021404
  0
VERTEX
  5
3B
100
AcDbEntity
  8
gaz
100
AcDbVertex
100
AcDb2dVertex
 10
7581429.56125538331
 20
5690650.19722250383
  0
SEQEND
  5
3C
100
AcDbEntity
  8
gaz
  0
POLYLINE
  5
3D
100
AcDbEntity
  8
gaz
  6
CONTINUOUS
420
16760576
370
35
100
AcDb2dPolyline
 66
1
 70
128
  0
VERTEX
  5
3E
100
AcDbEntity
  8
gaz
100
AcDbVertex
100
AcDb2dVertex
 10
7581584.36627597082
 20
5690687.10252114758
  0
VERTEX
  5
3F
100
AcDbEntity
  8
gaz
100
AcDbVertex
100
AcDb2dVertex
 10
7581563.94518203754
 20
5690687.86960628163
  0
SEQEND
  5
40
100
AcDbEntity
  8
gaz
  0
POLYLINE
  5
41
100
AcDbEntity
  8
gaz
  6
CONTINUOUS
420
16760576
370
35
100
AcDb2dPolyline
 66
1
 70
128
  0
VERTEX
  5
42
100
AcDbEntity
  8
gaz
100
AcDbVertex
100
AcDb2dVertex
 10
7581561.00838114042
 20
5690704.92919441592
  0
VERTEX
  5
43
100
AcDbEntity
  8
gaz
100
AcDbVertex
100
AcDb2dVertex
 10
7581564.52448660508
 20
5690704.87282915879
  0
SEQEND
  5
44
100
AcDbEntity
  8
gaz
  0
POLYLINE
  5
45
100
AcDbEntity
  8
gaz
  6
CONTINUOUS
420
16760576
370
35
100
AcDb2dPolyline
 66
1
 70
128
  0
VERTEX
  5
46
100
AcDbEntity
  8
gaz
100
AcDbVertex
100
AcDb2dVertex
 10
7581564.52328238636
 20
5690704.87423570175
  0
VERTEX
  5
47
100
AcDbEntity
  8
gaz
100
AcDbVertex
100
AcDb2dVertex
 10
7581563.94518203754
 20
5690687.86960628163
  0
SEQEND
  5
48
100
AcDbEntity
  8
gaz
  0
POLYLINE
  5
49
100
AcDbEntity
  8
gaz
  6
CONTINUOUS
420
16760576
370
35
100
AcDb2dPolyline
 66
1
 70
128
  0
VERTEX
  5
4A
100
AcDbEntity
  8
gaz
100
AcDbVertex
100
AcDb2dVertex
 10
7581584.53812943865
 20
5690692.15753370803
  0
VERTEX
  5
4B
100
AcDbEntity
  8
gaz
100
AcDbVertex
100
AcDb2dVertex
 10
7581584.36627597082
 20
5690687.10252114758
  0
SEQEND
  5
4C
100
AcDbEntity
  8
gaz
  0
CIRCLE
  5
4D
100
AcDbEntity
  8
I___Kanalizacja
  6
CONTINUOUS
420
10046464
370
35
100
AcDbCircle
 10
7581557.71613577101
 20
5690690.95997429453
 40
0.20246197935193777
  0
POLYLINE
  5
4E
100
AcDbEntity
  8
I___Kanalizacja
  6
CONTINUOUS
420
10046464
370
35
100
AcDb2dPolyline
 66
1
 70
128
  0
VERTEX
  5
4F
100
AcDbEntity
  8
I___Kanalizacja
100
AcDbVertex
100
AcDb2dVertex
 10
7581567.70712613408
 20
5690690.75862056669
  0
VERTEX
  5
50
100
AcDbEntity
  8
I___Kanalizacja
100
AcDbVertex
100
AcDb2dVertex
 10
7581557.91803922877
 20
5690690.97500249092
  0
SEQEND
  5
51
100
AcDbEntity
  8
I___Kanalizacja
  0
POLYLINE
  5
52
100
AcDbEntity
  8
I___Woda
  6
CONTINUOUS
420
16711680
370
35
100
AcDb2dPolyline
 66
1
 70
128
  0
VERTEX
  5
53
100
AcDbEntity
  8
I___Woda
100
AcDbVertex
100
AcDb2dVertex
 10
7581553.93253053166
 20
5690714.95823037717
  0
VERTEX
  5
54
100
AcDbEntity
  8
I___Woda
100
AcDbVertex
100
AcDb2dVertex
 10
7581553.81461886223
 20
5690711.76369051822
  0
SEQEND
  5
55
100
AcDbEntity
  8
I___Woda
  0
POLYLINE
  5
56
100
AcDbEntity
  8
I___Woda
  6
CONTINUOUS
420
255
370
35
100
AcDb2dPolyline
 66
1
 70
128
  0
VERTEX
  5
57
100
AcDbEntity
  8
I___Woda
100
AcDbVertex
100
AcDb2dVertex
 10
7581576.10349471029
 20
5690720.62358583137
  0
VERTEX
  5
58
100
AcDbEntity
  8
I___Woda
100
AcDbVertex
100
AcDb2dVertex
 10
7581575.1024089586
 20
5690720.67728631664
  0
SEQEND
  5
59
100
AcDbEntity
  8
I___Woda
  0
POLYLINE
  5
5A
100
AcDbEntity
  8
kanalizacja
  6
CONTINUOUS
420
10046464
370
35
100
AcDb2dPolyline
 66
1
 70
128
  0
VERTEX
  5
5B
100
AcDbEntity
  8
kanalizacja
100
AcDbVertex
100
AcDb2dVertex
 10
7581557.74913511425
 20
5690692.2370714983
  0
VERTEX
  5
5C
100
AcDbEntity
  8
kanalizacja
100
AcDbVertex
100
AcDb2dVertex
 10
7581557.70946586784
 20
5690691.16232637782
  0
SEQEND
  5
5D
100
AcDbEntity
  8
kanalizacja
  0
POLYLINE
  5
5E
100
AcDbEntity
  8
osie
  6
CONTINUOUS
370
18
100
AcDb2dPolyline
 66
1
 70
128
  0
VERTEX
  5
5F
100
AcDbEntity
  8
osie
100
AcDbVertex
100
AcDb2dVertex
 10
7581548.41009603627
 20
5690711.63521656301
  0
VERTEX
  5
60
100
AcDbEntity
  8
osie
100
AcDbVertex
100
AcDb2dVertex
 10
7581563.41609603539
 20
5690711.08521655388
  0
SEQEND
  5
61
100
AcDbEntity
  8
osie
  0
POLYLINE
  5
62
100
AcDbEntity
  8
osie
  6
CONTINUOUS
370
18
100
AcDb2dPolyline
 66
1
 70
128
  0
VERTEX
  5
63
100
AcDbEntity
  8
osie
100
AcDbVertex
100
AcDb2dVertex
 10
7581548.17924622819
 20
5690705.33919799328
  0
VERTEX
  5
64
100
AcDbEntity
  8
osie
100
AcDbVertex
100
AcDb2dVertex
 10
7581563.18524622172
 20
5690704.78919780441
  0
SEQEND
  5
65
100
AcDbEntity
  8
osie
  0
POLYLINE
  5
66
100
AcDbEntity
  8
osie
  6
CONTINUOUS
370
18
100
AcDb2dPolyline
 66
1
 70
128
  0
VERTEX
  5
67
100
AcDbEntity
  8
osie
100
AcDbVertex
100
AcDb2dVertex
 10
7581548.02553042769
 20
5690701.15179200005
  0
VERTEX
  5
68
100
AcDbEntity
  8
osie
100
AcDbVertex
100
AcDb2dVertex
 10
7581563.03153042309
 20
5690700.60179187451
  0
SEQEND
  5
69
100
AcDbEntity
  8
osie
  0
POLYLINE
  5
6A
100
AcDbEntity
  8
osie
  6
CONTINUOUS
370
18
100
AcDb2dPolyline
 66
1
 70
128
  0
VERTEX
  5
6B
100
AcDbEntity
  8
osie
100
AcDbVertex
100
AcDb2dVertex
 10
7581547.80806588195
 20
5690695.20596477576
  0
VERTEX
  5
6C
100
AcDbEntity
  8
osie
100
AcDbVertex
100
AcDb2dVertex
 10
7581562.81406587549
 20
5690694.65596459713
  0
SEQEND
  5
6D
100
AcDbEntity
  8
osie
  0
POLYLINE
  5
6E
100
AcDbEntity
  8
osie
  6
CONTINUOUS
370
18
100
AcDb2dPolyline
 66
1
 70
128
  0
VERTEX
  5
6F
100
AcDbEntity
  8
osie
100
AcDbVertex
100
AcDb2dVertex
 10
7581547.72632049024
 20
5690692.97748595942
  0
VERTEX
  5
70
100
AcDbEntity
  8
osie
100
AcDbVertex
100
AcDb2dVertex
 10
7581562.73232048843
 20
5690692.42748589255
  0
SEQEND
  5
71
100
AcDbEntity
  8
osie
  0
POLYLINE
  5
72
100
AcDbEntity
  8
osie
  6
CONTINUOUS
370
18
100
AcDb2dPolyline
 66
1
 70
128
  0
VERTEX
  5
73
100
AcDbEntity
  8
osie
100
AcDbVertex
100
AcDb2dVertex
 10
7581547.70402344968
 20
5690692.37739980966
  0
VERTEX
  5
74
100
AcDbEntity
  8
osie
100
AcDbVertex
100
AcDb2dVertex
 10
7581562.71002344973
 20
5690691.82739979215
  0
SEQEND
  5
75
100
AcDbEntity
  8
osie
  0
POLYLINE
  5
76
100
AcDbEntity
  8
osie
  6
CONTINUOUS
370
18
100
AcDb2dPolyline
 66
1
 70
128
  0
VERTEX
  5
77
100
AcDbEntity
  8
osie
100
AcDbVertex
100
AcDb2dVertex
 10
7581561.01020968892
 20
5690714.50571513735
  0
VERTEX
  5
78
100
AcDbEntity
  8
osie
100
AcDbVertex
100
AcDb2dVertex
 10
7581560.09720968921
 20
5690689.19371513743
  0
SEQEND
  5
79
100
AcDbEntity
  8
osie
  0
POLYLINE
  5
7A
100
AcDbEntity
  8
osie
  6
CONTINUOUS
370
18
100
AcDb2dPolyline
 66
1
 70
128
  0
VERTEX
  5
7B
100
AcDbEntity
  8
osie
100
AcDbVertex
100
AcDb2dVertex
 10
7581557.65216786135
 20
5690714.62711649574
  0
VERTEX
  5
7C
100
AcDbEntity
  8
osie
100
AcDbVertex
100
AcDb2dVertex
 10
7581556.73916786816
 20
5690689.31511649583
  0
SEQEND
  5
7D
100
AcDbEntity
  8
osie
  0
POLYLINE
  5
7E
100
AcDbEntity
  8
osie
  6
CONTINUOUS
370
18
100
AcDb2dPolyline
 66
1
 70
128
  0
VERTEX
  5
7F
100
AcDbEntity
  8
osie
100
AcDbVertex
100
AcDb2dVertex
 10
7581554.40409691166
 20
5690714.74415137153
  0
VERTEX
  5
80
100
AcDbEntity
  8
osie
100
AcDbVertex
100
AcDb2dVertex
 10
7581553.49109691754
 20
5690689.43215137161
  0
SEQEND
  5
81
100
AcDbEntity
  8
osie
  0
POLYLINE
  5
82
100
AcDbEntity
  8
osie
  6
CONTINUOUS
370
18
100
AcDb2dPolyline
 66
1
 70
128
  0
VERTEX
  5
83
100
AcDbEntity
  8
osie
100
AcDbVertex
100
AcDb2dVertex
 10
7581551.04616790637
 20
5690714.86511649378
  0
VERTEX
  5
84
100
AcDbEntity
  8
osie
100
AcDbVertex
100
AcDb2dVertex
 10
7581550.13316791318
 20
5690689.55311649386
  0
SEQEND
  5
85
100
AcDbEntity
  8
osie
  0
POLYLINE
  5
86
100
AcDbEntity
  8
osie
  6
CONTINUOUS
370
18
100
AcDb2dPolyline
 66
1
 70
128
  0
VERTEX
  5
87
100
AcDbEntity
  8
osie
100
AcDbVertex
100
AcDb2dVertex
 10
7581560.21051615756
 20
5690714.53483726084
  0
VERTEX
  5
88
100
AcDbEntity
  8
osie
100
AcDbVertex
100
AcDb2dVertex
 10
7581559.29751615878
 20
5690689.22283726092
  0
SEQEND
  5
89
100
AcDbEntity
  8
osie
  0
POLYLINE
  5
8A
100
AcDbEntity
  8
osie
  6
CONTINUOUS
370
18
100
AcDb2dPolyline
 66
1
 70
128
  0
VERTEX
  5
8B
100
AcDbEntity
  8
osie
100
AcDbVertex
100
AcDb2dVertex
 10
7581555.20358074922
 20
5690714.71531411167
  0
VERTEX
  5
8C
100
AcDbEntity
  8
osie
100
AcDbVertex
100
AcDb2dVertex
 10
7581554.29058075324
 20
5690689.40331411082
  0
SEQEND
  5
8D
100
AcDbEntity
  8
osie
  0
POLYLINE
  5
8E
100
AcDbEntity
  8
osie
  6
CONTINUOUS
370
18
100
AcDb2dPolyline
 66
1
 70
128
  0
VERTEX
  5
8F
100
AcDbEntity
  8
osie
100
AcDbVertex
100
AcDb2dVertex
 10
7581551.8461679006
 20
5690714.83611649461
  0
VERTEX
  5
90
100
AcDbEntity
  8
osie
100
AcDbVertex
100
AcDb2dVertex
 10
7581550.93316790741
 20
5690689.52411649376
  0
SEQEND
  5
91
100
AcDbEntity
  8
osie
  0
POLYLINE
  5
92
100
AcDbEntity
  8
wlz
  6
CONTINUOUS
420
16711680
370
35
100
AcDb2dPolyline
 66
1
 70
128
  0
VERTEX
  5
93
100
AcDbEntity
  8
wlz
100
AcDbVertex
100
AcDb2dVertex
 10
7581432.5109990593
 20
5690653.27279166598
  0
VERTEX
  5
94
100
AcDbEntity
  8
wlz
100
AcDbVertex
100
AcDb2dVertex
 10
7581429.64844510891
 20
5690653.26553395577
  0
SEQEND
  5
95
100
AcDbEntity
  8
wlz
  0
POLYLINE
  5
96
100
AcDbEntity
  8
wlz
  6
CONTINUOUS
420
255
370
35
100
AcDb2dPolyline
 66
1
 70
128
  0
VERTEX
  5
97
100
AcDbEntity
  8
wlz
100
AcDbVertex
100
AcDb2dVertex
 10
7581552.62797629461
 20
5690716.09422171861
  0
VERTEX
  5
98
100
AcDbEntity
  8
wlz
100
AcDbVertex
100
AcDb2dVertex
 10
7581552.46996051352
 20
5690711.81315507554
  0
SEQEND
  5
99
100
AcDbEntity
  8
wlz
  0
POLYLINE
  5
9A
100
AcDbEntity
  8
woda
  6
CONTINUOUS
420
255
370
35
100
AcDb2dPolyline
 66
1
 70
128
  0
VERTEX
  5
9B
100
AcDbEntity
  8
woda
100
AcDbVertex
100
AcDb2dVertex
 10
7581432.71240680851
 20
5690656.17202260997
  0
VERTEX
  5
9C
100
AcDbEntity
  8
woda
100
AcDbVertex
100
AcDb2dVertex
 10
7581429.84985285904
 20
5690656.16476489976
  0
SEQEND
  5
9D
100
AcDbEntity
  8
woda
  0
POLYLINE
  5
9E
100
AcDbEntity
  8
woda
  6
CONTINUOUS
420
255
370
35
100
AcDb2dPolyline
 66
1
 70
128
  0
VERTEX
  5
9F
100
AcDbEntity
  8
woda
100
AcDbVertex
100
AcDb2dVertex
 10
7581552.62797629461
 20
5690716.09422171861
  0
VERTEX
  5
A0
100
AcDbEntity
  8
woda
100
AcDbVertex
100
AcDb2dVertex
 10
7581575.11035037134
 20
5690720.68227407429
  0
SEQEND
  5
A1
100
AcDbEntity
  8
woda
  0
POLYLINE
  5
A2
100
AcDbEntity
  8
woda
  6
CONTINUOUS
420
16711680
370
35
100
AcDb2dPolyline
 66
1
 70
128
  0
VERTEX
  5
A3
100
AcDbEntity
  8
woda
100
AcDbVertex
100
AcDb2dVertex
 10
7581553.93253053166
 20
5690714.95823037717
  0
VERTEX
  5
A4
100
AcDbEntity
  8
woda
100
AcDbVertex
100
AcDb2dVertex
 10
7581578.37552210223
 20
5690719.94639242254
  0
SEQEND
  5
A5
100
AcDbEntity
  8
woda
  0
TEXT
  5
A6
100
AcDbEntity
  8
gaz
420
255
370
25
100
AcDbText
 39
0.25
 10
7581560.81146374065
 20
5690717.44351866748
 40
1.25
  1
DN40 }
 50
0.10
 41
0.66
  7
STANDARD
100
AcDbText
  0
TEXT
  5
A7
100
AcDbEntity
  8
gaz
370
25
100
AcDbText
 39
0.25
 10
7581570.77117771469
 20
5690687.23240884766
 40
1.25
  1
;DN40 }
 50
0.10
 41
0.66
  7
STANDARD
100
AcDbText
  0
TEXT
  5
A8
100
AcDbEntity
  8
gaz
420
10046464
370
25
100
AcDbText
 39
0.25
 10
7581559.79055077862
 20
5690690.60766868573
 40
1.25
  1
PCV 160 }
 50
0.10
 41
0.66
  7
STANDARD
100
AcDbText
  0
TEXT
  5
A9
100
AcDbEntity
  8
wlz
370
25
100
AcDbText
 39
0.25
 10
7581565.79218166042
 20
5690717.10000190418
 40
1.25
  1
YKY }
 50
0.10
 41
0.66
  7
STANDARD
100
AcDbText
  0
ENDSEC
  0
SECTION
  2
OBJECTS
  0
DICTIONARY
  5
AA
330
0
100
AcDbDictionary
280
0
281
1
  3
ACAD_GROUP
350
AB
  3
ACAD_LAYOUT
350
AC
  3
ACAD_MLINESTYLE
350
AD
  3
ACAD_PLOTSETTINGS
350
AE
  3
ACAD_PLOTSTYLENAME
350
AF
  0
DICTIONARY
  5
AB
102
{ACAD_REACTORS
330
AA
102
}
330
AA
100
AcDbDictionary
280
0
281
1
  0
DICTIONARY
  5
AC
102
{ACAD_REACTORS
330
AA
102
}
330
AA
100
AcDbDictionary
280
0
281
1
  3
Layout
350
1E
  3
Model
350
1C
  0
DICTIONARY
  5
AD
102
{ACAD_REACTORS
330
AA
102
}
330
AA
100
AcDbDictionary
280
0
281
1
  3
Standard
350
B0
  0
DICTIONARY
  5
AE
102
{ACAD_REACTORS
330
AA
102
}
330
AA
100
AcDbDictionary
280
0
281
1
  0
ACDBDICTIONARYWDFLT
  5
AF
102
{ACAD_REACTORS
330
AA
102
}
330
AA
100
AcDbDictionary
281
1
  3
Normal
350
9
100
AcDbDictionaryWithDefault
340
9
  0
LAYOUT
  5
1E
100
AcDbPlotSettings
  1

  2

  4

  6

 40
0.0
 41
0.0
 42
0.0
 43
0.0
 44
0.0
 45
0.0
 46
0.0
 47
0.0
 48
0.0
 49
0.0
140
0.0
141
0.0
142
1.0
143
1.0
 70
688
 72
1
 73
0
 74
5
  7

 75
0
147
1.0
148
0.0
149
0.0
100
AcDbLayout
  1
Layout
 70
1
 71
1
 10
0.0
 20
0.0
 11
420.0
 21
297.0
 12
0.0
 22
0.0
 32
0.0
 14
100000000000000000000.0
 24
100000000000000000000.0
 34
100000000000000000000.0
 15
-100000000000000000000.0
 25
-100000000000000000000.0
 35
-100000000000000000000.0
146
0.0
 13
0.0
 23
0.0
 33
0.0
 16
1.0
 26
0.0
 36
0.0
 17
0.0
 27
1.0
 37
0.0
 76
0
330
1D
  0
LAYOUT
  5
1C
100
AcDbPlotSettings
  1

  2

  4

  6

 40
0.0
 41
0.0
 42
0.0
 43
0.0
 44
0.0
 45
0.0
 46
0.0
 47
0.0
 48
0.0
 49
0.0
140
0.0
141
0.0
142
1.0
143
1.0
 70
1712
 72
1
 73
0
 74
0
  7

 75
0
147
1.0
148
0.0
149
0.0
100
AcDbLayout
  1
Model
 70
1
 71
0
 10
0.0
 20
0.0
 11
12.0
 21
9.0
 12
0.0
 22
0.0
 32
0.0
 14
0.0
 24
0.0
 34
0.0
 15
0.0
 25
0.0
 35
0.0
146
0.0
 13
0.0
 23
0.0
 33
0.0
 16
1.0
 26
0.0
 36
0.0
 17
0.0
 27
1.0
 37
0.0
 76
0
330
1B
  0
MLINESTYLE
  5
B0
102
{ACAD_REACTORS
330
AD
102
}
330
AD
100
AcDbMlineStyle
  2
Standard
 70
0
  3

 62
256
 51
90.0
 52
90.0
  2
Standard
 71
2
 49
0.5
 62
256
  6
ByLayer
 49
-0.5
 62
256
  6
ByLayer
  0
ACDBPLACEHOLDER
  5
9
  0
ENDSEC
  0
EOF
