  0
SECTION
  2
HEADER
  9
$ACADVER
  1
AC1018
  9
$HANDSEED
  5
FFFFFF
  9
$EXTMAX
 10
7560364.41999999993
 20
5714709.84999999963
 30
1000000.00
  9
$EXTMIN
 10
7560234.54000000004
 20
5714555.9299999997
 30
0.00
  9
$LIMMIN
 10
7560234.54000000004
 20
5714555.9299999997
  9
$LIMMAX
 10
7560364.41999999993
 20
5714709.84999999963
  9
$DIMASZ
 40
2.5
  9
$DIMGAP
 40
0.625
  9
$INSUNITS
 70
6
  9
$DIMEXO
 40
0.625
  9
$DIMTXT
 40
2.5
  9
$DIMSTYLE
  2
Standard
  9
$PLIMMIN
 10
0.0
 20
0.0
  9
$PLIMMAX
 10
210.0
 20
297.0
  9
$DIMEXE
 40
1.25
  9
$TEXTSIZE
 40
2.5
  9
$TEXTSTYLE
  7
Standard
  9
$LWDISPLAY
290
1
  9
$TDCREATE
 40
43669.453962963
  9
$TDUCREATE
 40
43669.370629630
  9
$TDUPDATE
 40
43669.453962963
  9
$TDUUPDATE
 40
43669.370629630
  9
$TDINDWG
 40
0.0
  9
$TDUSRTIMER
 40
0.0
  9
$USRTIMER
 70
1
  0
ENDSEC
  0
SECTION
  2
TABLES
  0
TABLE
  2
VPORT
  5
1
100
AcDbSymbolTable
 70
1
  0
VPORT
  5
2
100
AcDbSymbolTableRecord
100
AcDbViewportTableRecord
  2
*ACTIVE
 70
0
 10
0.0
 20
0.0
 11
1.0
 21
1.0
 12
7560299.480
 22
5714632.890
 13
0.0
 23
0.0
 14
1.0
 24
1.0
 15
0.0
 25
0.0
 16
0.0
 26
0.0
 36
1.0
 17
0.0
 27
0.0
 37
0.0
 40
153.920
 41
0.844
 42
50.0
 43
0.0
 44
0.0
 50
0.0
 51
0.0
 71
0
 72
100
 73
1
 74
1
 75
0
 76
0
 77
0
 78
0
  0
ENDTAB
  0
TABLE
  2
LTYPE
  5
3
100
AcDbSymbolTable
 70
3
  0
LTYPE
  5
4
100
AcDbSymbolTableRecord
100
AcDbLinetypeTableRecord
  2
ByBlock
 70
0
  3

 72
65
 73
0
 40
0.0
  0
LTYPE
  5
5
100
AcDbSymbolTableRecord
100
AcDbLinetypeTableRecord
  2
ByLayer
 70
0
  3

 72
65
 73
0
 40
0.0
  0
LTYPE
  5
6
100
AcDbSymbolTableRecord
100
AcDbLinetypeTableRecord
  2
CONTINUOUS
 70
0
  3
Solid line
 72
65
 73
0
 40
0.0
  0
LTYPE
  5
7
100
AcDbSymbolTableRecord
100
AcDbLinetypeTableRecord
  2
L_0_07
 70
0
  3
Granica_obwodu_spisowego
 72
65
 73
6
 40
1.125
 49
0.375
 74
0
 49
-0.25
 74
0
 49
0.0
 74
0
 49
-0.25
 74
0
 49
0.0
 74
0
 49
-0.25
 74
0
  0
ENDTAB
  0
TABLE
  2
LAYER
  5
8
100
AcDbSymbolTable
 70
5
  0
LAYER
  5
9
100
AcDbSymbolTableRecord
100
AcDbLayerTableRecord
  2
0
 70
0
420
0
  6
CONTINUOUS
370
18
390
A
  0
LAYER
  5
B
100
AcDbSymbolTableRecord
100
AcDbLayerTableRecord
  2
budynek_obrys
 70
0
420
0
  6
CONTINUOUS
370
35
390
A
  0
LAYER
  5
C
100
AcDbSymbolTableRecord
100
AcDbLayerTableRecord
  2
dzialki
 70
0
420
32768
  6
CONTINUOUS
370
35
390
A
  0
LAYER
  5
D
100
AcDbSymbolTableRecord
100
AcDbLayerTableRecord
  2
Numery_dzialek
 70
0
420
0
  6
CONTINUOUS
370
13
390
A
  0
LAYER
  5
E
100
AcDbSymbolTableRecord
100
AcDbLayerTableRecord
  2
osie_glowne
 70
0
420
16711680
  6
L_0_07
370
18
390
A
  0
ENDTAB
  0
TABLE
  2
STYLE
  5
F
100
AcDbSymbolTable
 70
2
  0
STYLE
  5
10
100
AcDbSymbolTableRecord
100
AcDbTextStyleTableRecord
  2
STANDARD
 70
0
 40
0.0
 41
1.0
 50
0.0
 71
0
  3
simplex.shx
  4

  0
STYLE
  5
11
100
AcDbSymbolTableRecord
100
AcDbTextStyleTableRecord
  2
STANDARD_ITALIC
 70
0
 40
0.0
 41
1.0
 50
15.0
 71
0
  3
simplex.shx
  4

  0
ENDTAB
  0
TABLE
  2
VIEW
  5
12
100
AcDbSymbolTable
 70
0
  0
ENDTAB
  0
TABLE
  2
UCS
  5
13
100
AcDbSymbolTable
 70
0
  0
ENDTAB
  0
TABLE
  2
APPID
  5
14
100
AcDbSymbolTable
 70
1
  0
APPID
  5
15
100
AcDbSymbolTableRecord
100
AcDbRegAppTableRecord
  2
ACAD
 70
0
  0
ENDTAB
  0
TABLE
  2
DIMSTYLE
  5
16
100
AcDbSymbolTable
 70
1
100
AcDbDimStyleTable
  0
DIMSTYLE
105
17
100
AcDbSymbolTableRecord
100
AcDbDimStyleTableRecord
  2
Standard
 70
0
340
10
  0
ENDTAB
  0
TABLE
  2
BLOCK_RECORD
  5
18
100
AcDbSymbolTable
 70
4
  0
BLOCK_RECORD
  5
19
100
AcDbSymbolTableRecord
100
AcDbBlockTableRecord
  2
*Model_Space
340
1A
  0
BLOCK_RECORD
  5
1B
100
AcDbSymbolTableRecord
100
AcDbBlockTableRecord
  2
*Paper_Space
340
1C
  0
BLOCK_RECORD
  5
1D
100
AcDbSymbolTableRecord
100
AcDbBlockTableRecord
  2
GRT
340
1E
  0
BLOCK_RECORD
  5
1F
100
AcDbSymbolTableRecord
100
AcDbBlockTableRecord
  2
GRO
340
20
  0
ENDTAB
  0
ENDSEC
  0
SECTION
  2
BLOCKS
  0
BLOCK
  5
21
100
AcDbEntity
  8
0
100
AcDbBlockBegin
  2
*Model_Space
 70
0
 10
0.0
 20
0.0
 30
0.0
  3
*Model_Space
  1

  0
ENDBLK
  5
22
100
AcDbEntity
  8
0
100
AcDbBlockEnd
  0
BLOCK
  5
23
100
AcDbEntity
 67
1
  8
0
100
AcDbBlockBegin
  2
*Paper_Space
 70
0
 10
0.0
 20
0.0
 30
0.0
  3
*Paper_Space
  1

  0
ENDBLK
  5
24
100
AcDbEntity
 67
1
  8
0
100
AcDbBlockEnd
  0
BLOCK
  5
1E
100
AcDbEntity
  8
0
100
AcDbBlockBegin
 62
0
370
13
  2
GRT
 70
0
 10
0
 20
0
 30
0
  3
GRT
  0
HATCH
  5
25
100
AcDbEntity
  8
0
  6
CONTINUOUS
420
16777215
370
18
100
AcDbHatch
 10
0.0
 20
0.0
 30
0.0
210
0.0
220
0.0
230
1.0
  2
SOLID
 70
1
 71
1
 91
1
 92
3
 72
1
 73
1
 93
2
 10
0.0
 20
-0.5
 42
1.0
 10
0.0
 20
0.5
 42
1.0
 97
0
 75
0
 76
1
 98
0
  0
CIRCLE
  5
26
100
AcDbEntity
  8
0
  6
CONTINUOUS
 62
0
370
18
100
AcDbCircle
 10
0.0
 20
-0.0
 40
0.5
  0
ENDBLK
  5
27
100
AcDbEntity
  8
0
100
AcDbBlockEnd
  0
BLOCK
  5
20
100
AcDbEntity
  8
0
100
AcDbBlockBegin
 62
0
370
13
  2
GRO
 70
0
 10
0
 20
0
 30
0
  3
GRO
  0
HATCH
  5
28
100
AcDbEntity
  8
0
  6
CONTINUOUS
 62
0
370
13
100
AcDbHatch
 10
0.0
 20
0.0
 30
0.0
210
0.0
220
0.0
230
1.0
  2
SOLID
 70
1
 71
1
 91
1
 92
3
 72
1
 73
1
 93
2
 10
0.0
 20
-0.1
 42
1.0
 10
0.0
 20
0.1
 42
1.0
 97
0
 75
0
 76
1
 98
0
  0
CIRCLE
  5
29
100
AcDbEntity
  8
0
  6
CONTINUOUS
 62
0
370
13
100
AcDbCircle
 10
0.0
 20
-0.0
 40
0.1
  0
ENDBLK
  5
2A
100
AcDbEntity
  8
0
100
AcDbBlockEnd
  0
ENDSEC
  0
SECTION
  2
ENTITIES
  0
POLYLINE
  5
2B
100
AcDbEntity
  8
budynek_obrys
  6
CONTINUOUS
370
35
100
AcDb3dPolyline
 66
1
 70
137
  0
VERTEX
  5
2C
100
AcDbEntity
  8
budynek_obrys
100
AcDbVertex
100
AcDb3dPolylineVertex
 10
7560289.11159397848
 20
5714593.86387118418
 70
32
  0
VERTEX
  5
2D
100
AcDbEntity
  8
budynek_obrys
100
AcDbVertex
100
AcDb3dPolylineVertex
 10
7560287.40409956593
 20
5714598.6373736104
 70
32
  0
VERTEX
  5
2E
100
AcDbEntity
  8
budynek_obrys
100
AcDbVertex
100
AcDb3dPolylineVertex
 10
7560293.43973539863
 20
5714600.79613228235
 70
32
  0
VERTEX
  5
2F
100
AcDbEntity
  8
budynek_obrys
100
AcDbVertex
100
AcDb3dPolylineVertex
 10
7560291.12939133402
 20
5714607.25497230608
 70
32
  0
VERTEX
  5
30
100
AcDbEntity
  8
budynek_obrys
100
AcDbVertex
100
AcDb3dPolylineVertex
 10
7560281.45890307333
 20
5714603.79614011943
 70
32
  0
VERTEX
  5
31
100
AcDbEntity
  8
budynek_obrys
100
AcDbVertex
100
AcDb3dPolylineVertex
 10
7560281.37794414721
 20
5714604.02247036994
 70
32
  0
VERTEX
  5
32
100
AcDbEntity
  8
budynek_obrys
100
AcDbVertex
100
AcDb3dPolylineVertex
 10
7560280.77529856004
 20
5714603.80692284275
 70
32
  0
VERTEX
  5
33
100
AcDbEntity
  8
budynek_obrys
100
AcDbVertex
100
AcDb3dPolylineVertex
 10
7560281.38151946198
 20
5714602.11216062866
 70
32
  0
VERTEX
  5
34
100
AcDbEntity
  8
budynek_obrys
100
AcDbVertex
100
AcDb3dPolylineVertex
 10
7560279.59201913234
 20
5714601.47211217973
 70
32
  0
VERTEX
  5
35
100
AcDbEntity
  8
budynek_obrys
100
AcDbVertex
100
AcDb3dPolylineVertex
 10
7560279.06675717141
 20
5714602.94054410141
 70
32
  0
VERTEX
  5
36
100
AcDbEntity
  8
budynek_obrys
100
AcDbVertex
100
AcDb3dPolylineVertex
 10
7560278.46521219332
 20
5714602.7253902154
 70
32
  0
VERTEX
  5
37
100
AcDbEntity
  8
budynek_obrys
100
AcDbVertex
100
AcDb3dPolylineVertex
 10
7560278.65381621756
 20
5714602.19812536985
 70
32
  0
VERTEX
  5
38
100
AcDbEntity
  8
budynek_obrys
100
AcDbVertex
100
AcDb3dPolylineVertex
 10
7560271.46034025028
 20
5714599.62524326891
 70
32
  0
VERTEX
  5
39
100
AcDbEntity
  8
budynek_obrys
100
AcDbVertex
100
AcDb3dPolylineVertex
 10
7560275.28957456816
 20
5714588.92016593646
 70
32
  0
SEQEND
  5
3A
100
AcDbEntity
  8
budynek_obrys
  0
POLYLINE
  5
3B
100
AcDbEntity
  8
dzialki
  6
CONTINUOUS
420
536870911
370
18
100
AcDb3dPolyline
 66
1
 70
136
  0
VERTEX
  5
3C
100
AcDbEntity
  8
dzialki
100
AcDbVertex
100
AcDb3dPolylineVertex
 10
7560341.44000000041
 20
5714632.65000000037
 30
0.000
 70
32
  0
VERTEX
  5
3D
100
AcDbEntity
  8
dzialki
100
AcDbVertex
100
AcDb3dPolylineVertex
 10
7560334.3200000003
 20
5714655.76999999862
 30
0.000
 70
32
  0
SEQEND
  5
3E
100
AcDbEntity
  8
dzialki
  0
POLYLINE
  5
3F
100
AcDbEntity
  8
dzialki
  6
CONTINUOUS
420
536870911
370
18
100
AcDb3dPolyline
 66
1
 70
136
  0
VERTEX
  5
40
100
AcDbEntity
  8
dzialki
100
AcDbVertex
100
AcDb3dPolylineVertex
 10
7560334.3200000003
 20
5714655.76999999862
 30
0.000
 70
32
  0
VERTEX
  5
41
100
AcDbEntity
  8
dzialki
100
AcDbVertex
100
AcDb3dPolylineVertex
 10
7560312.76999999955
 20
5714662.45999999996
 30
0.000
 70
32
  0
SEQEND
  5
42
100
AcDbEntity
  8
dzialki
  0
POLYLINE
  5
43
100
AcDbEntity
  8
dzialki
  6
CONTINUOUS
420
536870911
370
18
100
AcDb3dPolyline
 66
1
 70
136
  0
VERTEX
  5
44
100
AcDbEntity
  8
dzialki
100
AcDbVertex
100
AcDb3dPolylineVertex
 10
7560312.76999999955
 20
5714662.45999999996
 30
0.000
 70
32
  0
VERTEX
  5
45
100
AcDbEntity
  8
dzialki
100
AcDbVertex
100
AcDb3dPolylineVertex
 10
7560299.66999999993
 20
5714701.70999999996
 30
0.000
 70
32
  0
SEQEND
  5
46
100
AcDbEntity
  8
dzialki
  0
POLYLINE
  5
47
100
AcDbEntity
  8
dzialki
  6
CONTINUOUS
420
536870911
370
18
100
AcDb3dPolyline
 66
1
 70
136
  0
VERTEX
  5
48
100
AcDbEntity
  8
dzialki
100
AcDbVertex
100
AcDb3dPolylineVertex
 10
7560299.66999999993
 20
5714701.70999999996
 30
0.000
 70
32
  0
VERTEX
  5
49
100
AcDbEntity
  8
dzialki
100
AcDbVertex
100
AcDb3dPolylineVertex
 10
7560242.66000000015
 20
5714680.13999999966
 30
0.000
 70
32
  0
SEQEND
  5
4A
100
AcDbEntity
  8
dzialki
  0
POLYLINE
  5
4B
100
AcDbEntity
  8
dzialki
  6
CONTINUOUS
420
536870911
370
18
100
AcDb3dPolyline
 66
1
 70
136
  0
VERTEX
  5
4C
100
AcDbEntity
  8
dzialki
100
AcDbVertex
100
AcDb3dPolylineVertex
 10
7560242.66000000015
 20
5714680.13999999966
 30
0.000
 70
32
  0
VERTEX
  5
4D
100
AcDbEntity
  8
dzialki
100
AcDbVertex
100
AcDb3dPolylineVertex
 10
7560275.98000000045
 20
5714586.99000000022
 30
0.000
 70
32
  0
SEQEND
  5
4E
100
AcDbEntity
  8
dzialki
  0
POLYLINE
  5
4F
100
AcDbEntity
  8
dzialki
  6
CONTINUOUS
420
536870911
370
18
100
AcDb3dPolyline
 66
1
 70
136
  0
VERTEX
  5
50
100
AcDbEntity
  8
dzialki
100
AcDbVertex
100
AcDb3dPolylineVertex
 10
7560275.98000000045
 20
5714586.99000000022
 30
0.000
 70
32
  0
VERTEX
  5
51
100
AcDbEntity
  8
dzialki
100
AcDbVertex
100
AcDb3dPolylineVertex
 10
7560287.08999999985
 20
5714555.9299999997
 30
0.000
 70
32
  0
SEQEND
  5
52
100
AcDbEntity
  8
dzialki
  0
POLYLINE
  5
53
100
AcDbEntity
  8
dzialki
  6
CONTINUOUS
420
536870911
370
18
100
AcDb3dPolyline
 66
1
 70
136
  0
VERTEX
  5
54
100
AcDbEntity
  8
dzialki
100
AcDbVertex
100
AcDb3dPolylineVertex
 10
7560287.08999999985
 20
5714555.9299999997
 30
0.000
 70
32
  0
VERTEX
  5
55
100
AcDbEntity
  8
dzialki
100
AcDbVertex
100
AcDb3dPolylineVertex
 10
7560364.41999999993
 20
5714586.05999999959
 30
0.000
 70
32
  0
SEQEND
  5
56
100
AcDbEntity
  8
dzialki
  0
POLYLINE
  5
57
100
AcDbEntity
  8
dzialki
  6
CONTINUOUS
420
536870911
370
18
100
AcDb3dPolyline
 66
1
 70
136
  0
VERTEX
  5
58
100
AcDbEntity
  8
dzialki
100
AcDbVertex
100
AcDb3dPolylineVertex
 10
7560364.41999999993
 20
5714586.05999999959
 30
0.000
 70
32
  0
VERTEX
  5
59
100
AcDbEntity
  8
dzialki
100
AcDbVertex
100
AcDb3dPolylineVertex
 10
7560360.54999999981
 20
5714597.16999999993
 30
0.000
 70
32
  0
SEQEND
  5
5A
100
AcDbEntity
  8
dzialki
  0
POLYLINE
  5
5B
100
AcDbEntity
  8
dzialki
  6
CONTINUOUS
420
536870911
370
18
100
AcDb3dPolyline
 66
1
 70
136
  0
VERTEX
  5
5C
100
AcDbEntity
  8
dzialki
100
AcDbVertex
100
AcDb3dPolylineVertex
 10
7560360.54999999981
 20
5714597.16999999993
 30
0.000
 70
32
  0
VERTEX
  5
5D
100
AcDbEntity
  8
dzialki
100
AcDbVertex
100
AcDb3dPolylineVertex
 10
7560358.11000000034
 20
5714597.37999999989
 30
0.000
 70
32
  0
SEQEND
  5
5E
100
AcDbEntity
  8
dzialki
  0
POLYLINE
  5
5F
100
AcDbEntity
  8
dzialki
  6
CONTINUOUS
420
536870911
370
18
100
AcDb3dPolyline
 66
1
 70
136
  0
VERTEX
  5
60
100
AcDbEntity
  8
dzialki
100
AcDbVertex
100
AcDb3dPolylineVertex
 10
7560358.11000000034
 20
5714597.37999999989
 30
0.000
 70
32
  0
VERTEX
  5
61
100
AcDbEntity
  8
dzialki
100
AcDbVertex
100
AcDb3dPolylineVertex
 10
7560352.19000000041
 20
5714614.75
 30
0.000
 70
32
  0
SEQEND
  5
62
100
AcDbEntity
  8
dzialki
  0
POLYLINE
  5
63
100
AcDbEntity
  8
dzialki
  6
CONTINUOUS
420
536870911
370
18
100
AcDb3dPolyline
 66
1
 70
136
  0
VERTEX
  5
64
100
AcDbEntity
  8
dzialki
100
AcDbVertex
100
AcDb3dPolylineVertex
 10
7560352.19000000041
 20
5714614.75
 30
0.000
 70
32
  0
VERTEX
  5
65
100
AcDbEntity
  8
dzialki
100
AcDbVertex
100
AcDb3dPolylineVertex
 10
7560347.87000000011
 20
5714613.5
 30
0.000
 70
32
  0
SEQEND
  5
66
100
AcDbEntity
  8
dzialki
  0
POLYLINE
  5
67
100
AcDbEntity
  8
dzialki
  6
CONTINUOUS
420
536870911
370
18
100
AcDb3dPolyline
 66
1
 70
136
  0
VERTEX
  5
68
100
AcDbEntity
  8
dzialki
100
AcDbVertex
100
AcDb3dPolylineVertex
 10
7560347.87000000011
 20
5714613.5
 30
0.000
 70
32
  0
VERTEX
  5
69
100
AcDbEntity
  8
dzialki
100
AcDbVertex
100
AcDb3dPolylineVertex
 10
7560341.63999999966
 20
5714632.70999999996
 30
0.000
 70
32
  0
SEQEND
  5
6A
100
AcDbEntity
  8
dzialki
  0
POLYLINE
  5
6B
100
AcDbEntity
  8
dzialki
  6
CONTINUOUS
420
536870911
370
18
100
AcDb3dPolyline
 66
1
 70
136
  0
VERTEX
  5
6C
100
AcDbEntity
  8
dzialki
100
AcDbVertex
100
AcDb3dPolylineVertex
 10
7560341.63999999966
 20
5714632.70999999996
 30
0.000
 70
32
  0
VERTEX
  5
6D
100
AcDbEntity
  8
dzialki
100
AcDbVertex
100
AcDb3dPolylineVertex
 10
7560341.44000000041
 20
5714632.65000000037
 30
0.000
 70
32
  0
SEQEND
  5
6E
100
AcDbEntity
  8
dzialki
  0
POLYLINE
  5
6F
100
AcDbEntity
  8
dzialki
  6
CONTINUOUS
420
536870911
370
18
100
AcDb3dPolyline
 66
1
 70
136
  0
VERTEX
  5
70
100
AcDbEntity
  8
dzialki
100
AcDbVertex
100
AcDb3dPolylineVertex
 10
7560354.83000000007
 20
5714613.54000000004
 30
0.000
 70
32
  0
VERTEX
  5
71
100
AcDbEntity
  8
dzialki
100
AcDbVertex
100
AcDb3dPolylineVertex
 10
7560321.19000000041
 20
5714709.84999999963
 70
32
  0
SEQEND
  5
72
100
AcDbEntity
  8
dzialki
  0
POLYLINE
  5
73
100
AcDbEntity
  8
dzialki
  6
CONTINUOUS
420
536870911
370
18
100
AcDb3dPolyline
 66
1
 70
136
  0
VERTEX
  5
74
100
AcDbEntity
  8
dzialki
100
AcDbVertex
100
AcDb3dPolylineVertex
 10
7560321.19000000041
 20
5714709.84999999963
 70
32
  0
VERTEX
  5
75
100
AcDbEntity
  8
dzialki
100
AcDbVertex
100
AcDb3dPolylineVertex
 10
7560299.66999999993
 20
5714701.70999999996
 30
0.000
 70
32
  0
SEQEND
  5
76
100
AcDbEntity
  8
dzialki
  0
POLYLINE
  5
77
100
AcDbEntity
  8
dzialki
  6
CONTINUOUS
420
536870911
370
18
100
AcDb3dPolyline
 66
1
 70
136
  0
VERTEX
  5
78
100
AcDbEntity
  8
dzialki
100
AcDbVertex
100
AcDb3dPolylineVertex
 10
7560360.54999999981
 20
5714597.16999999993
 30
0.000
 70
32
  0
VERTEX
  5
79
100
AcDbEntity
  8
dzialki
100
AcDbVertex
100
AcDb3dPolylineVertex
 10
7560354.83000000007
 20
5714613.54000000004
 30
0.000
 70
32
  0
SEQEND
  5
7A
100
AcDbEntity
  8
dzialki
  0
POLYLINE
  5
7B
100
AcDbEntity
  8
dzialki
  6
CONTINUOUS
420
536870911
370
18
100
AcDb3dPolyline
 66
1
 70
136
  0
VERTEX
  5
7C
100
AcDbEntity
  8
dzialki
100
AcDbVertex
100
AcDb3dPolylineVertex
 10
7560265.95000000019
 20
5714588.86000000034
 30
0.000
 70
32
  0
VERTEX
  5
7D
100
AcDbEntity
  8
dzialki
100
AcDbVertex
100
AcDb3dPolylineVertex
 10
7560234.54000000004
 20
5714677.0700000003
 30
0.000
 70
32
  0
SEQEND
  5
7E
100
AcDbEntity
  8
dzialki
  0
POLYLINE
  5
7F
100
AcDbEntity
  8
dzialki
  6
CONTINUOUS
420
536870911
370
18
100
AcDb3dPolyline
 66
1
 70
136
  0
VERTEX
  5
80
100
AcDbEntity
  8
dzialki
100
AcDbVertex
100
AcDb3dPolylineVertex
 10
7560242.66000000015
 20
5714680.13999999966
 30
0.000
 70
32
  0
VERTEX
  5
81
100
AcDbEntity
  8
dzialki
100
AcDbVertex
100
AcDb3dPolylineVertex
 10
7560234.54000000004
 20
5714677.0700000003
 30
0.000
 70
32
  0
SEQEND
  5
82
100
AcDbEntity
  8
dzialki
  0
POLYLINE
  5
83
100
AcDbEntity
  8
dzialki
  6
CONTINUOUS
420
536870911
370
18
100
AcDb3dPolyline
 66
1
 70
136
  0
VERTEX
  5
84
100
AcDbEntity
  8
dzialki
100
AcDbVertex
100
AcDb3dPolylineVertex
 10
7560265.95000000019
 20
5714588.86000000034
 30
0.000
 70
32
  0
VERTEX
  5
85
100
AcDbEntity
  8
dzialki
100
AcDbVertex
100
AcDb3dPolylineVertex
 10
7560267.66999999993
 20
5714584.00999999978
 30
0.000
 70
32
  0
SEQEND
  5
86
100
AcDbEntity
  8
dzialki
  0
POLYLINE
  5
87
100
AcDbEntity
  8
dzialki
  6
CONTINUOUS
420
536870911
370
18
100
AcDb3dPolyline
 66
1
 70
136
  0
VERTEX
  5
88
100
AcDbEntity
  8
dzialki
100
AcDbVertex
100
AcDb3dPolylineVertex
 10
7560267.66999999993
 20
5714584.00999999978
 30
0.000
 70
32
  0
VERTEX
  5
89
100
AcDbEntity
  8
dzialki
100
AcDbVertex
100
AcDb3dPolylineVertex
 10
7560275.98000000045
 20
5714586.99000000022
 30
0.000
 70
32
  0
SEQEND
  5
8A
100
AcDbEntity
  8
dzialki
  0
POLYLINE
  5
8B
100
AcDbEntity
  8
dzialki
  6
CONTINUOUS
370
35
100
AcDb3dPolyline
 66
1
 70
136
  0
VERTEX
  5
8C
100
AcDbEntity
  8
dzialki
100
AcDbVertex
100
AcDb3dPolylineVertex
 10
7560341.44000000041
 20
5714632.65000000037
 70
32
  0
VERTEX
  5
8D
100
AcDbEntity
  8
dzialki
100
AcDbVertex
100
AcDb3dPolylineVertex
 10
7560334.3200000003
 20
5714655.76999999955
 70
32
  0
SEQEND
  5
8E
100
AcDbEntity
  8
dzialki
  0
POLYLINE
  5
8F
100
AcDbEntity
  8
dzialki
  6
CONTINUOUS
370
35
100
AcDb3dPolyline
 66
1
 70
136
  0
VERTEX
  5
90
100
AcDbEntity
  8
dzialki
100
AcDbVertex
100
AcDb3dPolylineVertex
 10
7560334.3200000003
 20
5714655.76999999955
 70
32
  0
VERTEX
  5
91
100
AcDbEntity
  8
dzialki
100
AcDbVertex
100
AcDb3dPolylineVertex
 10
7560312.76999999955
 20
5714662.45999999996
 70
32
  0
SEQEND
  5
92
100
AcDbEntity
  8
dzialki
  0
POLYLINE
  5
93
100
AcDbEntity
  8
dzialki
  6
CONTINUOUS
370
35
100
AcDb3dPolyline
 66
1
 70
136
  0
VERTEX
  5
94
100
AcDbEntity
  8
dzialki
100
AcDbVertex
100
AcDb3dPolylineVertex
 10
7560312.76999999955
 20
5714662.45999999996
 70
32
  0
VERTEX
  5
95
100
AcDbEntity
  8
dzialki
100
AcDbVertex
100
AcDb3dPolylineVertex
 10
7560299.66999999993
 20
5714701.70999999996
 70
32
  0
SEQEND
  5
96
100
AcDbEntity
  8
dzialki
  0
POLYLINE
  5
97
100
AcDbEntity
  8
dzialki
  6
CONTINUOUS
370
35
100
AcDb3dPolyline
 66
1
 70
136
  0
VERTEX
  5
98
100
AcDbEntity
  8
dzialki
100
AcDbVertex
100
AcDb3dPolylineVertex
 10
7560299.66999999993
 20
5714701.70999999996
 70
32
  0
VERTEX
  5
99
100
AcDbEntity
  8
dzialki
100
AcDbVertex
100
AcDb3dPolylineVertex
 10
7560242.66000000015
 20
5714680.13999999966
 70
32
  0
SEQEND
  5
9A
100
AcDbEntity
  8
dzialki
  0
POLYLINE
  5
9B
100
AcDbEntity
  8
dzialki
  6
CONTINUOUS
370
35
100
AcDb3dPolyline
 66
1
 70
136
  0
VERTEX
  5
9C
100
AcDbEntity
  8
dzialki
100
AcDbVertex
100
AcDb3dPolylineVertex
 10
7560242.66000000015
 20
5714680.13999999966
 70
32
  0
VERTEX
  5
9D
100
AcDbEntity
  8
dzialki
100
AcDbVertex
100
AcDb3dPolylineVertex
 10
7560275.98000000045
 20
5714586.99000000022
 70
32
  0
SEQEND
  5
9E
100
AcDbEntity
  8
dzialki
  0
POLYLINE
  5
9F
100
AcDbEntity
  8
dzialki
  6
CONTINUOUS
370
35
100
AcDb3dPolyline
 66
1
 70
136
  0
VERTEX
  5
A0
100
AcDbEntity
  8
dzialki
100
AcDbVertex
100
AcDb3dPolylineVertex
 10
7560275.98000000045
 20
5714586.99000000022
 70
32
  0
VERTEX
  5
A1
100
AcDbEntity
  8
dzialki
100
AcDbVertex
100
AcDb3dPolylineVertex
 10
7560287.08999999985
 20
5714555.9299999997
 70
32
  0
SEQEND
  5
A2
100
AcDbEntity
  8
dzialki
  0
POLYLINE
  5
A3
100
AcDbEntity
  8
dzialki
  6
CONTINUOUS
370
35
100
AcDb3dPolyline
 66
1
 70
136
  0
VERTEX
  5
A4
100
AcDbEntity
  8
dzialki
100
AcDbVertex
100
AcDb3dPolylineVertex
 10
7560287.08999999985
 20
5714555.9299999997
 70
32
  0
VERTEX
  5
A5
100
AcDbEntity
  8
dzialki
100
AcDbVertex
100
AcDb3dPolylineVertex
 10
7560364.41999999993
 20
5714586.05999999959
 70
32
  0
SEQEND
  5
A6
100
AcDbEntity
  8
dzialki
  0
POLYLINE
  5
A7
100
AcDbEntity
  8
dzialki
  6
CONTINUOUS
370
35
100
AcDb3dPolyline
 66
1
 70
136
  0
VERTEX
  5
A8
100
AcDbEntity
  8
dzialki
100
AcDbVertex
100
AcDb3dPolylineVertex
 10
7560364.41999999993
 20
5714586.05999999959
 70
32
  0
VERTEX
  5
A9
100
AcDbEntity
  8
dzialki
100
AcDbVertex
100
AcDb3dPolylineVertex
 10
7560360.54999999981
 20
5714597.16999999993
 70
32
  0
SEQEND
  5
AA
100
AcDbEntity
  8
dzialki
  0
POLYLINE
  5
AB
100
AcDbEntity
  8
dzialki
  6
CONTINUOUS
370
35
100
AcDb3dPolyline
 66
1
 70
136
  0
VERTEX
  5
AC
100
AcDbEntity
  8
dzialki
100
AcDbVertex
100
AcDb3dPolylineVertex
 10
7560360.54999999981
 20
5714597.16999999993
 70
32
  0
VERTEX
  5
AD
100
AcDbEntity
  8
dzialki
100
AcDbVertex
100
AcDb3dPolylineVertex
 10
7560358.11000000034
 20
5714597.37999999989
 70
32
  0
SEQEND
  5
AE
100
AcDbEntity
  8
dzialki
  0
POLYLINE
  5
AF
100
AcDbEntity
  8
dzialki
  6
CONTINUOUS
370
35
100
AcDb3dPolyline
 66
1
 70
136
  0
VERTEX
  5
B0
100
AcDbEntity
  8
dzialki
100
AcDbVertex
100
AcDb3dPolylineVertex
 10
7560358.11000000034
 20
5714597.37999999989
 70
32
  0
VERTEX
  5
B1
100
AcDbEntity
  8
dzialki
100
AcDbVertex
100
AcDb3dPolylineVertex
 10
7560352.19000000041
 20
5714614.75
 70
32
  0
SEQEND
  5
B2
100
AcDbEntity
  8
dzialki
  0
POLYLINE
  5
B3
100
AcDbEntity
  8
dzialki
  6
CONTINUOUS
370
35
100
AcDb3dPolyline
 66
1
 70
136
  0
VERTEX
  5
B4
100
AcDbEntity
  8
dzialki
100
AcDbVertex
100
AcDb3dPolylineVertex
 10
7560352.19000000041
 20
5714614.75
 70
32
  0
VERTEX
  5
B5
100
AcDbEntity
  8
dzialki
100
AcDbVertex
100
AcDb3dPolylineVertex
 10
7560347.87000000011
 20
5714613.5
 70
32
  0
SEQEND
  5
B6
100
AcDbEntity
  8
dzialki
  0
POLYLINE
  5
B7
100
AcDbEntity
  8
dzialki
  6
CONTINUOUS
370
35
100
AcDb3dPolyline
 66
1
 70
136
  0
VERTEX
  5
B8
100
AcDbEntity
  8
dzialki
100
AcDbVertex
100
AcDb3dPolylineVertex
 10
7560347.87000000011
 20
5714613.5
 70
32
  0
VERTEX
  5
B9
100
AcDbEntity
  8
dzialki
100
AcDbVertex
100
AcDb3dPolylineVertex
 10
7560341.63999999966
 20
5714632.70999999996
 70
32
  0
SEQEND
  5
BA
100
AcDbEntity
  8
dzialki
  0
POLYLINE
  5
BB
100
AcDbEntity
  8
dzialki
  6
CONTINUOUS
370
35
100
AcDb3dPolyline
 66
1
 70
136
  0
VERTEX
  5
BC
100
AcDbEntity
  8
dzialki
100
AcDbVertex
100
AcDb3dPolylineVertex
 10
7560341.63999999966
 20
5714632.70999999996
 70
32
  0
VERTEX
  5
BD
100
AcDbEntity
  8
dzialki
100
AcDbVertex
100
AcDb3dPolylineVertex
 10
7560341.44000000041
 20
5714632.65000000037
 70
32
  0
SEQEND
  5
BE
100
AcDbEntity
  8
dzialki
  0
POLYLINE
  5
BF
100
AcDbEntity
  8
dzialki
  6
CONTINUOUS
370
35
100
AcDb3dPolyline
 66
1
 70
136
  0
VERTEX
  5
C0
100
AcDbEntity
  8
dzialki
100
AcDbVertex
100
AcDb3dPolylineVertex
 10
7560275.98000000045
 20
5714586.99000000022
 70
32
  0
VERTEX
  5
C1
100
AcDbEntity
  8
dzialki
100
AcDbVertex
100
AcDb3dPolylineVertex
 10
7560242.66000000015
 20
5714680.13999999966
 70
32
  0
SEQEND
  5
C2
100
AcDbEntity
  8
dzialki
  0
POLYLINE
  5
C3
100
AcDbEntity
  8
dzialki
  6
CONTINUOUS
370
35
100
AcDb3dPolyline
 66
1
 70
136
  0
VERTEX
  5
C4
100
AcDbEntity
  8
dzialki
100
AcDbVertex
100
AcDb3dPolylineVertex
 10
7560242.66000000015
 20
5714680.13999999966
 70
32
  0
VERTEX
  5
C5
100
AcDbEntity
  8
dzialki
100
AcDbVertex
100
AcDb3dPolylineVertex
 10
7560234.54000000004
 20
5714677.0700000003
 70
32
  0
SEQEND
  5
C6
100
AcDbEntity
  8
dzialki
  0
POLYLINE
  5
C7
100
AcDbEntity
  8
dzialki
  6
CONTINUOUS
370
35
100
AcDb3dPolyline
 66
1
 70
136
  0
VERTEX
  5
C8
100
AcDbEntity
  8
dzialki
100
AcDbVertex
100
AcDb3dPolylineVertex
 10
7560234.54000000004
 20
5714677.0700000003
 70
32
  0
VERTEX
  5
C9
100
AcDbEntity
  8
dzialki
100
AcDbVertex
100
AcDb3dPolylineVertex
 10
7560265.95000000019
 20
5714588.86000000034
 70
32
  0
SEQEND
  5
CA
100
AcDbEntity
  8
dzialki
  0
POLYLINE
  5
CB
100
AcDbEntity
  8
dzialki
  6
CONTINUOUS
370
35
100
AcDb3dPolyline
 66
1
 70
136
  0
VERTEX
  5
CC
100
AcDbEntity
  8
dzialki
100
AcDbVertex
100
AcDb3dPolylineVertex
 10
7560265.95000000019
 20
5714588.86000000034
 70
32
  0
VERTEX
  5
CD
100
AcDbEntity
  8
dzialki
100
AcDbVertex
100
AcDb3dPolylineVertex
 10
7560267.66999999993
 20
5714584.00999999978
 70
32
  0
SEQEND
  5
CE
100
AcDbEntity
  8
dzialki
  0
POLYLINE
  5
CF
100
AcDbEntity
  8
dzialki
  6
CONTINUOUS
370
35
100
AcDb3dPolyline
 66
1
 70
136
  0
VERTEX
  5
D0
100
AcDbEntity
  8
dzialki
100
AcDbVertex
100
AcDb3dPolylineVertex
 10
7560267.66999999993
 20
5714584.00999999978
 70
32
  0
VERTEX
  5
D1
100
AcDbEntity
  8
dzialki
100
AcDbVertex
100
AcDb3dPolylineVertex
 10
7560275.98000000045
 20
5714586.99000000022
 70
32
  0
SEQEND
  5
D2
100
AcDbEntity
  8
dzialki
  0
POLYLINE
  5
D3
100
AcDbEntity
  8
dzialki
  6
CONTINUOUS
370
35
100
AcDb3dPolyline
 66
1
 70
136
  0
VERTEX
  5
D4
100
AcDbEntity
  8
dzialki
100
AcDbVertex
100
AcDb3dPolylineVertex
 10
7560354.83000000007
 20
5714613.54000000004
 70
32
  0
VERTEX
  5
D5
100
AcDbEntity
  8
dzialki
100
AcDbVertex
100
AcDb3dPolylineVertex
 10
7560321.19000000041
 20
5714709.84999999963
 70
32
  0
SEQEND
  5
D6
100
AcDbEntity
  8
dzialki
  0
POLYLINE
  5
D7
100
AcDbEntity
  8
dzialki
  6
CONTINUOUS
370
35
100
AcDb3dPolyline
 66
1
 70
136
  0
VERTEX
  5
D8
100
AcDbEntity
  8
dzialki
100
AcDbVertex
100
AcDb3dPolylineVertex
 10
7560321.19000000041
 20
5714709.84999999963
 70
32
  0
VERTEX
  5
D9
100
AcDbEntity
  8
dzialki
100
AcDbVertex
100
AcDb3dPolylineVertex
 10
7560299.66999999993
 20
5714701.70999999996
 70
32
  0
SEQEND
  5
DA
100
AcDbEntity
  8
dzialki
  0
POLYLINE
  5
DB
100
AcDbEntity
  8
dzialki
  6
CONTINUOUS
370
35
100
AcDb3dPolyline
 66
1
 70
136
  0
VERTEX
  5
DC
100
AcDbEntity
  8
dzialki
100
AcDbVertex
100
AcDb3dPolylineVertex
 10
7560299.66999999993
 20
5714701.70999999996
 70
32
  0
VERTEX
  5
DD
100
AcDbEntity
  8
dzialki
100
AcDbVertex
100
AcDb3dPolylineVertex
 10
7560312.76999999955
 20
5714662.45999999996
 70
32
  0
SEQEND
  5
DE
100
AcDbEntity
  8
dzialki
  0
POLYLINE
  5
DF
100
AcDbEntity
  8
dzialki
  6
CONTINUOUS
370
35
100
AcDb3dPolyline
 66
1
 70
136
  0
VERTEX
  5
E0
100
AcDbEntity
  8
dzialki
100
AcDbVertex
100
AcDb3dPolylineVertex
 10
7560312.76999999955
 20
5714662.45999999996
 70
32
  0
VERTEX
  5
E1
100
AcDbEntity
  8
dzialki
100
AcDbVertex
100
AcDb3dPolylineVertex
 10
7560334.3200000003
 20
5714655.76999999955
 70
32
  0
SEQEND
  5
E2
100
AcDbEntity
  8
dzialki
  0
POLYLINE
  5
E3
100
AcDbEntity
  8
dzialki
  6
CONTINUOUS
370
35
100
AcDb3dPolyline
 66
1
 70
136
  0
VERTEX
  5
E4
100
AcDbEntity
  8
dzialki
100
AcDbVertex
100
AcDb3dPolylineVertex
 10
7560334.3200000003
 20
5714655.76999999955
 70
32
  0
VERTEX
  5
E5
100
AcDbEntity
  8
dzialki
100
AcDbVertex
100
AcDb3dPolylineVertex
 10
7560341.44000000041
 20
5714632.65000000037
 70
32
  0
SEQEND
  5
E6
100
AcDbEntity
  8
dzialki
  0
POLYLINE
  5
E7
100
AcDbEntity
  8
dzialki
  6
CONTINUOUS
370
35
100
AcDb3dPolyline
 66
1
 70
136
  0
VERTEX
  5
E8
100
AcDbEntity
  8
dzialki
100
AcDbVertex
100
AcDb3dPolylineVertex
 10
7560341.44000000041
 20
5714632.65000000037
 70
32
  0
VERTEX
  5
E9
100
AcDbEntity
  8
dzialki
100
AcDbVertex
100
AcDb3dPolylineVertex
 10
7560341.63999999966
 20
5714632.70999999996
 70
32
  0
SEQEND
  5
EA
100
AcDbEntity
  8
dzialki
  0
POLYLINE
  5
EB
100
AcDbEntity
  8
dzialki
  6
CONTINUOUS
370
35
100
AcDb3dPolyline
 66
1
 70
136
  0
VERTEX
  5
EC
100
AcDbEntity
  8
dzialki
100
AcDbVertex
100
AcDb3dPolylineVertex
 10
7560341.63999999966
 20
5714632.70999999996
 70
32
  0
VERTEX
  5
ED
100
AcDbEntity
  8
dzialki
100
AcDbVertex
100
AcDb3dPolylineVertex
 10
7560347.87000000011
 20
5714613.5
 70
32
  0
SEQEND
  5
EE
100
AcDbEntity
  8
dzialki
  0
POLYLINE
  5
EF
100
AcDbEntity
  8
dzialki
  6
CONTINUOUS
370
35
100
AcDb3dPolyline
 66
1
 70
136
  0
VERTEX
  5
F0
100
AcDbEntity
  8
dzialki
100
AcDbVertex
100
AcDb3dPolylineVertex
 10
7560347.87000000011
 20
5714613.5
 70
32
  0
VERTEX
  5
F1
100
AcDbEntity
  8
dzialki
100
AcDbVertex
100
AcDb3dPolylineVertex
 10
7560352.19000000041
 20
5714614.75
 70
32
  0
SEQEND
  5
F2
100
AcDbEntity
  8
dzialki
  0
POLYLINE
  5
F3
100
AcDbEntity
  8
dzialki
  6
CONTINUOUS
370
35
100
AcDb3dPolyline
 66
1
 70
136
  0
VERTEX
  5
F4
100
AcDbEntity
  8
dzialki
100
AcDbVertex
100
AcDb3dPolylineVertex
 10
7560352.19000000041
 20
5714614.75
 70
32
  0
VERTEX
  5
F5
100
AcDbEntity
  8
dzialki
100
AcDbVertex
100
AcDb3dPolylineVertex
 10
7560358.11000000034
 20
5714597.37999999989
 70
32
  0
SEQEND
  5
F6
100
AcDbEntity
  8
dzialki
  0
POLYLINE
  5
F7
100
AcDbEntity
  8
dzialki
  6
CONTINUOUS
370
35
100
AcDb3dPolyline
 66
1
 70
136
  0
VERTEX
  5
F8
100
AcDbEntity
  8
dzialki
100
AcDbVertex
100
AcDb3dPolylineVertex
 10
7560358.11000000034
 20
5714597.37999999989
 70
32
  0
VERTEX
  5
F9
100
AcDbEntity
  8
dzialki
100
AcDbVertex
100
AcDb3dPolylineVertex
 10
7560360.54999999981
 20
5714597.16999999993
 70
32
  0
SEQEND
  5
FA
100
AcDbEntity
  8
dzialki
  0
POLYLINE
  5
FB
100
AcDbEntity
  8
dzialki
  6
CONTINUOUS
370
35
100
AcDb3dPolyline
 66
1
 70
136
  0
VERTEX
  5
FC
100
AcDbEntity
  8
dzialki
100
AcDbVertex
100
AcDb3dPolylineVertex
 10
7560360.54999999981
 20
5714597.16999999993
 70
32
  0
VERTEX
  5
FD
100
AcDbEntity
  8
dzialki
100
AcDbVertex
100
AcDb3dPolylineVertex
 10
7560354.83000000007
 20
5714613.54000000004
 70
32
  0
SEQEND
  5
FE
100
AcDbEntity
  8
dzialki
  0
POLYLINE
  5
FF
100
AcDbEntity
  8
osie_glowne
  6
ByLayer
370
18
100
AcDb3dPolyline
 66
1
 70
136
  0
VERTEX
  5
100
100
AcDbEntity
  8
osie_glowne
100
AcDbVertex
100
AcDb3dPolylineVertex
 10
7560269.4962168606
 20
5714599.17800718546
 70
32
  0
VERTEX
  5
101
100
AcDbEntity
  8
osie_glowne
100
AcDbVertex
100
AcDb3dPolylineVertex
 10
7560293.1198016163
 20
5714607.62742465548
 70
32
  0
SEQEND
  5
102
100
AcDbEntity
  8
osie_glowne
  0
POLYLINE
  5
103
100
AcDbEntity
  8
osie_glowne
  6
ByLayer
370
18
100
AcDb3dPolyline
 66
1
 70
136
  0
VERTEX
  5
104
100
AcDbEntity
  8
osie_glowne
100
AcDbVertex
100
AcDb3dPolylineVertex
 10
7560290.15393971372
 20
5714609.0305589959
 70
32
  0
VERTEX
  5
105
100
AcDbEntity
  8
osie_glowne
100
AcDbVertex
100
AcDb3dPolylineVertex
 10
7560295.53569604829
 20
5714593.98522278387
 70
32
  0
SEQEND
  5
106
100
AcDbEntity
  8
osie_glowne
  0
POLYLINE
  5
107
100
AcDbEntity
  8
osie_glowne
  6
ByLayer
370
18
100
AcDb3dPolyline
 66
1
 70
136
  0
VERTEX
  5
108
100
AcDbEntity
  8
osie_glowne
100
AcDbVertex
100
AcDb3dPolylineVertex
 10
7560273.28034975752
 20
5714588.54106329475
 70
32
  0
VERTEX
  5
109
100
AcDbEntity
  8
osie_glowne
100
AcDbVertex
100
AcDb3dPolylineVertex
 10
7560275.18223181833
 20
5714589.22130718362
 70
32
  0
VERTEX
  5
10A
100
AcDbEntity
  8
osie_glowne
100
AcDbVertex
100
AcDb3dPolylineVertex
 10
7560296.92231247481
 20
5714596.99705591332
 70
32
  0
SEQEND
  5
10B
100
AcDbEntity
  8
osie_glowne
  0
POLYLINE
  5
10C
100
AcDbEntity
  8
osie_glowne
  6
ByLayer
370
18
100
AcDb3dPolyline
 66
1
 70
136
  0
VERTEX
  5
10D
100
AcDbEntity
  8
osie_glowne
100
AcDbVertex
100
AcDb3dPolylineVertex
 10
7560271.59113225527
 20
5714593.32142348122
 70
32
  0
VERTEX
  5
10E
100
AcDbEntity
  8
osie_glowne
100
AcDbVertex
100
AcDb3dPolylineVertex
 10
7560295.21471638232
 20
5714601.77084270958
 70
32
  0
SEQEND
  5
10F
100
AcDbEntity
  8
osie_glowne
  0
POLYLINE
  5
110
100
AcDbEntity
  8
osie_glowne
  6
ByLayer
370
18
100
AcDb3dPolyline
 66
1
 70
136
  0
VERTEX
  5
111
100
AcDbEntity
  8
osie_glowne
100
AcDbVertex
100
AcDb3dPolylineVertex
 10
7560270.89930973854
 20
5714602.14377844892
 70
32
  0
VERTEX
  5
112
100
AcDbEntity
  8
osie_glowne
100
AcDbVertex
100
AcDb3dPolylineVertex
 10
7560276.28130395245
 20
5714587.0977772167
 70
32
  0
SEQEND
  5
113
100
AcDbEntity
  8
osie_glowne
  0
POLYLINE
  5
114
100
AcDbEntity
  8
osie_glowne
  6
ByLayer
370
18
100
AcDb3dPolyline
 66
1
 70
136
  0
VERTEX
  5
115
100
AcDbEntity
  8
osie_glowne
100
AcDbVertex
100
AcDb3dPolylineVertex
 10
7560278.09281993471
 20
5714604.71667266451
 70
32
  0
VERTEX
  5
116
100
AcDbEntity
  8
osie_glowne
100
AcDbVertex
100
AcDb3dPolylineVertex
 10
7560283.47463186178
 20
5714589.67118103709
 70
32
  0
SEQEND
  5
117
100
AcDbEntity
  8
osie_glowne
  0
POLYLINE
  5
118
100
AcDbEntity
  8
osie_glowne
  6
ByLayer
370
18
100
AcDb3dPolyline
 66
1
 70
136
  0
VERTEX
  5
119
100
AcDbEntity
  8
osie_glowne
100
AcDbVertex
100
AcDb3dPolylineVertex
 10
7560280.48459980823
 20
5714605.57248253096
 70
32
  0
VERTEX
  5
11A
100
AcDbEntity
  8
osie_glowne
100
AcDbVertex
100
AcDb3dPolylineVertex
 10
7560285.86659980752
 20
5714590.52648253087
 70
32
  0
SEQEND
  5
11B
100
AcDbEntity
  8
osie_glowne
  0
POLYLINE
  5
11C
100
AcDbEntity
  8
osie_glowne
  6
ByLayer
370
18
100
AcDb3dPolyline
 66
1
 70
136
  0
VERTEX
  5
11D
100
AcDbEntity
  8
osie_glowne
100
AcDbVertex
100
AcDb3dPolylineVertex
 10
7560284.11947844829
 20
5714606.87206400372
 70
32
  0
VERTEX
  5
11E
100
AcDbEntity
  8
osie_glowne
100
AcDbVertex
100
AcDb3dPolylineVertex
 10
7560289.50147844758
 20
5714591.82606400363
 70
32
  0
SEQEND
  5
11F
100
AcDbEntity
  8
osie_glowne
  0
POLYLINE
  5
120
100
AcDbEntity
  8
osie_glowne
  6
ByLayer
370
18
100
AcDb3dPolyline
 66
1
 70
136
  0
VERTEX
  5
121
100
AcDbEntity
  8
osie_glowne
100
AcDbVertex
100
AcDb3dPolylineVertex
 10
7560271.45628366619
 20
5714593.69763179589
 70
32
  0
VERTEX
  5
122
100
AcDbEntity
  8
osie_glowne
100
AcDbVertex
100
AcDb3dPolylineVertex
 10
7560295.08028366603
 20
5714602.14763179515
 70
32
  0
SEQEND
  5
123
100
AcDbEntity
  8
osie_glowne
  0
POLYLINE
  5
124
100
AcDbEntity
  8
osie_glowne
  6
ByLayer
370
18
100
AcDb3dPolyline
 66
1
 70
136
  0
VERTEX
  5
125
100
AcDbEntity
  8
osie_glowne
100
AcDbVertex
100
AcDb3dPolylineVertex
 10
7560269.68458307907
 20
5714598.65070840903
 70
32
  0
VERTEX
  5
126
100
AcDbEntity
  8
osie_glowne
100
AcDbVertex
100
AcDb3dPolylineVertex
 10
7560293.30858307891
 20
5714607.09970840905
 70
32
  0
SEQEND
  5
127
100
AcDbEntity
  8
osie_glowne
  0
POLYLINE
  5
128
100
AcDbEntity
  8
osie_glowne
  6
ByLayer
370
18
100
AcDb3dPolyline
 66
1
 70
136
  0
VERTEX
  5
129
100
AcDbEntity
  8
osie_glowne
100
AcDbVertex
100
AcDb3dPolylineVertex
 10
7560270.0217554979
 20
5714597.70940787252
 70
32
  0
VERTEX
  5
12A
100
AcDbEntity
  8
osie_glowne
100
AcDbVertex
100
AcDb3dPolylineVertex
 10
7560293.64575549867
 20
5714606.15840787254
 70
32
  0
SEQEND
  5
12B
100
AcDbEntity
  8
osie_glowne
  0
POINT
  5
12C
100
AcDbEntity
  8
budynek_obrys
100
AcDbPoint
 62
0
 10
7560275.28957456816
 20
5714588.92016593646
  0
POINT
  5
12D
100
AcDbEntity
  8
budynek_obrys
100
AcDbPoint
 62
0
 10
7560289.11159397848
 20
5714593.86387118418
  0
POINT
  5
12E
100
AcDbEntity
  8
budynek_obrys
100
AcDbPoint
 62
0
 10
7560287.40409956593
 20
5714598.6373736104
  0
POINT
  5
12F
100
AcDbEntity
  8
budynek_obrys
100
AcDbPoint
 62
0
 10
7560293.43973539863
 20
5714600.79613228235
  0
POINT
  5
130
100
AcDbEntity
  8
budynek_obrys
100
AcDbPoint
 62
0
 10
7560291.12939133402
 20
5714607.25497230608
  0
POINT
  5
131
100
AcDbEntity
  8
budynek_obrys
100
AcDbPoint
 62
0
 10
7560281.45890307333
 20
5714603.79614011943
  0
POINT
  5
132
100
AcDbEntity
  8
budynek_obrys
100
AcDbPoint
 62
0
 10
7560281.37794414721
 20
5714604.02247036994
  0
POINT
  5
133
100
AcDbEntity
  8
budynek_obrys
100
AcDbPoint
 62
0
 10
7560280.77529856004
 20
5714603.80692284275
  0
POINT
  5
134
100
AcDbEntity
  8
budynek_obrys
100
AcDbPoint
 62
0
 10
7560281.38151946198
 20
5714602.11216062866
  0
POINT
  5
135
100
AcDbEntity
  8
budynek_obrys
100
AcDbPoint
 62
0
 10
7560279.59201913234
 20
5714601.47211217973
  0
POINT
  5
136
100
AcDbEntity
  8
budynek_obrys
100
AcDbPoint
 62
0
 10
7560279.06675717141
 20
5714602.94054410141
  0
POINT
  5
137
100
AcDbEntity
  8
budynek_obrys
100
AcDbPoint
 62
0
 10
7560278.46521219332
 20
5714602.7253902154
  0
POINT
  5
138
100
AcDbEntity
  8
budynek_obrys
100
AcDbPoint
 62
0
 10
7560278.65381621756
 20
5714602.19812536985
  0
POINT
  5
139
100
AcDbEntity
  8
budynek_obrys
100
AcDbPoint
 62
0
 10
7560271.46034025028
 20
5714599.62524326891
  0
TEXT
  5
13A
100
AcDbEntity
  8
budynek_obrys
370
15
100
AcDbText
 39
0.15
 10
7560288.10387300048
 20
5714596.89294719044
 40
0.38
  1
-5.069-
 50
-70.00
 41
0.66
  7
STANDARD
 72
1
 11
7560288.2108621411
 21
5714596.23352138978
100
AcDbText
 73
1
  0
TEXT
  5
13B
100
AcDbEntity
  8
budynek_obrys
370
15
100
AcDbText
 39
0.15
 10
7560289.77959268913
 20
5714599.56277917419
 40
0.38
  1
-6.411-
 50
-340.00
 41
0.66
  7
STANDARD
 72
1
 11
7560290.43901848979
 21
5714599.66976831481
100
AcDbText
 73
1
  0
TEXT
  5
13C
100
AcDbEntity
  8
budynek_obrys
370
15
100
AcDbText
 39
0.15
 10
7560292.13058959413
 20
5714604.66787708737
 40
0.38
  1
-6.860-
 50
-70.00
 41
0.66
  7
STANDARD
 72
1
 11
7560292.23757873476
 21
5714604.0084512867
100
AcDbText
 73
1
  0
TEXT
  5
13D
100
AcDbEntity
  8
budynek_obrys
370
15
100
AcDbText
 39
0.15
 10
7560285.56372622773
 20
5714605.33951805159
 40
0.38
  1
-10.270-
 50
-340.00
 41
0.66
  7
STANDARD
 72
1
 11
7560286.31124821119
 21
5714605.47857158072
100
AcDbText
 73
1
  0
TEXT
  5
13E
100
AcDbEntity
  8
budynek_obrys
370
15
100
AcDbText
 39
0.15
 10
7560281.7155492818
 20
5714604.5966732828
 40
0.38
  1
-0.240-
 50
-70.00
 41
0.66
  7
STANDARD
 72
1
 11
7560281.82253842242
 21
5714603.93724748213
100
AcDbText
 73
1
  0
TEXT
  5
13F
100
AcDbEntity
  8
budynek_obrys
370
15
100
AcDbText
 39
0.15
 10
7560280.43429656047
 20
5714603.76072283369
 40
0.38
  1
-0.640-
 50
-340.00
 41
0.66
  7
STANDARD
 72
1
 11
7560281.09372236114
 21
5714603.86771197431
100
AcDbText
 73
1
  0
TEXT
  5
140
100
AcDbEntity
  8
budynek_obrys
370
15
100
AcDbText
 39
0.15
 10
7560280.92443523835
 20
5714603.60186652932
 40
0.38
  1
-1.800-
 50
-70.00
 41
0.66
  7
STANDARD
 72
1
 11
7560281.03142437898
 21
5714602.94244072866
100
AcDbText
 73
1
  0
TEXT
  5
141
100
AcDbEntity
  8
budynek_obrys
370
15
100
AcDbText
 39
0.15
 10
7560279.84444450401
 20
5714601.63816263247
 40
0.38
  1
-1.901-
 50
-340.00
 41
0.66
  7
STANDARD
 72
1
 11
7560280.50387030467
 21
5714601.7451517731
100
AcDbText
 73
1
  0
TEXT
  5
142
100
AcDbEntity
  8
budynek_obrys
370
15
100
AcDbText
 39
0.15
 10
7560279.27554928139
 20
5714602.8466732828
 40
0.38
  1
-1.560-
 50
-70.00
 41
0.66
  7
STANDARD
 72
1
 11
7560279.38253842201
 21
5714602.18724748213
100
AcDbText
 73
1
  0
TEXT
  5
143
100
AcDbEntity
  8
budynek_obrys
370
15
100
AcDbText
 39
0.15
 10
7560278.12365988921
 20
5714602.67899338622
 40
0.38
  1
-0.640-
 50
-340.00
 41
0.66
  7
STANDARD
 72
1
 11
7560278.78308568988
 21
5714602.78598252684
100
AcDbText
 73
1
  0
TEXT
  5
144
100
AcDbEntity
  8
budynek_obrys
370
15
100
AcDbText
 39
0.15
 10
7560277.86554928124
 20
5714602.55667328276
 40
0.38
  1
-0.560-
 50
-70.00
 41
0.66
  7
STANDARD
 72
1
 11
7560277.97253842186
 21
5714601.89724748209
100
AcDbText
 73
1
  0
TEXT
  5
145
100
AcDbEntity
  8
budynek_obrys
370
15
100
AcDbText
 39
0.15
 10
7560274.41475344077
 20
5714600.75771054719
 40
0.38
  1
-7.640-
 50
-340.00
 41
0.66
  7
STANDARD
 72
1
 11
7560275.07417924143
 21
5714600.86469968781
100
AcDbText
 73
1
  0
TEXT
  5
146
100
AcDbEntity
  8
budynek_obrys
370
15
100
AcDbText
 39
0.15
 10
7560272.63648489304
 20
5714594.65676946566
 40
0.38
  1
-11.370-
 50
-70.00
 41
0.66
  7
STANDARD
 72
1
 11
7560272.77553842217
 21
5714593.9092474822
100
AcDbText
 73
1
  0
TEXT
  5
147
100
AcDbEntity
  8
budynek_obrys
370
15
100
AcDbText
 39
0.15
 10
7560281.47016329784
 20
5714591.20598039962
 40
0.38
  1
-14.680-
 50
-340.00
 41
0.66
  7
STANDARD
 72
1
 11
7560282.2176852813
 21
5714591.34503392875
100
AcDbText
 73
1
  0
TEXT
  5
148
100
AcDbEntity
  8
budynek_obrys
370
5
100
AcDbText
 39
0.05
 10
7560282.97165849991
 20
5714598.17982276995
 40
0.13
  1
-24.230-
 50
-9.80
 41
0.66
  7
STANDARD
 72
1
 11
7560283.21091841254
 21
5714598.09621173236
100
AcDbText
 73
1
  0
TEXT
  5
149
100
AcDbEntity
  8
budynek_obrys
370
5
100
AcDbText
 39
0.05
 10
7560283.62564484868
 20
5714598.72175123636
 40
0.13
  1
-24.229-
 50
-310.80
 41
0.66
  7
STANDARD
 72
1
 11
7560283.82054146007
 21
5714598.88377414178
100
AcDbText
 73
1
  0
TEXT
  5
14A
100
AcDbEntity
  8
Numery_dzialek
370
25
100
AcDbText
 39
0.25
 10
7560294.03539960086
 20
5714633.39569875505
 40
0.63
  1
442/5
 50
0.00
 41
0.66
  7
STANDARD
 72
0
 11
7560294.03539960086
 21
5714634.02069875505
100
AcDbText
 73
3
  0
TEXT
  5
14B
100
AcDbEntity
  8
Numery_dzialek
370
25
100
AcDbText
 39
0.25
 10
7560315.70395130012
 20
5714675.29211669788
 40
0.63
  1
442/6
 50
0.00
 41
0.66
  7
STANDARD
 72
0
 11
7560315.70395130012
 21
5714675.91711669788
100
AcDbText
 73
3
  0
TEXT
  5
14C
100
AcDbEntity
  8
Numery_dzialek
370
25
100
AcDbText
 39
0.25
 10
7560253.81618811376
 20
5714629.72889000643
 40
0.63
  1
442/18
 50
0.00
 41
0.66
  7
STANDARD
 72
0
 11
7560253.81618811376
 21
5714630.35389000643
100
AcDbText
 73
3
  0
TEXT
  5
14D
100
AcDbEntity
  8
Numery_dzialek
370
25
100
AcDbText
 39
0.25
 10
7560368.83345780335
 20
5714606.55948555935
 40
0.63
  1
442/8
 50
0.00
 41
0.66
  7
STANDARD
 72
0
 11
7560368.83345780335
 21
5714607.18448555935
100
AcDbText
 73
3
  0
TEXT
  5
14E
100
AcDbEntity
  8
Numery_dzialek
370
25
100
AcDbText
 39
0.25
 10
7560241.88386723679
 20
5714627.77899294067
 40
0.63
  1
442/11
 50
0.00
 41
0.66
  7
STANDARD
 72
0
 11
7560241.88386723679
 21
5714628.40399294067
100
AcDbText
 73
3
  0
TEXT
  5
14F
100
AcDbEntity
  8
Numery_dzialek
370
25
100
AcDbText
 39
0.25
 10
7560255.92855510954
 20
5714578.98252968024
 40
0.63
  1
442/19
 50
0.00
 41
0.66
  7
STANDARD
 72
0
 11
7560255.92855510954
 21
5714579.60752968024
100
AcDbText
 73
3
  0
TEXT
  5
150
100
AcDbEntity
  8
Numery_dzialek
370
25
100
AcDbText
 39
0.25
 10
7560259.70450394135
 20
5714577.72199166659
 40
0.63
  1
442/20
 50
0.00
 41
0.66
  7
STANDARD
 72
0
 11
7560259.70450394135
 21
5714578.34699166659
100
AcDbText
 73
3
  0
TEXT
  5
151
100
AcDbEntity
  8
Numery_dzialek
370
25
100
AcDbText
 39
0.25
 10
7560294.59056329075
 20
5714548.4296391923
 40
0.63
  1
442/21
 50
0.00
 41
0.66
  7
STANDARD
 72
0
 11
7560294.59056329075
 21
5714549.0546391923
100
AcDbText
 73
3
  0
TEXT
  5
152
100
AcDbEntity
  8
Numery_dzialek
370
25
100
AcDbText
 39
0.25
 10
7560358.7725139847
 20
5714624.66934341192
 40
0.63
  1
442/10
 50
0.00
 41
0.66
  7
STANDARD
 72
0
 11
7560358.7725139847
 21
5714625.29434341192
100
AcDbText
 73
3
  0
TEXT
  5
153
100
AcDbEntity
  8
Numery_dzialek
370
25
100
AcDbText
 39
0.25
 10
7560261.86220935173
 20
5714697.60039280728
 40
0.63
  1
4292/2
 50
0.00
 41
0.66
  7
STANDARD
 72
0
 11
7560261.86220935173
 21
5714698.22539280728
100
AcDbText
 73
3
  0
TEXT
  5
154
100
AcDbEntity
  8
osie_glowne
370
9
100
AcDbText
 39
0.09
 10
7560278.65125187393
 20
5714590.51509435102
 40
0.25
  1
-7.640-
 50
-340.30
 41
0.66
  7
STANDARD
 72
1
 11
7560279.09123650845
 21
5714590.58411764819
100
AcDbText
 73
1
  0
TEXT
  5
155
100
AcDbEntity
  8
osie_glowne
370
9
100
AcDbText
 39
0.09
 10
7560283.44425187353
 20
5714592.22909435164
 40
0.25
  1
-2.540-
 50
-340.30
 41
0.66
  7
STANDARD
 72
1
 11
7560283.88423650805
 21
5714592.29811764881
100
AcDbText
 73
1
  0
TEXT
  5
156
100
AcDbEntity
  8
osie_glowne
370
9
100
AcDbText
 39
0.09
 10
7560286.4572518738
 20
5714593.30659435131
 40
0.25
  1
-3.860-
 50
-340.30
 41
0.66
  7
STANDARD
 72
1
 11
7560286.89723650832
 21
5714593.37561764847
100
AcDbText
 73
1
  0
TEXT
  5
157
100
AcDbEntity
  8
osie_glowne
370
9
100
AcDbText
 39
0.09
 10
7560274.56252082437
 20
5714592.09189336281
 40
0.25
  1
-5.070-
 50
-70.30
 41
0.66
  7
STANDARD
 72
1
 11
7560274.63154412154
 21
5714591.65190872829
100
AcDbText
 73
1
  0
TEXT
  5
158
100
AcDbEntity
  8
osie_glowne
370
9
100
AcDbText
 39
0.09
 10
7560273.73180215992
 20
5714594.74163533654
 40
0.25
  1
-0.400-
 50
-70.20
 41
0.66
  7
STANDARD
 72
1
 11
7560273.80159326922
 21
5714594.30177184008
100
AcDbText
 73
1
  0
TEXT
  5
159
100
AcDbEntity
  8
osie_glowne
370
9
100
AcDbText
 39
0.09
 10
7560272.82309435122
 20
5714596.91374812648
 40
0.25
  1
-4.261-
 50
-70.30
 41
0.66
  7
STANDARD
 72
1
 11
7560272.89211764839
 21
5714596.47376349196
100
AcDbText
 73
1
  0
TEXT
  5
15A
100
AcDbEntity
  8
osie_glowne
370
9
100
AcDbText
 39
0.09
 10
7560271.93709435128
 20
5714599.39024812635
 40
0.25
  1
-1.000-
 50
-70.30
 41
0.66
  7
STANDARD
 72
1
 11
7560272.00611764844
 21
5714598.95026349183
100
AcDbText
 73
1
  0
TEXT
  5
15B
100
AcDbEntity
  8
osie_glowne
370
9
100
AcDbText
 39
0.09
 10
7560271.63423993904
 20
5714600.2431501355
 40
0.25
  1
-0.560-
 50
-70.40
 41
0.66
  7
STANDARD
 72
1
 11
7560271.70249521267
 21
5714599.8030457031
100
AcDbText
 73
1
  0
TEXT
  5
15C
100
AcDbEntity
  8
osie_glowne
370
18
100
AcDbText
 39
0.18
 10
7560270.40000000037
 20
5714602.99000000022
 40
0.45
  1
5
 50
0.00
 41
0.66
 51
15.00
  7
STANDARD
 72
0
 11
7560270.40000000037
 21
5714603.44000000041
100
AcDbText
 73
3
  0
TEXT
  5
15D
100
AcDbEntity
  8
osie_glowne
370
18
100
AcDbText
 39
0.18
 10
7560276.25
 20
5714586.04999999981
 40
0.45
  1
5
 50
0.00
 41
0.66
 51
15.00
  7
STANDARD
 72
0
 11
7560276.25
 21
5714586.5
100
AcDbText
 73
3
  0
TEXT
  5
15E
100
AcDbEntity
  8
osie_glowne
370
18
100
AcDbText
 39
0.18
 10
7560277.48000000045
 20
5714605.58000000007
 40
0.45
  1
4
 50
0.00
 41
0.66
 51
15.00
  7
STANDARD
 72
0
 11
7560277.48000000045
 21
5714606.03000000026
100
AcDbText
 73
3
  0
TEXT
  5
15F
100
AcDbEntity
  8
osie_glowne
370
18
100
AcDbText
 39
0.18
 10
7560283.40000000037
 20
5714588.90000000037
 40
0.45
  1
4
 50
0.00
 41
0.66
 51
15.00
  7
STANDARD
 72
0
 11
7560283.40000000037
 21
5714589.35000000056
100
AcDbText
 73
3
  0
TEXT
  5
160
100
AcDbEntity
  8
osie_glowne
370
18
100
AcDbText
 39
0.18
 10
7560279.91000000015
 20
5714606.41999999993
 40
0.45
  1
3
 50
0.00
 41
0.66
 51
15.00
  7
STANDARD
 72
0
 11
7560279.91000000015
 21
5714606.87000000011
100
AcDbText
 73
3
  0
TEXT
  5
161
100
AcDbEntity
  8
osie_glowne
370
18
100
AcDbText
 39
0.18
 10
7560285.77000000048
 20
5714589.59999999963
 40
0.45
  1
3
 50
0.00
 41
0.66
 51
15.00
  7
STANDARD
 72
0
 11
7560285.77000000048
 21
5714590.04999999981
100
AcDbText
 73
3
  0
TEXT
  5
162
100
AcDbEntity
  8
osie_glowne
370
18
100
AcDbText
 39
0.18
 10
7560283.66999999993
 20
5714607.65000000037
 40
0.45
  1
2
 50
0.00
 41
0.66
 51
15.00
  7
STANDARD
 72
0
 11
7560283.66999999993
 21
5714608.10000000056
100
AcDbText
 73
3
  0
TEXT
  5
163
100
AcDbEntity
  8
osie_glowne
370
18
100
AcDbText
 39
0.18
 10
7560289.44000000041
 20
5714590.84999999963
 40
0.45
  1
2
 50
0.00
 41
0.66
 51
15.00
  7
STANDARD
 72
0
 11
7560289.44000000041
 21
5714591.29999999981
100
AcDbText
 73
3
  0
TEXT
  5
164
100
AcDbEntity
  8
osie_glowne
370
18
100
AcDbText
 39
0.18
 10
7560289.66999999993
 20
5714609.90000000037
 40
0.45
  1
1
 50
0.00
 41
0.66
 51
15.00
  7
STANDARD
 72
0
 11
7560289.66999999993
 21
5714610.35000000056
100
AcDbText
 73
3
  0
TEXT
  5
165
100
AcDbEntity
  8
osie_glowne
370
18
100
AcDbText
 39
0.18
 10
7560295.46999999974
 20
5714593.05999999959
 40
0.45
  1
1
 50
0.00
 41
0.66
 51
15.00
  7
STANDARD
 72
0
 11
7560295.46999999974
 21
5714593.50999999978
100
AcDbText
 73
3
  0
TEXT
  5
166
100
AcDbEntity
  8
osie_glowne
370
18
100
AcDbText
 39
0.18
 10
7560272.00999999978
 20
5714588.12000000011
 40
0.45
  1
A
 50
0.00
 41
0.66
 51
15.00
  7
STANDARD
 72
0
 11
7560272.00999999978
 21
5714588.5700000003
100
AcDbText
 73
3
  0
TEXT
  5
167
100
AcDbEntity
  8
osie_glowne
370
18
100
AcDbText
 39
0.18
 10
7560297.36000000034
 20
5714597.37999999989
 40
0.45
  1
A
 50
0.00
 41
0.66
 51
15.00
  7
STANDARD
 72
0
 11
7560297.36000000034
 21
5714597.83000000007
100
AcDbText
 73
3
  0
TEXT
  5
168
100
AcDbEntity
  8
osie_glowne
370
18
100
AcDbText
 39
0.18
 10
7560270.58999999985
 20
5714592.80999999959
 40
0.45
  1
B
 50
0.00
 41
0.66
 51
15.00
  7
STANDARD
 72
0
 11
7560270.58999999985
 21
5714593.25999999978
100
AcDbText
 73
3
  0
TEXT
  5
169
100
AcDbEntity
  8
osie_glowne
370
18
100
AcDbText
 39
0.18
 10
7560295.79000000004
 20
5714601.68999999948
 40
0.45
  1
B
 50
0.00
 41
0.66
 51
15.00
  7
STANDARD
 72
0
 11
7560295.79000000004
 21
5714602.13999999966
100
AcDbText
 73
3
  0
TEXT
  5
16A
100
AcDbEntity
  8
osie_glowne
370
18
100
AcDbText
 39
0.18
 10
7560270.31000000052
 20
5714593.80999999959
 40
0.45
  1
C
 50
0.00
 41
0.66
 51
15.00
  7
STANDARD
 72
0
 11
7560270.31000000052
 21
5714594.25999999978
100
AcDbText
 73
3
  0
TEXT
  5
16B
100
AcDbEntity
  8
osie_glowne
370
18
100
AcDbText
 39
0.18
 10
7560295.6400000006
 20
5714602.75
 40
0.45
  1
C
 50
0.00
 41
0.66
 51
15.00
  7
STANDARD
 72
0
 11
7560295.6400000006
 21
5714603.20000000019
100
AcDbText
 73
3
  0
TEXT
  5
16C
100
AcDbEntity
  8
osie_glowne
370
18
100
AcDbText
 39
0.18
 10
7560268.91000000015
 20
5714597.38999999966
 40
0.45
  1
D
 50
0.00
 41
0.66
 51
15.00
  7
STANDARD
 72
0
 11
7560268.91000000015
 21
5714597.83999999985
100
AcDbText
 73
3
  0
TEXT
  5
16D
100
AcDbEntity
  8
osie_glowne
370
18
100
AcDbText
 39
0.18
 10
7560294.44000000041
 20
5714606.45999999996
 40
0.45
  1
D
 50
0.00
 41
0.66
 51
15.00
  7
STANDARD
 72
0
 11
7560294.44000000041
 21
5714606.91000000015
100
AcDbText
 73
3
  0
TEXT
  5
16E
100
AcDbEntity
  8
osie_glowne
370
18
100
AcDbText
 39
0.18
 10
7560268.58000000007
 20
5714598.30999999959
 40
0.45
  1
E
 50
0.00
 41
0.66
 51
15.00
  7
STANDARD
 72
0
 11
7560268.58000000007
 21
5714598.75999999978
100
AcDbText
 73
3
  0
TEXT
  5
16F
100
AcDbEntity
  8
osie_glowne
370
18
100
AcDbText
 39
0.18
 10
7560294.12000000011
 20
5714607.40000000037
 40
0.45
  1
E
 50
0.00
 41
0.66
 51
15.00
  7
STANDARD
 72
0
 11
7560294.12000000011
 21
5714607.85000000056
100
AcDbText
 73
3
  0
TEXT
  5
170
100
AcDbEntity
  8
osie_glowne
370
18
100
AcDbText
 39
0.18
 10
7560268.35000000056
 20
5714599.08000000007
 40
0.45
  1
F
 50
0.00
 41
0.66
 51
15.00
  7
STANDARD
 72
0
 11
7560268.35000000056
 21
5714599.53000000026
100
AcDbText
 73
3
  0
TEXT
  5
171
100
AcDbEntity
  8
osie_glowne
370
18
100
AcDbText
 39
0.18
 10
7560293.85000000056
 20
5714608.18999999948
 40
0.45
  1
F
 50
0.00
 41
0.66
 51
15.00
  7
STANDARD
 72
0
 11
7560293.85000000056
 21
5714608.63999999966
100
AcDbText
 73
3
  0
TEXT
  5
172
100
AcDbEntity
  8
osie_glowne
370
9
100
AcDbText
 39
0.09
 10
7560275.37425187416
 20
5714599.67659435235
 40
0.25
  1
-7.640-
 50
-340.30
 41
0.66
  7
STANDARD
 72
1
 11
7560275.81423650868
 21
5714599.74561764952
100
AcDbText
 73
1
  0
TEXT
  5
173
100
AcDbEntity
  8
osie_glowne
370
9
100
AcDbText
 39
0.09
 10
7560280.16725187469
 20
5714601.39059435204
 40
0.25
  1
-2.541-
 50
-340.30
 41
0.66
  7
STANDARD
 72
1
 11
7560280.60723650921
 21
5714601.4596176492
100
AcDbText
 73
1
  0
TEXT
  5
174
100
AcDbEntity
  8
osie_glowne
370
9
100
AcDbText
 39
0.09
 10
7560283.18025187403
 20
5714602.46859435178
 40
0.25
  1
-3.860-
 50
-340.30
 41
0.66
  7
STANDARD
 72
1
 11
7560283.62023650855
 21
5714602.53761764895
100
AcDbText
 73
1
  0
TEXT
  5
175
100
AcDbEntity
  8
osie_glowne
370
9
100
AcDbText
 39
0.09
 10
7560288.01475187391
 20
5714604.19759435207
 40
0.25
  1
-6.409-
 50
-340.30
 41
0.66
  7
STANDARD
 72
1
 11
7560288.45473650843
 21
5714604.26661764923
100
AcDbText
 73
1
  0
TEXT
  5
176
100
AcDbEntity
  8
osie_glowne
370
9
100
AcDbText
 39
0.09
 10
7560289.58425187413
 20
5714599.81009435188
 40
0.25
  1
-6.409-
 50
-340.30
 41
0.66
  7
STANDARD
 72
1
 11
7560290.02423650864
 21
5714599.87911764905
100
AcDbText
 73
1
  0
TEXT
  5
177
100
AcDbEntity
  8
osie_glowne
370
9
100
AcDbText
 39
0.09
 10
7560284.74975187425
 20
5714598.08059435152
 40
0.25
  1
-3.860-
 50
-340.30
 41
0.66
  7
STANDARD
 72
1
 11
7560285.18973650876
 21
5714598.14961764868
100
AcDbText
 73
1
  0
TEXT
  5
178
100
AcDbEntity
  8
osie_glowne
370
9
100
AcDbText
 39
0.09
 10
7560281.73625187296
 20
5714597.00309435185
 40
0.25
  1
-2.540-
 50
-340.30
 41
0.66
  7
STANDARD
 72
1
 11
7560282.17623650748
 21
5714597.07211764902
100
AcDbText
 73
1
  0
TEXT
  5
179
100
AcDbEntity
  8
osie_glowne
370
9
100
AcDbText
 39
0.09
 10
7560276.94375187345
 20
5714595.28909435123
 40
0.25
  1
-7.639-
 50
-340.30
 41
0.66
  7
STANDARD
 72
1
 11
7560277.38373650797
 21
5714595.3581176484
100
AcDbText
 73
1
  0
ENDSEC
  0
SECTION
  2
OBJECTS
  0
DICTIONARY
  5
17A
330
0
100
AcDbDictionary
280
0
281
1
  3
ACAD_GROUP
350
17B
  3
ACAD_LAYOUT
350
17C
  3
ACAD_MLINESTYLE
350
17D
  3
ACAD_PLOTSETTINGS
350
17E
  3
ACAD_PLOTSTYLENAME
350
17F
  0
DICTIONARY
  5
17B
102
{ACAD_REACTORS
330
17A
102
}
330
17A
100
AcDbDictionary
280
0
281
1
  0
DICTIONARY
  5
17C
102
{ACAD_REACTORS
330
17A
102
}
330
17A
100
AcDbDictionary
280
0
281
1
  3
Layout
350
1C
  3
Model
350
1A
  0
DICTIONARY
  5
17D
102
{ACAD_REACTORS
330
17A
102
}
330
17A
100
AcDbDictionary
280
0
281
1
  3
Standard
350
180
  0
DICTIONARY
  5
17E
102
{ACAD_REACTORS
330
17A
102
}
330
17A
100
AcDbDictionary
280
0
281
1
  0
ACDBDICTIONARYWDFLT
  5
17F
102
{ACAD_REACTORS
330
17A
102
}
330
17A
100
AcDbDictionary
281
1
  3
Normal
350
A
100
AcDbDictionaryWithDefault
340
A
  0
LAYOUT
  5
1C
100
AcDbPlotSettings
  1

  2

  4

  6

 40
0.0
 41
0.0
 42
0.0
 43
0.0
 44
0.0
 45
0.0
 46
0.0
 47
0.0
 48
0.0
 49
0.0
140
0.0
141
0.0
142
1.0
143
1.0
 70
688
 72
1
 73
0
 74
5
  7

 75
0
147
1.0
148
0.0
149
0.0
100
AcDbLayout
  1
Layout
 70
1
 71
1
 10
0.0
 20
0.0
 11
420.0
 21
297.0
 12
0.0
 22
0.0
 32
0.0
 14
100000000000000000000.0
 24
100000000000000000000.0
 34
100000000000000000000.0
 15
-100000000000000000000.0
 25
-100000000000000000000.0
 35
-100000000000000000000.0
146
0.0
 13
0.0
 23
0.0
 33
0.0
 16
1.0
 26
0.0
 36
0.0
 17
0.0
 27
1.0
 37
0.0
 76
0
330
1B
  0
LAYOUT
  5
1A
100
AcDbPlotSettings
  1

  2

  4

  6

 40
0.0
 41
0.0
 42
0.0
 43
0.0
 44
0.0
 45
0.0
 46
0.0
 47
0.0
 48
0.0
 49
0.0
140
0.0
141
0.0
142
1.0
143
1.0
 70
1712
 72
1
 73
0
 74
0
  7

 75
0
147
1.0
148
0.0
149
0.0
100
AcDbLayout
  1
Model
 70
1
 71
0
 10
0.0
 20
0.0
 11
12.0
 21
9.0
 12
0.0
 22
0.0
 32
0.0
 14
0.0
 24
0.0
 34
0.0
 15
0.0
 25
0.0
 35
0.0
146
0.0
 13
0.0
 23
0.0
 33
0.0
 16
1.0
 26
0.0
 36
0.0
 17
0.0
 27
1.0
 37
0.0
 76
0
330
19
  0
MLINESTYLE
  5
180
102
{ACAD_REACTORS
330
17D
102
}
330
17D
100
AcDbMlineStyle
  2
Standard
 70
0
  3

 62
256
 51
90.0
 52
90.0
  2
Standard
 71
2
 49
0.5
 62
256
  6
ByLayer
 49
-0.5
 62
256
  6
ByLayer
  0
ACDBPLACEHOLDER
  5
A
  0
ENDSEC
  0
EOF
