  0
SECTION
  2
HEADER
  9
$ACADVER
  1
AC1018
  9
$HANDSEED
  5
FFFFFF
  9
$EXTMAX
 10
7560305.46999999974
 20
5714650.26900000032
 30
1000000.00
  9
$EXTMIN
 10
7560265.54000000004
 20
5714595.3339999998
 30
0.00
  9
$LIMMIN
 10
7560265.54000000004
 20
5714595.3339999998
  9
$LIMMAX
 10
7560305.46999999974
 20
5714650.26900000032
  9
$DIMASZ
 40
2.5
  9
$DIMGAP
 40
0.625
  9
$INSUNITS
 70
6
  9
$DIMEXO
 40
0.625
  9
$DIMTXT
 40
2.5
  9
$DIMSTYLE
  2
Standard
  9
$PLIMMIN
 10
0.0
 20
0.0
  9
$PLIMMAX
 10
210.0
 20
297.0
  9
$DIMEXE
 40
1.25
  9
$TEXTSIZE
 40
2.5
  9
$TEXTSTYLE
  7
Standard
  9
$LWDISPLAY
290
1
  9
$TDCREATE
 40
43849.872201134
  9
$TDUCREATE
 40
43849.830534468
  9
$TDUPDATE
 40
43849.872201134
  9
$TDUUPDATE
 40
43849.830534468
  9
$TDINDWG
 40
0.0
  9
$TDUSRTIMER
 40
0.0
  9
$USRTIMER
 70
1
  0
ENDSEC
  0
SECTION
  2
TABLES
  0
TABLE
  2
VPORT
  5
1
100
AcDbSymbolTable
 70
1
  0
VPORT
  5
2
100
AcDbSymbolTableRecord
100
AcDbViewportTableRecord
  2
*ACTIVE
 70
0
 10
0.0
 20
0.0
 11
1.0
 21
1.0
 12
7560285.505
 22
5714622.802
 13
0.0
 23
0.0
 14
1.0
 24
1.0
 15
0.0
 25
0.0
 16
0.0
 26
0.0
 36
1.0
 17
0.0
 27
0.0
 37
0.0
 40
54.935
 41
0.727
 42
50.0
 43
0.0
 44
0.0
 50
0.0
 51
0.0
 71
0
 72
100
 73
1
 74
1
 75
0
 76
0
 77
0
 78
0
  0
ENDTAB
  0
TABLE
  2
LTYPE
  5
3
100
AcDbSymbolTable
 70
3
  0
LTYPE
  5
4
100
AcDbSymbolTableRecord
100
AcDbLinetypeTableRecord
  2
ByBlock
 70
0
  3

 72
65
 73
0
 40
0.0
  0
LTYPE
  5
5
100
AcDbSymbolTableRecord
100
AcDbLinetypeTableRecord
  2
ByLayer
 70
0
  3

 72
65
 73
0
 40
0.0
  0
LTYPE
  5
6
100
AcDbSymbolTableRecord
100
AcDbLinetypeTableRecord
  2
CONTINUOUS
 70
0
  3
Solid line
 72
65
 73
0
 40
0.0
  0
LTYPE
  5
7
100
AcDbSymbolTableRecord
100
AcDbLinetypeTableRecord
  2
L_0_03
 70
0
  3
Uzytek_gruntowy
 72
65
 73
3
 40
0.5
 49
-0.125
 74
0
 49
0.25
 74
0
 49
-0.125
 74
0
  0
LTYPE
  5
8
100
AcDbSymbolTableRecord
100
AcDbLinetypeTableRecord
  2
L_0_07
 70
0
  3
Granica_obwodu_spisowego
 72
65
 73
6
 40
1.125
 49
0.375
 74
0
 49
-0.25
 74
0
 49
0.0
 74
0
 49
-0.25
 74
0
 49
0.0
 74
0
 49
-0.25
 74
0
  0
ENDTAB
  0
TABLE
  2
LAYER
  5
9
100
AcDbSymbolTable
 70
6
  0
LAYER
  5
A
100
AcDbSymbolTableRecord
100
AcDbLayerTableRecord
  2
0
 70
0
420
0
  6
CONTINUOUS
370
18
390
B
  0
LAYER
  5
C
100
AcDbSymbolTableRecord
100
AcDbLayerTableRecord
  2
pkt_projekt
 70
0
420
0
  6
CONTINUOUS
370
18
390
B
  0
LAYER
  5
D
100
AcDbSymbolTableRecord
100
AcDbLayerTableRecord
  2
projekt_CO
 70
0
420
13762770
  6
L_0_03
370
35
390
B
  0
LAYER
  5
E
100
AcDbSymbolTableRecord
100
AcDbLayerTableRecord
  2
projekt_energia
 70
0
420
16711680
  6
L_0_03
370
35
390
B
  0
LAYER
  5
F
100
AcDbSymbolTableRecord
100
AcDbLayerTableRecord
  2
projekt_ks
 70
0
420
8401664
  6
L_0_03
370
35
390
B
  0
LAYER
  5
10
100
AcDbSymbolTableRecord
100
AcDbLayerTableRecord
  2
projekt_woda
 70
0
420
255
  6
L_0_03
370
35
390
B
  0
ENDTAB
  0
TABLE
  2
STYLE
  5
11
100
AcDbSymbolTable
 70
2
  0
STYLE
  5
12
100
AcDbSymbolTableRecord
100
AcDbTextStyleTableRecord
  2
STANDARD
 70
0
 40
0.0
 41
1.0
 50
0.0
 71
0
  3
simplex.shx
  4

  0
STYLE
  5
13
100
AcDbSymbolTableRecord
100
AcDbTextStyleTableRecord
  2
STANDARD_ITALIC
 70
0
 40
0.0
 41
1.0
 50
15.0
 71
0
  3
simplex.shx
  4

  0
ENDTAB
  0
TABLE
  2
VIEW
  5
14
100
AcDbSymbolTable
 70
0
  0
ENDTAB
  0
TABLE
  2
UCS
  5
15
100
AcDbSymbolTable
 70
0
  0
ENDTAB
  0
TABLE
  2
APPID
  5
16
100
AcDbSymbolTable
 70
1
  0
APPID
  5
17
100
AcDbSymbolTableRecord
100
AcDbRegAppTableRecord
  2
ACAD
 70
0
  0
ENDTAB
  0
TABLE
  2
DIMSTYLE
  5
18
100
AcDbSymbolTable
 70
1
100
AcDbDimStyleTable
  0
DIMSTYLE
105
19
100
AcDbSymbolTableRecord
100
AcDbDimStyleTableRecord
  2
Standard
 70
0
340
12
  0
ENDTAB
  0
TABLE
  2
BLOCK_RECORD
  5
1A
100
AcDbSymbolTable
 70
5
  0
BLOCK_RECORD
  5
1B
100
AcDbSymbolTableRecord
100
AcDbBlockTableRecord
  2
*Model_Space
340
1C
  0
BLOCK_RECORD
  5
1D
100
AcDbSymbolTableRecord
100
AcDbBlockTableRecord
  2
*Paper_Space
340
1E
  0
BLOCK_RECORD
  5
1F
100
AcDbSymbolTableRecord
100
AcDbBlockTableRecord
  2
GRT
340
20
  0
BLOCK_RECORD
  5
21
100
AcDbSymbolTableRecord
100
AcDbBlockTableRecord
  2
GRO
340
22
  0
BLOCK_RECORD
  5
23
100
AcDbSymbolTableRecord
100
AcDbBlockTableRecord
  2
WLZ
340
24
  0
ENDTAB
  0
ENDSEC
  0
SECTION
  2
BLOCKS
  0
BLOCK
  5
25
100
AcDbEntity
  8
0
100
AcDbBlockBegin
  2
*Model_Space
 70
0
 10
0.0
 20
0.0
 30
0.0
  3
*Model_Space
  1

  0
ENDBLK
  5
26
100
AcDbEntity
  8
0
100
AcDbBlockEnd
  0
BLOCK
  5
27
100
AcDbEntity
 67
1
  8
0
100
AcDbBlockBegin
  2
*Paper_Space
 70
0
 10
0.0
 20
0.0
 30
0.0
  3
*Paper_Space
  1

  0
ENDBLK
  5
28
100
AcDbEntity
 67
1
  8
0
100
AcDbBlockEnd
  0
BLOCK
  5
20
100
AcDbEntity
  8
0
100
AcDbBlockBegin
 62
0
370
13
  2
GRT
 70
0
 10
0
 20
0
 30
0
  3
GRT
  0
HATCH
  5
29
100
AcDbEntity
  8
0
  6
CONTINUOUS
420
16777215
370
18
100
AcDbHatch
 10
0.0
 20
0.0
 30
0.0
210
0.0
220
0.0
230
1.0
  2
SOLID
 70
1
 71
1
 91
1
 92
3
 72
1
 73
1
 93
2
 10
0.0
 20
-0.5
 42
1.0
 10
0.0
 20
0.5
 42
1.0
 97
0
 75
0
 76
1
 98
0
  0
CIRCLE
  5
2A
100
AcDbEntity
  8
0
  6
CONTINUOUS
 62
0
370
18
100
AcDbCircle
 10
0.0
 20
-0.0
 40
0.5
  0
ENDBLK
  5
2B
100
AcDbEntity
  8
0
100
AcDbBlockEnd
  0
BLOCK
  5
22
100
AcDbEntity
  8
0
100
AcDbBlockBegin
 62
0
370
13
  2
GRO
 70
0
 10
0
 20
0
 30
0
  3
GRO
  0
HATCH
  5
2C
100
AcDbEntity
  8
0
  6
CONTINUOUS
 62
0
370
13
100
AcDbHatch
 10
0.0
 20
0.0
 30
0.0
210
0.0
220
0.0
230
1.0
  2
SOLID
 70
1
 71
1
 91
1
 92
3
 72
1
 73
1
 93
2
 10
0.0
 20
-0.1
 42
1.0
 10
0.0
 20
0.1
 42
1.0
 97
0
 75
0
 76
1
 98
0
  0
CIRCLE
  5
2D
100
AcDbEntity
  8
0
  6
CONTINUOUS
 62
0
370
13
100
AcDbCircle
 10
0.0
 20
-0.0
 40
0.1
  0
ENDBLK
  5
2E
100
AcDbEntity
  8
0
100
AcDbBlockEnd
  0
BLOCK
  5
24
100
AcDbEntity
  8
0
100
AcDbBlockBegin
 62
0
370
13
  2
WLZ
 70
0
 10
0
 20
0
 30
0
  3
WLZ
  0
HATCH
  5
2F
100
AcDbEntity
  8
0
  6
CONTINUOUS
420
16777215
370
18
100
AcDbHatch
 10
0.0
 20
0.0
 30
0.0
210
0.0
220
0.0
230
1.0
  2
SOLID
 70
1
 71
1
 91
1
 92
3
 72
1
 73
1
 93
2
 10
0.0
 20
-0.5
 42
1.0
 10
0.0
 20
0.5
 42
1.0
 97
0
 75
0
 76
1
 98
0
  0
CIRCLE
  5
30
100
AcDbEntity
  8
0
  6
CONTINUOUS
 62
0
370
18
100
AcDbCircle
 10
0.0
 20
-0.0
 40
0.5
  0
ENDBLK
  5
31
100
AcDbEntity
  8
0
100
AcDbBlockEnd
  0
ENDSEC
  0
SECTION
  2
ENTITIES
  0
POLYLINE
  5
32
100
AcDbEntity
  8
projekt_CO
  6
ByLayer
370
35
100
AcDb3dPolyline
 66
1
 70
136
  0
VERTEX
  5
33
100
AcDbEntity
  8
projekt_CO
100
AcDbVertex
100
AcDb3dPolylineVertex
 10
7560272.5358541403
 20
5714596.61851701327
 70
32
  0
VERTEX
  5
34
100
AcDbEntity
  8
projekt_CO
100
AcDbVertex
100
AcDb3dPolylineVertex
 10
7560271.38999999594
 20
5714596.22999999672
 70
32
  0
VERTEX
  5
35
100
AcDbEntity
  8
projekt_CO
100
AcDbVertex
100
AcDb3dPolylineVertex
 10
7560267.6699999962
 20
5714606.69999999739
 70
32
  0
VERTEX
  5
36
100
AcDbEntity
  8
projekt_CO
100
AcDbVertex
100
AcDb3dPolylineVertex
 10
7560269.6699999962
 20
5714607.42999999691
 70
32
  0
VERTEX
  5
37
100
AcDbEntity
  8
projekt_CO
100
AcDbVertex
100
AcDb3dPolylineVertex
 10
7560265.54499999993
 20
5714619.28500000015
 70
32
  0
VERTEX
  5
38
100
AcDbEntity
  8
projekt_CO
100
AcDbVertex
100
AcDb3dPolylineVertex
 10
7560268.31500000041
 20
5714620.25800000038
 70
32
  0
SEQEND
  5
39
100
AcDbEntity
  8
projekt_CO
  0
POLYLINE
  5
3A
100
AcDbEntity
  8
projekt_energia
  6
ByLayer
370
35
100
AcDb3dPolyline
 66
1
 70
136
  0
VERTEX
  5
3B
100
AcDbEntity
  8
projekt_energia
100
AcDbVertex
100
AcDb3dPolylineVertex
 10
7560281.13570367079
 20
5714603.93582850788
 70
32
  0
VERTEX
  5
3C
100
AcDbEntity
  8
projekt_energia
100
AcDbVertex
100
AcDb3dPolylineVertex
 10
7560280.90900000185
 20
5714604.6670000013
 70
32
  0
VERTEX
  5
3D
100
AcDbEntity
  8
projekt_energia
100
AcDbVertex
100
AcDb3dPolylineVertex
 10
7560287.85400000215
 20
5714607.24700000137
 70
32
  0
VERTEX
  5
3E
100
AcDbEntity
  8
projekt_energia
100
AcDbVertex
100
AcDb3dPolylineVertex
 10
7560287.39788486529
 20
5714617.67663246114
 70
32
  0
SEQEND
  5
3F
100
AcDbEntity
  8
projekt_energia
  0
POLYLINE
  5
40
100
AcDbEntity
  8
projekt_energia
  6
ByLayer
370
35
100
AcDb3dPolyline
 66
1
 70
136
  0
VERTEX
  5
41
100
AcDbEntity
  8
projekt_energia
100
AcDbVertex
100
AcDb3dPolylineVertex
 10
7560287.85400000215
 20
5714607.24700000137
 70
32
  0
VERTEX
  5
42
100
AcDbEntity
  8
projekt_energia
100
AcDbVertex
100
AcDb3dPolylineVertex
 10
7560297.55999999586
 20
5714610.67999999691
 70
32
  0
VERTEX
  5
43
100
AcDbEntity
  8
projekt_energia
100
AcDbVertex
100
AcDb3dPolylineVertex
 10
7560301.61999999639
 20
5714630.27999999747
 70
32
  0
VERTEX
  5
44
100
AcDbEntity
  8
projekt_energia
100
AcDbVertex
100
AcDb3dPolylineVertex
 10
7560302.56000000145
 20
5714631.15500000119
 70
32
  0
SEQEND
  5
45
100
AcDbEntity
  8
projekt_energia
  0
POLYLINE
  5
46
100
AcDbEntity
  8
projekt_ks
  6
ByLayer
370
35
100
AcDb3dPolyline
 66
1
 70
136
  0
VERTEX
  5
47
100
AcDbEntity
  8
projekt_ks
100
AcDbVertex
100
AcDb3dPolylineVertex
 10
7560291.98652398772
 20
5714604.85875662044
 70
32
  0
VERTEX
  5
48
100
AcDbEntity
  8
projekt_ks
100
AcDbVertex
100
AcDb3dPolylineVertex
 10
7560297.45999999624
 20
5714606.59999999683
 70
32
  0
VERTEX
  5
49
100
AcDbEntity
  8
projekt_ks
100
AcDbVertex
100
AcDb3dPolylineVertex
 10
7560302.56000000145
 20
5714631.15500000119
 70
32
  0
VERTEX
  5
4A
100
AcDbEntity
  8
projekt_ks
100
AcDbVertex
100
AcDb3dPolylineVertex
 10
7560305.46999999601
 20
5714639.90999999736
 70
32
  0
VERTEX
  5
4B
100
AcDbEntity
  8
projekt_ks
100
AcDbVertex
100
AcDb3dPolylineVertex
 10
7560301.96300000045
 20
5714650.26900000032
 30
0.000
 70
32
  0
SEQEND
  5
4C
100
AcDbEntity
  8
projekt_ks
  0
POLYLINE
  5
4D
100
AcDbEntity
  8
projekt_ks
  6
ByLayer
370
35
100
AcDb3dPolyline
 66
1
 70
136
  0
VERTEX
  5
4E
100
AcDbEntity
  8
projekt_ks
100
AcDbVertex
100
AcDb3dPolylineVertex
 10
7560302.56000000145
 20
5714631.15500000119
 70
32
  0
VERTEX
  5
4F
100
AcDbEntity
  8
projekt_ks
100
AcDbVertex
100
AcDb3dPolylineVertex
 10
7560303.08700000215
 20
5714624.56000000145
 70
32
  0
SEQEND
  5
50
100
AcDbEntity
  8
projekt_ks
  0
POLYLINE
  5
51
100
AcDbEntity
  8
projekt_woda
  6
ByLayer
370
35
100
AcDb3dPolyline
 66
1
 70
136
  0
VERTEX
  5
52
100
AcDbEntity
  8
projekt_woda
100
AcDbVertex
100
AcDb3dPolylineVertex
 10
7560275.52150401939
 20
5714601.07779494487
 70
32
  0
VERTEX
  5
53
100
AcDbEntity
  8
projekt_woda
100
AcDbVertex
100
AcDb3dPolylineVertex
 10
7560274.65700000152
 20
5714603.50800000131
 70
32
  0
VERTEX
  5
54
100
AcDbEntity
  8
projekt_woda
100
AcDbVertex
100
AcDb3dPolylineVertex
 10
7560287.01999999583
 20
5714607.95999999717
 70
32
  0
VERTEX
  5
55
100
AcDbEntity
  8
projekt_woda
100
AcDbVertex
100
AcDb3dPolylineVertex
 10
7560284.93999999668
 20
5714616.93999999668
 70
32
  0
SEQEND
  5
56
100
AcDbEntity
  8
projekt_woda
  0
POINT
  5
57
100
AcDbEntity
  8
pkt_projekt
100
AcDbPoint
 62
0
 10
7560275.52150401939
 20
5714601.07779494487
  0
POINT
  5
58
100
AcDbEntity
  8
pkt_projekt
100
AcDbPoint
 62
0
 10
7560274.65700000152
 20
5714603.50800000131
  0
POINT
  5
59
100
AcDbEntity
  8
pkt_projekt
100
AcDbPoint
 62
0
 10
7560287.01999999583
 20
5714607.95999999717
  0
POINT
  5
5A
100
AcDbEntity
  8
pkt_projekt
100
AcDbPoint
 62
0
 10
7560284.93999999668
 20
5714616.93999999668
  0
POINT
  5
5B
100
AcDbEntity
  8
pkt_projekt
100
AcDbPoint
 62
0
 10
7560281.13570367079
 20
5714603.93582850788
  0
POINT
  5
5C
100
AcDbEntity
  8
pkt_projekt
100
AcDbPoint
 62
0
 10
7560280.90900000185
 20
5714604.6670000013
  0
POINT
  5
5D
100
AcDbEntity
  8
pkt_projekt
100
AcDbPoint
 62
0
 10
7560287.85400000215
 20
5714607.24700000137
  0
POINT
  5
5E
100
AcDbEntity
  8
pkt_projekt
100
AcDbPoint
 62
0
 10
7560287.39788486529
 20
5714617.67663246114
  0
POINT
  5
5F
100
AcDbEntity
  8
pkt_projekt
100
AcDbPoint
 62
0
 10
7560297.55999999586
 20
5714610.67999999691
  0
POINT
  5
60
100
AcDbEntity
  8
pkt_projekt
100
AcDbPoint
 62
0
 10
7560301.61999999639
 20
5714630.27999999747
  0
POINT
  5
61
100
AcDbEntity
  8
pkt_projekt
100
AcDbPoint
 62
0
 10
7560291.98652398772
 20
5714604.85875662044
  0
POINT
  5
62
100
AcDbEntity
  8
pkt_projekt
100
AcDbPoint
 62
0
 10
7560297.45999999624
 20
5714606.59999999683
  0
INSERT
  5
63
100
AcDbEntity
  8
pkt_projekt
  6
CONTINUOUS
100
AcDbBlockReference
 66
0
  2
WLZ
 10
7560297.45999999624
 20
5714606.59999999683
 41
0.25
 42
0.25
 43
0.25
 50
0.00
  0
POINT
  5
64
100
AcDbEntity
  8
pkt_projekt
100
AcDbPoint
 62
0
 10
7560302.56000000145
 20
5714631.15500000119
  0
INSERT
  5
65
100
AcDbEntity
  8
pkt_projekt
  6
CONTINUOUS
100
AcDbBlockReference
 66
0
  2
WLZ
 10
7560302.56000000145
 20
5714631.15500000119
 41
0.25
 42
0.25
 43
0.25
 50
0.00
  0
POINT
  5
66
100
AcDbEntity
  8
pkt_projekt
100
AcDbPoint
 62
0
 10
7560305.46999999601
 20
5714639.90999999736
  0
POINT
  5
67
100
AcDbEntity
  8
pkt_projekt
100
AcDbPoint
 62
0
 10
7560301.96300000045
 20
5714650.26900000032
 30
0.000
  0
INSERT
  5
68
100
AcDbEntity
  8
pkt_projekt
  6
CONTINUOUS
100
AcDbBlockReference
 66
0
  2
WLZ
 10
7560301.96300000045
 20
5714650.26900000032
 30
0.000
 41
0.25
 42
0.25
 43
0.25
 50
0.00
  0
POINT
  5
69
100
AcDbEntity
  8
pkt_projekt
100
AcDbPoint
 62
0
 10
7560303.08700000215
 20
5714624.56000000145
  0
INSERT
  5
6A
100
AcDbEntity
  8
pkt_projekt
  6
CONTINUOUS
100
AcDbBlockReference
 66
0
  2
WLZ
 10
7560303.08700000215
 20
5714624.56000000145
 41
0.25
 42
0.25
 43
0.25
 50
0.00
  0
POINT
  5
6B
100
AcDbEntity
  8
pkt_projekt
100
AcDbPoint
 62
0
 10
7560272.5358541403
 20
5714596.61851701327
  0
POINT
  5
6C
100
AcDbEntity
  8
pkt_projekt
100
AcDbPoint
 62
0
 10
7560271.38999999594
 20
5714596.22999999672
  0
POINT
  5
6D
100
AcDbEntity
  8
pkt_projekt
100
AcDbPoint
 62
0
 10
7560267.6699999962
 20
5714606.69999999739
  0
POINT
  5
6E
100
AcDbEntity
  8
pkt_projekt
100
AcDbPoint
 62
0
 10
7560269.6699999962
 20
5714607.42999999691
  0
POINT
  5
6F
100
AcDbEntity
  8
pkt_projekt
100
AcDbPoint
 62
0
 10
7560265.54499999993
 20
5714619.28500000015
  0
POINT
  5
70
100
AcDbEntity
  8
pkt_projekt
100
AcDbPoint
 62
0
 10
7560268.31500000041
 20
5714620.25800000038
  0
TEXT
  5
71
100
AcDbEntity
  8
projekt_CO
370
9
100
AcDbText
 39
0.09
 10
7560271.53298428375
 20
5714596.3290983662
 40
0.25
  1
-1.210-
 50
-341.00
 41
0.66
  7
STANDARD
 72
1
 11
7560271.97377933934
 21
5714596.39274121914
100
AcDbText
 73
1
  0
TEXT
  5
72
100
AcDbEntity
  8
projekt_CO
370
9
100
AcDbText
 39
0.09
 10
7560269.40597455483
 20
5714601.95194731466
 40
0.25
  1
-11.111-
 50
-70.00
 41
0.66
  7
STANDARD
 72
1
 11
7560269.4986769082
 21
5714601.45359932631
100
AcDbText
 73
1
  0
TEXT
  5
73
100
AcDbEntity
  8
projekt_CO
370
9
100
AcDbText
 39
0.09
 10
7560268.24178346712
 20
5714606.96235081553
 40
0.25
  1
-2.129-
 50
-340.00
 41
0.66
  7
STANDARD
 72
1
 11
7560268.68140066694
 21
5714607.03367691021
100
AcDbText
 73
1
  0
TEXT
  5
74
100
AcDbEntity
  8
projekt_CO
370
9
100
AcDbText
 39
0.09
 10
7560267.49199184962
 20
5714613.8465376934
 40
0.25
  1
-12.552-
 50
-71.00
 41
0.66
  7
STANDARD
 72
1
 11
7560267.57598271221
 21
5714613.34664772637
100
AcDbText
 73
1
  0
TEXT
  5
75
100
AcDbEntity
  8
projekt_CO
370
9
100
AcDbText
 39
0.09
 10
7560266.5000572158
 20
5714619.67633986194
 40
0.25
  1
-2.936-
 50
-341.00
 41
0.66
  7
STANDARD
 72
1
 11
7560266.94085227139
 21
5714619.73998271488
100
AcDbText
 73
1
  0
TEXT
  5
76
100
AcDbEntity
  8
projekt_energia
370
9
100
AcDbText
 39
0.09
 10
7560280.9422544539
 20
5714604.73441617098
 40
0.25
  1
-0.765-
 50
-73.00
 41
0.66
  7
STANDARD
 72
1
 11
7560280.99047501199
 21
5714604.29166853148
100
AcDbText
 73
1
  0
TEXT
  5
77
100
AcDbEntity
  8
projekt_energia
370
9
100
AcDbText
 39
0.09
 10
7560283.95328347292
 20
5714605.85435081925
 40
0.25
  1
-7.409-
 50
-340.00
 41
0.66
  7
STANDARD
 72
1
 11
7560284.39290067274
 21
5714605.92567691393
100
AcDbText
 73
1
  0
TEXT
  5
78
100
AcDbEntity
  8
projekt_energia
370
9
100
AcDbText
 39
0.09
 10
7560287.64970593154
 20
5714612.96374779567
 40
0.25
  1
-10.440-
 50
-87.00
 41
0.66
  7
STANDARD
 72
1
 11
7560287.59265478235
 21
5714612.46007169876
100
AcDbText
 73
1
  0
TEXT
  5
79
100
AcDbEntity
  8
projekt_energia
370
9
100
AcDbText
 39
0.09
 10
7560292.2179623032
 20
5714608.84799185023
 40
0.25
  1
-10.295-
 50
-341.00
 41
0.66
  7
STANDARD
 72
1
 11
7560292.71785227023
 21
5714608.93198271282
100
AcDbText
 73
1
  0
TEXT
  5
7A
100
AcDbEntity
  8
projekt_energia
370
9
100
AcDbText
 39
0.09
 10
7560299.43713677116
 20
5714620.00132178143
 40
0.25
  1
-20.016-
 50
-282.00
 41
0.66
  7
STANDARD
 72
1
 11
7560299.6226049168
 21
5714620.47306960728
100
AcDbText
 73
1
  0
TEXT
  5
7B
100
AcDbEntity
  8
projekt_energia
370
9
100
AcDbText
 39
0.09
 10
7560301.73593283631
 20
5714630.45569340233
 40
0.25
  1
-1.284-
 50
-317.00
 41
0.66
  7
STANDARD
 72
1
 11
7560302.11273327749
 21
5714630.69312154315
100
AcDbText
 73
1
  0
TEXT
  5
7C
100
AcDbEntity
  8
projekt_ks
370
9
100
AcDbText
 39
0.09
 10
7560294.29172391538
 20
5714605.64173620008
 40
0.25
  1
-5.743-
 50
-342.00
 41
0.66
  7
STANDARD
 72
1
 11
7560294.73356255796
 21
5714605.69767642487
100
AcDbText
 73
1
  0
TEXT
  5
7D
100
AcDbEntity
  8
projekt_ks
370
9
100
AcDbText
 39
0.09
 10
7560299.85713677388
 20
5714618.39882178418
 40
0.25
  1
-25.079-
 50
-282.00
 41
0.66
  7
STANDARD
 72
1
 11
7560300.04260491952
 21
5714618.87056961004
100
AcDbText
 73
1
  0
TEXT
  5
7E
100
AcDbEntity
  8
projekt_ks
370
9
100
AcDbText
 39
0.09
 10
7560303.83225223795
 20
5714635.13186362293
 40
0.25
  1
-9.226-
 50
-288.00
 41
0.66
  7
STANDARD
 72
1
 11
7560304.04670188297
 21
5714635.52219943237
100
AcDbText
 73
1
  0
TEXT
  5
7F
100
AcDbEntity
  8
projekt_ks
370
9
100
AcDbText
 39
0.09
 10
7560303.60099184979
 20
5714645.57853769418
 40
0.25
  1
-10.937-
 50
-71.00
 41
0.66
  7
STANDARD
 72
1
 11
7560303.68498271238
 21
5714645.07864772715
100
AcDbText
 73
1
  0
TEXT
  5
80
100
AcDbEntity
  8
projekt_ks
370
9
100
AcDbText
 39
0.09
 10
7560302.83517909981
 20
5714628.29769296944
 40
0.25
  1
-6.616-
 50
-85.00
 41
0.66
  7
STANDARD
 72
1
 11
7560302.79029351193
 21
5714627.85459480993
100
AcDbText
 73
1
  0
TEXT
  5
81
100
AcDbEntity
  8
projekt_woda
370
9
100
AcDbText
 39
0.09
 10
7560274.98660282791
 20
5714602.72111400217
 40
0.25
  1
-2.579-
 50
-70.00
 41
0.66
  7
STANDARD
 72
1
 11
7560275.05792892259
 21
5714602.28149680234
100
AcDbText
 73
1
  0
TEXT
  5
82
100
AcDbEntity
  8
projekt_woda
370
9
100
AcDbText
 39
0.09
 10
7560280.35155268107
 20
5714605.60997455847
 40
0.25
  1
-13.140-
 50
-340.00
 41
0.66
  7
STANDARD
 72
1
 11
7560280.84990066942
 21
5714605.70267691184
100
AcDbText
 73
1
  0
TEXT
  5
83
100
AcDbEntity
  8
projekt_woda
370
9
100
AcDbText
 39
0.09
 10
7560285.93030241411
 20
5714612.88753445353
 40
0.25
  1
-9.218-
 50
-77.00
 41
0.66
  7
STANDARD
 72
1
 11
7560285.94752099458
 21
5714612.44250162877
100
AcDbText
 73
1
  0
ENDSEC
  0
SECTION
  2
OBJECTS
  0
DICTIONARY
  5
84
330
0
100
AcDbDictionary
280
0
281
1
  3
ACAD_GROUP
350
85
  3
ACAD_LAYOUT
350
86
  3
ACAD_MLINESTYLE
350
87
  3
ACAD_PLOTSETTINGS
350
88
  3
ACAD_PLOTSTYLENAME
350
89
  0
DICTIONARY
  5
85
102
{ACAD_REACTORS
330
84
102
}
330
84
100
AcDbDictionary
280
0
281
1
  0
DICTIONARY
  5
86
102
{ACAD_REACTORS
330
84
102
}
330
84
100
AcDbDictionary
280
0
281
1
  3
Layout
350
1E
  3
Model
350
1C
  0
DICTIONARY
  5
87
102
{ACAD_REACTORS
330
84
102
}
330
84
100
AcDbDictionary
280
0
281
1
  3
Standard
350
8A
  0
DICTIONARY
  5
88
102
{ACAD_REACTORS
330
84
102
}
330
84
100
AcDbDictionary
280
0
281
1
  0
ACDBDICTIONARYWDFLT
  5
89
102
{ACAD_REACTORS
330
84
102
}
330
84
100
AcDbDictionary
281
1
  3
Normal
350
B
100
AcDbDictionaryWithDefault
340
B
  0
LAYOUT
  5
1E
100
AcDbPlotSettings
  1

  2

  4

  6

 40
0.0
 41
0.0
 42
0.0
 43
0.0
 44
0.0
 45
0.0
 46
0.0
 47
0.0
 48
0.0
 49
0.0
140
0.0
141
0.0
142
1.0
143
1.0
 70
688
 72
1
 73
0
 74
5
  7

 75
0
147
1.0
148
0.0
149
0.0
100
AcDbLayout
  1
Layout
 70
1
 71
1
 10
0.0
 20
0.0
 11
420.0
 21
297.0
 12
0.0
 22
0.0
 32
0.0
 14
100000000000000000000.0
 24
100000000000000000000.0
 34
100000000000000000000.0
 15
-100000000000000000000.0
 25
-100000000000000000000.0
 35
-100000000000000000000.0
146
0.0
 13
0.0
 23
0.0
 33
0.0
 16
1.0
 26
0.0
 36
0.0
 17
0.0
 27
1.0
 37
0.0
 76
0
330
1D
  0
LAYOUT
  5
1C
100
AcDbPlotSettings
  1

  2

  4

  6

 40
0.0
 41
0.0
 42
0.0
 43
0.0
 44
0.0
 45
0.0
 46
0.0
 47
0.0
 48
0.0
 49
0.0
140
0.0
141
0.0
142
1.0
143
1.0
 70
1712
 72
1
 73
0
 74
0
  7

 75
0
147
1.0
148
0.0
149
0.0
100
AcDbLayout
  1
Model
 70
1
 71
0
 10
0.0
 20
0.0
 11
12.0
 21
9.0
 12
0.0
 22
0.0
 32
0.0
 14
0.0
 24
0.0
 34
0.0
 15
0.0
 25
0.0
 35
0.0
146
0.0
 13
0.0
 23
0.0
 33
0.0
 16
1.0
 26
0.0
 36
0.0
 17
0.0
 27
1.0
 37
0.0
 76
0
330
1B
  0
MLINESTYLE
  5
8A
102
{ACAD_REACTORS
330
87
102
}
330
87
100
AcDbMlineStyle
  2
Standard
 70
0
  3

 62
256
 51
90.0
 52
90.0
  2
Standard
 71
2
 49
0.5
 62
256
  6
ByLayer
 49
-0.5
 62
256
  6
ByLayer
  0
ACDBPLACEHOLDER
  5
B
  0
ENDSEC
  0
EOF
