  0
SECTION
  2
HEADER
  9
$ACADVER
  1
AC1018
  9
$HANDSEED
  5
FFFFFF
  9
$EXTMAX
 10
7549812.11000000034
 20
5727991.8200000003
 30
1000000.00
  9
$EXTMIN
 10
7548858.0700000003
 20
5727645.15000000037
 30
0.00
  9
$LIMMIN
 10
7548858.0700000003
 20
5727645.15000000037
  9
$LIMMAX
 10
7549812.11000000034
 20
5727991.8200000003
  9
$DIMASZ
 40
2.5
  9
$DIMGAP
 40
0.625
  9
$INSUNITS
 70
6
  9
$DIMEXO
 40
0.625
  9
$DIMTXT
 40
2.5
  9
$DIMSTYLE
  2
Standard
  9
$PLIMMIN
 10
0.0
 20
0.0
  9
$PLIMMAX
 10
210.0
 20
297.0
  9
$DIMEXE
 40
1.25
  9
$TEXTSIZE
 40
2.5
  9
$TEXTSTYLE
  7
Standard
  9
$LWDISPLAY
290
1
  9
$TDCREATE
 40
44861.347093727
  9
$TDUCREATE
 40
44861.263760394
  9
$TDUPDATE
 40
44861.347093727
  9
$TDUUPDATE
 40
44861.263760394
  9
$TDINDWG
 40
0.0
  9
$TDUSRTIMER
 40
0.0
  9
$USRTIMER
 70
1
  0
ENDSEC
  0
SECTION
  2
CLASSES
  0
CLASS
  1
WIPEOUT
  2
AcDbWipeout
  3
WipeOut
 90
127
 91
1
280
0
281
1
  0
CLASS
  1
WIPEOUTVARIABLES
  2
AcDbWipeoutVariables
  3
WipeOut
 90
0
 91
1
280
0
281
0
  0
ENDSEC
  0
SECTION
  2
TABLES
  0
TABLE
  2
VPORT
  5
1
100
AcDbSymbolTable
 70
1
  0
VPORT
  5
2
100
AcDbSymbolTableRecord
100
AcDbViewportTableRecord
  2
*ACTIVE
 70
0
 10
0.0
 20
0.0
 11
1.0
 21
1.0
 12
7549335.090
 22
5727818.485
 13
0.0
 23
0.0
 14
1.0
 24
1.0
 15
0.0
 25
0.0
 16
0.0
 26
0.0
 36
1.0
 17
0.0
 27
0.0
 37
0.0
 40
346.670
 41
2.752
 42
50.0
 43
0.0
 44
0.0
 50
0.0
 51
0.0
 71
0
 72
100
 73
1
 74
1
 75
0
 76
0
 77
0
 78
0
  0
ENDTAB
  0
TABLE
  2
LTYPE
  5
3
100
AcDbSymbolTable
 70
3
  0
LTYPE
  5
4
100
AcDbSymbolTableRecord
100
AcDbLinetypeTableRecord
  2
ByBlock
 70
0
  3

 72
65
 73
0
 40
0.0
  0
LTYPE
  5
5
100
AcDbSymbolTableRecord
100
AcDbLinetypeTableRecord
  2
ByLayer
 70
0
  3

 72
65
 73
0
 40
0.0
  0
LTYPE
  5
6
100
AcDbSymbolTableRecord
100
AcDbLinetypeTableRecord
  2
CONTINUOUS
 70
0
  3
Solid line
 72
65
 73
0
 40
0.0
  0
LTYPE
  5
7
100
AcDbSymbolTableRecord
100
AcDbLinetypeTableRecord
  2
L_0_03
 70
0
  3
Uzytek_gruntowy
 72
65
 73
2
 40
1.0
 49
0.5
 74
0
 49
-0.5
 74
0
  0
ENDTAB
  0
TABLE
  2
LAYER
  5
8
100
AcDbSymbolTable
 70
4
  0
LAYER
  5
9
100
AcDbSymbolTableRecord
100
AcDbLayerTableRecord
  2
0
 70
0
 62
7
  6
CONTINUOUS
370
18
390
A
  0
LAYER
  5
B
100
AcDbSymbolTableRecord
100
AcDbLayerTableRecord
  2
Dzialki
 70
0
 62
206
  6
CONTINUOUS
370
18
390
A
  0
LAYER
  5
C
100
AcDbSymbolTableRecord
100
AcDbLayerTableRecord
  2
Numery_dzialek
 70
0
 62
174
  6
CONTINUOUS
370
18
390
A
  0
LAYER
  5
D
100
AcDbSymbolTableRecord
100
AcDbLayerTableRecord
  2
podzial
 70
0
 62
1
  6
CONTINUOUS
370
18
390
A
  0
ENDTAB
  0
TABLE
  2
STYLE
  5
E
100
AcDbSymbolTable
 70
2
  0
STYLE
  5
F
100
AcDbSymbolTableRecord
100
AcDbTextStyleTableRecord
  2
STANDARD
 70
0
 40
0.0
 41
1.0
 50
0.0
 71
0
  3
simplex.shx
  4

  0
STYLE
  5
10
100
AcDbSymbolTableRecord
100
AcDbTextStyleTableRecord
  2
STANDARD_ITALIC
 70
0
 40
0.0
 41
1.0
 50
15.0
 71
0
  3
simplex.shx
  4

  0
ENDTAB
  0
TABLE
  2
VIEW
  5
11
100
AcDbSymbolTable
 70
0
  0
ENDTAB
  0
TABLE
  2
UCS
  5
12
100
AcDbSymbolTable
 70
0
  0
ENDTAB
  0
TABLE
  2
APPID
  5
13
100
AcDbSymbolTable
 70
1
  0
APPID
  5
14
100
AcDbSymbolTableRecord
100
AcDbRegAppTableRecord
  2
ACAD
 70
0
  0
ENDTAB
  0
TABLE
  2
DIMSTYLE
  5
15
100
AcDbSymbolTable
 70
1
100
AcDbDimStyleTable
  0
DIMSTYLE
105
16
100
AcDbSymbolTableRecord
100
AcDbDimStyleTableRecord
  2
Standard
 70
0
340
F
  0
ENDTAB
  0
TABLE
  2
BLOCK_RECORD
  5
17
100
AcDbSymbolTable
 70
3
  0
BLOCK_RECORD
  5
18
100
AcDbSymbolTableRecord
100
AcDbBlockTableRecord
  2
*Model_Space
340
19
  0
BLOCK_RECORD
  5
1A
100
AcDbSymbolTableRecord
100
AcDbBlockTableRecord
  2
*Paper_Space
340
1B
  0
BLOCK_RECORD
  5
1C
100
AcDbSymbolTableRecord
100
AcDbBlockTableRecord
  2
EGBP04_03
340
1D
  0
ENDTAB
  0
ENDSEC
  0
SECTION
  2
BLOCKS
  0
BLOCK
  5
1E
100
AcDbEntity
  8
0
100
AcDbBlockBegin
  2
*Model_Space
 70
0
 10
0.0
 20
0.0
 30
0.0
  3
*Model_Space
  1

  0
ENDBLK
  5
1F
100
AcDbEntity
  8
0
100
AcDbBlockEnd
  0
BLOCK
  5
20
100
AcDbEntity
 67
1
  8
0
100
AcDbBlockBegin
  2
*Paper_Space
 70
0
 10
0.0
 20
0.0
 30
0.0
  3
*Paper_Space
  1

  0
ENDBLK
  5
21
100
AcDbEntity
 67
1
  8
0
100
AcDbBlockEnd
  0
BLOCK
  5
1D
100
AcDbEntity
  8
0
100
AcDbBlockBegin
 62
0
370
13
  2
EGBP04_03
 70
0
 10
0
 20
0
 30
0
  3
EGBP04_03
  0
WIPEOUT
  5
22
100
AcDbEntity
  8
0
  6
CONTINUOUS
 62
0
370
13
100
AcDbWipeout
 90
0
 10
-0.5
 20
-0.5
 30
0.0
 11
1.0
 21
0.0
 31
0.0
 12
0.0
 22
1.0
 32
0.0
 13
1.0
 23
1.0
 70
7
280
1
281
100
282
100
283
0
 71
2
 91
13
 14
0.0
 24
0.5
 14
0.25
 24
0.433012701892
 14
0.433012701892
 24
0.25
 14
0.5
 24
0.0
 14
0.433012701892
 24
-0.25
 14
0.25
 24
-0.433012701892
 14
0.0
 24
-0.5
 14
-0.25
 24
-0.433012701892
 14
-0.433012701892
 24
-0.25
 14
-0.5
 24
0.0
 14
-0.433012701892
 24
0.25
 14
-0.25
 24
0.433012701892
 14
0.0
 24
0.5
  0
HATCH
  5
23
100
AcDbEntity
  8
0
  6
CONTINUOUS
 62
0
370
13
100
AcDbHatch
 10
0.0
 20
0.0
 30
0.0
210
0.0
220
0.0
230
1.0
  2
SOLID
 70
1
 71
1
 91
1
 92
3
 72
1
 73
1
 93
2
 10
0.0
 20
-0.1
 42
1.0
 10
0.0
 20
0.1
 42
1.0
 97
0
 75
0
 76
1
 98
0
  0
CIRCLE
  5
24
100
AcDbEntity
  8
0
  6
CONTINUOUS
 62
0
370
13
100
AcDbCircle
 10
0.0
 20
-0.0
 40
0.1
  0
ENDBLK
  5
25
100
AcDbEntity
  8
0
100
AcDbBlockEnd
  0
ENDSEC
  0
SECTION
  2
ENTITIES
  0
POLYLINE
  5
26
100
AcDbEntity
  8
Dzialki
  6
CONTINUOUS
370
18
100
AcDb2dPolyline
 66
1
 70
128
  0
VERTEX
  5
27
100
AcDbEntity
  8
Dzialki
100
AcDbVertex
100
AcDb2dVertex
 10
7549544.50999999978
 20
5727893.40000000037
  0
VERTEX
  5
28
100
AcDbEntity
  8
Dzialki
100
AcDbVertex
100
AcDb2dVertex
 10
7549391.01999999955
 20
5727896.48000000045
  0
SEQEND
  5
29
100
AcDbEntity
  8
Dzialki
  0
POLYLINE
  5
2A
100
AcDbEntity
  8
Dzialki
  6
CONTINUOUS
370
18
100
AcDb2dPolyline
 66
1
 70
128
  0
VERTEX
  5
2B
100
AcDbEntity
  8
Dzialki
100
AcDbVertex
100
AcDb2dVertex
 10
7549391.01999999955
 20
5727896.48000000045
  0
VERTEX
  5
2C
100
AcDbEntity
  8
Dzialki
100
AcDbVertex
100
AcDb2dVertex
 10
7549391.09999999963
 20
5727930.25
  0
SEQEND
  5
2D
100
AcDbEntity
  8
Dzialki
  0
POLYLINE
  5
2E
100
AcDbEntity
  8
Dzialki
  6
CONTINUOUS
370
18
100
AcDb2dPolyline
 66
1
 70
128
  0
VERTEX
  5
2F
100
AcDbEntity
  8
Dzialki
100
AcDbVertex
100
AcDb2dVertex
 10
7549236.65000000037
 20
5727928.98000000045
  0
VERTEX
  5
30
100
AcDbEntity
  8
Dzialki
100
AcDbVertex
100
AcDb2dVertex
 10
7549276.01999999955
 20
5727846.53000000026
  0
SEQEND
  5
31
100
AcDbEntity
  8
Dzialki
  0
POLYLINE
  5
32
100
AcDbEntity
  8
Dzialki
  6
CONTINUOUS
370
18
100
AcDb2dPolyline
 66
1
 70
128
  0
VERTEX
  5
33
100
AcDbEntity
  8
Dzialki
100
AcDbVertex
100
AcDb2dVertex
 10
7549276.01999999955
 20
5727846.53000000026
  0
VERTEX
  5
34
100
AcDbEntity
  8
Dzialki
100
AcDbVertex
100
AcDb2dVertex
 10
7549343.87999999989
 20
5727851.20999999996
  0
SEQEND
  5
35
100
AcDbEntity
  8
Dzialki
  0
POLYLINE
  5
36
100
AcDbEntity
  8
Dzialki
  6
CONTINUOUS
370
18
100
AcDb2dPolyline
 66
1
 70
128
  0
VERTEX
  5
37
100
AcDbEntity
  8
Dzialki
100
AcDbVertex
100
AcDb2dVertex
 10
7549343.87999999989
 20
5727851.20999999996
  0
VERTEX
  5
38
100
AcDbEntity
  8
Dzialki
100
AcDbVertex
100
AcDb2dVertex
 10
7549359.9299999997
 20
5727892.09999999963
  0
SEQEND
  5
39
100
AcDbEntity
  8
Dzialki
  0
POLYLINE
  5
3A
100
AcDbEntity
  8
Dzialki
  6
CONTINUOUS
370
18
100
AcDb2dPolyline
 66
1
 70
128
  0
VERTEX
  5
3B
100
AcDbEntity
  8
Dzialki
100
AcDbVertex
100
AcDb2dVertex
 10
7549359.9299999997
 20
5727892.09999999963
  0
VERTEX
  5
3C
100
AcDbEntity
  8
Dzialki
100
AcDbVertex
100
AcDb2dVertex
 10
7549544.80999999959
 20
5727888.40000000037
  0
SEQEND
  5
3D
100
AcDbEntity
  8
Dzialki
  0
POLYLINE
  5
3E
100
AcDbEntity
  8
Dzialki
  6
CONTINUOUS
370
18
100
AcDb2dPolyline
 66
1
 70
128
  0
VERTEX
  5
3F
100
AcDbEntity
  8
Dzialki
100
AcDbVertex
100
AcDb2dVertex
 10
7549544.80999999959
 20
5727888.40000000037
  0
VERTEX
  5
40
100
AcDbEntity
  8
Dzialki
100
AcDbVertex
100
AcDb2dVertex
 10
7549544.50999999978
 20
5727893.40000000037
  0
SEQEND
  5
41
100
AcDbEntity
  8
Dzialki
  0
POLYLINE
  5
42
100
AcDbEntity
  8
Dzialki
  6
CONTINUOUS
370
18
100
AcDb2dPolyline
 66
1
 70
128
  0
VERTEX
  5
43
100
AcDbEntity
  8
Dzialki
100
AcDbVertex
100
AcDb2dVertex
 10
7549260.08000000007
 20
5727872.95999999996
  0
VERTEX
  5
44
100
AcDbEntity
  8
Dzialki
100
AcDbVertex
100
AcDb2dVertex
 10
7549273.37999999989
 20
5727845.09999999963
  0
SEQEND
  5
45
100
AcDbEntity
  8
Dzialki
  0
POLYLINE
  5
46
100
AcDbEntity
  8
Dzialki
  6
CONTINUOUS
370
18
100
AcDb2dPolyline
 66
1
 70
128
  0
VERTEX
  5
47
100
AcDbEntity
  8
Dzialki
100
AcDbVertex
100
AcDb2dVertex
 10
7549273.37999999989
 20
5727845.09999999963
  0
VERTEX
  5
48
100
AcDbEntity
  8
Dzialki
100
AcDbVertex
100
AcDb2dVertex
 10
7549286.87999999989
 20
5727823.04000000004
  0
SEQEND
  5
49
100
AcDbEntity
  8
Dzialki
  0
POLYLINE
  5
4A
100
AcDbEntity
  8
Dzialki
  6
CONTINUOUS
370
18
100
AcDb2dPolyline
 66
1
 70
128
  0
VERTEX
  5
4B
100
AcDbEntity
  8
Dzialki
100
AcDbVertex
100
AcDb2dVertex
 10
7549286.87999999989
 20
5727823.04000000004
  0
VERTEX
  5
4C
100
AcDbEntity
  8
Dzialki
100
AcDbVertex
100
AcDb2dVertex
 10
7548866.33999999985
 20
5727803.25999999978
  0
SEQEND
  5
4D
100
AcDbEntity
  8
Dzialki
  0
POLYLINE
  5
4E
100
AcDbEntity
  8
Dzialki
  6
CONTINUOUS
370
18
100
AcDb2dPolyline
 66
1
 70
128
  0
VERTEX
  5
4F
100
AcDbEntity
  8
Dzialki
100
AcDbVertex
100
AcDb2dVertex
 10
7549286.87999999989
 20
5727823.04000000004
  0
VERTEX
  5
50
100
AcDbEntity
  8
Dzialki
100
AcDbVertex
100
AcDb2dVertex
 10
7549296.37000000011
 20
5727807.54000000004
  0
SEQEND
  5
51
100
AcDbEntity
  8
Dzialki
  0
POLYLINE
  5
52
100
AcDbEntity
  8
Dzialki
  6
CONTINUOUS
370
18
100
AcDb2dPolyline
 66
1
 70
128
  0
VERTEX
  5
53
100
AcDbEntity
  8
Dzialki
100
AcDbVertex
100
AcDb2dVertex
 10
7549296.37000000011
 20
5727807.54000000004
  0
VERTEX
  5
54
100
AcDbEntity
  8
Dzialki
100
AcDbVertex
100
AcDb2dVertex
 10
7549312.05999999959
 20
5727784.75999999978
  0
SEQEND
  5
55
100
AcDbEntity
  8
Dzialki
  0
POLYLINE
  5
56
100
AcDbEntity
  8
Dzialki
  6
CONTINUOUS
370
18
100
AcDb2dPolyline
 66
1
 70
128
  0
VERTEX
  5
57
100
AcDbEntity
  8
Dzialki
100
AcDbVertex
100
AcDb2dVertex
 10
7549312.05999999959
 20
5727784.75999999978
  0
VERTEX
  5
58
100
AcDbEntity
  8
Dzialki
100
AcDbVertex
100
AcDb2dVertex
 10
7549308.08000000007
 20
5727781.61000000034
  0
SEQEND
  5
59
100
AcDbEntity
  8
Dzialki
  0
POLYLINE
  5
5A
100
AcDbEntity
  8
Dzialki
  6
CONTINUOUS
370
18
100
AcDb2dPolyline
 66
1
 70
128
  0
VERTEX
  5
5B
100
AcDbEntity
  8
Dzialki
100
AcDbVertex
100
AcDb2dVertex
 10
7549308.08000000007
 20
5727781.61000000034
  0
VERTEX
  5
5C
100
AcDbEntity
  8
Dzialki
100
AcDbVertex
100
AcDb2dVertex
 10
7549314.49000000022
 20
5727772.08999999985
  0
SEQEND
  5
5D
100
AcDbEntity
  8
Dzialki
  0
POLYLINE
  5
5E
100
AcDbEntity
  8
Dzialki
  6
CONTINUOUS
370
18
100
AcDb2dPolyline
 66
1
 70
128
  0
VERTEX
  5
5F
100
AcDbEntity
  8
Dzialki
100
AcDbVertex
100
AcDb2dVertex
 10
7549314.49000000022
 20
5727772.08999999985
  0
VERTEX
  5
60
100
AcDbEntity
  8
Dzialki
100
AcDbVertex
100
AcDb2dVertex
 10
7548858.0700000003
 20
5727752.23000000045
  0
SEQEND
  5
61
100
AcDbEntity
  8
Dzialki
  0
POLYLINE
  5
62
100
AcDbEntity
  8
Dzialki
  6
CONTINUOUS
370
18
100
AcDb2dPolyline
 66
1
 70
128
  0
VERTEX
  5
63
100
AcDbEntity
  8
Dzialki
100
AcDbVertex
100
AcDb2dVertex
 10
7549314.49000000022
 20
5727772.08999999985
  0
VERTEX
  5
64
100
AcDbEntity
  8
Dzialki
100
AcDbVertex
100
AcDb2dVertex
 10
7549368.76999999955
 20
5727691.5700000003
  0
SEQEND
  5
65
100
AcDbEntity
  8
Dzialki
  0
POLYLINE
  5
66
100
AcDbEntity
  8
Dzialki
  6
CONTINUOUS
370
18
100
AcDb2dPolyline
 66
1
 70
128
  0
VERTEX
  5
67
100
AcDbEntity
  8
Dzialki
100
AcDbVertex
100
AcDb2dVertex
 10
7549524.94000000041
 20
5727826.66000000015
  0
VERTEX
  5
68
100
AcDbEntity
  8
Dzialki
100
AcDbVertex
100
AcDb2dVertex
 10
7549533.71999999974
 20
5727822.98000000045
  0
SEQEND
  5
69
100
AcDbEntity
  8
Dzialki
  0
POLYLINE
  5
6A
100
AcDbEntity
  8
Dzialki
  6
CONTINUOUS
370
18
100
AcDb2dPolyline
 66
1
 70
128
  0
VERTEX
  5
6B
100
AcDbEntity
  8
Dzialki
100
AcDbVertex
100
AcDb2dVertex
 10
7549533.71999999974
 20
5727822.98000000045
  0
VERTEX
  5
6C
100
AcDbEntity
  8
Dzialki
100
AcDbVertex
100
AcDb2dVertex
 10
7549378.04000000004
 20
5727691.75
  0
SEQEND
  5
6D
100
AcDbEntity
  8
Dzialki
  0
POLYLINE
  5
6E
100
AcDbEntity
  8
Dzialki
  6
CONTINUOUS
370
18
100
AcDb2dPolyline
 66
1
 70
128
  0
VERTEX
  5
6F
100
AcDbEntity
  8
Dzialki
100
AcDbVertex
100
AcDb2dVertex
 10
7549370.04000000004
 20
5727703.91000000015
  0
VERTEX
  5
70
100
AcDbEntity
  8
Dzialki
100
AcDbVertex
100
AcDb2dVertex
 10
7549524.94000000041
 20
5727826.66000000015
  0
SEQEND
  5
71
100
AcDbEntity
  8
Dzialki
  0
POLYLINE
  5
72
100
AcDbEntity
  8
Dzialki
  6
CONTINUOUS
370
18
100
AcDb2dPolyline
 66
1
 70
128
  0
VERTEX
  5
73
100
AcDbEntity
  8
Dzialki
100
AcDbVertex
100
AcDb2dVertex
 10
7549533.71999999974
 20
5727822.98000000045
  0
VERTEX
  5
74
100
AcDbEntity
  8
Dzialki
100
AcDbVertex
100
AcDb2dVertex
 10
7549549.04000000004
 20
5727816.54000000004
  0
SEQEND
  5
75
100
AcDbEntity
  8
Dzialki
  0
POLYLINE
  5
76
100
AcDbEntity
  8
Dzialki
  6
CONTINUOUS
370
18
100
AcDb2dPolyline
 66
1
 70
128
  0
VERTEX
  5
77
100
AcDbEntity
  8
Dzialki
100
AcDbVertex
100
AcDb2dVertex
 10
7549549.04000000004
 20
5727816.54000000004
  0
VERTEX
  5
78
100
AcDbEntity
  8
Dzialki
100
AcDbVertex
100
AcDb2dVertex
 10
7549549.49000000022
 20
5727811.00999999978
  0
SEQEND
  5
79
100
AcDbEntity
  8
Dzialki
  0
POLYLINE
  5
7A
100
AcDbEntity
  8
Dzialki
  6
CONTINUOUS
370
18
100
AcDb2dPolyline
 66
1
 70
128
  0
VERTEX
  5
7B
100
AcDbEntity
  8
Dzialki
100
AcDbVertex
100
AcDb2dVertex
 10
7549549.49000000022
 20
5727811.00999999978
  0
VERTEX
  5
7C
100
AcDbEntity
  8
Dzialki
100
AcDbVertex
100
AcDb2dVertex
 10
7549389.66999999993
 20
5727674.11000000034
  0
SEQEND
  5
7D
100
AcDbEntity
  8
Dzialki
  0
POLYLINE
  5
7E
100
AcDbEntity
  8
Dzialki
  6
CONTINUOUS
370
18
100
AcDb2dPolyline
 66
1
 70
128
  0
VERTEX
  5
7F
100
AcDbEntity
  8
Dzialki
100
AcDbVertex
100
AcDb2dVertex
 10
7549549.49000000022
 20
5727811.00999999978
  0
VERTEX
  5
80
100
AcDbEntity
  8
Dzialki
100
AcDbVertex
100
AcDb2dVertex
 10
7549553.45999999996
 20
5727761.58999999985
  0
SEQEND
  5
81
100
AcDbEntity
  8
Dzialki
  0
POLYLINE
  5
82
100
AcDbEntity
  8
Dzialki
  6
CONTINUOUS
370
18
100
AcDb2dPolyline
 66
1
 70
128
  0
VERTEX
  5
83
100
AcDbEntity
  8
Dzialki
100
AcDbVertex
100
AcDb2dVertex
 10
7549553.45999999996
 20
5727761.58999999985
  0
VERTEX
  5
84
100
AcDbEntity
  8
Dzialki
100
AcDbVertex
100
AcDb2dVertex
 10
7549408.75
 20
5727645.15000000037
  0
SEQEND
  5
85
100
AcDbEntity
  8
Dzialki
  0
POLYLINE
  5
86
100
AcDbEntity
  8
Dzialki
  6
CONTINUOUS
370
18
100
AcDb2dPolyline
 66
1
 70
128
  0
VERTEX
  5
87
100
AcDbEntity
  8
Dzialki
100
AcDbVertex
100
AcDb2dVertex
 10
7549553.45999999996
 20
5727761.58999999985
  0
VERTEX
  5
88
100
AcDbEntity
  8
Dzialki
100
AcDbVertex
100
AcDb2dVertex
 10
7549556.5
 20
5727723.9299999997
  0
SEQEND
  5
89
100
AcDbEntity
  8
Dzialki
  0
POLYLINE
  5
8A
100
AcDbEntity
  8
Dzialki
  6
CONTINUOUS
370
18
100
AcDb2dPolyline
 66
1
 70
128
  0
VERTEX
  5
8B
100
AcDbEntity
  8
Dzialki
100
AcDbVertex
100
AcDb2dVertex
 10
7549812.11000000034
 20
5727815.30999999959
  0
VERTEX
  5
8C
100
AcDbEntity
  8
Dzialki
100
AcDbVertex
100
AcDb2dVertex
 10
7549556.69000000041
 20
5727867.63999999966
  0
SEQEND
  5
8D
100
AcDbEntity
  8
Dzialki
  0
POLYLINE
  5
8E
100
AcDbEntity
  8
Dzialki
  6
CONTINUOUS
370
18
100
AcDb2dPolyline
 66
1
 70
128
  0
VERTEX
  5
8F
100
AcDbEntity
  8
Dzialki
100
AcDbVertex
100
AcDb2dVertex
 10
7549556.69000000041
 20
5727867.63999999966
  0
VERTEX
  5
90
100
AcDbEntity
  8
Dzialki
100
AcDbVertex
100
AcDb2dVertex
 10
7549554.49000000022
 20
5727893.99000000022
  0
SEQEND
  5
91
100
AcDbEntity
  8
Dzialki
  0
POLYLINE
  5
92
100
AcDbEntity
  8
Dzialki
  6
CONTINUOUS
370
18
100
AcDb2dPolyline
 66
1
 70
128
  0
VERTEX
  5
93
100
AcDbEntity
  8
Dzialki
100
AcDbVertex
100
AcDb2dVertex
 10
7549554.49000000022
 20
5727893.99000000022
  0
VERTEX
  5
94
100
AcDbEntity
  8
Dzialki
100
AcDbVertex
100
AcDb2dVertex
 10
7549552.73000000045
 20
5727923.86000000034
  0
SEQEND
  5
95
100
AcDbEntity
  8
Dzialki
  0
POLYLINE
  5
96
100
AcDbEntity
  8
Dzialki
  6
CONTINUOUS
370
18
100
AcDb2dPolyline
 66
1
 70
128
  0
VERTEX
  5
97
100
AcDbEntity
  8
Dzialki
100
AcDbVertex
100
AcDb2dVertex
 10
7549559.83000000007
 20
5727830.03000000026
  0
VERTEX
  5
98
100
AcDbEntity
  8
Dzialki
100
AcDbVertex
100
AcDb2dVertex
 10
7549556.69000000041
 20
5727867.63999999966
  0
SEQEND
  5
99
100
AcDbEntity
  8
Dzialki
  0
POLYLINE
  5
9A
100
AcDbEntity
  8
Dzialki
  6
CONTINUOUS
370
18
100
AcDb2dPolyline
 66
1
 70
128
  0
VERTEX
  5
9B
100
AcDbEntity
  8
Dzialki
100
AcDbVertex
100
AcDb2dVertex
 10
7549347.09999999963
 20
5727738.0
  0
VERTEX
  5
9C
100
AcDbEntity
  8
Dzialki
100
AcDbVertex
100
AcDb2dVertex
 10
7549482.53000000026
 20
5727844.51999999862
  0
SEQEND
  5
9D
100
AcDbEntity
  8
Dzialki
  0
POLYLINE
  5
9E
100
AcDbEntity
  8
Dzialki
  6
CONTINUOUS
370
18
100
AcDb2dPolyline
 66
1
 70
128
  0
VERTEX
  5
9F
100
AcDbEntity
  8
Dzialki
100
AcDbVertex
100
AcDb2dVertex
 10
7549482.53000000026
 20
5727844.51999999862
  0
VERTEX
  5
A0
100
AcDbEntity
  8
Dzialki
100
AcDbVertex
100
AcDb2dVertex
 10
7549455.33999999985
 20
5727855.90000000037
  0
SEQEND
  5
A1
100
AcDbEntity
  8
Dzialki
  0
POLYLINE
  5
A2
100
AcDbEntity
  8
Dzialki
  6
CONTINUOUS
370
18
100
AcDb2dPolyline
 66
1
 70
128
  0
VERTEX
  5
A3
100
AcDbEntity
  8
Dzialki
100
AcDbVertex
100
AcDb2dVertex
 10
7549455.33999999985
 20
5727855.90000000037
  0
VERTEX
  5
A4
100
AcDbEntity
  8
Dzialki
100
AcDbVertex
100
AcDb2dVertex
 10
7549335.01999999955
 20
5727757.01999999862
  0
SEQEND
  5
A5
100
AcDbEntity
  8
Dzialki
  0
POLYLINE
  5
A6
100
AcDbEntity
  8
Dzialki
  6
CONTINUOUS
370
18
100
AcDb2dPolyline
 66
1
 70
128
  0
VERTEX
  5
A7
100
AcDbEntity
  8
Dzialki
100
AcDbVertex
100
AcDb2dVertex
 10
7549335.01999999955
 20
5727757.01999999862
  0
VERTEX
  5
A8
100
AcDbEntity
  8
Dzialki
100
AcDbVertex
100
AcDb2dVertex
 10
7549347.09999999963
 20
5727738.0
  0
SEQEND
  5
A9
100
AcDbEntity
  8
Dzialki
  0
POLYLINE
  5
AA
100
AcDbEntity
  8
Dzialki
  6
CONTINUOUS
370
18
100
AcDb2dPolyline
 66
1
 70
128
  0
VERTEX
  5
AB
100
AcDbEntity
  8
Dzialki
100
AcDbVertex
100
AcDb2dVertex
 10
7549359.46999999974
 20
5727719.83000000007
  0
VERTEX
  5
AC
100
AcDbEntity
  8
Dzialki
100
AcDbVertex
100
AcDb2dVertex
 10
7549509.0
 20
5727833.37999999989
  0
SEQEND
  5
AD
100
AcDbEntity
  8
Dzialki
  0
POLYLINE
  5
AE
100
AcDbEntity
  8
Dzialki
  6
CONTINUOUS
370
18
100
AcDb2dPolyline
 66
1
 70
128
  0
VERTEX
  5
AF
100
AcDbEntity
  8
Dzialki
100
AcDbVertex
100
AcDb2dVertex
 10
7549509.0
 20
5727833.37999999989
  0
VERTEX
  5
B0
100
AcDbEntity
  8
Dzialki
100
AcDbVertex
100
AcDb2dVertex
 10
7549482.53000000026
 20
5727844.51999999862
  0
SEQEND
  5
B1
100
AcDbEntity
  8
Dzialki
  0
POLYLINE
  5
B2
100
AcDbEntity
  8
Dzialki
  6
CONTINUOUS
370
18
100
AcDb2dPolyline
 66
1
 70
128
  0
VERTEX
  5
B3
100
AcDbEntity
  8
Dzialki
100
AcDbVertex
100
AcDb2dVertex
 10
7549524.94000000041
 20
5727826.66000000015
  0
VERTEX
  5
B4
100
AcDbEntity
  8
Dzialki
100
AcDbVertex
100
AcDb2dVertex
 10
7549509.0
 20
5727833.37999999989
  0
SEQEND
  5
B5
100
AcDbEntity
  8
Dzialki
  0
POLYLINE
  5
B6
100
AcDbEntity
  8
Dzialki
  6
CONTINUOUS
370
18
100
AcDb2dPolyline
 66
1
 70
128
  0
VERTEX
  5
B7
100
AcDbEntity
  8
Dzialki
100
AcDbVertex
100
AcDb2dVertex
 10
7549549.04000000004
 20
5727816.54000000004
  0
VERTEX
  5
B8
100
AcDbEntity
  8
Dzialki
100
AcDbVertex
100
AcDb2dVertex
 10
7549544.80999999959
 20
5727888.40000000037
  0
SEQEND
  5
B9
100
AcDbEntity
  8
Dzialki
  0
POLYLINE
  5
BA
100
AcDbEntity
  8
Dzialki
  6
CONTINUOUS
370
18
100
AcDb2dPolyline
 66
1
 70
128
  0
VERTEX
  5
BB
100
AcDbEntity
  8
Dzialki
100
AcDbVertex
100
AcDb2dVertex
 10
7549276.01999999955
 20
5727846.53000000026
  0
VERTEX
  5
BC
100
AcDbEntity
  8
Dzialki
100
AcDbVertex
100
AcDb2dVertex
 10
7549298.9299999997
 20
5727809.12000000011
  0
SEQEND
  5
BD
100
AcDbEntity
  8
Dzialki
  0
POLYLINE
  5
BE
100
AcDbEntity
  8
Dzialki
  6
CONTINUOUS
370
18
100
AcDb2dPolyline
 66
1
 70
128
  0
VERTEX
  5
BF
100
AcDbEntity
  8
Dzialki
100
AcDbVertex
100
AcDb2dVertex
 10
7549298.9299999997
 20
5727809.12000000011
  0
VERTEX
  5
C0
100
AcDbEntity
  8
Dzialki
100
AcDbVertex
100
AcDb2dVertex
 10
7549335.01999999955
 20
5727757.01999999862
  0
SEQEND
  5
C1
100
AcDbEntity
  8
Dzialki
  0
POLYLINE
  5
C2
100
AcDbEntity
  8
Dzialki
  6
CONTINUOUS
370
18
100
AcDb2dPolyline
 66
1
 70
128
  0
VERTEX
  5
C3
100
AcDbEntity
  8
Dzialki
100
AcDbVertex
100
AcDb2dVertex
 10
7549538.70999999996
 20
5727991.8200000003
  0
VERTEX
  5
C4
100
AcDbEntity
  8
Dzialki
100
AcDbVertex
100
AcDb2dVertex
 10
7549544.50999999978
 20
5727893.40000000037
  0
SEQEND
  5
C5
100
AcDbEntity
  8
Dzialki
  0
POLYLINE
  5
C6
100
AcDbEntity
  8
podzial
  6
CONTINUOUS
370
18
100
AcDb2dPolyline
 66
1
 70
128
  0
VERTEX
  5
C7
100
AcDbEntity
  8
podzial
100
AcDbVertex
100
AcDb2dVertex
 10
7549369.01999999955
 20
5727891.91999999993
  0
VERTEX
  5
C8
100
AcDbEntity
  8
podzial
100
AcDbVertex
100
AcDb2dVertex
 10
7549386.33999999985
 20
5727884.87999999989
  0
VERTEX
  5
C9
100
AcDbEntity
  8
podzial
100
AcDbVertex
100
AcDb2dVertex
 10
7549424.65000000037
 20
5727868.79000000004
  0
VERTEX
  5
CA
100
AcDbEntity
  8
podzial
100
AcDbVertex
100
AcDb2dVertex
 10
7549455.33999999985
 20
5727855.90000000037
  0
SEQEND
  5
CB
100
AcDbEntity
  8
podzial
  0
POLYLINE
  5
CC
100
AcDbEntity
  8
podzial
  6
CONTINUOUS
370
18
100
AcDb2dPolyline
 66
1
 70
128
  0
VERTEX
  5
CD
100
AcDbEntity
  8
podzial
100
AcDbVertex
100
AcDb2dVertex
 10
7549424.65000000037
 20
5727868.79000000004
  0
VERTEX
  5
CE
100
AcDbEntity
  8
podzial
100
AcDbVertex
100
AcDb2dVertex
 10
7549546.11000000034
 20
5727866.36000000034
  0
SEQEND
  5
CF
100
AcDbEntity
  8
podzial
  0
POINT
  5
D0
100
AcDbEntity
  8
Dzialki
100
AcDbPoint
 62
0
 10
7549544.50999999978
 20
5727893.40000000037
  0
POINT
  5
D1
100
AcDbEntity
  8
Dzialki
100
AcDbPoint
 62
0
 10
7549391.01999999955
 20
5727896.48000000045
  0
POINT
  5
D2
100
AcDbEntity
  8
Dzialki
100
AcDbPoint
 62
0
 10
7549391.01999999955
 20
5727896.48000000045
  0
POINT
  5
D3
100
AcDbEntity
  8
Dzialki
100
AcDbPoint
 62
0
 10
7549391.09999999963
 20
5727930.25
  0
POINT
  5
D4
100
AcDbEntity
  8
Dzialki
100
AcDbPoint
 62
0
 10
7549236.65000000037
 20
5727928.98000000045
  0
POINT
  5
D5
100
AcDbEntity
  8
Dzialki
100
AcDbPoint
 62
0
 10
7549276.01999999955
 20
5727846.53000000026
  0
POINT
  5
D6
100
AcDbEntity
  8
Dzialki
100
AcDbPoint
 62
0
 10
7549276.01999999955
 20
5727846.53000000026
  0
POINT
  5
D7
100
AcDbEntity
  8
Dzialki
100
AcDbPoint
 62
0
 10
7549343.87999999989
 20
5727851.20999999996
  0
POINT
  5
D8
100
AcDbEntity
  8
Dzialki
100
AcDbPoint
 62
0
 10
7549343.87999999989
 20
5727851.20999999996
  0
POINT
  5
D9
100
AcDbEntity
  8
Dzialki
100
AcDbPoint
 62
0
 10
7549359.9299999997
 20
5727892.09999999963
  0
POINT
  5
DA
100
AcDbEntity
  8
Dzialki
100
AcDbPoint
 62
0
 10
7549359.9299999997
 20
5727892.09999999963
  0
POINT
  5
DB
100
AcDbEntity
  8
Dzialki
100
AcDbPoint
 62
0
 10
7549544.80999999959
 20
5727888.40000000037
  0
POINT
  5
DC
100
AcDbEntity
  8
Dzialki
100
AcDbPoint
 62
0
 10
7549544.80999999959
 20
5727888.40000000037
  0
POINT
  5
DD
100
AcDbEntity
  8
Dzialki
100
AcDbPoint
 62
0
 10
7549544.50999999978
 20
5727893.40000000037
  0
POINT
  5
DE
100
AcDbEntity
  8
Dzialki
100
AcDbPoint
 62
0
 10
7549260.08000000007
 20
5727872.95999999996
  0
POINT
  5
DF
100
AcDbEntity
  8
Dzialki
100
AcDbPoint
 62
0
 10
7549273.37999999989
 20
5727845.09999999963
  0
POINT
  5
E0
100
AcDbEntity
  8
Dzialki
100
AcDbPoint
 62
0
 10
7549273.37999999989
 20
5727845.09999999963
  0
POINT
  5
E1
100
AcDbEntity
  8
Dzialki
100
AcDbPoint
 62
0
 10
7549286.87999999989
 20
5727823.04000000004
  0
POINT
  5
E2
100
AcDbEntity
  8
Dzialki
100
AcDbPoint
 62
0
 10
7549286.87999999989
 20
5727823.04000000004
  0
POINT
  5
E3
100
AcDbEntity
  8
Dzialki
100
AcDbPoint
 62
0
 10
7548866.33999999985
 20
5727803.25999999978
  0
POINT
  5
E4
100
AcDbEntity
  8
Dzialki
100
AcDbPoint
 62
0
 10
7549286.87999999989
 20
5727823.04000000004
  0
POINT
  5
E5
100
AcDbEntity
  8
Dzialki
100
AcDbPoint
 62
0
 10
7549296.37000000011
 20
5727807.54000000004
  0
POINT
  5
E6
100
AcDbEntity
  8
Dzialki
100
AcDbPoint
 62
0
 10
7549296.37000000011
 20
5727807.54000000004
  0
POINT
  5
E7
100
AcDbEntity
  8
Dzialki
100
AcDbPoint
 62
0
 10
7549312.05999999959
 20
5727784.75999999978
  0
POINT
  5
E8
100
AcDbEntity
  8
Dzialki
100
AcDbPoint
 62
0
 10
7549312.05999999959
 20
5727784.75999999978
  0
POINT
  5
E9
100
AcDbEntity
  8
Dzialki
100
AcDbPoint
 62
0
 10
7549308.08000000007
 20
5727781.61000000034
  0
POINT
  5
EA
100
AcDbEntity
  8
Dzialki
100
AcDbPoint
 62
0
 10
7549308.08000000007
 20
5727781.61000000034
  0
POINT
  5
EB
100
AcDbEntity
  8
Dzialki
100
AcDbPoint
 62
0
 10
7549314.49000000022
 20
5727772.08999999985
  0
POINT
  5
EC
100
AcDbEntity
  8
Dzialki
100
AcDbPoint
 62
0
 10
7549314.49000000022
 20
5727772.08999999985
  0
POINT
  5
ED
100
AcDbEntity
  8
Dzialki
100
AcDbPoint
 62
0
 10
7548858.0700000003
 20
5727752.23000000045
  0
POINT
  5
EE
100
AcDbEntity
  8
Dzialki
100
AcDbPoint
 62
0
 10
7549314.49000000022
 20
5727772.08999999985
  0
POINT
  5
EF
100
AcDbEntity
  8
Dzialki
100
AcDbPoint
 62
0
 10
7549368.76999999955
 20
5727691.5700000003
  0
POINT
  5
F0
100
AcDbEntity
  8
Dzialki
100
AcDbPoint
 62
0
 10
7549524.94000000041
 20
5727826.66000000015
  0
POINT
  5
F1
100
AcDbEntity
  8
Dzialki
100
AcDbPoint
 62
0
 10
7549533.71999999974
 20
5727822.98000000045
  0
POINT
  5
F2
100
AcDbEntity
  8
Dzialki
100
AcDbPoint
 62
0
 10
7549533.71999999974
 20
5727822.98000000045
  0
POINT
  5
F3
100
AcDbEntity
  8
Dzialki
100
AcDbPoint
 62
0
 10
7549378.04000000004
 20
5727691.75
  0
POINT
  5
F4
100
AcDbEntity
  8
Dzialki
100
AcDbPoint
 62
0
 10
7549370.04000000004
 20
5727703.91000000015
  0
POINT
  5
F5
100
AcDbEntity
  8
Dzialki
100
AcDbPoint
 62
0
 10
7549524.94000000041
 20
5727826.66000000015
  0
POINT
  5
F6
100
AcDbEntity
  8
Dzialki
100
AcDbPoint
 62
0
 10
7549533.71999999974
 20
5727822.98000000045
  0
POINT
  5
F7
100
AcDbEntity
  8
Dzialki
100
AcDbPoint
 62
0
 10
7549549.04000000004
 20
5727816.54000000004
  0
POINT
  5
F8
100
AcDbEntity
  8
Dzialki
100
AcDbPoint
 62
0
 10
7549549.04000000004
 20
5727816.54000000004
  0
POINT
  5
F9
100
AcDbEntity
  8
Dzialki
100
AcDbPoint
 62
0
 10
7549549.49000000022
 20
5727811.00999999978
  0
POINT
  5
FA
100
AcDbEntity
  8
Dzialki
100
AcDbPoint
 62
0
 10
7549549.49000000022
 20
5727811.00999999978
  0
POINT
  5
FB
100
AcDbEntity
  8
Dzialki
100
AcDbPoint
 62
0
 10
7549389.66999999993
 20
5727674.11000000034
  0
POINT
  5
FC
100
AcDbEntity
  8
Dzialki
100
AcDbPoint
 62
0
 10
7549549.49000000022
 20
5727811.00999999978
  0
POINT
  5
FD
100
AcDbEntity
  8
Dzialki
100
AcDbPoint
 62
0
 10
7549553.45999999996
 20
5727761.58999999985
  0
POINT
  5
FE
100
AcDbEntity
  8
Dzialki
100
AcDbPoint
 62
0
 10
7549553.45999999996
 20
5727761.58999999985
  0
POINT
  5
FF
100
AcDbEntity
  8
Dzialki
100
AcDbPoint
 62
0
 10
7549408.75
 20
5727645.15000000037
  0
POINT
  5
100
100
AcDbEntity
  8
Dzialki
100
AcDbPoint
 62
0
 10
7549553.45999999996
 20
5727761.58999999985
  0
POINT
  5
101
100
AcDbEntity
  8
Dzialki
100
AcDbPoint
 62
0
 10
7549556.5
 20
5727723.9299999997
  0
POINT
  5
102
100
AcDbEntity
  8
Dzialki
100
AcDbPoint
 62
0
 10
7549812.11000000034
 20
5727815.30999999959
  0
POINT
  5
103
100
AcDbEntity
  8
Dzialki
100
AcDbPoint
 62
0
 10
7549556.69000000041
 20
5727867.63999999966
  0
POINT
  5
104
100
AcDbEntity
  8
Dzialki
100
AcDbPoint
 62
0
 10
7549556.69000000041
 20
5727867.63999999966
  0
POINT
  5
105
100
AcDbEntity
  8
Dzialki
100
AcDbPoint
 62
0
 10
7549554.49000000022
 20
5727893.99000000022
  0
POINT
  5
106
100
AcDbEntity
  8
Dzialki
100
AcDbPoint
 62
0
 10
7549554.49000000022
 20
5727893.99000000022
  0
POINT
  5
107
100
AcDbEntity
  8
Dzialki
100
AcDbPoint
 62
0
 10
7549552.73000000045
 20
5727923.86000000034
  0
POINT
  5
108
100
AcDbEntity
  8
Dzialki
100
AcDbPoint
 62
0
 10
7549559.83000000007
 20
5727830.03000000026
  0
POINT
  5
109
100
AcDbEntity
  8
Dzialki
100
AcDbPoint
 62
0
 10
7549556.69000000041
 20
5727867.63999999966
  0
POINT
  5
10A
100
AcDbEntity
  8
Dzialki
100
AcDbPoint
 62
0
 10
7549347.09999999963
 20
5727738.0
  0
POINT
  5
10B
100
AcDbEntity
  8
Dzialki
100
AcDbPoint
 62
0
 10
7549482.53000000026
 20
5727844.51999999862
  0
POINT
  5
10C
100
AcDbEntity
  8
Dzialki
100
AcDbPoint
 62
0
 10
7549482.53000000026
 20
5727844.51999999862
  0
POINT
  5
10D
100
AcDbEntity
  8
Dzialki
100
AcDbPoint
 62
0
 10
7549455.33999999985
 20
5727855.90000000037
  0
POINT
  5
10E
100
AcDbEntity
  8
Dzialki
100
AcDbPoint
 62
0
 10
7549455.33999999985
 20
5727855.90000000037
  0
POINT
  5
10F
100
AcDbEntity
  8
Dzialki
100
AcDbPoint
 62
0
 10
7549335.01999999955
 20
5727757.01999999862
  0
POINT
  5
110
100
AcDbEntity
  8
Dzialki
100
AcDbPoint
 62
0
 10
7549335.01999999955
 20
5727757.01999999862
  0
POINT
  5
111
100
AcDbEntity
  8
Dzialki
100
AcDbPoint
 62
0
 10
7549347.09999999963
 20
5727738.0
  0
POINT
  5
112
100
AcDbEntity
  8
Dzialki
100
AcDbPoint
 62
0
 10
7549359.46999999974
 20
5727719.83000000007
  0
POINT
  5
113
100
AcDbEntity
  8
Dzialki
100
AcDbPoint
 62
0
 10
7549509.0
 20
5727833.37999999989
  0
POINT
  5
114
100
AcDbEntity
  8
Dzialki
100
AcDbPoint
 62
0
 10
7549509.0
 20
5727833.37999999989
  0
POINT
  5
115
100
AcDbEntity
  8
Dzialki
100
AcDbPoint
 62
0
 10
7549482.53000000026
 20
5727844.51999999862
  0
POINT
  5
116
100
AcDbEntity
  8
Dzialki
100
AcDbPoint
 62
0
 10
7549524.94000000041
 20
5727826.66000000015
  0
POINT
  5
117
100
AcDbEntity
  8
Dzialki
100
AcDbPoint
 62
0
 10
7549509.0
 20
5727833.37999999989
  0
POINT
  5
118
100
AcDbEntity
  8
Dzialki
100
AcDbPoint
 62
0
 10
7549549.04000000004
 20
5727816.54000000004
  0
POINT
  5
119
100
AcDbEntity
  8
Dzialki
100
AcDbPoint
 62
0
 10
7549544.80999999959
 20
5727888.40000000037
  0
POINT
  5
11A
100
AcDbEntity
  8
Dzialki
100
AcDbPoint
 62
0
 10
7549276.01999999955
 20
5727846.53000000026
  0
POINT
  5
11B
100
AcDbEntity
  8
Dzialki
100
AcDbPoint
 62
0
 10
7549298.9299999997
 20
5727809.12000000011
  0
POINT
  5
11C
100
AcDbEntity
  8
Dzialki
100
AcDbPoint
 62
0
 10
7549298.9299999997
 20
5727809.12000000011
  0
POINT
  5
11D
100
AcDbEntity
  8
Dzialki
100
AcDbPoint
 62
0
 10
7549335.01999999955
 20
5727757.01999999862
  0
POINT
  5
11E
100
AcDbEntity
  8
Dzialki
100
AcDbPoint
 62
0
 10
7549538.70999999996
 20
5727991.8200000003
  0
POINT
  5
11F
100
AcDbEntity
  8
Dzialki
100
AcDbPoint
 62
0
 10
7549544.50999999978
 20
5727893.40000000037
  0
POINT
  5
120
100
AcDbEntity
  8
podzial
100
AcDbPoint
 62
0
 10
7549546.11000000034
 20
5727866.36000000034
  0
POINT
  5
121
100
AcDbEntity
  8
podzial
100
AcDbPoint
 62
0
 10
7549424.65000000037
 20
5727868.79000000004
  0
POINT
  5
122
100
AcDbEntity
  8
podzial
100
AcDbPoint
 62
0
 10
7549369.01999999955
 20
5727891.91999999993
  0
POINT
  5
123
100
AcDbEntity
  8
podzial
100
AcDbPoint
 62
0
 10
7549386.33999999985
 20
5727884.87999999989
  0
TEXT
  5
124
100
AcDbEntity
  8
Numery_dzialek
370
25
100
AcDbText
 39
0.25
 10
7549457.1205631122
 20
5727769.48390914872
 40
1.25
  1
5-143
 50
0.00
 41
0.66
  7
STANDARD
 72
0
 11
7549457.1205631122
 21
5727770.73390914872
100
AcDbText
 73
3
  0
TEXT
  5
125
100
AcDbEntity
  8
Numery_dzialek
370
25
100
AcDbText
 39
0.25
 10
7549483.31145825889
 20
5727774.34071939066
 40
1.25
  1
5-144/1
 50
0.00
 41
0.66
  7
STANDARD
 72
0
 11
7549483.31145825889
 21
5727775.59071939066
100
AcDbText
 73
3
  0
TEXT
  5
126
100
AcDbEntity
  8
Numery_dzialek
370
25
100
AcDbText
 39
0.25
 10
7549487.24360131938
 20
5727747.94783653505
 40
1.25
  1
5-144/2
 50
0.00
 41
0.66
  7
STANDARD
 72
0
 11
7549487.24360131938
 21
5727749.19783653505
100
AcDbText
 73
3
  0
TEXT
  5
127
100
AcDbEntity
  8
Numery_dzialek
370
25
100
AcDbText
 39
0.25
 10
7549390.96089946386
 20
5727797.83782862779
 40
1.25
  1
5-140
 50
0.00
 41
0.66
  7
STANDARD
 72
0
 11
7549390.96089946386
 21
5727799.08782862779
100
AcDbText
 73
3
  0
TEXT
  5
128
100
AcDbEntity
  8
Numery_dzialek
370
25
100
AcDbText
 39
0.25
 10
7549426.05706750043
 20
5727787.82524552196
 40
1.25
  1
5-141
 50
0.00
 41
0.66
  7
STANDARD
 72
0
 11
7549426.05706750043
 21
5727789.07524552196
100
AcDbText
 73
3
  0
TEXT
  5
129
100
AcDbEntity
  8
Numery_dzialek
370
25
100
AcDbText
 39
0.25
 10
7549426.24706058856
 20
5727766.34980033617
 40
1.25
  1
5-142
 50
0.00
 41
0.66
  7
STANDARD
 72
0
 11
7549426.24706058856
 21
5727767.59980033617
100
AcDbText
 73
3
  0
TEXT
  5
12A
100
AcDbEntity
  8
Numery_dzialek
370
25
100
AcDbText
 39
0.25
 10
7549381.75999999978
 20
5727851.25999999978
 40
1.25
  1
5-137/4
 50
0.00
 41
0.66
  7
STANDARD
 72
0
 11
7549381.75999999978
 21
5727852.50999999978
100
AcDbText
 73
3
  0
TEXT
  5
12B
100
AcDbEntity
  8
Numery_dzialek
370
25
100
AcDbText
 39
0.25
 10
7549325.23006648198
 20
5727870.84385321662
 40
1.25
  1
5-137/3
 50
0.00
 41
0.66
  7
STANDARD
 72
0
 11
7549325.23006648198
 21
5727872.09385321662
100
AcDbText
 73
3
  0
TEXT
  5
12C
100
AcDbEntity
  8
Numery_dzialek
370
25
100
AcDbText
 39
0.25
 10
7549273.07900001109
 20
5727832.93027279992
 40
1.25
  1
5-80
 50
0.00
 41
0.66
  7
STANDARD
 72
0
 11
7549273.07900001109
 21
5727834.18027279992
100
AcDbText
 73
3
  0
TEXT
  5
12D
100
AcDbEntity
  8
Numery_dzialek
370
25
100
AcDbText
 39
0.25
 10
7549284.03672727104
 20
5727793.19007509667
 40
1.25
  1
5-81
 50
0.00
 41
0.66
  7
STANDARD
 72
0
 11
7549284.03672727104
 21
5727794.44007509667
100
AcDbText
 73
3
  0
TEXT
  5
12E
100
AcDbEntity
  8
Numery_dzialek
370
25
100
AcDbText
 39
0.25
 10
7549300.42535968591
 20
5727757.77932364959
 40
1.25
  1
5-82
 50
0.00
 41
0.66
  7
STANDARD
 72
0
 11
7549300.42535968591
 21
5727759.02932364959
100
AcDbText
 73
3
  0
TEXT
  5
12F
100
AcDbEntity
  8
Numery_dzialek
370
25
100
AcDbText
 39
0.25
 10
7549547.81740585342
 20
5727750.6286666682
 40
1.25
  1
5-146
 50
0.00
 41
0.66
  7
STANDARD
 72
0
 11
7549547.81740585342
 21
5727751.8786666682
100
AcDbText
 73
3
  0
TEXT
  5
130
100
AcDbEntity
  8
Numery_dzialek
370
25
100
AcDbText
 39
0.25
 10
7549550.41564856004
 20
5727891.70365444943
 40
1.25
  1
5-210/1
 50
0.00
 41
0.66
  7
STANDARD
 72
0
 11
7549550.41564856004
 21
5727892.95365444943
100
AcDbText
 73
3
  0
TEXT
  5
131
100
AcDbEntity
  8
Numery_dzialek
370
25
100
AcDbText
 39
0.25
 10
7549553.67999467533
 20
5727861.98731959239
 40
1.25
  1
5-211
 50
0.00
 41
0.66
  7
STANDARD
 72
0
 11
7549553.67999467533
 21
5727863.23731959239
100
AcDbText
 73
3
  0
TEXT
  5
132
100
AcDbEntity
  8
Numery_dzialek
370
25
100
AcDbText
 39
0.25
 10
7549321.01250722632
 20
5727769.65952513088
 40
1.25
  1
5-152
 50
0.00
 41
0.66
  7
STANDARD
 72
0
 11
7549321.01250722632
 21
5727770.90952513088
100
AcDbText
 73
3
  0
TEXT
  5
133
100
AcDbEntity
  8
Numery_dzialek
370
25
100
AcDbText
 39
0.25
 10
7549553.2990152752
 20
5727823.85681311414
 40
1.25
  1
5-153
 50
0.00
 41
0.66
  7
STANDARD
 72
0
 11
7549553.2990152752
 21
5727825.10681311414
100
AcDbText
 73
3
  0
TEXT
  5
134
100
AcDbEntity
  8
Numery_dzialek
370
25
100
AcDbText
 39
0.25
 10
7549467.64008255769
 20
5727897.2724999981
 40
1.25
  1
5-137/5
 50
0.00
 41
0.66
  7
STANDARD
 72
0
 11
7549467.64008255769
 21
5727898.5224999981
100
AcDbText
 73
3
  0
ENDSEC
  0
SECTION
  2
OBJECTS
  0
DICTIONARY
  5
135
330
0
100
AcDbDictionary
280
0
281
1
  3
ACAD_GROUP
350
136
  3
ACAD_LAYOUT
350
137
  3
ACAD_MLINESTYLE
350
138
  3
ACAD_PLOTSETTINGS
350
139
  3
ACAD_PLOTSTYLENAME
350
13A
  3
ACAD_WIPEOUT_VARS
350
13B
  0
DICTIONARY
  5
136
102
{ACAD_REACTORS
330
135
102
}
330
135
100
AcDbDictionary
280
0
281
1
  0
DICTIONARY
  5
137
102
{ACAD_REACTORS
330
135
102
}
330
135
100
AcDbDictionary
280
0
281
1
  3
Layout
350
1B
  3
Model
350
19
  0
DICTIONARY
  5
138
102
{ACAD_REACTORS
330
135
102
}
330
135
100
AcDbDictionary
280
0
281
1
  3
Standard
350
13C
  0
DICTIONARY
  5
139
102
{ACAD_REACTORS
330
135
102
}
330
135
100
AcDbDictionary
280
0
281
1
  0
ACDBDICTIONARYWDFLT
  5
13A
102
{ACAD_REACTORS
330
135
102
}
330
135
100
AcDbDictionary
281
1
  3
Normal
350
A
100
AcDbDictionaryWithDefault
340
A
  0
WIPEOUTVARIABLES
  5
13B
102
{ACAD_REACTORS
330
135
102
}
330
135
100
AcDbWipeoutVariables
 70
0
  0
LAYOUT
  5
1B
100
AcDbPlotSettings
  1

  2

  4

  6

 40
0.0
 41
0.0
 42
0.0
 43
0.0
 44
0.0
 45
0.0
 46
0.0
 47
0.0
 48
0.0
 49
0.0
140
0.0
141
0.0
142
1.0
143
1.0
 70
688
 72
1
 73
0
 74
5
  7

 75
0
147
1.0
148
0.0
149
0.0
100
AcDbLayout
  1
Layout
 70
1
 71
1
 10
0.0
 20
0.0
 11
420.0
 21
297.0
 12
0.0
 22
0.0
 32
0.0
 14
100000000000000000000.0
 24
100000000000000000000.0
 34
100000000000000000000.0
 15
-100000000000000000000.0
 25
-100000000000000000000.0
 35
-100000000000000000000.0
146
0.0
 13
0.0
 23
0.0
 33
0.0
 16
1.0
 26
0.0
 36
0.0
 17
0.0
 27
1.0
 37
0.0
 76
0
330
1A
  0
LAYOUT
  5
19
100
AcDbPlotSettings
  1

  2

  4

  6

 40
0.0
 41
0.0
 42
0.0
 43
0.0
 44
0.0
 45
0.0
 46
0.0
 47
0.0
 48
0.0
 49
0.0
140
0.0
141
0.0
142
1.0
143
1.0
 70
1712
 72
1
 73
0
 74
0
  7

 75
0
147
1.0
148
0.0
149
0.0
100
AcDbLayout
  1
Model
 70
1
 71
0
 10
0.0
 20
0.0
 11
12.0
 21
9.0
 12
0.0
 22
0.0
 32
0.0
 14
0.0
 24
0.0
 34
0.0
 15
0.0
 25
0.0
 35
0.0
146
0.0
 13
0.0
 23
0.0
 33
0.0
 16
1.0
 26
0.0
 36
0.0
 17
0.0
 27
1.0
 37
0.0
 76
0
330
18
  0
MLINESTYLE
  5
13C
102
{ACAD_REACTORS
330
138
102
}
330
138
100
AcDbMlineStyle
  2
Standard
 70
0
  3

 62
256
 51
90.0
 52
90.0
  2
Standard
 71
2
 49
0.5
 62
256
  6
ByLayer
 49
-0.5
 62
256
  6
ByLayer
  0
ACDBPLACEHOLDER
  5
A
  0
ENDSEC
  0
EOF
