  0
SECTION
  2
HEADER
  9
$ACADVER
  1
AC1018
  9
$ACADMAINTVER
 70
   104
  9
$DWGCODEPAGE
  3
ANSI_1250
  9
$LASTSAVEDBY
  1
Dell
  9
$INSBASE
 10
0.0
 20
0.0
 30
0.0
  9
$EXTMIN
 10
7580688.62
 20
5689782.4
 30
0.0
  9
$EXTMAX
 10
7584152.340000001
 20
5691378.479741213
 30
0.35
  9
$LIMMIN
 10
7580688.62
 20
5689782.4
  9
$LIMMAX
 10
7584152.340000001
 20
5691384.62
  9
$ORTHOMODE
 70
     0
  9
$REGENMODE
 70
     1
  9
$FILLMODE
 70
     1
  9
$QTEXTMODE
 70
     0
  9
$MIRRTEXT
 70
     0
  9
$LTSCALE
 40
1.0
  9
$ATTMODE
 70
     1
  9
$TEXTSIZE
 40
0.2
  9
$TRACEWID
 40
0.05
  9
$TEXTSTYLE
  7
STANDARD
  9
$CLAYER
  8
0
  9
$CELTYPE
  6
CONTINUOUS
  9
$CECOLOR
 62
   256
  9
$CELTSCALE
 40
1.0
  9
$DISPSILH
 70
     0
  9
$DIMSCALE
 40
1.0
  9
$DIMASZ
 40
2.5
  9
$DIMEXO
 40
0.625
  9
$DIMDLI
 40
0.38
  9
$DIMRND
 40
0.0
  9
$DIMDLE
 40
0.0
  9
$DIMEXE
 40
1.25
  9
$DIMTP
 40
0.0
  9
$DIMTM
 40
0.0
  9
$DIMTXT
 40
2.5
  9
$DIMCEN
 40
0.09
  9
$DIMTSZ
 40
0.0
  9
$DIMTOL
 70
     0
  9
$DIMLIM
 70
     0
  9
$DIMTIH
 70
     1
  9
$DIMTOH
 70
     1
  9
$DIMSE1
 70
     0
  9
$DIMSE2
 70
     0
  9
$DIMTAD
 70
     0
  9
$DIMZIN
 70
     0
  9
$DIMBLK
  1

  9
$DIMASO
 70
     1
  9
$DIMSHO
 70
     1
  9
$DIMPOST
  1

  9
$DIMAPOST
  1

  9
$DIMALT
 70
     0
  9
$DIMALTD
 70
     2
  9
$DIMALTF
 40
25.4
  9
$DIMLFAC
 40
1.0
  9
$DIMTOFL
 70
     0
  9
$DIMTVP
 40
0.0
  9
$DIMTIX
 70
     0
  9
$DIMSOXD
 70
     0
  9
$DIMSAH
 70
     0
  9
$DIMBLK1
  1

  9
$DIMBLK2
  1

  9
$DIMSTYLE
  2
Standard
  9
$DIMCLRD
 70
     0
  9
$DIMCLRE
 70
     0
  9
$DIMCLRT
 70
     0
  9
$DIMTFAC
 40
1.0
  9
$DIMGAP
 40
0.625
  9
$DIMJUST
 70
     0
  9
$DIMSD1
 70
     0
  9
$DIMSD2
 70
     0
  9
$DIMTOLJ
 70
     1
  9
$DIMTZIN
 70
     0
  9
$DIMALTZ
 70
     0
  9
$DIMALTTZ
 70
     0
  9
$DIMUPT
 70
     0
  9
$DIMDEC
 70
     4
  9
$DIMTDEC
 70
     4
  9
$DIMALTU
 70
     2
  9
$DIMALTTD
 70
     2
  9
$DIMTXSTY
  7
STANDARD
  9
$DIMAUNIT
 70
     0
  9
$DIMADEC
 70
     0
  9
$DIMALTRND
 40
0.0
  9
$DIMAZIN
 70
     0
  9
$DIMDSEP
 70
    46
  9
$DIMATFIT
 70
     3
  9
$DIMFRAC
 70
     0
  9
$DIMLDRBLK
  1

  9
$DIMLUNIT
 70
     2
  9
$DIMLWD
 70
    -2
  9
$DIMLWE
 70
    -2
  9
$DIMTMOVE
 70
     0
  9
$LUNITS
 70
     2
  9
$LUPREC
 70
     4
  9
$SKETCHINC
 40
0.1
  9
$FILLETRAD
 40
0.0
  9
$AUNITS
 70
     0
  9
$AUPREC
 70
     0
  9
$MENU
  1

  9
$ELEVATION
 40
0.0
  9
$PELEVATION
 40
0.0
  9
$THICKNESS
 40
0.0
  9
$LIMCHECK
 70
     0
  9
$CHAMFERA
 40
0.0
  9
$CHAMFERB
 40
0.0
  9
$CHAMFERC
 40
0.0
  9
$CHAMFERD
 40
0.0
  9
$SKPOLY
 70
     0
  9
$TDCREATE
 40
2305814.598309676
  9
$TDUCREATE
 40
44644.556643009
  9
$TDUPDATE
 40
2459663.598861030
  9
$TDUUPDATE
 40
2459663.557194363
  9
$TDINDWG
 40
0.000385799
  9
$TDUSRTIMER
 40
0.000385799
  9
$USRTIMER
 70
     1
  9
$ANGBASE
 50
0.0
  9
$ANGDIR
 70
     0
  9
$PDMODE
 70
     0
  9
$PDSIZE
 40
0.0
  9
$PLINEWID
 40
0.0
  9
$SPLFRAME
 70
     0
  9
$SPLINETYPE
 70
     6
  9
$SPLINESEGS
 70
     8
  9
$HANDSEED
  5
1000232
  9
$SURFTAB1
 70
     6
  9
$SURFTAB2
 70
     6
  9
$SURFTYPE
 70
     6
  9
$SURFU
 70
     6
  9
$SURFV
 70
     6
  9
$UCSBASE
  2

  9
$UCSNAME
  2

  9
$UCSORG
 10
0.0
 20
0.0
 30
0.0
  9
$UCSXDIR
 10
1.0
 20
0.0
 30
0.0
  9
$UCSYDIR
 10
0.0
 20
1.0
 30
0.0
  9
$UCSORTHOREF
  2

  9
$UCSORTHOVIEW
 70
     0
  9
$UCSORGTOP
 10
0.0
 20
0.0
 30
0.0
  9
$UCSORGBOTTOM
 10
0.0
 20
0.0
 30
0.0
  9
$UCSORGLEFT
 10
0.0
 20
0.0
 30
0.0
  9
$UCSORGRIGHT
 10
0.0
 20
0.0
 30
0.0
  9
$UCSORGFRONT
 10
0.0
 20
0.0
 30
0.0
  9
$UCSORGBACK
 10
0.0
 20
0.0
 30
0.0
  9
$PUCSBASE
  2

  9
$PUCSNAME
  2

  9
$PUCSORG
 10
0.0
 20
0.0
 30
0.0
  9
$PUCSXDIR
 10
1.0
 20
0.0
 30
0.0
  9
$PUCSYDIR
 10
0.0
 20
1.0
 30
0.0
  9
$PUCSORTHOREF
  2

  9
$PUCSORTHOVIEW
 70
     0
  9
$PUCSORGTOP
 10
0.0
 20
0.0
 30
0.0
  9
$PUCSORGBOTTOM
 10
0.0
 20
0.0
 30
0.0
  9
$PUCSORGLEFT
 10
0.0
 20
0.0
 30
0.0
  9
$PUCSORGRIGHT
 10
0.0
 20
0.0
 30
0.0
  9
$PUCSORGFRONT
 10
0.0
 20
0.0
 30
0.0
  9
$PUCSORGBACK
 10
0.0
 20
0.0
 30
0.0
  9
$USERI1
 70
     0
  9
$USERI2
 70
     0
  9
$USERI3
 70
     0
  9
$USERI4
 70
     0
  9
$USERI5
 70
     0
  9
$USERR1
 40
0.0
  9
$USERR2
 40
0.0
  9
$USERR3
 40
0.0
  9
$USERR4
 40
0.0
  9
$USERR5
 40
0.0
  9
$WORLDVIEW
 70
     1
  9
$SHADEDGE
 70
     3
  9
$SHADEDIF
 70
    70
  9
$TILEMODE
 70
     1
  9
$MAXACTVP
 70
    64
  9
$PINSBASE
 10
0.0
 20
0.0
 30
0.0
  9
$PLIMCHECK
 70
     0
  9
$PEXTMIN
 10
1.000000000000000E+20
 20
1.000000000000000E+20
 30
1.000000000000000E+20
  9
$PEXTMAX
 10
-1.000000000000000E+20
 20
-1.000000000000000E+20
 30
-1.000000000000000E+20
  9
$PLIMMIN
 10
0.0
 20
0.0
  9
$PLIMMAX
 10
210.0
 20
297.0
  9
$UNITMODE
 70
     0
  9
$VISRETAIN
 70
     1
  9
$PLINEGEN
 70
     0
  9
$PSLTSCALE
 70
     1
  9
$TREEDEPTH
 70
  3020
  9
$CMLSTYLE
  2
Standard
  9
$CMLJUST
 70
     0
  9
$CMLSCALE
 40
1.0
  9
$PROXYGRAPHICS
 70
     1
  9
$MEASUREMENT
 70
     0
  9
$CELWEIGHT
370
    -1
  9
$ENDCAPS
280
     0
  9
$JOINSTYLE
280
     0
  9
$LWDISPLAY
290
     1
  9
$INSUNITS
 70
     6
  9
$HYPERLINKBASE
  1

  9
$STYLESHEET
  1

  9
$XEDIT
290
     0
  9
$CEPSNTYPE
380
     0
  9
$PSTYLEMODE
290
     1
  9
$FINGERPRINTGUID
  2
{9F18FDC6-398E-469D-8D25-A13C0AB96646}
  9
$VERSIONGUID
  2
{C30DE3D9-CA1E-4BF7-A195-E8F82302DFAB}
  9
$EXTNAMES
290
     1
  9
$PSVPSCALE
 40
0.0
  9
$OLESTARTUP
290
     0
  9
$SORTENTS
280
   127
  9
$INDEXCTL
280
     0
  9
$HIDETEXT
280
     1
  9
$XCLIPFRAME
290
     1
  9
$HALOGAP
280
     0
  9
$OBSCOLOR
 70
   257
  9
$OBSLTYPE
280
     0
  9
$INTERSECTIONDISPLAY
280
     0
  9
$INTERSECTIONCOLOR
 70
   257
  9
$DIMASSOC
280
     2
  9
$PROJECTNAME
  1

  0
ENDSEC
  0
SECTION
  2
CLASSES
  0
CLASS
  1
WIPEOUT
  2
AcDbWipeout
  3
WipeOut
 90
      127
 91
        0
280
     0
281
     1
  0
CLASS
  1
WIPEOUTVARIABLES
  2
AcDbWipeoutVariables
  3
WipeOut
 90
        0
 91
        1
280
     0
281
     0
  0
CLASS
  1
ACDBDICTIONARYWDFLT
  2
AcDbDictionaryWithDefault
  3
ObjectDBX Classes
 90
    32768
 91
        1
280
     0
281
     0
  0
CLASS
  1
MATERIAL
  2
AcDbMaterial
  3
ObjectDBX Classes
 90
        0
 91
        3
280
     0
281
     0
  0
CLASS
  1
VISUALSTYLE
  2
AcDbVisualStyle
  3
ObjectDBX Classes
 90
     4095
 91
       24
280
     0
281
     0
  0
CLASS
  1
TABLESTYLE
  2
AcDbTableStyle
  3
ObjectDBX Classes
 90
     2047
 91
        1
280
     0
281
     0
  0
CLASS
  1
MLEADERSTYLE
  2
AcDbMLeaderStyle
  3
ACDB_MLEADERSTYLE_CLASS
 90
     4095
 91
        1
280
     0
281
     0
  0
CLASS
  1
SCALE
  2
AcDbScale
  3
ObjectDBX Classes
 90
     1153
 91
       17
280
     0
281
     0
  0
CLASS
  1
SORTENTSTABLE
  2
AcDbSortentsTable
  3
ObjectDBX Classes
 90
        0
 91
        1
280
     0
281
     0
  0
CLASS
  1
DICTIONARYVAR
  2
AcDbDictionaryVar
  3
ObjectDBX Classes
 90
        0
 91
        5
280
     0
281
     0
  0
CLASS
  1
CELLSTYLEMAP
  2
AcDbCellStyleMap
  3
ObjectDBX Classes
 90
     1152
 91
        1
280
     0
281
     0
  0
ENDSEC
  0
SECTION
  2
TABLES
  0
TABLE
  2
VPORT
  5
1
102
{ACAD_XDICTIONARY
360
10001F3
102
}
330
0
100
AcDbSymbolTable
 70
     1
  0
VPORT
  5
2
330
1
100
AcDbSymbolTableRecord
100
AcDbViewportTableRecord
  2
*ACTIVE
 70
     0
 10
0.0
 20
0.0
 11
1.0
 21
1.0
 12
7581865.8650279
 22
5690771.326615352
 13
0.0
 23
0.0
 14
1.0
 24
1.0
 15
0.0
 25
0.0
 16
0.0
 26
0.0
 36
1.0
 17
0.0
 27
0.0
 37
0.0
 40
1602.219999998808
 41
2.099328859060402
 42
50.0
 43
0.0
 44
0.0
 50
0.0
 51
0.0
 71
     0
 72
   100
 73
     1
 74
     1
 75
     0
 76
     0
 77
     0
 78
     0
281
     0
 65
     1
110
0.0
120
0.0
130
0.0
111
1.0
121
0.0
131
0.0
112
0.0
122
1.0
132
0.0
 79
     0
146
0.0
  0
ENDTAB
  0
TABLE
  2
LTYPE
  5
3
330
0
100
AcDbSymbolTable
 70
     2
  0
LTYPE
  5
4
330
3
100
AcDbSymbolTableRecord
100
AcDbLinetypeTableRecord
  2
ByBlock
 70
     0
  3

 72
    65
 73
     0
 40
0.0
  0
LTYPE
  5
5
330
3
100
AcDbSymbolTableRecord
100
AcDbLinetypeTableRecord
  2
ByLayer
 70
     0
  3

 72
    65
 73
     0
 40
0.0
  0
LTYPE
  5
6
330
3
100
AcDbSymbolTableRecord
100
AcDbLinetypeTableRecord
  2
CONTINUOUS
 70
     0
  3
Solid line
 72
    65
 73
     0
 40
0.0
  0
LTYPE
  5
8
330
3
100
AcDbSymbolTableRecord
100
AcDbLinetypeTableRecord
  2
L_0_02
 70
     0
  3
Dzialka_ewidencyjna (MLineStyle)
 72
    65
 73
     0
 40
0.0
  0
ENDTAB
  0
TABLE
  2
LAYER
  5
9
330
0
100
AcDbSymbolTable
 70
     2
  0
LAYER
  5
A
102
{ACAD_XDICTIONARY
360
10001EF
102
}
330
9
100
AcDbSymbolTableRecord
100
AcDbLayerTableRecord
  2
0
 70
     0
 62
     7
  6
CONTINUOUS
370
    18
390
B
1071
 33554687
  0
LAYER
  5
C
102
{ACAD_XDICTIONARY
360
10001F1
102
}
330
9
100
AcDbSymbolTableRecord
100
AcDbLayerTableRecord
  2
dzailki
 70
     0
 62
    96
  6
L_0_02
370
    18
390
B
1071
 33554687
  0
ENDTAB
  0
TABLE
  2
STYLE
  5
D
330
0
100
AcDbSymbolTable
 70
     2
  0
STYLE
  5
E
330
D
100
AcDbSymbolTableRecord
100
AcDbTextStyleTableRecord
  2
STANDARD
 70
     0
 40
0.0
 41
1.0
 50
0.0
 71
     0
 42
0.2
  3
simplex.shx
  4

  0
STYLE
  5
F
330
D
100
AcDbSymbolTableRecord
100
AcDbTextStyleTableRecord
  2
STANDARD_ITALIC
 70
     0
 40
0.0
 41
1.0
 50
15.0
 71
     0
 42
0.2
  3
simplex.shx
  4

  0
ENDTAB
  0
TABLE
  2
VIEW
  5
10
330
0
100
AcDbSymbolTable
 70
     0
  0
ENDTAB
  0
TABLE
  2
UCS
  5
11
330
0
100
AcDbSymbolTable
 70
     0
  0
ENDTAB
  0
TABLE
  2
APPID
  5
12
330
0
100
AcDbSymbolTable
 70
     2
  0
APPID
  5
13
330
12
100
AcDbSymbolTableRecord
100
AcDbRegAppTableRecord
  2
ACAD
 70
     0
  0
APPID
  5
10001FB
330
12
100
AcDbSymbolTableRecord
100
AcDbRegAppTableRecord
  2
ACAD_MLEADERVER
 70
     0
  0
ENDTAB
  0
TABLE
  2
DIMSTYLE
  5
14
330
0
100
AcDbSymbolTable
 70
     1
100
AcDbDimStyleTable
 71
     0
  0
DIMSTYLE
105
15
330
14
100
AcDbSymbolTableRecord
100
AcDbDimStyleTableRecord
  2
Standard
 70
     0
340
E
  0
ENDTAB
  0
TABLE
  2
BLOCK_RECORD
  5
16
330
0
100
AcDbSymbolTable
 70
     2
  0
BLOCK_RECORD
  5
17
102
{ACAD_XDICTIONARY
360
1000034
102
}
330
16
100
AcDbSymbolTableRecord
100
AcDbBlockTableRecord
  2
*MODEL_SPACE
340
18
  0
BLOCK_RECORD
  5
19
330
16
100
AcDbSymbolTableRecord
100
AcDbBlockTableRecord
  2
*PAPER_SPACE
340
1A
  0
BLOCK_RECORD
  5
1B
330
16
100
AcDbSymbolTableRecord
100
AcDbBlockTableRecord
  2
L_0_02_1
340
0
102
{BLKREFS
331
27
331
29
331
2B
331
2D
331
2F
331
31
331
34
331
36
331
38
331
3A
331
3C
331
3E
331
40
331
42
331
44
331
46
331
48
331
4A
331
4C
331
4E
331
50
331
52
331
54
331
56
331
58
331
5B
331
5D
331
5F
331
61
331
63
331
65
331
68
331
6A
331
6C
331
6E
331
70
331
73
331
75
331
77
331
79
331
7C
331
7E
331
80
331
82
331
84
331
86
331
88
331
8B
331
8D
331
8F
331
91
331
93
331
95
331
97
331
99
331
9B
331
9E
331
A0
331
A2
331
A4
331
A6
331
A9
331
AB
331
AD
331
AF
331
B1
331
B3
331
B5
331
B7
331
B9
331
BB
331
BD
331
BF
331
C1
331
C3
331
C5
331
C7
331
C9
331
CC
331
CE
331
D0
331
D2
331
D4
331
D7
331
D9
331
DB
331
DD
331
DF
331
E1
331
E4
331
E6
331
E8
331
EA
331
EC
331
EE
331
F0
331
F3
331
F5
331
F7
331
F9
331
FB
331
FE
331
100
331
102
331
104
331
106
331
108
331
10A
331
10C
331
10E
331
110
331
112
331
114
331
116
331
118
331
11A
331
11C
331
11E
331
120
331
122
331
124
331
126
331
128
331
12A
331
12C
331
12E
331
130
331
132
331
134
331
136
331
138
331
13A
331
13C
331
13E
331
140
331
142
331
144
331
146
331
148
331
14A
331
14C
331
14E
331
150
331
152
331
154
102
}
  0
BLOCK_RECORD
  5
1D
330
16
100
AcDbSymbolTableRecord
100
AcDbBlockTableRecord
  2
L_0_02_2
340
0
102
{BLKREFS
331
28
331
2A
331
2C
331
2E
331
30
331
32
331
35
331
37
331
39
331
3B
331
3D
331
3F
331
41
331
43
331
45
331
47
331
49
331
4B
331
4D
331
4F
331
51
331
53
331
55
331
57
331
59
331
5C
331
5E
331
60
331
62
331
64
331
66
331
69
331
6B
331
6D
331
6F
331
71
331
74
331
76
331
78
331
7A
331
7D
331
7F
331
81
331
83
331
85
331
87
331
89
331
8C
331
8E
331
90
331
92
331
94
331
96
331
98
331
9A
331
9C
331
9F
331
A1
331
A3
331
A5
331
A7
331
AA
331
AC
331
AE
331
B0
331
B2
331
B4
331
B6
331
B8
331
BA
331
BC
331
BE
331
C0
331
C2
331
C4
331
C6
331
C8
331
CA
331
CD
331
CF
331
D1
331
D3
331
D5
331
D8
331
DA
331
DC
331
DE
331
E0
331
E2
331
E5
331
E7
331
E9
331
EB
331
ED
331
EF
331
F1
331
F4
331
F6
331
F8
331
FA
331
FC
331
FF
331
101
331
103
331
105
331
107
331
109
331
10B
331
10D
331
10F
331
111
331
113
331
115
331
117
331
119
331
11B
331
11D
331
11F
331
121
331
123
331
125
331
127
331
129
331
12B
331
12D
331
12F
331
131
331
133
331
135
331
137
331
139
331
13B
331
13D
331
13F
331
141
331
143
331
145
331
147
331
149
331
14B
331
14D
331
14F
331
151
331
153
331
155
102
}
  0
ENDTAB
  0
ENDSEC
  0
SECTION
  2
BLOCKS
  0
BLOCK
  5
1F
330
17
100
AcDbEntity
  8
0
100
AcDbBlockBegin
  2
*MODEL_SPACE
 70
     0
 10
0.0
 20
0.0
 30
0.0
  3
*MODEL_SPACE
  1

  0
ENDBLK
  5
20
330
17
100
AcDbEntity
  8
0
100
AcDbBlockEnd
  0
BLOCK
  5
21
330
19
100
AcDbEntity
 67
     1
  8
0
100
AcDbBlockBegin
  2
*PAPER_SPACE
 70
     0
 10
0.0
 20
0.0
 30
0.0
  3
*PAPER_SPACE
  1

  0
ENDBLK
  5
22
330
19
100
AcDbEntity
 67
     1
  8
0
100
AcDbBlockEnd
  0
BLOCK
  5
1C
330
1B
100
AcDbEntity
  8
0
 62
     0
370
    13
100
AcDbBlockBegin
  2
L_0_02_1
 70
     0
 10
0.0
 20
0.0
 30
0.0
  3
L_0_02_1
  1

  0
POINT
  5
23
330
1B
100
AcDbEntity
  8
0
 62
     0
100
AcDbPoint
 10
0.0
 20
0.0
 30
0.0
  0
ENDBLK
  5
24
330
1B
100
AcDbEntity
  8
0
100
AcDbBlockEnd
  0
BLOCK
  5
1E
330
1D
100
AcDbEntity
  8
0
 62
     0
370
    13
100
AcDbBlockBegin
  2
L_0_02_2
 70
     0
 10
0.0
 20
0.0
 30
0.0
  3
L_0_02_2
  1

  0
POINT
  5
25
330
1D
100
AcDbEntity
  8
0
 62
     0
100
AcDbPoint
 10
0.0
 20
0.0
 30
0.0
  0
ENDBLK
  5
26
330
1D
100
AcDbEntity
  8
0
100
AcDbBlockEnd
  0
ENDSEC
  0
SECTION
  2
ENTITIES
  0
TEXT
  5
157
330
17
100
AcDbEntity
  8
dzailki
370
    25
100
AcDbText
 39
0.25
 10
7581472.382142858
 20
5691288.345
 30
0.0
 40
1.25
  1
4-51/3
 41
0.6600000000000001
 72
     1
 11
7581474.7
 21
5691288.97
 31
0.0
100
AcDbText
 73
     2
  0
TEXT
  5
158
330
17
100
AcDbEntity
  8
dzailki
370
    25
100
AcDbText
 39
0.25
 10
7581064.599642857
 20
5690097.125
 30
0.0
 40
1.25
  1
4-188/4
 41
0.6600000000000001
 72
     1
 11
7581067.33
 21
5690097.749999999
 31
0.0
100
AcDbText
 73
     2
  0
TEXT
  5
159
330
17
100
AcDbEntity
  8
dzailki
370
    25
100
AcDbText
 39
0.25
 10
7581489.768571429
 20
5691016.095
 30
0.0
 40
1.25
  1
4-80
 41
0.6600000000000001
 72
     1
 11
7581491.34
 21
5691016.72
 31
0.0
100
AcDbText
 73
     2
  0
TEXT
  5
15A
330
17
100
AcDbEntity
  8
dzailki
370
    25
100
AcDbText
 39
0.25
 10
7581637.318571426
 20
5690866.945
 30
0.0
 40
1.25
  1
4-82
 41
0.6600000000000001
 72
     1
 11
7581638.889999999
 21
5690867.57
 31
0.0
100
AcDbText
 73
     2
  0
TEXT
  5
15B
330
17
100
AcDbEntity
  8
dzailki
370
    25
100
AcDbText
 39
0.25
 10
7580773.247857144
 20
5690546.855
 30
0.0
 40
1.25
  1
4-121/3
 41
0.6600000000000001
 72
     1
 11
7580775.88
 21
5690547.48
 31
0.0
100
AcDbText
 73
     2
  0
TEXT
  5
15C
330
17
100
AcDbEntity
  8
dzailki
370
    25
100
AcDbText
 39
0.25
 10
7580734.628214286
 20
5690422.785
 30
0.0
 40
1.25
  1
4-121/4
 41
0.6600000000000001
 72
     1
 11
7580737.280000001
 21
5690423.410000001
 31
0.0
100
AcDbText
 73
     2
  0
TEXT
  5
15D
330
17
100
AcDbEntity
  8
dzailki
370
    25
100
AcDbText
 39
0.25
 10
7580847.227857143
 20
5690515.615
 30
0.0
 40
1.25
  1
4-121/5
 41
0.6600000000000001
 72
     1
 11
7580849.86
 21
5690516.24
 31
0.0
100
AcDbText
 73
     2
  0
TEXT
  5
15E
330
17
100
AcDbEntity
  8
dzailki
370
    25
100
AcDbText
 39
0.25
 10
7582528.523928571
 20
5690197.165
 30
0.0
 40
1.25
  1
4-169
 41
0.6600000000000001
 72
     1
 11
7582530.389999999
 21
5690197.79
 31
0.0
100
AcDbText
 73
     2
  0
TEXT
  5
15F
330
17
100
AcDbEntity
  8
dzailki
370
    25
100
AcDbText
 39
0.25
 10
7584000.8875
 20
5690490.095
 30
0.0
 40
1.25
  1
4-292/1
 41
0.6600000000000001
 72
     1
 11
7584003.5
 21
5690490.72
 31
0.0
100
AcDbText
 73
     2
  0
TEXT
  5
160
330
17
100
AcDbEntity
  8
dzailki
370
    25
100
AcDbText
 39
0.25
 10
7583461.877500001
 20
5690228.475
 30
0.0
 40
1.25
  1
4-283/1
 41
0.6600000000000001
 72
     1
 11
7583464.489999999
 21
5690229.1
 31
0.0
100
AcDbText
 73
     2
  0
TEXT
  5
161
330
17
100
AcDbEntity
  8
dzailki
370
    25
100
AcDbText
 39
0.25
 10
7581471.675357144
 20
5690856.515
 30
0.0
 40
1.25
  1
4-81
 41
0.6600000000000001
 72
     1
 11
7581473.070000001
 21
5690857.139999999
 31
0.0
100
AcDbText
 73
     2
  0
TEXT
  5
162
330
17
100
AcDbEntity
  8
dzailki
370
    25
100
AcDbText
 39
0.25
 10
7581435.590357142
 20
5691210.985
 30
0.0
 40
1.25
  1
4-49/1
 41
0.6600000000000001
 72
     1
 11
7581437.809999998
 21
5691211.61
 31
0.0
100
AcDbText
 73
     2
  0
TEXT
  5
163
330
17
100
AcDbEntity
  8
dzailki
370
    25
100
AcDbText
 39
0.25
 10
7580827.404285714
 20
5690035.094999999
 30
0.0
 40
1.25
  1
4-180
 41
0.6600000000000001
 72
     1
 11
7580829.29
 21
5690035.72
 31
0.0
100
AcDbText
 73
     2
  0
TEXT
  5
164
330
17
100
AcDbEntity
  8
dzailki
370
    25
100
AcDbText
 39
0.25
 10
7581403.084285713
 20
5690097.355
 30
0.0
 40
1.25
  1
4-175
 41
0.6600000000000001
 72
     1
 11
7581404.969999998
 21
5690097.98
 31
0.0
100
AcDbText
 73
     2
  0
TEXT
  5
165
330
17
100
AcDbEntity
  8
dzailki
370
    35
100
AcDbText
 39
0.35
 10
7581457.831814417
 20
5691141.63620138
 30
0.0
 40
1.75
  1
-199.25-
 50
85.0
 41
0.6600000000000001
 72
     1
 11
7581458.772445429
 21
5691145.694663659
 31
0.0
100
AcDbText
 73
     1
  0
TEXT
  5
166
330
17
100
AcDbEntity
  8
dzailki
370
    35
100
AcDbText
 39
0.35
 10
7581461.997051469
 20
5691245.682833963
 30
0.0
 40
1.75
  1
-5.44-
 50
356.0
 41
0.6600000000000001
 72
     1
 11
7581465.08372349
 21
5691244.882235054
 31
0.0
100
AcDbText
 73
     1
  0
TEXT
  5
167
330
17
100
AcDbEntity
  8
dzailki
370
    35
100
AcDbText
 39
0.35
 10
7581467.891814416
 20
5691306.15620138
 30
0.0
 40
1.75
  1
-130.42-
 50
85.0
 41
0.6600000000000001
 72
     1
 11
7581468.832445429
 21
5691310.21466366
 31
0.0
100
AcDbText
 73
     1
  0
TEXT
  5
168
330
17
100
AcDbEntity
  8
dzailki
370
    35
100
AcDbText
 39
0.35
 10
7581443.819392616
 20
5691376.784552491
 30
0.0
 40
1.75
  1
-54.91-
 50
358.0
 41
0.6600000000000001
 72
     1
 11
7581447.371856783
 21
5691376.076808808
 31
0.0
100
AcDbText
 73
     1
  0
TEXT
  5
169
330
17
100
AcDbEntity
  8
dzailki
370
    35
100
AcDbText
 39
0.35
 10
7581405.161814418
 20
5691208.241201381
 30
0.0
 40
1.75
  1
-331.50-
 50
85.0
 41
0.6600000000000001
 72
     1
 11
7581406.10244543
 21
5691212.29966366
 31
0.0
100
AcDbText
 73
     1
  0
TEXT
  5
16A
330
17
100
AcDbEntity
  8
dzailki
370
    35
100
AcDbText
 39
0.35
 10
7581394.724392616
 20
5691047.459552489
 30
0.0
 40
1.75
  1
-13.00-
 50
358.0
 41
0.6600000000000001
 72
     1
 11
7581398.276856783
 21
5691046.751808807
 31
0.0
100
AcDbText
 73
     1
  0
TEXT
  5
16B
330
17
100
AcDbEntity
  8
dzailki
370
    35
100
AcDbText
 39
0.35
 10
7581423.340000001
 20
5691047.009999998
 30
0.0
 40
1.75
  1
-44.49-
 41
0.6600000000000001
 72
     1
 11
7581427.025
 21
5691046.426666665
 31
0.0
100
AcDbText
 73
     1
  0
TEXT
  5
16C
330
17
100
AcDbEntity
  8
dzailki
370
    35
100
AcDbText
 39
0.35
 10
7581476.992227285
 20
5691206.116619964
 30
0.0
 40
1.75
  1
-329.66-
 50
85.0
 41
0.6600000000000001
 72
     1
 11
7581477.942445429
 21
5691210.28466366
 31
0.0
100
AcDbText
 73
     1
  0
TEXT
  5
16D
330
17
100
AcDbEntity
  8
dzailki
370
    35
100
AcDbText
 39
0.35
 10
7581480.364392616
 20
5691375.259552489
 30
0.0
 40
1.75
  1
-18.24-
 50
358.0
 41
0.6600000000000001
 72
     1
 11
7581483.916856782
 21
5691374.551808807
 31
0.0
100
AcDbText
 73
     1
  0
TEXT
  5
16E
330
17
100
AcDbEntity
  8
dzailki
370
    35
100
AcDbText
 39
0.35
 10
7581452.476619324
 20
5691046.763499517
 30
0.0
 40
1.75
  1
-13.11-
 50
359.0
 41
0.6600000000000001
 72
     1
 11
7581455.820927771
 21
5691046.121702205
 31
0.0
100
AcDbText
 73
     1
  0
POINT
  5
1000036
330
17
100
AcDbEntity
  8
0
 62
     0
100
AcDbPoint
 10
7581462.38
 20
5691046.19
 30
0.0
 50
-178.56
  0
POINT
  5
1000037
330
17
100
AcDbEntity
  8
0
 62
     0
100
AcDbPoint
 10
7581449.269999999
 20
5691046.519999999
 30
0.0
 50
-358.56
  0
POINT
  5
1000038
330
17
100
AcDbEntity
  8
0
 62
     0
100
AcDbPoint
 10
7581449.269999999
 20
5691046.519999999
 30
0.0
 50
-84.65999999999999
  0
POINT
  5
1000039
330
17
100
AcDbEntity
  8
0
 62
     0
100
AcDbPoint
 10
7581467.809999999
 20
5691244.91
 30
0.0
 50
-264.66
  0
POINT
  5
100003A
330
17
100
AcDbEntity
  8
0
 62
     0
100
AcDbPoint
 10
7581467.809999999
 20
5691244.91
 30
0.0
 50
-175.67
  0
POINT
  5
100003B
330
17
100
AcDbEntity
  8
0
 62
     0
100
AcDbPoint
 10
7581462.389999999
 20
5691245.32
 30
0.0
 50
-355.67
  0
POINT
  5
100003C
330
17
100
AcDbEntity
  8
0
 62
     0
100
AcDbPoint
 10
7581462.389999999
 20
5691245.32
 30
0.0
 50
-84.54
  0
POINT
  5
100003D
330
17
100
AcDbEntity
  8
0
 62
     0
100
AcDbPoint
 10
7581474.809999998
 20
5691375.150000001
 30
0.0
 50
-264.54
  0
POINT
  5
100003E
330
17
100
AcDbEntity
  8
0
 62
     0
100
AcDbPoint
 10
7581474.809999998
 20
5691375.150000001
 30
0.0
 50
-357.71
  0
POINT
  5
100003F
330
17
100
AcDbEntity
  8
0
 62
     0
100
AcDbPoint
 10
7581493.04
 20
5691374.419999999
 30
0.0
 50
-177.71
  0
POINT
  5
1000040
330
17
100
AcDbEntity
  8
0
 62
     0
100
AcDbPoint
 10
7581493.04
 20
5691374.419999999
 30
0.0
 50
-264.66
  0
POINT
  5
1000041
330
17
100
AcDbEntity
  8
0
 62
     0
100
AcDbPoint
 10
7581462.38
 20
5691046.19
 30
0.0
 50
-84.65999999999999
  0
LINE
  5
1000042
330
17
100
AcDbEntity
  8
dzailki
  6
Continuous
370
    18
100
AcDbLine
 10
7581462.130079163
 20
5691046.196290914
 30
0.0
 11
7581449.519920836
 21
5691046.513709086
 31
0.0
  0
LINE
  5
1000043
330
17
100
AcDbEntity
  8
dzailki
  6
Continuous
370
    18
100
AcDbLine
 10
7581449.293261717
 20
5691046.768915431
 30
0.0
 11
7581467.786738281
 21
5691244.661084568
 31
0.0
  0
LINE
  5
1000044
330
17
100
AcDbEntity
  8
dzailki
  6
Continuous
370
    18
100
AcDbLine
 10
7581467.560712228
 20
5691244.928857562
 30
0.0
 11
7581462.639287768
 21
5691245.301142438
 31
0.0
  0
LINE
  5
1000045
330
17
100
AcDbEntity
  8
dzailki
  6
Continuous
370
    18
100
AcDbLine
 10
7581462.413807201
 20
5691245.568863853
 30
0.0
 11
7581474.786192797
 21
5691374.901136148
 31
0.0
  0
LINE
  5
1000046
330
17
100
AcDbEntity
  8
dzailki
  6
Continuous
370
    18
100
AcDbLine
 10
7581475.0597998
 20
5691375.139997046
 30
0.0
 11
7581492.790200197
 21
5691374.430002954
 31
0.0
  0
LINE
  5
1000047
330
17
100
AcDbEntity
  8
dzailki
  6
Continuous
370
    18
100
AcDbLine
 10
7581493.016748692
 20
5691374.171083595
 30
0.0
 11
7581462.403251308
 21
5691046.438916406
 31
0.0
  0
POINT
  5
1000048
330
17
100
AcDbEntity
  8
0
 62
     0
100
AcDbPoint
 10
7581192.65
 20
5690090.96
 30
0.0
 50
-22.65
  0
POINT
  5
1000049
330
17
100
AcDbEntity
  8
0
 62
     0
100
AcDbPoint
 10
7581220.309999999
 20
5690102.5
 30
0.0
 50
-202.65
  0
POINT
  5
100004A
330
17
100
AcDbEntity
  8
0
 62
     0
100
AcDbPoint
 10
7581220.309999999
 20
5690102.5
 30
0.0
 50
-304.6
  0
POINT
  5
100004B
330
17
100
AcDbEntity
  8
0
 62
     0
100
AcDbPoint
 10
7581238.509999999
 20
5690076.119999999
 30
0.0
 50
-124.5999999999999
  0
POINT
  5
100004C
330
17
100
AcDbEntity
  8
0
 62
     0
100
AcDbPoint
 10
7581238.509999999
 20
5690076.119999999
 30
0.0
 50
-200.78
  0
POINT
  5
100004D
330
17
100
AcDbEntity
  8
0
 62
     0
100
AcDbPoint
 10
7581235.69
 20
5690075.05
 30
0.0
 50
-20.78
  0
POINT
  5
100004E
330
17
100
AcDbEntity
  8
0
 62
     0
100
AcDbPoint
 10
7581235.69
 20
5690075.05
 30
0.0
 50
-125.14
  0
POINT
  5
100004F
330
17
100
AcDbEntity
  8
0
 62
     0
100
AcDbPoint
 10
7581230.91
 20
5690081.84
 30
0.0
 50
-305.14
  0
POINT
  5
1000050
330
17
100
AcDbEntity
  8
0
 62
     0
100
AcDbPoint
 10
7581230.91
 20
5690081.84
 30
0.0
 50
-198.52
  0
POINT
  5
1000051
330
17
100
AcDbEntity
  8
0
 62
     0
100
AcDbPoint
 10
7580967.4
 20
5689993.58
 30
0.0
 50
-18.52
  0
POINT
  5
1000052
330
17
100
AcDbEntity
  8
0
 62
     0
100
AcDbPoint
 10
7580967.4
 20
5689993.58
 30
0.0
 50
-105.41
  0
POINT
  5
1000053
330
17
100
AcDbEntity
  8
0
 62
     0
100
AcDbPoint
 10
7580943.2
 20
5690081.36
 30
0.0
 50
-285.41
  0
POINT
  5
1000054
330
17
100
AcDbEntity
  8
0
 62
     0
100
AcDbPoint
 10
7580943.2
 20
5690081.36
 30
0.0
 50
-24.54
  0
POINT
  5
1000055
330
17
100
AcDbEntity
  8
0
 62
     0
100
AcDbPoint
 10
7580981.38
 20
5690098.79
 30
0.0
 50
-204.54
  0
POINT
  5
1000056
330
17
100
AcDbEntity
  8
0
 62
     0
100
AcDbPoint
 10
7580981.38
 20
5690098.79
 30
0.0
 50
-316.2
  0
POINT
  5
1000057
330
17
100
AcDbEntity
  8
0
 62
     0
100
AcDbPoint
 10
7580997.67
 20
5690083.17
 30
0.0
 50
-136.2
  0
POINT
  5
1000058
330
17
100
AcDbEntity
  8
0
 62
     0
100
AcDbPoint
 10
7580997.67
 20
5690083.17
 30
0.0
 50
-336.84
  0
POINT
  5
1000059
330
17
100
AcDbEntity
  8
0
 62
     0
100
AcDbPoint
 10
7581016.769999998
 20
5690075.0
 30
0.0
 50
-156.84
  0
POINT
  5
100005A
330
17
100
AcDbEntity
  8
0
 62
     0
100
AcDbPoint
 10
7581016.769999998
 20
5690075.0
 30
0.0
 50
-16.76
  0
POINT
  5
100005B
330
17
100
AcDbEntity
  8
0
 62
     0
100
AcDbPoint
 10
7581024.74
 20
5690077.399999999
 30
0.0
 50
-196.7599999999999
  0
POINT
  5
100005C
330
17
100
AcDbEntity
  8
0
 62
     0
100
AcDbPoint
 10
7581024.74
 20
5690077.399999999
 30
0.0
 50
-55.51
  0
POINT
  5
100005D
330
17
100
AcDbEntity
  8
0
 62
     0
100
AcDbPoint
 10
7581030.139999999
 20
5690085.26
 30
0.0
 50
-235.51
  0
POINT
  5
100005E
330
17
100
AcDbEntity
  8
0
 62
     0
100
AcDbPoint
 10
7581030.139999999
 20
5690085.26
 30
0.0
 50
-102.48
  0
POINT
  5
100005F
330
17
100
AcDbEntity
  8
0
 62
     0
100
AcDbPoint
 10
7581027.389999999
 20
5690097.69
 30
0.0
 50
-282.48
  0
POINT
  5
1000060
330
17
100
AcDbEntity
  8
0
 62
     0
100
AcDbPoint
 10
7581027.389999999
 20
5690097.69
 30
0.0
 50
-128.21
  0
POINT
  5
1000061
330
17
100
AcDbEntity
  8
0
 62
     0
100
AcDbPoint
 10
7581018.37
 20
5690109.15
 30
0.0
 50
-308.21
  0
POINT
  5
1000062
330
17
100
AcDbEntity
  8
0
 62
     0
100
AcDbPoint
 10
7581018.37
 20
5690109.15
 30
0.0
 50
-134.5
  0
POINT
  5
1000063
330
17
100
AcDbEntity
  8
0
 62
     0
100
AcDbPoint
 10
7580998.969999999
 20
5690128.889999999
 30
0.0
 50
-314.5
  0
POINT
  5
1000064
330
17
100
AcDbEntity
  8
0
 62
     0
100
AcDbPoint
 10
7580998.969999999
 20
5690128.889999999
 30
0.0
 50
-20.42
  0
POINT
  5
1000065
330
17
100
AcDbEntity
  8
0
 62
     0
100
AcDbPoint
 10
7581045.620000001
 20
5690146.26
 30
0.0
 50
-200.4199999999999
  0
POINT
  5
1000066
330
17
100
AcDbEntity
  8
0
 62
     0
100
AcDbPoint
 10
7581045.620000001
 20
5690146.26
 30
0.0
 50
-24.92
  0
POINT
  5
1000067
330
17
100
AcDbEntity
  8
0
 62
     0
100
AcDbPoint
 10
7581057.349999999
 20
5690151.71
 30
0.0
 50
-204.92
  0
POINT
  5
1000068
330
17
100
AcDbEntity
  8
0
 62
     0
100
AcDbPoint
 10
7581057.349999999
 20
5690151.71
 30
0.0
 50
-88.03
  0
POINT
  5
1000069
330
17
100
AcDbEntity
  8
0
 62
     0
100
AcDbPoint
 10
7581057.98
 20
5690170.03
 30
0.0
 50
-268.03
  0
POINT
  5
100006A
330
17
100
AcDbEntity
  8
0
 62
     0
100
AcDbPoint
 10
7581057.98
 20
5690170.03
 30
0.0
 50
-15.85
  0
POINT
  5
100006B
330
17
100
AcDbEntity
  8
0
 62
     0
100
AcDbPoint
 10
7581135.0
 20
5690191.89
 30
0.0
 50
-195.85
  0
POINT
  5
100006C
330
17
100
AcDbEntity
  8
0
 62
     0
100
AcDbPoint
 10
7581135.0
 20
5690191.89
 30
0.0
 50
-299.73
  0
POINT
  5
100006D
330
17
100
AcDbEntity
  8
0
 62
     0
100
AcDbPoint
 10
7581192.65
 20
5690090.96
 30
0.0
 50
-119.73
  0
LINE
  5
100006E
330
17
100
AcDbEntity
  8
dzailki
  6
Continuous
370
    18
100
AcDbLine
 10
7581192.880724785
 20
5690091.056260449
 30
0.0
 11
7581220.079275214
 21
5690102.403739551
 31
0.0
  0
LINE
  5
100006F
330
17
100
AcDbEntity
  8
dzailki
  6
Continuous
370
    18
100
AcDbLine
 10
7581220.451969693
 20
5690102.29422195
 30
0.0
 11
7581238.368030304
 21
5690076.325778051
 31
0.0
  0
LINE
  5
1000070
330
17
100
AcDbEntity
  8
dzailki
  6
Continuous
370
    18
100
AcDbLine
 10
7581238.276260096
 20
5690076.031311455
 30
0.0
 11
7581235.923739901
 21
5690075.138688545
 31
0.0
  0
LINE
  5
1000071
330
17
100
AcDbEntity
  8
dzailki
  6
Continuous
370
    18
100
AcDbLine
 10
7581235.546089364
 20
5690075.254425362
 30
0.0
 11
7581231.053910637
 21
5690081.635574638
 31
0.0
  0
LINE
  5
1000072
330
17
100
AcDbEntity
  8
dzailki
  6
Continuous
370
    18
100
AcDbLine
 10
7581230.672943673
 20
5690081.760600389
 30
0.0
 11
7580967.637056327
 21
5689993.65939961
 31
0.0
  0
LINE
  5
1000073
330
17
100
AcDbEntity
  8
dzailki
  6
Continuous
370
    18
100
AcDbLine
 10
7580967.333556464
 20
5689993.82100883
 30
0.0
 11
7580943.266443538
 21
5690081.118991169
 31
0.0
  0
LINE
  5
1000074
330
17
100
AcDbEntity
  8
dzailki
  6
Continuous
370
    18
100
AcDbLine
 10
7580943.427422002
 20
5690081.463823087
 30
0.0
 11
7580981.152577999
 21
5690098.686176912
 31
0.0
  0
LINE
  5
1000075
330
17
100
AcDbEntity
  8
dzailki
  6
Continuous
370
    18
100
AcDbLine
 10
7580981.560448625
 20
5690098.616973141
 30
0.0
 11
7580997.489551375
 21
5690083.343026858
 31
0.0
  0
LINE
  5
1000076
330
17
100
AcDbEntity
  8
dzailki
  6
Continuous
370
    18
100
AcDbLine
 10
7580997.899854674
 20
5690083.071679964
 30
0.0
 11
7581016.540145326
 21
5690075.098320034
 31
0.0
  0
LINE
  5
1000077
330
17
100
AcDbEntity
  8
dzailki
  6
Continuous
370
    18
100
AcDbLine
 10
7581017.009382041
 20
5690075.072084932
 30
0.0
 11
7581024.500617956
 21
5690077.327915068
 31
0.0
  0
LINE
  5
1000078
330
17
100
AcDbEntity
  8
dzailki
  6
Continuous
370
    18
100
AcDbLine
 10
7581024.881565443
 20
5690077.606056367
 30
0.0
 11
7581029.998434558
 21
5690085.053943634
 31
0.0
  0
LINE
  5
1000079
330
17
100
AcDbEntity
  8
dzailki
  6
Continuous
370
    18
100
AcDbLine
 10
7581030.085996131
 20
5690085.504097485
 30
0.0
 11
7581027.444003868
 21
5690097.445902515
 31
0.0
  0
LINE
  5
100007A
330
17
100
AcDbEntity
  8
dzailki
  6
Continuous
370
    18
100
AcDbLine
 10
7581027.235378112
 20
5690097.886448651
 30
0.0
 11
7581018.524621886
 21
5690108.953551351
 31
0.0
  0
LINE
  5
100007B
330
17
100
AcDbEntity
  8
dzailki
  6
Continuous
370
    18
100
AcDbLine
 10
7581018.194765534
 20
5690109.328305586
 30
0.0
 11
7580999.145234466
 21
5690128.711694414
 31
0.0
  0
LINE
  5
100007C
330
17
100
AcDbEntity
  8
dzailki
  6
Continuous
370
    18
100
AcDbLine
 10
7580999.204285988
 20
5690128.977235747
 30
0.0
 11
7581045.385714011
 21
5690146.172764253
 31
0.0
  0
LINE
  5
100007D
330
17
100
AcDbEntity
  8
dzailki
  6
Continuous
370
    18
100
AcDbLine
 10
7581045.84672323
 20
5690146.365340291
 30
0.0
 11
7581057.12327677
 21
5690151.604659709
 31
0.0
  0
LINE
  5
100007E
330
17
100
AcDbEntity
  8
dzailki
  6
Continuous
370
    18
100
AcDbLine
 10
7581057.358592082
 20
5690151.959852308
 30
0.0
 11
7581057.971407916
 21
5690169.780147691
 31
0.0
  0
LINE
  5
100007F
330
17
100
AcDbEntity
  8
dzailki
  6
Continuous
370
    18
100
AcDbLine
 10
7581058.22050081
 20
5690170.098259513
 30
0.0
 11
7581134.759499191
 21
5690191.821740486
 31
0.0
  0
LINE
  5
1000080
330
17
100
AcDbEntity
  8
dzailki
  6
Continuous
370
    18
100
AcDbLine
 10
7581135.123995356
 20
5690191.672916717
 30
0.0
 11
7581192.526004643
 21
5690091.177083282
 31
0.0
  0
POINT
  5
1000081
330
17
100
AcDbEntity
  8
0
 62
     0
100
AcDbPoint
 10
7581635.509999999
 20
5690979.73
 30
0.0
 50
-178.73
  0
POINT
  5
1000082
330
17
100
AcDbEntity
  8
0
 62
     0
100
AcDbPoint
 10
7581399.25
 20
5690984.95
 30
0.0
 50
-358.73
  0
POINT
  5
1000083
330
17
100
AcDbEntity
  8
0
 62
     0
100
AcDbPoint
 10
7581399.25
 20
5690984.95
 30
0.0
 50
-84.89
  0
POINT
  5
1000084
330
17
100
AcDbEntity
  8
0
 62
     0
100
AcDbPoint
 10
7581404.78
 20
5691046.8
 30
0.0
 50
-264.89
  0
POINT
  5
1000085
330
17
100
AcDbEntity
  8
0
 62
     0
100
AcDbPoint
 10
7581404.78
 20
5691046.8
 30
0.0
 50
-359.64
  0
POINT
  5
1000086
330
17
100
AcDbEntity
  8
0
 62
     0
100
AcDbPoint
 10
7581449.269999999
 20
5691046.519999999
 30
0.0
 50
-179.64
  0
POINT
  5
1000087
330
17
100
AcDbEntity
  8
0
 62
     0
100
AcDbPoint
 10
7581449.269999999
 20
5691046.519999999
 30
0.0
 50
-358.56
  0
POINT
  5
1000088
330
17
100
AcDbEntity
  8
0
 62
     0
100
AcDbPoint
 10
7581462.38
 20
5691046.19
 30
0.0
 50
-178.56
  0
POINT
  5
1000089
330
17
100
AcDbEntity
  8
0
 62
     0
100
AcDbPoint
 10
7581462.38
 20
5691046.19
 30
0.0
 50
-358.53
  0
POINT
  5
100008A
330
17
100
AcDbEntity
  8
0
 62
     0
100
AcDbPoint
 10
7581640.62
 20
5691041.62
 30
0.0
 50
-178.53
  0
POINT
  5
100008B
330
17
100
AcDbEntity
  8
0
 62
     0
100
AcDbPoint
 10
7581640.62
 20
5691041.62
 30
0.0
 50
-265.28
  0
POINT
  5
100008C
330
17
100
AcDbEntity
  8
0
 62
     0
100
AcDbPoint
 10
7581635.509999999
 20
5690979.73
 30
0.0
 50
-85.28
  0
LINE
  5
100008D
330
17
100
AcDbEntity
  8
dzailki
  6
Continuous
370
    18
100
AcDbLine
 10
7581635.260060997
 20
5690979.735522228
 30
0.0
 11
7581399.499939001
 21
5690984.944477772
 31
0.0
  0
LINE
  5
100008E
330
17
100
AcDbEntity
  8
dzailki
  6
Continuous
370
    18
100
AcDbLine
 10
7581399.272263654
 20
5690985.199006686
 30
0.0
 11
7581404.757736346
 21
5691046.550993315
 31
0.0
  0
LINE
  5
100008F
330
17
100
AcDbEntity
  8
dzailki
  6
Continuous
370
    18
100
AcDbLine
 10
7581405.02999505
 20
5691046.798426643
 30
0.0
 11
7581449.020004951
 21
5691046.521573355
 31
0.0
  0
LINE
  5
1000090
330
17
100
AcDbEntity
  8
dzailki
  6
Continuous
370
    18
100
AcDbLine
 10
7581449.519920835
 20
5691046.513709086
 30
0.0
 11
7581462.130079162
 21
5691046.196290914
 31
0.0
  0
LINE
  5
1000091
330
17
100
AcDbEntity
  8
dzailki
  6
Continuous
370
    18
100
AcDbLine
 10
7581462.629917866
 20
5691046.18359221
 30
0.0
 11
7581640.370082133
 21
5691041.626407791
 31
0.0
  0
LINE
  5
1000092
330
17
100
AcDbEntity
  8
dzailki
  6
Continuous
370
    18
100
AcDbLine
 10
7581640.599428538
 20
5691041.370847807
 30
0.0
 11
7581635.530571461
 21
5690979.979152193
 31
0.0
  0
POINT
  5
1000093
330
17
100
AcDbEntity
  8
0
 62
     0
100
AcDbPoint
 10
7581659.25
 20
5690761.6
 30
0.0
 50
-181.27
  0
POINT
  5
1000094
330
17
100
AcDbEntity
  8
0
 62
     0
100
AcDbPoint
 10
7581652.019999999
 20
5690761.440000001
 30
0.0
 50
-1.27
  0
POINT
  5
1000095
330
17
100
AcDbEntity
  8
0
 62
     0
100
AcDbPoint
 10
7581652.019999999
 20
5690761.440000001
 30
0.0
 50
-181.31
  0
POINT
  5
1000096
330
17
100
AcDbEntity
  8
0
 62
     0
100
AcDbPoint
 10
7581619.63
 20
5690760.700000001
 30
0.0
 50
-1.31
  0
POINT
  5
1000097
330
17
100
AcDbEntity
  8
0
 62
     0
100
AcDbPoint
 10
7581619.63
 20
5690760.700000001
 30
0.0
 50
-84.56000000000001
  0
POINT
  5
1000098
330
17
100
AcDbEntity
  8
0
 62
     0
100
AcDbPoint
 10
7581646.21
 20
5691039.9
 30
0.0
 50
-264.56
  0
POINT
  5
1000099
330
17
100
AcDbEntity
  8
0
 62
     0
100
AcDbPoint
 10
7581646.21
 20
5691039.9
 30
0.0
 50
-358.99
  0
POINT
  5
100009A
330
17
100
AcDbEntity
  8
0
 62
     0
100
AcDbPoint
 10
7581685.889999999
 20
5691039.2
 30
0.0
 50
-178.99
  0
POINT
  5
100009B
330
17
100
AcDbEntity
  8
0
 62
     0
100
AcDbPoint
 10
7581685.889999999
 20
5691039.2
 30
0.0
 50
-264.52
  0
POINT
  5
100009C
330
17
100
AcDbEntity
  8
0
 62
     0
100
AcDbPoint
 10
7581659.25
 20
5690761.6
 30
0.0
 50
-84.51999999999999
  0
LINE
  5
100009D
330
17
100
AcDbEntity
  8
dzailki
  6
Continuous
370
    18
100
AcDbLine
 10
7581659.000061194
 20
5690761.594468851
 30
0.0
 11
7581652.269938805
 21
5690761.445531149
 31
0.0
  0
LINE
  5
100009E
330
17
100
AcDbEntity
  8
dzailki
  6
Continuous
370
    18
100
AcDbLine
 10
7581651.770065219
 20
5690761.434289851
 30
0.0
 11
7581619.879934778
 21
5690760.705710149
 31
0.0
  0
LINE
  5
100009F
330
17
100
AcDbEntity
  8
dzailki
  6
Continuous
370
    18
100
AcDbLine
 10
7581619.653693019
 20
5690760.948874749
 30
0.0
 11
7581646.186306982
 21
5691039.651125252
 31
0.0
  0
LINE
  5
10000A0
330
17
100
AcDbEntity
  8
dzailki
  6
Continuous
370
    18
100
AcDbLine
 10
7581646.459961108
 20
5691039.895590404
 30
0.0
 11
7581685.640038891
 21
5691039.204409596
 31
0.0
  0
LINE
  5
10000A1
330
17
100
AcDbEntity
  8
dzailki
  6
Continuous
370
    18
100
AcDbLine
 10
7581685.866118359
 20
5691038.95114328
 30
0.0
 11
7581659.273881638
 21
5690761.848856721
 31
0.0
  0
POINT
  5
10000A2
330
17
100
AcDbEntity
  8
0
 62
     0
100
AcDbPoint
 10
7580803.65
 20
5690484.23
 30
0.0
 50
-173.4
  0
POINT
  5
10000A3
330
17
100
AcDbEntity
  8
0
 62
     0
100
AcDbPoint
 10
7580758.209999999
 20
5690489.49
 30
0.0
 50
-353.4
  0
POINT
  5
10000A4
330
17
100
AcDbEntity
  8
0
 62
     0
100
AcDbPoint
 10
7580758.209999999
 20
5690489.49
 30
0.0
 50
-84.87
  0
POINT
  5
10000A5
330
17
100
AcDbEntity
  8
0
 62
     0
100
AcDbPoint
 10
7580769.710000001
 20
5690617.58
 30
0.0
 50
-264.87
  0
POINT
  5
10000A6
330
17
100
AcDbEntity
  8
0
 62
     0
100
AcDbPoint
 10
7580769.710000001
 20
5690617.58
 30
0.0
 50
-6.639999999999999
  0
POINT
  5
10000A7
330
17
100
AcDbEntity
  8
0
 62
     0
100
AcDbPoint
 10
7580814.009999999
 20
5690622.74
 30
0.0
 50
-186.6399999999999
  0
POINT
  5
10000A8
330
17
100
AcDbEntity
  8
0
 62
     0
100
AcDbPoint
 10
7580814.009999999
 20
5690622.74
 30
0.0
 50
-265.72
  0
POINT
  5
10000A9
330
17
100
AcDbEntity
  8
0
 62
     0
100
AcDbPoint
 10
7580803.65
 20
5690484.23
 30
0.0
 50
-85.72
  0
LINE
  5
10000AA
330
17
100
AcDbEntity
  8
dzailki
  6
Continuous
370
    18
100
AcDbLine
 10
7580803.401658315
 20
5690484.258747298
 30
0.0
 11
7580758.458341685
 21
5690489.461252702
 31
0.0
  0
LINE
  5
10000AB
330
17
100
AcDbEntity
  8
dzailki
  6
Continuous
370
    18
100
AcDbLine
 10
7580758.232355239
 20
5690489.73899848
 30
0.0
 11
7580769.687644761
 21
5690617.33100152
 31
0.0
  0
LINE
  5
10000AC
330
17
100
AcDbEntity
  8
dzailki
  6
Continuous
370
    18
100
AcDbLine
 10
7580769.958321156
 20
5690617.60892409
 30
0.0
 11
7580813.761678842
 21
5690622.71107591
 31
0.0
  0
LINE
  5
10000AD
330
17
100
AcDbEntity
  8
dzailki
  6
Continuous
370
    18
100
AcDbLine
 10
7580813.991353075
 20
5690622.490696386
 30
0.0
 11
7580803.668646923
 21
5690484.479303616
 31
0.0
  0
POINT
  5
10000AE
330
17
100
AcDbEntity
  8
0
 62
     0
100
AcDbPoint
 10
7580797.099999998
 20
5690396.709999999
 30
0.0
 50
-198.76
  0
POINT
  5
10000AF
330
17
100
AcDbEntity
  8
0
 62
     0
100
AcDbPoint
 10
7580748.38
 20
5690380.160000001
 30
0.0
 50
-18.76
  0
POINT
  5
10000B0
330
17
100
AcDbEntity
  8
0
 62
     0
100
AcDbPoint
 10
7580748.38
 20
5690380.160000001
 30
0.0
 50
-198.75
  0
POINT
  5
10000B1
330
17
100
AcDbEntity
  8
0
 62
     0
100
AcDbPoint
 10
7580688.62
 20
5690359.87
 30
0.0
 50
-18.75
  0
POINT
  5
10000B2
330
17
100
AcDbEntity
  8
0
 62
     0
100
AcDbPoint
 10
7580688.62
 20
5690359.87
 30
0.0
 50
-84.51999999999999
  0
POINT
  5
10000B3
330
17
100
AcDbEntity
  8
0
 62
     0
100
AcDbPoint
 10
7580697.75
 20
5690455.05
 30
0.0
 50
-264.52
  0
POINT
  5
10000B4
330
17
100
AcDbEntity
  8
0
 62
     0
100
AcDbPoint
 10
7580697.75
 20
5690455.05
 30
0.0
 50
-356.29
  0
POINT
  5
10000B5
330
17
100
AcDbEntity
  8
0
 62
     0
100
AcDbPoint
 10
7580754.780000001
 20
5690451.35
 30
0.0
 50
-176.29
  0
POINT
  5
10000B6
330
17
100
AcDbEntity
  8
0
 62
     0
100
AcDbPoint
 10
7580754.780000001
 20
5690451.35
 30
0.0
 50
-84.86
  0
POINT
  5
10000B7
330
17
100
AcDbEntity
  8
0
 62
     0
100
AcDbPoint
 10
7580757.94
 20
5690486.509999999
 30
0.0
 50
-264.86
  0
POINT
  5
10000B8
330
17
100
AcDbEntity
  8
0
 62
     0
100
AcDbPoint
 10
7580757.94
 20
5690486.509999999
 30
0.0
 50
-353.39
  0
POINT
  5
10000B9
330
17
100
AcDbEntity
  8
0
 62
     0
100
AcDbPoint
 10
7580803.429999998
 20
5690481.24
 30
0.0
 50
-173.39
  0
POINT
  5
10000BA
330
17
100
AcDbEntity
  8
0
 62
     0
100
AcDbPoint
 10
7580803.429999998
 20
5690481.24
 30
0.0
 50
-265.72
  0
POINT
  5
10000BB
330
17
100
AcDbEntity
  8
0
 62
     0
100
AcDbPoint
 10
7580797.099999998
 20
5690396.709999999
 30
0.0
 50
-85.72
  0
LINE
  5
10000BC
330
17
100
AcDbEntity
  8
dzailki
  6
Continuous
370
    18
100
AcDbLine
 10
7580796.863284905
 20
5690396.629588778
 30
0.0
 11
7580748.616715092
 21
5690380.240411222
 31
0.0
  0
LINE
  5
10000BD
330
17
100
AcDbEntity
  8
dzailki
  6
Continuous
370
    18
100
AcDbLine
 10
7580748.143272548
 20
5690380.079625168
 30
0.0
 11
7580688.856727451
 21
5690359.950374832
 31
0.0
  0
LINE
  5
10000BE
330
17
100
AcDbEntity
  8
dzailki
  6
Continuous
370
    18
100
AcDbLine
 10
7580688.643871306
 20
5690360.118857711
 30
0.0
 11
7580697.726128694
 21
5690454.801142289
 31
0.0
  0
LINE
  5
10000BF
330
17
100
AcDbEntity
  8
dzailki
  6
Continuous
370
    18
100
AcDbLine
 10
7580697.999475509
 20
5690455.033814495
 30
0.0
 11
7580754.530524491
 21
5690451.366185505
 31
0.0
  0
LINE
  5
10000C0
330
17
100
AcDbEntity
  8
dzailki
  6
Continuous
370
    18
100
AcDbLine
 10
7580754.802378516
 20
5690451.598996389
 30
0.0
 11
7580757.917621485
 21
5690486.26100361
 31
0.0
  0
LINE
  5
10000C1
330
17
100
AcDbEntity
  8
dzailki
  6
Continuous
370
    18
100
AcDbLine
 10
7580758.188339058
 20
5690486.48123001
 30
0.0
 11
7580803.181660942
 21
5690481.26876999
 31
0.0
  0
LINE
  5
10000C2
330
17
100
AcDbEntity
  8
dzailki
  6
Continuous
370
    18
100
AcDbLine
 10
7580803.411331106
 20
5690480.99069803
 30
0.0
 11
7580797.118668892
 21
5690396.95930197
 31
0.0
  0
POINT
  5
10000C3
330
17
100
AcDbEntity
  8
0
 62
     0
100
AcDbPoint
 10
7580869.17
 20
5690420.65
 30
0.0
 50
-198.3699999999999
  0
POINT
  5
10000C4
330
17
100
AcDbEntity
  8
0
 62
     0
100
AcDbPoint
 10
7580844.809999998
 20
5690412.559999999
 30
0.0
 50
-18.37
  0
POINT
  5
10000C5
330
17
100
AcDbEntity
  8
0
 62
     0
100
AcDbPoint
 10
7580844.809999998
 20
5690412.559999999
 30
0.0
 50
-198.38
  0
POINT
  5
10000C6
330
17
100
AcDbEntity
  8
0
 62
     0
100
AcDbPoint
 10
7580797.099999998
 20
5690396.709999999
 30
0.0
 50
-18.38
  0
POINT
  5
10000C7
330
17
100
AcDbEntity
  8
0
 62
     0
100
AcDbPoint
 10
7580797.099999998
 20
5690396.709999999
 30
0.0
 50
-85.72
  0
POINT
  5
10000C8
330
17
100
AcDbEntity
  8
0
 62
     0
100
AcDbPoint
 10
7580803.429999998
 20
5690481.24
 30
0.0
 50
-265.72
  0
POINT
  5
10000C9
330
17
100
AcDbEntity
  8
0
 62
     0
100
AcDbPoint
 10
7580803.429999998
 20
5690481.24
 30
0.0
 50
-173.39
  0
POINT
  5
10000CA
330
17
100
AcDbEntity
  8
0
 62
     0
100
AcDbPoint
 10
7580757.94
 20
5690486.509999999
 30
0.0
 50
-353.39
  0
POINT
  5
10000CB
330
17
100
AcDbEntity
  8
0
 62
     0
100
AcDbPoint
 10
7580757.94
 20
5690486.509999999
 30
0.0
 50
-84.81999999999999
  0
POINT
  5
10000CC
330
17
100
AcDbEntity
  8
0
 62
     0
100
AcDbPoint
 10
7580758.209999999
 20
5690489.49
 30
0.0
 50
-264.82
  0
POINT
  5
10000CD
330
17
100
AcDbEntity
  8
0
 62
     0
100
AcDbPoint
 10
7580758.209999999
 20
5690489.49
 30
0.0
 50
-353.4
  0
POINT
  5
10000CE
330
17
100
AcDbEntity
  8
0
 62
     0
100
AcDbPoint
 10
7580803.65
 20
5690484.23
 30
0.0
 50
-173.4
  0
POINT
  5
10000CF
330
17
100
AcDbEntity
  8
0
 62
     0
100
AcDbPoint
 10
7580803.65
 20
5690484.23
 30
0.0
 50
-85.72
  0
POINT
  5
10000D0
330
17
100
AcDbEntity
  8
0
 62
     0
100
AcDbPoint
 10
7580814.009999999
 20
5690622.74
 30
0.0
 50
-265.72
  0
POINT
  5
10000D1
330
17
100
AcDbEntity
  8
0
 62
     0
100
AcDbPoint
 10
7580814.009999999
 20
5690622.74
 30
0.0
 50
-6.65
  0
POINT
  5
10000D2
330
17
100
AcDbEntity
  8
0
 62
     0
100
AcDbPoint
 10
7580884.639999999
 20
5690630.969999999
 30
0.0
 50
-186.65
  0
POINT
  5
10000D3
330
17
100
AcDbEntity
  8
0
 62
     0
100
AcDbPoint
 10
7580884.639999999
 20
5690630.969999999
 30
0.0
 50
-265.79
  0
POINT
  5
10000D4
330
17
100
AcDbEntity
  8
0
 62
     0
100
AcDbPoint
 10
7580869.17
 20
5690420.65
 30
0.0
 50
-85.79
  0
LINE
  5
10000D5
330
17
100
AcDbEntity
  8
dzailki
  6
Continuous
370
    18
100
AcDbLine
 10
7580868.932741665
 20
5690420.571206078
 30
0.0
 11
7580845.047258335
 21
5690412.638793921
 31
0.0
  0
LINE
  5
10000D6
330
17
100
AcDbEntity
  8
dzailki
  6
Continuous
370
    18
100
AcDbLine
 10
7580844.57274973
 20
5690412.48118179
 30
0.0
 11
7580797.337250267
 21
5690396.788818209
 31
0.0
  0
LINE
  5
10000D7
330
17
100
AcDbEntity
  8
dzailki
  6
Continuous
370
    18
100
AcDbLine
 10
7580797.118668892
 20
5690396.95930197
 30
0.0
 11
7580803.411331106
 21
5690480.99069803
 31
0.0
  0
LINE
  5
10000D8
330
17
100
AcDbEntity
  8
dzailki
  6
Continuous
370
    18
100
AcDbLine
 10
7580803.18166094
 20
5690481.26876999
 30
0.0
 11
7580758.188339058
 21
5690486.48123001
 31
0.0
  0
LINE
  5
10000D9
330
17
100
AcDbEntity
  8
dzailki
  6
Continuous
370
    18
100
AcDbLine
 10
7580757.962558603
 20
5690486.758980138
 30
0.0
 11
7580758.187441396
 21
5690489.241019862
 31
0.0
  0
LINE
  5
10000DA
330
17
100
AcDbEntity
  8
dzailki
  6
Continuous
370
    18
100
AcDbLine
 10
7580758.458341685
 20
5690489.461252702
 30
0.0
 11
7580803.401658315
 21
5690484.258747298
 31
0.0
  0
LINE
  5
10000DB
330
17
100
AcDbEntity
  8
dzailki
  6
Continuous
370
    18
100
AcDbLine
 10
7580803.668646924
 20
5690484.479303616
 30
0.0
 11
7580813.991353076
 21
5690622.490696386
 31
0.0
  0
LINE
  5
10000DC
330
17
100
AcDbEntity
  8
dzailki
  6
Continuous
370
    18
100
AcDbLine
 10
7580814.258319894
 20
5690622.768934911
 30
0.0
 11
7580884.391680102
 21
5690630.941065088
 31
0.0
  0
LINE
  5
10000DD
330
17
100
AcDbEntity
  8
dzailki
  6
Continuous
370
    18
100
AcDbLine
 10
7580884.621660896
 20
5690630.720673552
 30
0.0
 11
7580869.188339102
 21
5690420.899326447
 31
0.0
  0
POINT
  5
10000DE
330
17
100
AcDbEntity
  8
0
 62
     0
100
AcDbPoint
 10
7582614.17
 20
5690171.23
 30
0.0
 50
-208.9799999999999
  0
POINT
  5
10000DF
330
17
100
AcDbEntity
  8
0
 62
     0
100
AcDbPoint
 10
7582569.559999999
 20
5690146.519999999
 30
0.0
 50
-28.98
  0
POINT
  5
10000E0
330
17
100
AcDbEntity
  8
0
 62
     0
100
AcDbPoint
 10
7582569.559999999
 20
5690146.519999999
 30
0.0
 50
-143.84
  0
POINT
  5
10000E1
330
17
100
AcDbEntity
  8
0
 62
     0
100
AcDbPoint
 10
7582495.219999999
 20
5690200.85
 30
0.0
 50
-323.84
  0
POINT
  5
10000E2
330
17
100
AcDbEntity
  8
0
 62
     0
100
AcDbPoint
 10
7582495.219999999
 20
5690200.85
 30
0.0
 50
-35.85
  0
POINT
  5
10000E3
330
17
100
AcDbEntity
  8
0
 62
     0
100
AcDbPoint
 10
7582527.969999999
 20
5690224.51
 30
0.0
 50
-215.85
  0
POINT
  5
10000E4
330
17
100
AcDbEntity
  8
0
 62
     0
100
AcDbPoint
 10
7582527.969999999
 20
5690224.51
 30
0.0
 50
-42.96999999999999
  0
POINT
  5
10000E5
330
17
100
AcDbEntity
  8
0
 62
     0
100
AcDbPoint
 10
7582533.09
 20
5690229.280000001
 30
0.0
 50
-222.97
  0
POINT
  5
10000E6
330
17
100
AcDbEntity
  8
0
 62
     0
100
AcDbPoint
 10
7582533.09
 20
5690229.280000001
 30
0.0
 50
-324.4
  0
POINT
  5
10000E7
330
17
100
AcDbEntity
  8
0
 62
     0
100
AcDbPoint
 10
7582614.17
 20
5690171.23
 30
0.0
 50
-144.4
  0
LINE
  5
10000E8
330
17
100
AcDbEntity
  8
dzailki
  6
Continuous
370
    18
100
AcDbLine
 10
7582613.951308235
 20
5690171.108864077
 30
0.0
 11
7582569.778691765
 21
5690146.641135923
 31
0.0
  0
LINE
  5
10000E9
330
17
100
AcDbEntity
  8
dzailki
  6
Continuous
370
    18
100
AcDbLine
 10
7582569.358158187
 20
5690146.667512315
 30
0.0
 11
7582495.42184181
 21
5690200.702487684
 31
0.0
  0
LINE
  5
10000EA
330
17
100
AcDbEntity
  8
dzailki
  6
Continuous
370
    18
100
AcDbLine
 10
7582495.422648592
 20
5690200.996402007
 30
0.0
 11
7582527.767351406
 21
5690224.363597992
 31
0.0
  0
LINE
  5
10000EB
330
17
100
AcDbEntity
  8
dzailki
  6
Continuous
370
    18
100
AcDbLine
 10
7582528.152918187
 20
5690224.680414014
 30
0.0
 11
7582532.907081811
 21
5690229.109585986
 31
0.0
  0
LINE
  5
10000EC
330
17
100
AcDbEntity
  8
dzailki
  6
Continuous
370
    18
100
AcDbLine
 10
7582533.293272316
 20
5690229.134465245
 30
0.0
 11
7582613.966727683
 21
5690171.375534756
 31
0.0
  0
POINT
  5
10000ED
330
17
100
AcDbEntity
  8
0
 62
     0
100
AcDbPoint
 10
7584010.880000001
 20
5690452.63
 30
0.0
 50
-241.84
  0
POINT
  5
10000EE
330
17
100
AcDbEntity
  8
0
 62
     0
100
AcDbPoint
 10
7583994.5
 20
5690422.03
 30
0.0
 50
-61.84000000000001
  0
POINT
  5
10000EF
330
17
100
AcDbEntity
  8
0
 62
     0
100
AcDbPoint
 10
7583994.5
 20
5690422.03
 30
0.0
 50
-145.79
  0
POINT
  5
10000F0
330
17
100
AcDbEntity
  8
0
 62
     0
100
AcDbPoint
 10
7583947.61
 20
5690453.91
 30
0.0
 50
-325.79
  0
POINT
  5
10000F1
330
17
100
AcDbEntity
  8
0
 62
     0
100
AcDbPoint
 10
7583947.61
 20
5690453.91
 30
0.0
 50
-53.17
  0
POINT
  5
10000F2
330
17
100
AcDbEntity
  8
0
 62
     0
100
AcDbPoint
 10
7583969.24
 20
5690482.789999999
 30
0.0
 50
-233.17
  0
POINT
  5
10000F3
330
17
100
AcDbEntity
  8
0
 62
     0
100
AcDbPoint
 10
7583969.24
 20
5690482.789999999
 30
0.0
 50
-45.17
  0
POINT
  5
10000F4
330
17
100
AcDbEntity
  8
0
 62
     0
100
AcDbPoint
 10
7584015.389999999
 20
5690529.22
 30
0.0
 50
-225.17
  0
POINT
  5
10000F5
330
17
100
AcDbEntity
  8
0
 62
     0
100
AcDbPoint
 10
7584015.389999999
 20
5690529.22
 30
0.0
 50
-37.6
  0
POINT
  5
10000F6
330
17
100
AcDbEntity
  8
0
 62
     0
100
AcDbPoint
 10
7584043.139999998
 20
5690550.589999999
 30
0.0
 50
-217.6
  0
POINT
  5
10000F7
330
17
100
AcDbEntity
  8
0
 62
     0
100
AcDbPoint
 10
7584043.139999998
 20
5690550.589999999
 30
0.0
 50
-20.15
  0
POINT
  5
10000F8
330
17
100
AcDbEntity
  8
0
 62
     0
100
AcDbPoint
 10
7584067.15
 20
5690559.4
 30
0.0
 50
-200.15
  0
POINT
  5
10000F9
330
17
100
AcDbEntity
  8
0
 62
     0
100
AcDbPoint
 10
7584067.15
 20
5690559.4
 30
0.0
 50
-12.1
  0
POINT
  5
10000FA
330
17
100
AcDbEntity
  8
0
 62
     0
100
AcDbPoint
 10
7584094.570000001
 20
5690565.28
 30
0.0
 50
-192.0999999999999
  0
POINT
  5
10000FB
330
17
100
AcDbEntity
  8
0
 62
     0
100
AcDbPoint
 10
7584094.570000001
 20
5690565.28
 30
0.0
 50
-24.13
  0
POINT
  5
10000FC
330
17
100
AcDbEntity
  8
0
 62
     0
100
AcDbPoint
 10
7584109.53
 20
5690571.98
 30
0.0
 50
-204.13
  0
POINT
  5
10000FD
330
17
100
AcDbEntity
  8
0
 62
     0
100
AcDbPoint
 10
7584109.53
 20
5690571.98
 30
0.0
 50
-44.09
  0
POINT
  5
10000FE
330
17
100
AcDbEntity
  8
0
 62
     0
100
AcDbPoint
 10
7584125.86
 20
5690587.799999999
 30
0.0
 50
-224.09
  0
POINT
  5
10000FF
330
17
100
AcDbEntity
  8
0
 62
     0
100
AcDbPoint
 10
7584125.86
 20
5690587.799999999
 30
0.0
 50
-319.68
  0
POINT
  5
1000100
330
17
100
AcDbEntity
  8
0
 62
     0
100
AcDbPoint
 10
7584152.340000001
 20
5690565.33
 30
0.0
 50
-139.68
  0
POINT
  5
1000101
330
17
100
AcDbEntity
  8
0
 62
     0
100
AcDbPoint
 10
7584152.340000001
 20
5690565.33
 30
0.0
 50
-223.4
  0
POINT
  5
1000102
330
17
100
AcDbEntity
  8
0
 62
     0
100
AcDbPoint
 10
7584141.690000001
 20
5690555.26
 30
0.0
 50
-43.39999999999999
  0
POINT
  5
1000103
330
17
100
AcDbEntity
  8
0
 62
     0
100
AcDbPoint
 10
7584141.690000001
 20
5690555.26
 30
0.0
 50
-197.08
  0
POINT
  5
1000104
330
17
100
AcDbEntity
  8
0
 62
     0
100
AcDbPoint
 10
7584135.440000001
 20
5690553.34
 30
0.0
 50
-17.08
  0
POINT
  5
1000105
330
17
100
AcDbEntity
  8
0
 62
     0
100
AcDbPoint
 10
7584135.440000001
 20
5690553.34
 30
0.0
 50
-208.4
  0
POINT
  5
1000106
330
17
100
AcDbEntity
  8
0
 62
     0
100
AcDbPoint
 10
7584119.61
 20
5690544.78
 30
0.0
 50
-28.4
  0
POINT
  5
1000107
330
17
100
AcDbEntity
  8
0
 62
     0
100
AcDbPoint
 10
7584119.61
 20
5690544.78
 30
0.0
 50
-205.28
  0
POINT
  5
1000108
330
17
100
AcDbEntity
  8
0
 62
     0
100
AcDbPoint
 10
7584088.150000001
 20
5690529.92
 30
0.0
 50
-25.28
  0
POINT
  5
1000109
330
17
100
AcDbEntity
  8
0
 62
     0
100
AcDbPoint
 10
7584088.150000001
 20
5690529.92
 30
0.0
 50
-217.5
  0
POINT
  5
100010A
330
17
100
AcDbEntity
  8
0
 62
     0
100
AcDbPoint
 10
7584060.13
 20
5690508.419999999
 30
0.0
 50
-37.5
  0
POINT
  5
100010B
330
17
100
AcDbEntity
  8
0
 62
     0
100
AcDbPoint
 10
7584060.13
 20
5690508.419999999
 30
0.0
 50
-213.66
  0
POINT
  5
100010C
330
17
100
AcDbEntity
  8
0
 62
     0
100
AcDbPoint
 10
7584035.679999999
 20
5690492.139999999
 30
0.0
 50
-33.66
  0
POINT
  5
100010D
330
17
100
AcDbEntity
  8
0
 62
     0
100
AcDbPoint
 10
7584035.679999999
 20
5690492.139999999
 30
0.0
 50
-237.88
  0
POINT
  5
100010E
330
17
100
AcDbEntity
  8
0
 62
     0
100
AcDbPoint
 10
7584010.880000001
 20
5690452.63
 30
0.0
 50
-57.88
  0
LINE
  5
100010F
330
17
100
AcDbEntity
  8
dzailki
  6
Continuous
370
    18
100
AcDbLine
 10
7584010.76201661
 20
5690452.409591471
 30
0.0
 11
7583994.617983389
 21
5690422.250408529
 31
0.0
  0
LINE
  5
1000110
330
17
100
AcDbEntity
  8
dzailki
  6
Continuous
370
    18
100
AcDbLine
 10
7583994.293257715
 20
5690422.170561828
 30
0.0
 11
7583947.816742286
 21
5690453.769438172
 31
0.0
  0
LINE
  5
1000111
330
17
100
AcDbEntity
  8
dzailki
  6
Continuous
370
    18
100
AcDbLine
 10
7583947.759866937
 20
5690454.110099729
 30
0.0
 11
7583969.090133064
 21
5690482.589900272
 31
0.0
  0
LINE
  5
1000112
330
17
100
AcDbEntity
  8
dzailki
  6
Continuous
370
    18
100
AcDbLine
 10
7583969.416241244
 20
5690482.96731053
 30
0.0
 11
7584015.213758756
 21
5690529.04268947
 31
0.0
  0
LINE
  5
1000113
330
17
100
AcDbEntity
  8
dzailki
  6
Continuous
370
    18
100
AcDbLine
 10
7584015.588073711
 20
5690529.372534602
 30
0.0
 11
7584042.941926287
 21
5690550.437465398
 31
0.0
  0
LINE
  5
1000114
330
17
100
AcDbEntity
  8
dzailki
  6
Continuous
370
    18
100
AcDbLine
 10
7584043.374699062
 20
5690550.676118231
 30
0.0
 11
7584066.915300937
 21
5690559.313881768
 31
0.0
  0
LINE
  5
1000115
330
17
100
AcDbEntity
  8
dzailki
  6
Continuous
370
    18
100
AcDbLine
 10
7584067.394442773
 20
5690559.4524188
 30
0.0
 11
7584094.325557227
 21
5690565.227581201
 31
0.0
  0
LINE
  5
1000116
330
17
100
AcDbEntity
  8
dzailki
  6
Continuous
370
    18
100
AcDbLine
 10
7584094.798162653
 20
5690565.382185146
 30
0.0
 11
7584109.301837347
 21
5690571.877814855
 31
0.0
  0
LINE
  5
1000117
330
17
100
AcDbEntity
  8
dzailki
  6
Continuous
370
    18
100
AcDbLine
 10
7584109.709558339
 20
5690572.153950577
 30
0.0
 11
7584125.680441661
 21
5690587.626049423
 31
0.0
  0
LINE
  5
1000118
330
17
100
AcDbEntity
  8
dzailki
  6
Continuous
370
    18
100
AcDbLine
 10
7584126.050619751
 20
5690587.63824676
 30
0.0
 11
7584152.149380249
 21
5690565.49175324
 31
0.0
  0
LINE
  5
1000119
330
17
100
AcDbEntity
  8
dzailki
  6
Continuous
370
    18
100
AcDbLine
 10
7584152.158346078
 20
5690565.158238967
 30
0.0
 11
7584141.871653923
 21
5690555.431761033
 31
0.0
  0
LINE
  5
100011A
330
17
100
AcDbEntity
  8
dzailki
  6
Continuous
370
    18
100
AcDbLine
 10
7584141.451022203
 20
5690555.186586021
 30
0.0
 11
7584135.678977798
 21
5690553.413413979
 31
0.0
  0
LINE
  5
100011B
330
17
100
AcDbEntity
  8
dzailki
  6
Continuous
370
    18
100
AcDbLine
 10
7584135.220092222
 20
5690553.221085876
 30
0.0
 11
7584119.829907779
 21
5690544.898914124
 31
0.0
  0
LINE
  5
100011C
330
17
100
AcDbEntity
  8
dzailki
  6
Continuous
370
    18
100
AcDbLine
 10
7584119.383948628
 20
5690544.673225576
 30
0.0
 11
7584088.376051372
 21
5690530.026774424
 31
0.0
  0
LINE
  5
100011D
330
17
100
AcDbEntity
  8
dzailki
  6
Continuous
370
    18
100
AcDbLine
 10
7584087.951659949
 20
5690529.76781188
 30
0.0
 11
7584060.328340052
 21
5690508.57218812
 31
0.0
  0
LINE
  5
100011E
330
17
100
AcDbEntity
  8
dzailki
  6
Continuous
370
    18
100
AcDbLine
 10
7584059.921908897
 20
5690508.281442816
 30
0.0
 11
7584035.888091102
 21
5690492.278557183
 31
0.0
  0
LINE
  5
100011F
330
17
100
AcDbEntity
  8
dzailki
  6
Continuous
370
    18
100
AcDbLine
 10
7584035.547091042
 20
5690491.928256736
 30
0.0
 11
7584011.012908956
 21
5690452.841743263
 31
0.0
  0
POINT
  5
1000120
330
17
100
AcDbEntity
  8
0
 62
     0
100
AcDbPoint
 10
7583517.07
 20
5690153.969999999
 30
0.0
 50
-183.62
  0
POINT
  5
1000121
330
17
100
AcDbEntity
  8
0
 62
     0
100
AcDbPoint
 10
7583499.39
 20
5690152.849999999
 30
0.0
 50
-3.62
  0
POINT
  5
1000122
330
17
100
AcDbEntity
  8
0
 62
     0
100
AcDbPoint
 10
7583499.39
 20
5690152.849999999
 30
0.0
 50
-183.61
  0
POINT
  5
1000123
330
17
100
AcDbEntity
  8
0
 62
     0
100
AcDbPoint
 10
7583428.25
 20
5690148.360000001
 30
0.0
 50
-3.609999999999999
  0
POINT
  5
1000124
330
17
100
AcDbEntity
  8
0
 62
     0
100
AcDbPoint
 10
7583428.25
 20
5690148.360000001
 30
0.0
 50
-94.19999999999999
  0
POINT
  5
1000125
330
17
100
AcDbEntity
  8
0
 62
     0
100
AcDbPoint
 10
7583420.309999999
 20
5690256.6
 30
0.0
 50
-274.2
  0
POINT
  5
1000126
330
17
100
AcDbEntity
  8
0
 62
     0
100
AcDbPoint
 10
7583420.309999999
 20
5690256.6
 30
0.0
 50
-359.08
  0
POINT
  5
1000127
330
17
100
AcDbEntity
  8
0
 62
     0
100
AcDbPoint
 10
7583502.099999999
 20
5690255.29
 30
0.0
 50
-179.08
  0
POINT
  5
1000128
330
17
100
AcDbEntity
  8
0
 62
     0
100
AcDbPoint
 10
7583502.099999999
 20
5690255.29
 30
0.0
 50
-278.4
  0
POINT
  5
1000129
330
17
100
AcDbEntity
  8
0
 62
     0
100
AcDbPoint
 10
7583517.07
 20
5690153.969999999
 30
0.0
 50
-98.40000000000001
  0
LINE
  5
100012A
330
17
100
AcDbEntity
  8
dzailki
  6
Continuous
370
    18
100
AcDbLine
 10
7583516.820500124
 20
5690153.954194577
 30
0.0
 11
7583499.639499876
 21
5690152.865805422
 31
0.0
  0
LINE
  5
100012B
330
17
100
AcDbEntity
  8
dzailki
  6
Continuous
370
    18
100
AcDbLine
 10
7583499.140496453
 20
5690152.834252587
 30
0.0
 11
7583428.499503544
 21
5690148.375747412
 31
0.0
  0
LINE
  5
100012C
330
17
100
AcDbEntity
  8
dzailki
  6
Continuous
370
    18
100
AcDbLine
 10
7583428.231710266
 20
5690148.609330074
 30
0.0
 11
7583420.328289734
 21
5690256.350669926
 31
0.0
  0
LINE
  5
100012D
330
17
100
AcDbEntity
  8
dzailki
  6
Continuous
370
    18
100
AcDbLine
 10
7583420.559967938
 20
5690256.595996356
 30
0.0
 11
7583501.850032059
 21
5690255.294003643
 31
0.0
  0
LINE
  5
100012E
330
17
100
AcDbEntity
  8
dzailki
  6
Continuous
370
    18
100
AcDbLine
 10
7583502.136540736
 20
5690255.042684867
 30
0.0
 11
7583517.033459262
 21
5690154.217315132
 31
0.0
  0
POINT
  5
100012F
330
17
100
AcDbEntity
  8
0
 62
     0
100
AcDbPoint
 10
7581370.5
 20
5690661.73
 30
0.0
 50
-84.9
  0
POINT
  5
1000130
330
17
100
AcDbEntity
  8
0
 62
     0
100
AcDbPoint
 10
7581372.33
 20
5690682.25
 30
0.0
 50
-264.9
  0
POINT
  5
1000131
330
17
100
AcDbEntity
  8
0
 62
     0
100
AcDbPoint
 10
7581372.33
 20
5690682.25
 30
0.0
 50
-84.92
  0
POINT
  5
1000132
330
17
100
AcDbEntity
  8
0
 62
     0
100
AcDbPoint
 10
7581394.059999999
 20
5690926.92
 30
0.0
 50
-264.92
  0
POINT
  5
1000133
330
17
100
AcDbEntity
  8
0
 62
     0
100
AcDbPoint
 10
7581394.059999999
 20
5690926.92
 30
0.0
 50
-84.89
  0
POINT
  5
1000134
330
17
100
AcDbEntity
  8
0
 62
     0
100
AcDbPoint
 10
7581399.25
 20
5690984.95
 30
0.0
 50
-264.89
  0
POINT
  5
1000135
330
17
100
AcDbEntity
  8
0
 62
     0
100
AcDbPoint
 10
7581399.25
 20
5690984.95
 30
0.0
 50
-358.73
  0
POINT
  5
1000136
330
17
100
AcDbEntity
  8
0
 62
     0
100
AcDbPoint
 10
7581635.509999999
 20
5690979.73
 30
0.0
 50
-178.73
  0
POINT
  5
1000137
330
17
100
AcDbEntity
  8
0
 62
     0
100
AcDbPoint
 10
7581635.509999999
 20
5690979.73
 30
0.0
 50
-264.67
  0
POINT
  5
1000138
330
17
100
AcDbEntity
  8
0
 62
     0
100
AcDbPoint
 10
7581606.349999999
 20
5690667.400000001
 30
0.0
 50
-84.67
  0
POINT
  5
1000139
330
17
100
AcDbEntity
  8
0
 62
     0
100
AcDbPoint
 10
7581606.349999999
 20
5690667.400000001
 30
0.0
 50
-181.3799999999999
  0
POINT
  5
100013A
330
17
100
AcDbEntity
  8
0
 62
     0
100
AcDbPoint
 10
7581370.5
 20
5690661.73
 30
0.0
 50
-1.379999999999999
  0
LINE
  5
100013B
330
17
100
AcDbEntity
  8
dzailki
  6
Continuous
370
    18
100
AcDbLine
 10
7581370.522207187
 20
5690661.979011728
 30
0.0
 11
7581372.307792813
 21
5690682.000988272
 31
0.0
  0
LINE
  5
100013C
330
17
100
AcDbEntity
  8
dzailki
  6
Continuous
370
    18
100
AcDbLine
 10
7581372.352116322
 20
5690682.499019815
 30
0.0
 11
7581394.037883677
 21
5690926.670980185
 31
0.0
  0
LINE
  5
100013D
330
17
100
AcDbEntity
  8
dzailki
  6
Continuous
370
    18
100
AcDbLine
 10
7581394.082270232
 20
5690927.169006098
 30
0.0
 11
7581399.227729766
 21
5690984.700993903
 31
0.0
  0
LINE
  5
100013E
330
17
100
AcDbEntity
  8
dzailki
  6
Continuous
370
    18
100
AcDbLine
 10
7581399.499939002
 20
5690984.944477772
 30
0.0
 11
7581635.260060997
 21
5690979.735522228
 31
0.0
  0
LINE
  5
100013F
330
17
100
AcDbEntity
  8
dzailki
  6
Continuous
370
    18
100
AcDbLine
 10
7581635.486760367
 20
5690979.481082505
 30
0.0
 11
7581606.373239631
 21
5690667.648917496
 31
0.0
  0
LINE
  5
1000140
330
17
100
AcDbEntity
  8
dzailki
  6
Continuous
370
    18
100
AcDbLine
 10
7581606.100072211
 20
5690667.39399156
 30
0.0
 11
7581370.749927787
 21
5690661.736008441
 31
0.0
  0
POINT
  5
1000141
330
17
100
AcDbEntity
  8
0
 62
     0
100
AcDbPoint
 10
7581404.78
 20
5691046.8
 30
0.0
 50
-178.37
  0
POINT
  5
1000142
330
17
100
AcDbEntity
  8
0
 62
     0
100
AcDbPoint
 10
7581391.79
 20
5691047.17
 30
0.0
 50
-358.37
  0
POINT
  5
1000143
330
17
100
AcDbEntity
  8
0
 62
     0
100
AcDbPoint
 10
7581391.79
 20
5691047.17
 30
0.0
 50
-85.12999999999999
  0
POINT
  5
1000144
330
17
100
AcDbEntity
  8
0
 62
     0
100
AcDbPoint
 10
7581419.95
 20
5691377.469999999
 30
0.0
 50
-265.13
  0
POINT
  5
1000145
330
17
100
AcDbEntity
  8
0
 62
     0
100
AcDbPoint
 10
7581419.95
 20
5691377.469999999
 30
0.0
 50
-357.58
  0
POINT
  5
1000146
330
17
100
AcDbEntity
  8
0
 62
     0
100
AcDbPoint
 10
7581474.809999998
 20
5691375.150000001
 30
0.0
 50
-177.58
  0
POINT
  5
1000147
330
17
100
AcDbEntity
  8
0
 62
     0
100
AcDbPoint
 10
7581474.809999998
 20
5691375.150000001
 30
0.0
 50
-264.54
  0
POINT
  5
1000148
330
17
100
AcDbEntity
  8
0
 62
     0
100
AcDbPoint
 10
7581462.389999999
 20
5691245.32
 30
0.0
 50
-84.54
  0
POINT
  5
1000149
330
17
100
AcDbEntity
  8
0
 62
     0
100
AcDbPoint
 10
7581462.389999999
 20
5691245.32
 30
0.0
 50
-355.67
  0
POINT
  5
100014A
330
17
100
AcDbEntity
  8
0
 62
     0
100
AcDbPoint
 10
7581467.809999999
 20
5691244.91
 30
0.0
 50
-175.67
  0
POINT
  5
100014B
330
17
100
AcDbEntity
  8
0
 62
     0
100
AcDbPoint
 10
7581467.809999999
 20
5691244.91
 30
0.0
 50
-264.66
  0
POINT
  5
100014C
330
17
100
AcDbEntity
  8
0
 62
     0
100
AcDbPoint
 10
7581449.269999999
 20
5691046.519999999
 30
0.0
 50
-84.65999999999999
  0
POINT
  5
100014D
330
17
100
AcDbEntity
  8
0
 62
     0
100
AcDbPoint
 10
7581449.269999999
 20
5691046.519999999
 30
0.0
 50
-179.64
  0
POINT
  5
100014E
330
17
100
AcDbEntity
  8
0
 62
     0
100
AcDbPoint
 10
7581404.78
 20
5691046.8
 30
0.0
 50
-359.64
  0
LINE
  5
100014F
330
17
100
AcDbEntity
  8
dzailki
  6
Continuous
370
    18
100
AcDbLine
 10
7581404.530101353
 20
5691046.807117975
 30
0.0
 11
7581392.039898648
 21
5691047.162882024
 31
0.0
  0
LINE
  5
1000150
330
17
100
AcDbEntity
  8
dzailki
  6
Continuous
370
    18
100
AcDbLine
 10
7581391.811236916
 20
5691047.419096353
 30
0.0
 11
7581419.928763084
 21
5691377.220903645
 31
0.0
  0
LINE
  5
1000151
330
17
100
AcDbEntity
  8
dzailki
  6
Continuous
370
    18
100
AcDbLine
 10
7581420.199776751
 20
5691377.459437075
 30
0.0
 11
7581474.56022325
 21
5691375.160562925
 31
0.0
  0
LINE
  5
1000152
330
17
100
AcDbEntity
  8
dzailki
  6
Continuous
370
    18
100
AcDbLine
 10
7581474.786192797
 20
5691374.901136148
 30
0.0
 11
7581462.413807201
 21
5691245.568863853
 31
0.0
  0
LINE
  5
1000153
330
17
100
AcDbEntity
  8
dzailki
  6
Continuous
370
    18
100
AcDbLine
 10
7581462.639287768
 20
5691245.301142438
 30
0.0
 11
7581467.560712228
 21
5691244.928857562
 31
0.0
  0
LINE
  5
1000154
330
17
100
AcDbEntity
  8
dzailki
  6
Continuous
370
    18
100
AcDbLine
 10
7581467.786738281
 20
5691244.661084568
 30
0.0
 11
7581449.293261717
 21
5691046.768915431
 31
0.0
  0
LINE
  5
1000155
330
17
100
AcDbEntity
  8
dzailki
  6
Continuous
370
    18
100
AcDbLine
 10
7581449.020004949
 20
5691046.521573355
 30
0.0
 11
7581405.029995048
 21
5691046.798426643
 31
0.0
  0
POINT
  5
1000156
330
17
100
AcDbEntity
  8
0
 62
     0
100
AcDbPoint
 10
7580722.790000001
 20
5689976.01
 30
0.0
 50
-106.19
  0
POINT
  5
1000157
330
17
100
AcDbEntity
  8
0
 62
     0
100
AcDbPoint
 10
7580711.42
 20
5690015.18
 30
0.0
 50
-286.19
  0
POINT
  5
1000158
330
17
100
AcDbEntity
  8
0
 62
     0
100
AcDbPoint
 10
7580711.42
 20
5690015.18
 30
0.0
 50
-18.61
  0
POINT
  5
1000159
330
17
100
AcDbEntity
  8
0
 62
     0
100
AcDbPoint
 10
7580764.16
 20
5690032.94
 30
0.0
 50
-198.61
  0
POINT
  5
100015A
330
17
100
AcDbEntity
  8
0
 62
     0
100
AcDbPoint
 10
7580764.16
 20
5690032.94
 30
0.0
 50
-18.61
  0
POINT
  5
100015B
330
17
100
AcDbEntity
  8
0
 62
     0
100
AcDbPoint
 10
7580937.36
 20
5690091.25
 30
0.0
 50
-198.61
  0
POINT
  5
100015C
330
17
100
AcDbEntity
  8
0
 62
     0
100
AcDbPoint
 10
7580937.36
 20
5690091.25
 30
0.0
 50
-285.41
  0
POINT
  5
100015D
330
17
100
AcDbEntity
  8
0
 62
     0
100
AcDbPoint
 10
7580948.639999999
 20
5690050.339999999
 30
0.0
 50
-105.41
  0
POINT
  5
100015E
330
17
100
AcDbEntity
  8
0
 62
     0
100
AcDbPoint
 10
7580948.639999999
 20
5690050.339999999
 30
0.0
 50
-198.22
  0
POINT
  5
100015F
330
17
100
AcDbEntity
  8
0
 62
     0
100
AcDbPoint
 10
7580722.790000001
 20
5689976.01
 30
0.0
 50
-18.22
  0
LINE
  5
1000160
330
17
100
AcDbEntity
  8
dzailki
  6
Continuous
370
    18
100
AcDbLine
 10
7580722.720308393
 20
5689976.250089732
 30
0.0
 11
7580711.489691609
 21
5690014.939910266
 31
0.0
  0
LINE
  5
1000161
330
17
100
AcDbEntity
  8
dzailki
  6
Continuous
370
    18
100
AcDbLine
 10
7580711.65692712
 20
5690015.259784331
 30
0.0
 11
7580763.92307288
 21
5690032.860215668
 31
0.0
  0
LINE
  5
1000162
330
17
100
AcDbEntity
  8
dzailki
  6
Continuous
370
    18
100
AcDbLine
 10
7580764.396933102
 20
5690033.019766566
 30
0.0
 11
7580937.123066897
 21
5690091.170233434
 31
0.0
  0
LINE
  5
1000163
330
17
100
AcDbEntity
  8
dzailki
  6
Continuous
370
    18
100
AcDbLine
 10
7580937.426452045
 20
5690091.008993515
 30
0.0
 11
7580948.573547955
 21
5690050.581006484
 31
0.0
  0
LINE
  5
1000164
330
17
100
AcDbEntity
  8
dzailki
  6
Continuous
370
    18
100
AcDbLine
 10
7580948.402530176
 20
5690050.261845774
 30
0.0
 11
7580723.027469822
 21
5689976.088154225
 31
0.0
  0
POINT
  5
1000165
330
17
100
AcDbEntity
  8
0
 62
     0
100
AcDbPoint
 10
7581550.17
 20
5690093.199999999
 30
0.0
 50
-305.25
  0
POINT
  5
1000166
330
17
100
AcDbEntity
  8
0
 62
     0
100
AcDbPoint
 10
7581555.469999999
 20
5690085.7
 30
0.0
 50
-125.25
  0
POINT
  5
1000167
330
17
100
AcDbEntity
  8
0
 62
     0
100
AcDbPoint
 10
7581555.469999999
 20
5690085.7
 30
0.0
 50
-305.25
  0
POINT
  5
1000168
330
17
100
AcDbEntity
  8
0
 62
     0
100
AcDbPoint
 10
7581570.95
 20
5690063.8
 30
0.0
 50
-125.25
  0
POINT
  5
1000169
330
17
100
AcDbEntity
  8
0
 62
     0
100
AcDbPoint
 10
7581570.95
 20
5690063.8
 30
0.0
 50
-347.86
  0
POINT
  5
100016A
330
17
100
AcDbEntity
  8
0
 62
     0
100
AcDbPoint
 10
7581618.75
 20
5690053.52
 30
0.0
 50
-167.86
  0
POINT
  5
100016B
330
17
100
AcDbEntity
  8
0
 62
     0
100
AcDbPoint
 10
7581618.75
 20
5690053.52
 30
0.0
 50
-347.11
  0
POINT
  5
100016C
330
17
100
AcDbEntity
  8
0
 62
     0
100
AcDbPoint
 10
7581648.559999998
 20
5690046.7
 30
0.0
 50
-167.11
  0
POINT
  5
100016D
330
17
100
AcDbEntity
  8
0
 62
     0
100
AcDbPoint
 10
7581648.559999998
 20
5690046.7
 30
0.0
 50
-347.1
  0
POINT
  5
100016E
330
17
100
AcDbEntity
  8
0
 62
     0
100
AcDbPoint
 10
7581665.019999999
 20
5690042.929999999
 30
0.0
 50
-167.1
  0
POINT
  5
100016F
330
17
100
AcDbEntity
  8
0
 62
     0
100
AcDbPoint
 10
7581665.019999999
 20
5690042.929999999
 30
0.0
 50
-347.12
  0
POINT
  5
1000170
330
17
100
AcDbEntity
  8
0
 62
     0
100
AcDbPoint
 10
7581697.0
 20
5690035.619999999
 30
0.0
 50
-167.12
  0
POINT
  5
1000171
330
17
100
AcDbEntity
  8
0
 62
     0
100
AcDbPoint
 10
7581697.0
 20
5690035.619999999
 30
0.0
 50
-347.11
  0
POINT
  5
1000172
330
17
100
AcDbEntity
  8
0
 62
     0
100
AcDbPoint
 10
7581734.440000001
 20
5690027.05
 30
0.0
 50
-167.11
  0
POINT
  5
1000173
330
17
100
AcDbEntity
  8
0
 62
     0
100
AcDbPoint
 10
7581734.440000001
 20
5690027.05
 30
0.0
 50
-349.05
  0
POINT
  5
1000174
330
17
100
AcDbEntity
  8
0
 62
     0
100
AcDbPoint
 10
7581835.490000001
 20
5690007.5
 30
0.0
 50
-169.05
  0
POINT
  5
1000175
330
17
100
AcDbEntity
  8
0
 62
     0
100
AcDbPoint
 10
7581835.490000001
 20
5690007.5
 30
0.0
 50
-347.15
  0
POINT
  5
1000176
330
17
100
AcDbEntity
  8
0
 62
     0
100
AcDbPoint
 10
7581923.340000001
 20
5689987.46
 30
0.0
 50
-167.15
  0
POINT
  5
1000177
330
17
100
AcDbEntity
  8
0
 62
     0
100
AcDbPoint
 10
7581923.340000001
 20
5689987.46
 30
0.0
 50
-347.92
  0
POINT
  5
1000178
330
17
100
AcDbEntity
  8
0
 62
     0
100
AcDbPoint
 10
7581962.16
 20
5689979.15
 30
0.0
 50
-167.9199999999999
  0
POINT
  5
1000179
330
17
100
AcDbEntity
  8
0
 62
     0
100
AcDbPoint
 10
7581962.16
 20
5689979.15
 30
0.0
 50
-347.92
  0
POINT
  5
100017A
330
17
100
AcDbEntity
  8
0
 62
     0
100
AcDbPoint
 10
7581992.570000001
 20
5689972.639999999
 30
0.0
 50
-167.9199999999999
  0
POINT
  5
100017B
330
17
100
AcDbEntity
  8
0
 62
     0
100
AcDbPoint
 10
7581992.570000001
 20
5689972.639999999
 30
0.0
 50
-347.91
  0
POINT
  5
100017C
330
17
100
AcDbEntity
  8
0
 62
     0
100
AcDbPoint
 10
7582028.46
 20
5689964.950000001
 30
0.0
 50
-167.91
  0
POINT
  5
100017D
330
17
100
AcDbEntity
  8
0
 62
     0
100
AcDbPoint
 10
7582028.46
 20
5689964.950000001
 30
0.0
 50
-347.93
  0
POINT
  5
100017E
330
17
100
AcDbEntity
  8
0
 62
     0
100
AcDbPoint
 10
7582048.99
 20
5689960.559999999
 30
0.0
 50
-167.93
  0
POINT
  5
100017F
330
17
100
AcDbEntity
  8
0
 62
     0
100
AcDbPoint
 10
7582048.99
 20
5689960.559999999
 30
0.0
 50
-347.91
  0
POINT
  5
1000180
330
17
100
AcDbEntity
  8
0
 62
     0
100
AcDbPoint
 10
7582143.360000001
 20
5689940.349999999
 30
0.0
 50
-167.91
  0
POINT
  5
1000181
330
17
100
AcDbEntity
  8
0
 62
     0
100
AcDbPoint
 10
7582143.360000001
 20
5689940.349999999
 30
0.0
 50
-28.46
  0
POINT
  5
1000182
330
17
100
AcDbEntity
  8
0
 62
     0
100
AcDbPoint
 10
7582255.990000001
 20
5690001.4
 30
0.0
 50
-208.46
  0
POINT
  5
1000183
330
17
100
AcDbEntity
  8
0
 62
     0
100
AcDbPoint
 10
7582255.990000001
 20
5690001.4
 30
0.0
 50
-27.47
  0
POINT
  5
1000184
330
17
100
AcDbEntity
  8
0
 62
     0
100
AcDbPoint
 10
7582408.3
 20
5690080.589999999
 30
0.0
 50
-207.4699999999999
  0
POINT
  5
1000185
330
17
100
AcDbEntity
  8
0
 62
     0
100
AcDbPoint
 10
7582408.3
 20
5690080.589999999
 30
0.0
 50
-307.77
  0
POINT
  5
1000186
330
17
100
AcDbEntity
  8
0
 62
     0
100
AcDbPoint
 10
7582411.5
 20
5690076.46
 30
0.0
 50
-127.77
  0
POINT
  5
1000187
330
17
100
AcDbEntity
  8
0
 62
     0
100
AcDbPoint
 10
7582411.5
 20
5690076.46
 30
0.0
 50
-307.74
  0
POINT
  5
1000188
330
17
100
AcDbEntity
  8
0
 62
     0
100
AcDbPoint
 10
7582523.2
 20
5689932.129999999
 30
0.0
 50
-127.74
  0
POINT
  5
1000189
330
17
100
AcDbEntity
  8
0
 62
     0
100
AcDbPoint
 10
7582523.2
 20
5689932.129999999
 30
0.0
 50
-307.73
  0
POINT
  5
100018A
330
17
100
AcDbEntity
  8
0
 62
     0
100
AcDbPoint
 10
7582573.38
 20
5689867.28
 30
0.0
 50
-127.73
  0
POINT
  5
100018B
330
17
100
AcDbEntity
  8
0
 62
     0
100
AcDbPoint
 10
7582573.38
 20
5689867.28
 30
0.0
 50
-308.02
  0
POINT
  5
100018C
330
17
100
AcDbEntity
  8
0
 62
     0
100
AcDbPoint
 10
7582598.94
 20
5689834.59
 30
0.0
 50
-128.02
  0
POINT
  5
100018D
330
17
100
AcDbEntity
  8
0
 62
     0
100
AcDbPoint
 10
7582598.94
 20
5689834.59
 30
0.0
 50
-308.05
  0
POINT
  5
100018E
330
17
100
AcDbEntity
  8
0
 62
     0
100
AcDbPoint
 10
7582618.44
 20
5689809.679999999
 30
0.0
 50
-128.05
  0
POINT
  5
100018F
330
17
100
AcDbEntity
  8
0
 62
     0
100
AcDbPoint
 10
7582618.44
 20
5689809.679999999
 30
0.0
 50
-308.0
  0
POINT
  5
1000190
330
17
100
AcDbEntity
  8
0
 62
     0
100
AcDbPoint
 10
7582639.750000001
 20
5689782.4
 30
0.0
 50
-128.0
  0
POINT
  5
1000191
330
17
100
AcDbEntity
  8
0
 62
     0
100
AcDbPoint
 10
7582639.750000001
 20
5689782.4
 30
0.0
 50
-175.68
  0
POINT
  5
1000192
330
17
100
AcDbEntity
  8
0
 62
     0
100
AcDbPoint
 10
7582448.309999998
 20
5689796.86
 30
0.0
 50
-355.68
  0
POINT
  5
1000193
330
17
100
AcDbEntity
  8
0
 62
     0
100
AcDbPoint
 10
7582448.309999998
 20
5689796.86
 30
0.0
 50
-176.06
  0
POINT
  5
1000194
330
17
100
AcDbEntity
  8
0
 62
     0
100
AcDbPoint
 10
7582396.2
 20
5689800.449999999
 30
0.0
 50
-356.06
  0
POINT
  5
1000195
330
17
100
AcDbEntity
  8
0
 62
     0
100
AcDbPoint
 10
7582396.2
 20
5689800.449999999
 30
0.0
 50
-176.05
  0
POINT
  5
1000196
330
17
100
AcDbEntity
  8
0
 62
     0
100
AcDbPoint
 10
7581741.820000001
 20
5689845.599999999
 30
0.0
 50
-356.05
  0
POINT
  5
1000197
330
17
100
AcDbEntity
  8
0
 62
     0
100
AcDbPoint
 10
7581741.820000001
 20
5689845.599999999
 30
0.0
 50
-175.54
  0
POINT
  5
1000198
330
17
100
AcDbEntity
  8
0
 62
     0
100
AcDbPoint
 10
7581375.219999999
 20
5689874.18
 30
0.0
 50
-355.54
  0
POINT
  5
1000199
330
17
100
AcDbEntity
  8
0
 62
     0
100
AcDbPoint
 10
7581375.219999999
 20
5689874.18
 30
0.0
 50
-123.39
  0
POINT
  5
100019A
330
17
100
AcDbEntity
  8
0
 62
     0
100
AcDbPoint
 10
7581241.389999998
 20
5690077.200000001
 30
0.0
 50
-303.39
  0
POINT
  5
100019B
330
17
100
AcDbEntity
  8
0
 62
     0
100
AcDbPoint
 10
7581241.389999998
 20
5690077.200000001
 30
0.0
 50
-200.56
  0
POINT
  5
100019C
330
17
100
AcDbEntity
  8
0
 62
     0
100
AcDbPoint
 10
7581238.509999999
 20
5690076.119999999
 30
0.0
 50
-20.56
  0
POINT
  5
100019D
330
17
100
AcDbEntity
  8
0
 62
     0
100
AcDbPoint
 10
7581238.509999999
 20
5690076.119999999
 30
0.0
 50
-124.5999999999999
  0
POINT
  5
100019E
330
17
100
AcDbEntity
  8
0
 62
     0
100
AcDbPoint
 10
7581220.309999999
 20
5690102.5
 30
0.0
 50
-304.6
  0
POINT
  5
100019F
330
17
100
AcDbEntity
  8
0
 62
     0
100
AcDbPoint
 10
7581220.309999999
 20
5690102.5
 30
0.0
 50
-123.29
  0
POINT
  5
10001A0
330
17
100
AcDbEntity
  8
0
 62
     0
100
AcDbPoint
 10
7581090.650000001
 20
5690299.93
 30
0.0
 50
-303.29
  0
POINT
  5
10001A1
330
17
100
AcDbEntity
  8
0
 62
     0
100
AcDbPoint
 10
7581090.650000001
 20
5690299.93
 30
0.0
 50
-123.39
  0
POINT
  5
10001A2
330
17
100
AcDbEntity
  8
0
 62
     0
100
AcDbPoint
 10
7581045.04
 20
5690369.14
 30
0.0
 50
-303.39
  0
POINT
  5
10001A3
330
17
100
AcDbEntity
  8
0
 62
     0
100
AcDbPoint
 10
7581045.04
 20
5690369.14
 30
0.0
 50
-123.18
  0
POINT
  5
10001A4
330
17
100
AcDbEntity
  8
0
 62
     0
100
AcDbPoint
 10
7581028.490000001
 20
5690394.45
 30
0.0
 50
-303.18
  0
POINT
  5
10001A5
330
17
100
AcDbEntity
  8
0
 62
     0
100
AcDbPoint
 10
7581028.490000001
 20
5690394.45
 30
0.0
 50
-123.17
  0
POINT
  5
10001A6
330
17
100
AcDbEntity
  8
0
 62
     0
100
AcDbPoint
 10
7581016.09
 20
5690413.419999999
 30
0.0
 50
-303.17
  0
POINT
  5
10001A7
330
17
100
AcDbEntity
  8
0
 62
     0
100
AcDbPoint
 10
7581016.09
 20
5690413.419999999
 30
0.0
 50
-123.16
  0
POINT
  5
10001A8
330
17
100
AcDbEntity
  8
0
 62
     0
100
AcDbPoint
 10
7581010.400000001
 20
5690422.13
 30
0.0
 50
-303.16
  0
POINT
  5
10001A9
330
17
100
AcDbEntity
  8
0
 62
     0
100
AcDbPoint
 10
7581010.400000001
 20
5690422.13
 30
0.0
 50
-121.4
  0
POINT
  5
10001AA
330
17
100
AcDbEntity
  8
0
 62
     0
100
AcDbPoint
 10
7580995.160000001
 20
5690447.1
 30
0.0
 50
-301.4
  0
POINT
  5
10001AB
330
17
100
AcDbEntity
  8
0
 62
     0
100
AcDbPoint
 10
7580995.160000001
 20
5690447.1
 30
0.0
 50
-0.3
  0
POINT
  5
10001AC
330
17
100
AcDbEntity
  8
0
 62
     0
100
AcDbPoint
 10
7581060.910000001
 20
5690447.44
 30
0.0
 50
-180.3
  0
POINT
  5
10001AD
330
17
100
AcDbEntity
  8
0
 62
     0
100
AcDbPoint
 10
7581060.910000001
 20
5690447.44
 30
0.0
 50
-346.69
  0
POINT
  5
10001AE
330
17
100
AcDbEntity
  8
0
 62
     0
100
AcDbPoint
 10
7581218.480000001
 20
5690410.159999999
 30
0.0
 50
-166.69
  0
POINT
  5
10001AF
330
17
100
AcDbEntity
  8
0
 62
     0
100
AcDbPoint
 10
7581218.480000001
 20
5690410.159999999
 30
0.0
 50
-347.32
  0
POINT
  5
10001B0
330
17
100
AcDbEntity
  8
0
 62
     0
100
AcDbPoint
 10
7581354.71
 20
5690379.52
 30
0.0
 50
-167.32
  0
POINT
  5
10001B1
330
17
100
AcDbEntity
  8
0
 62
     0
100
AcDbPoint
 10
7581354.71
 20
5690379.52
 30
0.0
 50
-286.45
  0
POINT
  5
10001B2
330
17
100
AcDbEntity
  8
0
 62
     0
100
AcDbPoint
 10
7581360.48
 20
5690359.980000001
 30
0.0
 50
-106.45
  0
POINT
  5
10001B3
330
17
100
AcDbEntity
  8
0
 62
     0
100
AcDbPoint
 10
7581360.48
 20
5690359.980000001
 30
0.0
 50
-306.81
  0
POINT
  5
10001B4
330
17
100
AcDbEntity
  8
0
 62
     0
100
AcDbPoint
 10
7581423.929999999
 20
5690275.200000001
 30
0.0
 50
-126.81
  0
POINT
  5
10001B5
330
17
100
AcDbEntity
  8
0
 62
     0
100
AcDbPoint
 10
7581423.929999999
 20
5690275.200000001
 30
0.0
 50
-304.22
  0
POINT
  5
10001B6
330
17
100
AcDbEntity
  8
0
 62
     0
100
AcDbPoint
 10
7581439.089999999
 20
5690252.91
 30
0.0
 50
-124.22
  0
POINT
  5
10001B7
330
17
100
AcDbEntity
  8
0
 62
     0
100
AcDbPoint
 10
7581439.089999999
 20
5690252.91
 30
0.0
 50
-304.29
  0
POINT
  5
10001B8
330
17
100
AcDbEntity
  8
0
 62
     0
100
AcDbPoint
 10
7581473.019999998
 20
5690203.160000001
 30
0.0
 50
-124.29
  0
POINT
  5
10001B9
330
17
100
AcDbEntity
  8
0
 62
     0
100
AcDbPoint
 10
7581473.019999998
 20
5690203.160000001
 30
0.0
 50
-304.91
  0
POINT
  5
10001BA
330
17
100
AcDbEntity
  8
0
 62
     0
100
AcDbPoint
 10
7581518.13
 20
5690138.519999999
 30
0.0
 50
-124.91
  0
POINT
  5
10001BB
330
17
100
AcDbEntity
  8
0
 62
     0
100
AcDbPoint
 10
7581518.13
 20
5690138.519999999
 30
0.0
 50
-305.26
  0
POINT
  5
10001BC
330
17
100
AcDbEntity
  8
0
 62
     0
100
AcDbPoint
 10
7581550.17
 20
5690093.199999999
 30
0.0
 50
-125.26
  0
LINE
  5
10001BD
330
17
100
AcDbEntity
  8
dzailki
  6
Continuous
370
    18
100
AcDbLine
 10
7581550.314277657
 20
5690092.995833505
 30
0.0
 11
7581555.325722344
 21
5690085.904166495
 31
0.0
  0
LINE
  5
10001BE
330
17
100
AcDbEntity
  8
dzailki
  6
Continuous
370
    18
100
AcDbLine
 10
7581555.614302524
 20
5690085.49585108
 30
0.0
 11
7581570.805697474
 21
5690064.00414892
 31
0.0
  0
LINE
  5
10001BF
330
17
100
AcDbEntity
  8
dzailki
  6
Continuous
370
    18
100
AcDbLine
 10
7581571.194411626
 20
5690063.74743616
 30
0.0
 11
7581618.505588375
 21
5690053.572563839
 31
0.0
  0
LINE
  5
10001C0
330
17
100
AcDbEntity
  8
dzailki
  6
Continuous
370
    18
100
AcDbLine
 10
7581618.993703459
 20
5690053.464244964
 30
0.0
 11
7581648.31629654
 21
5690046.755755036
 31
0.0
  0
LINE
  5
10001C1
330
17
100
AcDbEntity
  8
dzailki
  6
Continuous
370
    18
100
AcDbLine
 10
7581648.803689792
 20
5690046.644185266
 30
0.0
 11
7581664.776310206
 21
5690042.985814733
 31
0.0
  0
LINE
  5
10001C2
330
17
100
AcDbEntity
  8
dzailki
  6
Continuous
370
    18
100
AcDbLine
 10
7581665.263714153
 20
5690042.87429173
 30
0.0
 11
7581696.756285845
 21
5690035.67570827
 31
0.0
  0
LINE
  5
10001C3
330
17
100
AcDbEntity
  8
dzailki
  6
Continuous
370
    18
100
AcDbLine
 10
7581697.243697244
 20
5690035.564217805
 30
0.0
 11
7581734.196302757
 21
5690027.105782195
 31
0.0
  0
LINE
  5
10001C4
330
17
100
AcDbEntity
  8
dzailki
  6
Continuous
370
    18
100
AcDbLine
 10
7581734.685448617
 20
5690027.002513406
 30
0.0
 11
7581835.244551385
 21
5690007.547486594
 31
0.0
  0
LINE
  5
10001C5
330
17
100
AcDbEntity
  8
dzailki
  6
Continuous
370
    18
100
AcDbLine
 10
7581835.733738711
 20
5690007.444399274
 30
0.0
 11
7581923.096261289
 21
5689987.515600726
 31
0.0
  0
LINE
  5
10001C6
330
17
100
AcDbEntity
  8
dzailki
  6
Continuous
370
    18
100
AcDbLine
 10
7581923.584461657
 20
5689987.407669336
 30
0.0
 11
7581961.915538344
 21
5689979.202330664
 31
0.0
  0
LINE
  5
10001C7
330
17
100
AcDbEntity
  8
dzailki
  6
Continuous
370
    18
100
AcDbLine
 10
7581962.404461186
 20
5689979.09766714
 30
0.0
 11
7581992.325538814
 21
5689972.692332861
 31
0.0
  0
LINE
  5
10001C8
330
17
100
AcDbEntity
  8
dzailki
  6
Continuous
370
    18
100
AcDbLine
 10
7581992.8144516
 20
5689972.587622379
 30
0.0
 11
7582028.2155484
 21
5689965.002377621
 31
0.0
  0
LINE
  5
10001C9
330
17
100
AcDbEntity
  8
dzailki
  6
Continuous
370
    18
100
AcDbLine
 10
7582028.704473235
 20
5689964.897723452
 30
0.0
 11
7582048.745526765
 21
5689960.612276546
 31
0.0
  0
LINE
  5
10001CA
330
17
100
AcDbEntity
  8
dzailki
  6
Continuous
370
    18
100
AcDbLine
 10
7582049.234457047
 20
5689960.507647802
 30
0.0
 11
7582143.115542954
 21
5689940.402352196
 31
0.0
  0
LINE
  5
10001CB
330
17
100
AcDbEntity
  8
dzailki
  6
Continuous
370
    18
100
AcDbLine
 10
7582143.57978859
 20
5689940.469134275
 30
0.0
 11
7582255.77021141
 21
5690001.280865725
 31
0.0
  0
LINE
  5
10001CC
330
17
100
AcDbEntity
  8
dzailki
  6
Continuous
370
    18
100
AcDbLine
 10
7582256.211810877
 20
5690001.515325345
 30
0.0
 11
7582408.078189123
 21
5690080.474674655
 31
0.0
  0
LINE
  5
10001CD
330
17
100
AcDbEntity
  8
dzailki
  6
Continuous
370
    18
100
AcDbLine
 10
7582408.453120494
 20
5690080.392378862
 30
0.0
 11
7582411.346879506
 21
5690076.657621138
 31
0.0
  0
LINE
  5
10001CE
330
17
100
AcDbEntity
  8
dzailki
  6
Continuous
370
    18
100
AcDbLine
 10
7582411.653009589
 20
5690076.26229298
 30
0.0
 11
7582523.046990411
 21
5689932.327707019
 31
0.0
  0
LINE
  5
10001CF
330
17
100
AcDbEntity
  8
dzailki
  6
Continuous
370
    18
100
AcDbLine
 10
7582523.352992869
 20
5689931.932280042
 30
0.0
 11
7582573.227007132
 21
5689867.47771996
 31
0.0
  0
LINE
  5
10001D0
330
17
100
AcDbEntity
  8
dzailki
  6
Continuous
370
    18
100
AcDbLine
 10
7582573.533989329
 20
5689867.083055117
 30
0.0
 11
7582598.786010671
 21
5689834.786944881
 31
0.0
  0
LINE
  5
10001D1
330
17
100
AcDbEntity
  8
dzailki
  6
Continuous
370
    18
100
AcDbLine
 10
7582599.094102635
 20
5689834.393143762
 30
0.0
 11
7582618.285897366
 21
5689809.876856237
 31
0.0
  0
LINE
  5
10001D2
330
17
100
AcDbEntity
  8
dzailki
  6
Continuous
370
    18
100
AcDbLine
 10
7582618.593899799
 20
5689809.482985147
 30
0.0
 11
7582639.596100202
 21
5689782.597014852
 31
0.0
  0
LINE
  5
10001D3
330
17
100
AcDbEntity
  8
dzailki
  6
Continuous
370
    18
100
AcDbLine
 10
7582639.500710114
 20
5689782.418829564
 30
0.0
 11
7582448.559289886
 21
5689796.841170435
 31
0.0
  0
LINE
  5
10001D4
330
17
100
AcDbEntity
  8
dzailki
  6
Continuous
370
    18
100
AcDbLine
 10
7582448.060591172
 20
5689796.877182454
 30
0.0
 11
7582396.449408827
 21
5689800.432817545
 31
0.0
  0
LINE
  5
10001D5
330
17
100
AcDbEntity
  8
dzailki
  6
Continuous
370
    18
100
AcDbLine
 10
7582395.950592951
 20
5689800.46720824
 30
0.0
 11
7581742.069407049
 21
5689845.582791759
 31
0.0
  0
LINE
  5
10001D6
330
17
100
AcDbEntity
  8
dzailki
  6
Continuous
370
    18
100
AcDbLine
 10
7581741.570756268
 20
5689845.619430949
 30
0.0
 11
7581375.469243733
 21
5689874.160569051
 31
0.0
  0
LINE
  5
10001D7
330
17
100
AcDbEntity
  8
dzailki
  6
Continuous
370
    18
100
AcDbLine
 10
7581375.082406346
 20
5689874.388729457
 30
0.0
 11
7581241.527593651
 21
5690076.991270542
 31
0.0
  0
LINE
  5
10001D8
330
17
100
AcDbEntity
  8
dzailki
  6
Continuous
370
    18
100
AcDbLine
 10
7581241.155917703
 20
5690077.112219141
 30
0.0
 11
7581238.744082294
 21
5690076.207780861
 31
0.0
  0
LINE
  5
10001D9
330
17
100
AcDbEntity
  8
dzailki
  6
Continuous
370
    18
100
AcDbLine
 10
7581238.368030304
 20
5690076.325778051
 30
0.0
 11
7581220.451969693
 21
5690102.29422195
 31
0.0
  0
LINE
  5
10001DA
330
17
100
AcDbEntity
  8
dzailki
  6
Continuous
370
    18
100
AcDbLine
 10
7581220.172764458
 20
5690102.708965084
 30
0.0
 11
7581090.78723554
 21
5690299.721034915
 31
0.0
  0
LINE
  5
10001DB
330
17
100
AcDbEntity
  8
dzailki
  6
Continuous
370
    18
100
AcDbLine
 10
7581090.512433608
 20
5690300.138747424
 30
0.0
 11
7581045.177566393
 21
5690368.931252574
 31
0.0
  0
LINE
  5
10001DC
330
17
100
AcDbEntity
  8
dzailki
  6
Continuous
370
    18
100
AcDbLine
 10
7581044.903180977
 20
5690369.349238034
 30
0.0
 11
7581028.626819024
 21
5690394.240761966
 31
0.0
  0
LINE
  5
10001DD
330
17
100
AcDbEntity
  8
dzailki
  6
Continuous
370
    18
100
AcDbLine
 10
7581028.353214409
 20
5690394.659259892
 30
0.0
 11
7581016.226785591
 21
5690413.210740108
 31
0.0
  0
LINE
  5
10001DE
330
17
100
AcDbEntity
  8
dzailki
  6
Continuous
370
    18
100
AcDbLine
 10
7581015.953271836
 20
5690413.629297418
 30
0.0
 11
7581010.536728164
 21
5690421.920702582
 31
0.0
  0
LINE
  5
10001DF
330
17
100
AcDbEntity
  8
dzailki
  6
Continuous
370
    18
100
AcDbLine
 10
7581010.269758508
 20
5690422.343394361
 30
0.0
 11
7580995.290241493
 21
5690446.886605638
 31
0.0
  0
LINE
  5
10001E0
330
17
100
AcDbEntity
  8
dzailki
  6
Continuous
370
    18
100
AcDbLine
 10
7580995.409996658
 20
5690447.101292757
 30
0.0
 11
7581060.660003343
 21
5690447.438707242
 31
0.0
  0
LINE
  5
10001E1
330
17
100
AcDbEntity
  8
dzailki
  6
Continuous
370
    18
100
AcDbLine
 10
7581061.153283642
 20
5690447.38244073
 30
0.0
 11
7581218.23671636
 21
5690410.21755927
 31
0.0
  0
LINE
  5
10001E2
330
17
100
AcDbEntity
  8
dzailki
  6
Continuous
370
    18
100
AcDbLine
 10
7581218.723906943
 20
5690410.105141975
 30
0.0
 11
7581354.466093057
 21
5690379.574858025
 31
0.0
  0
LINE
  5
10001E3
330
17
100
AcDbEntity
  8
dzailki
  6
Continuous
370
    18
100
AcDbLine
 10
7581354.780800627
 20
5690379.280234966
 30
0.0
 11
7581360.409199374
 21
5690360.219765034
 31
0.0
  0
LINE
  5
10001E4
330
17
100
AcDbEntity
  8
dzailki
  6
Continuous
370
    18
100
AcDbLine
 10
7581360.629795946
 20
5690359.779847121
 30
0.0
 11
7581423.780204055
 21
5690275.400152878
 31
0.0
  0
LINE
  5
10001E5
330
17
100
AcDbEntity
  8
dzailki
  6
Continuous
370
    18
100
AcDbLine
 10
7581424.070595261
 20
5690274.99328045
 30
0.0
 11
7581438.949404737
 21
5690253.11671955
 31
0.0
  0
LINE
  5
10001E6
330
17
100
AcDbEntity
  8
dzailki
  6
Continuous
370
    18
100
AcDbLine
 10
7581439.230861256
 20
5690252.70346161
 30
0.0
 11
7581472.879138742
 21
5690203.36653839
 31
0.0
  0
LINE
  5
10001E7
330
17
100
AcDbEntity
  8
dzailki
  6
Continuous
370
    18
100
AcDbLine
 10
7581473.16307169
 20
5690202.954986607
 30
0.0
 11
7581517.986928307
 21
5690138.725013392
 31
0.0
  0
LINE
  5
10001E8
330
17
100
AcDbEntity
  8
dzailki
  6
Continuous
370
    18
100
AcDbLine
 10
7581518.274319311
 20
5690138.315862945
 30
0.0
 11
7581550.02568069
 21
5690093.404137053
 31
0.0
  0
ENDSEC
  0
SECTION
  2
OBJECTS
  0
DICTIONARY
  5
16F
330
0
100
AcDbDictionary
281
     1
  3
ACAD_COLOR
350
100001C
  3
ACAD_GROUP
350
170
  3
ACAD_LAYOUT
350
171
  3
ACAD_MATERIAL
350
FFFFFF
  3
ACAD_MLEADERSTYLE
350
100001F
  3
ACAD_MLINESTYLE
350
172
  3
ACAD_PLOTSETTINGS
350
173
  3
ACAD_PLOTSTYLENAME
350
174
  3
ACAD_SCALELIST
350
1000021
  3
ACAD_TABLESTYLE
350
100001D
  3
ACAD_VISUALSTYLE
350
1000003
  3
ACAD_WIPEOUT_VARS
350
175
  3
ACDB_RECOMPOSE_DATA
350
1000231
  3
AcDbVariableDictionary
350
10001E9
  0
DICTIONARY
  5
10001F3
330
1
100
AcDbDictionary
280
     1
281
     1
  3
ACAD_XREC_ROUNDTRIP
360
10001F4
  0
DICTIONARY
  5
10001EF
330
A
100
AcDbDictionary
280
     1
281
     1
  3
ACAD_XREC_ROUNDTRIP
360
10001F0
  0
DICTIONARY
  5
10001F1
330
C
100
AcDbDictionary
280
     1
281
     1
  3
ACAD_XREC_ROUNDTRIP
360
10001F2
  0
DICTIONARY
  5
1000034
330
17
100
AcDbDictionary
280
     1
281
     1
  3
ACAD_SORTENTS
360
1000035
  0
DICTIONARY
  5
100001C
102
{ACAD_REACTORS
330
16F
102
}
330
16F
100
AcDbDictionary
281
     1
  0
DICTIONARY
  5
170
102
{ACAD_REACTORS
330
16F
102
}
330
16F
100
AcDbDictionary
281
     1
  0
DICTIONARY
  5
171
102
{ACAD_REACTORS
330
16F
102
}
330
16F
100
AcDbDictionary
281
     1
  3
Layout
350
1A
  3
Model
350
18
  0
DICTIONARY
  5
FFFFFF
102
{ACAD_REACTORS
330
16F
102
}
330
16F
100
AcDbDictionary
281
     1
  3
ByBlock
350
1000001
  3
ByLayer
350
1000000
  3
Global
350
1000002
  0
DICTIONARY
  5
100001F
102
{ACAD_REACTORS
330
16F
102
}
330
16F
100
AcDbDictionary
281
     1
  3
Standard
350
1000020
  0
DICTIONARY
  5
172
102
{ACAD_REACTORS
330
16F
102
}
330
16F
100
AcDbDictionary
281
     1
  3
L_0_02
350
7
  3
Standard
350
176
  0
DICTIONARY
  5
173
102
{ACAD_REACTORS
330
16F
102
}
330
16F
100
AcDbDictionary
281
     1
  0
ACDBDICTIONARYWDFLT
  5
174
102
{ACAD_REACTORS
330
16F
102
}
330
16F
100
AcDbDictionary
281
     1
  3
Normal
350
B
100
AcDbDictionaryWithDefault
340
B
  0
DICTIONARY
  5
1000021
102
{ACAD_REACTORS
330
16F
102
}
330
16F
100
AcDbDictionary
281
     1
  3
A0
350
1000022
  3
A1
350
1000023
  3
A2
350
1000024
  3
A3
350
1000025
  3
A4
350
1000026
  3
A5
350
1000027
  3
A6
350
1000028
  3
A7
350
1000029
  3
A8
350
100002A
  3
A9
350
100002B
  3
B0
350
100002C
  3
B1
350
100002D
  3
B2
350
100002E
  3
B3
350
100002F
  3
B4
350
1000030
  3
B5
350
1000031
  3
B6
350
1000032
  0
DICTIONARY
  5
100001D
102
{ACAD_REACTORS
330
16F
102
}
330
16F
100
AcDbDictionary
281
     1
  3
Standard
350
100001E
  0
DICTIONARY
  5
1000003
102
{ACAD_REACTORS
330
16F
102
}
330
16F
100
AcDbDictionary
281
     1
  3
2dWireframe
350
1000008
  3
Basic
350
100000B
  3
Brighten
350
100000F
  3
ColorChange
350
1000013
  3
Conceptual
350
100000D
  3
Dim
350
100000E
  3
EdgeColorOff
350
1000016
  3
Facepattern
350
1000012
  3
Flat
350
1000004
  3
FlatWithEdges
350
1000005
  3
Gouraud
350
1000006
  3
GouraudWithEdges
350
1000007
  3
Hidden
350
100000A
  3
JitterOff
350
1000014
  3
Linepattern
350
1000011
  3
OverhangOff
350
1000015
  3
Realistic
350
100000C
  3
Shaded
350
100001B
  3
Shaded with edges
350
100001A
  3
Shades of Gray
350
1000017
  3
Sketchy
350
1000018
  3
Thicken
350
1000010
  3
Wireframe
350
1000009
  3
X-Ray
350
1000019
  0
WIPEOUTVARIABLES
  5
175
102
{ACAD_REACTORS
330
16F
102
}
330
16F
100
AcDbWipeoutVariables
 70
     0
  0
XRECORD
  5
1000231
102
{ACAD_REACTORS
330
16F
102
}
330
16F
100
AcDbXrecord
280
     1
 90
        1
330
100001E
  0
DICTIONARY
  5
10001E9
102
{ACAD_REACTORS
330
16F
102
}
330
16F
100
AcDbDictionary
281
     1
  3
CANNOSCALE
350
10001EE
  3
CMLEADERSTYLE
350
10001EB
  3
CTABLESTYLE
350
10001EA
  3
MSLTSCALE
350
10001EC
  3
XCLIPFRAME
350
10001ED
  0
XRECORD
  5
10001F4
102
{ACAD_REACTORS
330
10001F3
102
}
330
10001F3
100
AcDbXrecord
280
     1
102
VTR_0.000_0.000_1.000_1.000_VISUALSTYLE
340
1000008
102
VTR_0.000_0.000_1.000_1.000_GRIDDISPLAY
 70
     3
102
VTR_0.000_0.000_1.000_1.000_GRIDMAJOR
 70
     5
102
VTR_0.000_0.000_1.000_1.000_DEFAULTLIGHTING
280
     1
102
VTR_0.000_0.000_1.000_1.000_DEFAULTLIGHTINGTYPE
 70
     1
102
VTR_0.000_0.000_1.000_1.000_BRIGHTNESS
141
0.0
102
VTR_0.000_0.000_1.000_1.000_CONTRAST
142
0.0
  0
XRECORD
  5
10001F0
102
{ACAD_REACTORS
330
10001EF
102
}
330
10001EF
100
AcDbXrecord
280
     1
102
MATERIAL
340
1000002
  0
XRECORD
  5
10001F2
102
{ACAD_REACTORS
330
10001F1
102
}
330
10001F1
100
AcDbXrecord
280
     1
102
MATERIAL
340
1000002
  0
SORTENTSTABLE
  5
1000035
102
{ACAD_REACTORS
330
1000034
102
}
330
1000034
100
AcDbSortentsTable
330
17
331
100008D
  5
1000075
331
100003C
  5
15D
331
100008E
  5
1000076
331
100003B
  5
15C
331
10001E3
  5
10001CB
331
1000135
  5
100011D
331
100003A
  5
15B
331
10000E7
  5
10000CF
331
1000039
  5
15A
331
1000133
  5
100011B
331
1000038
  5
159
331
1000037
  5
158
331
10000E4
  5
10000CC
331
1000036
  5
157
331
1000046
  5
167
331
10000EC
  5
10000D4
331
100003E
  5
15F
331
1000045
  5
166
331
1000142
  5
100012A
331
10000EB
  5
10000D3
331
100003D
  5
15E
331
1000193
  5
100017B
331
1000047
  5
168
331
100003F
  5
160
331
1000040
  5
161
331
10000EF
  5
10000D7
331
1000041
  5
162
331
15A
  5
10001D4
331
100013D
  5
1000125
331
10000F0
  5
10000D8
331
1000042
  5
163
331
1000096
  5
100007E
331
1000043
  5
164
331
1000095
  5
100007D
331
1000044
  5
165
331
100014B
  5
1000133
331
1000050
  5
1000038
331
1000048
  5
169
331
100019D
  5
1000185
331
1000051
  5
1000039
331
10000F7
  5
10000DF
331
1000049
  5
16A
331
10000F8
  5
10000E0
331
10000A7
  5
100008F
331
100004A
  5
16B
331
1000150
  5
1000138
331
100009E
  5
1000086
331
100004B
  5
16C
331
100009D
  5
1000085
331
100004C
  5
16D
331
10000FB
  5
10000E3
331
100004D
  5
16E
331
10000FC
  5
10000E4
331
100004E
  5
1000036
331
100004F
  5
1000037
331
1000155
  5
100013D
331
100005A
  5
1000042
331
1000100
  5
10000E8
331
10000AF
  5
1000097
331
1000052
  5
100003A
331
16A
  5
10001E4
331
10000AE
  5
1000096
331
100005B
  5
1000043
331
1000158
  5
1000140
331
1000053
  5
100003B
331
169
  5
10001E3
331
10000AD
  5
1000095
331
100005C
  5
1000044
331
1000054
  5
100003C
331
100015A
  5
1000142
331
1000103
  5
10000EB
331
1000055
  5
100003D
331
1000104
  5
10000EC
331
1000056
  5
100003E
331
1000057
  5
100003F
331
1000153
  5
100013B
331
1000058
  5
1000040
331
1000107
  5
10000EF
331
1000059
  5
1000041
331
1000065
  5
100004D
331
1000162
  5
100014A
331
100010B
  5
10000F3
331
100005D
  5
1000045
331
1000066
  5
100004E
331
100010C
  5
10000F4
331
100005E
  5
1000046
331
10001B3
  5
100019B
331
1000067
  5
100004F
331
100005F
  5
1000047
331
1000060
  5
1000048
331
100010F
  5
10000F7
331
1000061
  5
1000049
331
100015D
  5
1000145
331
1000110
  5
10000F8
331
1000062
  5
100004A
331
10000B6
  5
100009E
331
1000063
  5
100004B
331
10000B5
  5
100009D
331
1000064
  5
100004C
331
100016B
  5
1000153
331
1000070
  5
1000058
331
1000068
  5
1000050
331
10001BD
  5
10001A5
331
1000071
  5
1000059
331
1000117
  5
10000FF
331
1000069
  5
1000051
331
1000118
  5
1000100
331
10000C7
  5
10000AF
331
100006A
  5
1000052
331
1000170
  5
1000158
331
10000BE
  5
10000A6
331
100006B
  5
1000053
331
10000BD
  5
10000A5
331
100006C
  5
1000054
331
100011B
  5
1000103
331
100006D
  5
1000055
331
100011C
  5
1000104
331
100006E
  5
1000056
331
100006F
  5
1000057
331
1000120
  5
1000108
331
10000CF
  5
10000B7
331
1000072
  5
100005A
331
1000178
  5
1000160
331
1000073
  5
100005B
331
1000074
  5
100005C
331
161
  5
10001DB
331
100017A
  5
1000162
331
1000123
  5
100010B
331
1000075
  5
100005D
331
1000124
  5
100010C
331
1000076
  5
100005E
331
1000077
  5
100005F
331
1000173
  5
100015B
331
1000078
  5
1000060
331
1000127
  5
100010F
331
1000079
  5
1000061
331
1000175
  5
100015D
331
100007A
  5
1000062
331
163
  5
10001DD
331
10000CE
  5
10000B6
331
100007B
  5
1000063
331
10000CD
  5
10000B5
331
100007C
  5
1000064
331
1000182
  5
100016A
331
100012B
  5
1000113
331
100007D
  5
1000065
331
100012C
  5
1000114
331
100007E
  5
1000066
331
100007F
  5
1000067
331
1000080
  5
1000068
331
100012F
  5
1000117
331
1000081
  5
1000069
331
100017D
  5
1000165
331
1000130
  5
1000118
331
1000082
  5
100006A
331
10000D6
  5
10000BE
331
1000083
  5
100006B
331
10000D5
  5
10000BD
331
1000084
  5
100006C
331
1000085
  5
100006D
331
1000086
  5
100006E
331
10001D3
  5
10001BB
331
1000087
  5
100006F
331
1000088
  5
1000070
331
1000089
  5
1000071
331
1000134
  5
100011C
331
100008A
  5
1000072
331
100008B
  5
1000073
331
1000191
  5
1000179
331
100008C
  5
1000074
331
10000E0
  5
10000C8
331
100008F
  5
1000077
331
1000090
  5
1000078
331
10001DD
  5
10001C5
331
100018C
  5
1000174
331
10000E2
  5
10000CA
331
1000091
  5
1000079
331
1000092
  5
100007A
331
1000093
  5
100007B
331
1000199
  5
1000181
331
1000094
  5
100007C
331
10000E8
  5
10000D0
331
1000097
  5
100007F
331
1000098
  5
1000080
331
1000194
  5
100017C
331
10000EA
  5
10000D2
331
1000099
  5
1000081
331
1000144
  5
100012C
331
100009A
  5
1000082
331
100009B
  5
1000083
331
100009C
  5
1000084
331
100009F
  5
1000087
331
10000A0
  5
1000088
331
10000F2
  5
10000DA
331
10000A1
  5
1000089
331
100014C
  5
1000134
331
10000A2
  5
100008A
331
10000A3
  5
100008B
331
10000A4
  5
100008C
331
10000A5
  5
100008D
331
10000A6
  5
100008E
331
10000A8
  5
1000090
331
16D
  5
10001E7
331
10000A9
  5
1000091
331
1000154
  5
100013C
331
10000AA
  5
1000092
331
10000AB
  5
1000093
331
10001B1
  5
1000199
331
10000AC
  5
1000094
331
10000B0
  5
1000098
331
10001AC
  5
1000194
331
1000102
  5
10000EA
331
10000B1
  5
1000099
331
10000B2
  5
100009A
331
10000B3
  5
100009B
331
10001B9
  5
10001A1
331
10000B4
  5
100009C
331
1000108
  5
10000F0
331
10000B7
  5
100009F
331
10000B8
  5
10000A0
331
10001B4
  5
100019C
331
100010A
  5
10000F2
331
10000B9
  5
10000A1
331
1000164
  5
100014C
331
10000BA
  5
10000A2
331
10000BB
  5
10000A3
331
10000BC
  5
10000A4
331
10000BF
  5
10000A7
331
10000C0
  5
10000A8
331
1000112
  5
10000FA
331
10000C1
  5
10000A9
331
100016C
  5
1000154
331
10000C2
  5
10000AA
331
10000C3
  5
10000AB
331
10000C4
  5
10000AC
331
10000C5
  5
10000AD
331
10000C6
  5
10000AE
331
10000C8
  5
10000B0
331
10000C9
  5
10000B1
331
1000174
  5
100015C
331
10000CA
  5
10000B2
331
10000CB
  5
10000B3
331
10001D1
  5
10001B9
331
10000CC
  5
10000B4
331
10000D0
  5
10000B8
331
10001CC
  5
10001B4
331
1000122
  5
100010A
331
10000D1
  5
10000B9
331
10000D2
  5
10000BA
331
10000D3
  5
10000BB
331
10001D9
  5
10001C1
331
10000D4
  5
10000BC
331
1000128
  5
1000110
331
10000D7
  5
10000BF
331
10000D8
  5
10000C0
331
10001D4
  5
10001BC
331
100012A
  5
1000112
331
10000D9
  5
10000C1
331
1000184
  5
100016C
331
10000DA
  5
10000C2
331
10000DB
  5
10000C3
331
10000DC
  5
10000C4
331
10001E2
  5
10001CA
331
10000DD
  5
10000C5
331
1000190
  5
1000178
331
10000DE
  5
10000C6
331
10000DF
  5
10000C7
331
10000E1
  5
10000C9
331
100013A
  5
1000122
331
10000E3
  5
10000CB
331
10000E5
  5
10000CD
331
10000E6
  5
10000CE
331
10000E9
  5
10000D1
331
10000ED
  5
10000D5
331
10000EE
  5
10000D6
331
10000F1
  5
10000D9
331
100014A
  5
1000132
331
10000F3
  5
10000DB
331
10000F4
  5
10000DC
331
10000F5
  5
10000DD
331
10000F6
  5
10000DE
331
10000F9
  5
10000E1
331
10001A4
  5
100018C
331
10000FA
  5
10000E2
331
10000FD
  5
10000E5
331
10001B0
  5
1000198
331
10000FE
  5
10000E6
331
10000FF
  5
10000E7
331
1000101
  5
10000E9
331
1000105
  5
10000ED
331
1000106
  5
10000EE
331
1000109
  5
10000F1
331
100010D
  5
10000F5
331
100010E
  5
10000F6
331
1000111
  5
10000F9
331
100016A
  5
1000152
331
1000113
  5
10000FB
331
1000114
  5
10000FC
331
1000115
  5
10000FD
331
1000116
  5
10000FE
331
1000119
  5
1000101
331
10001C4
  5
10001AC
331
100011A
  5
1000102
331
100011D
  5
1000105
331
10001D0
  5
10001B8
331
100011E
  5
1000106
331
100011F
  5
1000107
331
1000121
  5
1000109
331
15B
  5
10001D5
331
1000125
  5
100010D
331
15E
  5
10001D8
331
1000126
  5
100010E
331
1000129
  5
1000111
331
100012D
  5
1000115
331
100012E
  5
1000116
331
1000131
  5
1000119
331
10001E0
  5
10001C8
331
1000132
  5
100011A
331
10001E4
  5
10001CC
331
1000136
  5
100011E
331
1000188
  5
1000170
331
1000137
  5
100011F
331
1000138
  5
1000120
331
10001E7
  5
10001CF
331
100018A
  5
1000172
331
1000139
  5
1000121
331
100013B
  5
1000123
331
100013C
  5
1000124
331
100013E
  5
1000126
331
100013F
  5
1000127
331
1000140
  5
1000128
331
1000192
  5
100017A
331
1000141
  5
1000129
331
1000143
  5
100012B
331
1000145
  5
100012D
331
1000146
  5
100012E
331
1000198
  5
1000180
331
1000147
  5
100012F
331
1000148
  5
1000130
331
1000149
  5
1000131
331
100014D
  5
1000135
331
100014E
  5
1000136
331
10001A0
  5
1000188
331
100014F
  5
1000137
331
10001A2
  5
100018A
331
1000151
  5
1000139
331
1000152
  5
100013A
331
1000156
  5
100013E
331
10001A8
  5
1000190
331
1000157
  5
100013F
331
10001AA
  5
1000192
331
1000159
  5
1000141
331
100015B
  5
1000143
331
100015C
  5
1000144
331
100015E
  5
1000146
331
100015F
  5
1000147
331
1000160
  5
1000148
331
10001B2
  5
100019A
331
1000161
  5
1000149
331
1000163
  5
100014B
331
1000165
  5
100014D
331
1000166
  5
100014E
331
10001B8
  5
10001A0
331
1000167
  5
100014F
331
1000168
  5
1000150
331
1000169
  5
1000151
331
100016D
  5
1000155
331
100016E
  5
1000156
331
10001C0
  5
10001A8
331
100016F
  5
1000157
331
10001C2
  5
10001AA
331
1000171
  5
1000159
331
1000172
  5
100015A
331
1000176
  5
100015E
331
10001C8
  5
10001B0
331
1000177
  5
100015F
331
10001CA
  5
10001B2
331
1000179
  5
1000161
331
162
  5
10001DC
331
100017B
  5
1000163
331
100017C
  5
1000164
331
100017E
  5
1000166
331
100017F
  5
1000167
331
1000180
  5
1000168
331
10001D2
  5
10001BA
331
1000181
  5
1000169
331
1000183
  5
100016B
331
1000185
  5
100016D
331
1000186
  5
100016E
331
10001D8
  5
10001C0
331
1000187
  5
100016F
331
1000189
  5
1000171
331
10001DE
  5
10001C6
331
100018B
  5
1000173
331
100018D
  5
1000175
331
100018E
  5
1000176
331
100018F
  5
1000177
331
1000195
  5
100017D
331
1000196
  5
100017E
331
1000197
  5
100017F
331
100019A
  5
1000182
331
159
  5
10001D3
331
100019B
  5
1000183
331
100019C
  5
1000184
331
100019E
  5
1000186
331
100019F
  5
1000187
331
10001A1
  5
1000189
331
10001A3
  5
100018B
331
10001A5
  5
100018D
331
10001A6
  5
100018E
331
10001A7
  5
100018F
331
168
  5
10001E2
331
10001A9
  5
1000191
331
166
  5
10001E0
331
10001AB
  5
1000193
331
10001AD
  5
1000195
331
10001AE
  5
1000196
331
10001AF
  5
1000197
331
10001B5
  5
100019D
331
10001B6
  5
100019E
331
10001B7
  5
100019F
331
10001BA
  5
10001A2
331
10001BB
  5
10001A3
331
10001BC
  5
10001A4
331
10001BE
  5
10001A6
331
10001BF
  5
10001A7
331
10001C1
  5
10001A9
331
10001C3
  5
10001AB
331
10001C5
  5
10001AD
331
10001C6
  5
10001AE
331
10001C7
  5
10001AF
331
10001C9
  5
10001B1
331
15F
  5
10001D9
331
10001CB
  5
10001B3
331
10001CD
  5
10001B5
331
10001CE
  5
10001B6
331
10001CF
  5
10001B7
331
10001D5
  5
10001BD
331
10001D6
  5
10001BE
331
10001D7
  5
10001BF
331
10001DA
  5
10001C2
331
10001DB
  5
10001C3
331
10001DC
  5
10001C4
331
10001DF
  5
10001C7
331
10001E1
  5
10001C9
331
10001E5
  5
10001CD
331
10001E6
  5
10001CE
331
10001E8
  5
10001D0
331
157
  5
10001D1
331
158
  5
10001D2
331
15C
  5
10001D6
331
15D
  5
10001D7
331
160
  5
10001DA
331
164
  5
10001DE
331
165
  5
10001DF
331
167
  5
10001E1
331
16B
  5
10001E5
331
16C
  5
10001E6
331
16E
  5
10001E8
  0
LAYOUT
  5
1A
330
171
100
AcDbPlotSettings
  1

  2

  4

  6

 40
0.0
 41
0.0
 42
0.0
 43
0.0
 44
0.0
 45
0.0
 46
0.0
 47
0.0
 48
0.0
 49
0.0
140
0.0
141
0.0
142
1.0
143
1.0
 70
   688
 72
     1
 73
     0
 74
     5
  7

 75
     0
 76
     0
 77
     2
 78
   300
147
1.0
148
0.0
149
0.0
100
AcDbLayout
  1
Layout
 70
     1
 71
     1
 10
0.0
 20
0.0
 11
420.0
 21
297.0
 12
0.0
 22
0.0
 32
0.0
 14
1.000000000000000E+20
 24
1.000000000000000E+20
 34
1.000000000000000E+20
 15
-1.000000000000000E+20
 25
-1.000000000000000E+20
 35
-1.000000000000000E+20
146
0.0
 13
0.0
 23
0.0
 33
0.0
 16
1.0
 26
0.0
 36
0.0
 17
0.0
 27
1.0
 37
0.0
 76
     0
330
19
  0
LAYOUT
  5
18
330
171
100
AcDbPlotSettings
  1

  2

  4

  6

 40
0.0
 41
0.0
 42
0.0
 43
0.0
 44
0.0
 45
0.0
 46
0.0
 47
0.0
 48
0.0
 49
0.0
140
0.0
141
0.0
142
1.0
143
1.0
 70
  1712
 72
     1
 73
     0
 74
     0
  7

 75
     0
 76
     0
 77
     2
 78
   300
147
1.0
148
0.0
149
0.0
100
AcDbLayout
  1
Model
 70
     1
 71
     0
 10
0.0
 20
0.0
 11
12.0
 21
9.0
 12
0.0
 22
0.0
 32
0.0
 14
0.0
 24
0.0
 34
0.0
 15
0.0
 25
0.0
 35
0.0
146
0.0
 13
0.0
 23
0.0
 33
0.0
 16
1.0
 26
0.0
 36
0.0
 17
0.0
 27
1.0
 37
0.0
 76
     0
330
17
331
2
  0
MATERIAL
  5
1000001
102
{ACAD_XDICTIONARY
360
10001F5
102
}
102
{ACAD_REACTORS
330
FFFFFF
102
}
330
FFFFFF
100
AcDbMaterial
  1
ByBlock
 72
     0
 73
     2
 77
     0
 78
     2
171
     0
172
     2
175
     0
176
     2
179
     0
270
     2
274
     2
  0
MATERIAL
  5
1000000
102
{ACAD_XDICTIONARY
360
10001F7
102
}
102
{ACAD_REACTORS
330
FFFFFF
102
}
330
FFFFFF
100
AcDbMaterial
  1
ByLayer
 72
     0
 73
     2
 77
     0
 78
     2
171
     0
172
     2
175
     0
176
     2
179
     0
270
     2
274
     2
  0
MATERIAL
  5
1000002
102
{ACAD_XDICTIONARY
360
10001F9
102
}
102
{ACAD_REACTORS
330
FFFFFF
102
}
330
FFFFFF
100
AcDbMaterial
  1
Global
 72
     0
 73
     2
 77
     0
 78
     2
171
     0
172
     2
175
     0
176
     2
179
     0
270
     2
274
     2
  0
MLEADERSTYLE
  5
1000020
102
{ACAD_XDICTIONARY
360
10001FC
102
}
102
{ACAD_REACTORS
330
100001F
102
}
330
100001F
100
AcDbMLeaderStyle
170
     2
171
     1
172
     0
 90
        2
 40
0.0
 41
0.0
173
     1
 91
-1056964608
340
4
 92
       -2
290
     1
 42
0.4
291
     1
 43
2.0
  3
Standard
 44
0.18
300

342
E
174
     1
178
     1
175
     1
176
     0
 93
-1056964608
 45
0.2
292
     0
297
     0
 46
5.0
 94
-1056964608
 47
1.0
 49
1.0
140
1.0
293
     1
141
0.0
294
     1
177
     0
142
1.0
295
     0
296
     0
143
0.125
1001
ACAD_MLEADERVER
1070
     2
  0
MLINESTYLE
  5
7
330
172
100
AcDbMlineStyle
  2
L_0_02
 70
     0
  3

 62
   256
 51
90.0
 52
90.0
 71
     1
 49
0.0
 62
   256
  6
CONTINUOUS
  0
MLINESTYLE
  5
176
102
{ACAD_REACTORS
330
172
102
}
330
172
100
AcDbMlineStyle
  2
Standard
 70
     0
  3

 62
   256
 51
90.0
 52
90.0
 71
     2
 49
0.5
 62
   256
  6
BYLAYER
 49
-0.5
 62
   256
  6
BYLAYER
  0
ACDBPLACEHOLDER
  5
B
330
174
  0
SCALE
  5
1000022
102
{ACAD_REACTORS
330
1000021
102
}
330
1000021
100
AcDbScale
 70
     0
300
1:1
140
1.0
141
1.0
290
     1
  0
SCALE
  5
1000023
102
{ACAD_REACTORS
330
1000021
102
}
330
1000021
100
AcDbScale
 70
     0
300
1:2
140
1.0
141
2.0
290
     0
  0
SCALE
  5
1000024
102
{ACAD_REACTORS
330
1000021
102
}
330
1000021
100
AcDbScale
 70
     0
300
1:4
140
1.0
141
4.0
290
     0
  0
SCALE
  5
1000025
102
{ACAD_REACTORS
330
1000021
102
}
330
1000021
100
AcDbScale
 70
     0
300
1:5
140
1.0
141
5.0
290
     0
  0
SCALE
  5
1000026
102
{ACAD_REACTORS
330
1000021
102
}
330
1000021
100
AcDbScale
 70
     0
300
1:8
140
1.0
141
8.0
290
     0
  0
SCALE
  5
1000027
102
{ACAD_REACTORS
330
1000021
102
}
330
1000021
100
AcDbScale
 70
     0
300
1:10
140
1.0
141
10.0
290
     0
  0
SCALE
  5
1000028
102
{ACAD_REACTORS
330
1000021
102
}
330
1000021
100
AcDbScale
 70
     0
300
1:16
140
1.0
141
16.0
290
     0
  0
SCALE
  5
1000029
102
{ACAD_REACTORS
330
1000021
102
}
330
1000021
100
AcDbScale
 70
     0
300
1:20
140
1.0
141
20.0
290
     0
  0
SCALE
  5
100002A
102
{ACAD_REACTORS
330
1000021
102
}
330
1000021
100
AcDbScale
 70
     0
300
1:30
140
1.0
141
30.0
290
     0
  0
SCALE
  5
100002B
102
{ACAD_REACTORS
330
1000021
102
}
330
1000021
100
AcDbScale
 70
     0
300
1:40
140
1.0
141
40.0
290
     0
  0
SCALE
  5
100002C
102
{ACAD_REACTORS
330
1000021
102
}
330
1000021
100
AcDbScale
 70
     0
300
1:50
140
1.0
141
50.0
290
     0
  0
SCALE
  5
100002D
102
{ACAD_REACTORS
330
1000021
102
}
330
1000021
100
AcDbScale
 70
     0
300
1:100
140
1.0
141
100.0
290
     0
  0
SCALE
  5
100002E
102
{ACAD_REACTORS
330
1000021
102
}
330
1000021
100
AcDbScale
 70
     0
300
2:1
140
2.0
141
1.0
290
     0
  0
SCALE
  5
100002F
102
{ACAD_REACTORS
330
1000021
102
}
330
1000021
100
AcDbScale
 70
     0
300
4:1
140
4.0
141
1.0
290
     0
  0
SCALE
  5
1000030
102
{ACAD_REACTORS
330
1000021
102
}
330
1000021
100
AcDbScale
 70
     0
300
8:1
140
8.0
141
1.0
290
     0
  0
SCALE
  5
1000031
102
{ACAD_REACTORS
330
1000021
102
}
330
1000021
100
AcDbScale
 70
     0
300
10:1
140
10.0
141
1.0
290
     0
  0
SCALE
  5
1000032
102
{ACAD_REACTORS
330
1000021
102
}
330
1000021
100
AcDbScale
 70
     0
300
100:1
140
100.0
141
1.0
290
     0
  0
TABLESTYLE
  5
100001E
102
{ACAD_XDICTIONARY
360
10001FE
102
}
102
{ACAD_REACTORS
330
100001D
102
}
330
100001D
100
AcDbTableStyle
  3
Standard
 70
     0
 71
     0
 40
0.06
 41
0.06
280
     0
281
     0
  7
STANDARD
140
0.18
170
     2
 62
     7
 63
   257
283
     0
274
    -2
284
     1
 64
     0
275
    -2
285
     1
 65
     0
276
    -2
286
     1
 66
     0
277
    -2
287
     1
 67
     0
278
    -2
288
     1
 68
     0
279
    -2
289
     1
 69
     0
  7
STANDARD
140
0.25
170
     5
 62
     7
 63
   257
283
     0
274
    -2
284
     1
 64
     0
275
    -2
285
     1
 65
     0
276
    -2
286
     1
 66
     0
277
    -2
287
     1
 67
     0
278
    -2
288
     1
 68
     0
279
    -2
289
     1
 69
     0
  7
STANDARD
140
0.18
170
     5
 62
     7
 63
   257
283
     0
274
    -2
284
     1
 64
     0
275
    -2
285
     1
 65
     0
276
    -2
286
     1
 66
     0
277
    -2
287
     1
 67
     0
278
    -2
288
     1
 68
     0
279
    -2
289
     1
 69
     0
  0
VISUALSTYLE
  5
1000008
102
{ACAD_XDICTIONARY
360
1000201
102
}
102
{ACAD_REACTORS
330
1000003
102
}
330
1000003
100
AcDbVisualStyle
  2
2dWireframe
 70
     4
 71
     0
 72
     2
 73
     0
 90
        0
 40
0.6
 41
30.0
 62
     5
 63
     7
421
 16777215
 74
     1
 91
        4
 64
     7
 65
   257
 75
     1
175
     1
 42
1.0
 92
        0
 66
   257
 43
1.0
 76
     1
 77
     6
 78
     2
 67
     7
 79
     5
170
     0
171
     0
290
     0
174
     0
 93
        1
 44
0.0
173
     0
291
     0
 45
0.0
1001
ACAD
1000
AcDbSavedByObjectVersion
1070
     0
  0
VISUALSTYLE
  5
100000B
102
{ACAD_XDICTIONARY
360
1000203
102
}
102
{ACAD_REACTORS
330
1000003
102
}
330
1000003
100
AcDbVisualStyle
  2
Basic
 70
     7
 71
     1
 72
     0
 73
     1
 90
        0
 40
0.6
 41
30.0
 62
     5
 63
     7
421
 16777215
 74
     0
 91
        4
 64
     7
 65
   257
 75
     1
175
     1
 42
1.0
 92
        8
 66
     7
 43
1.0
 76
     1
 77
     6
 78
     2
 67
     7
 79
     5
170
     0
171
     0
290
     0
174
     0
 93
        1
 44
0.0
173
     0
291
     1
 45
0.0
1001
ACAD
1000
AcDbSavedByObjectVersion
1070
     0
  0
VISUALSTYLE
  5
100000F
102
{ACAD_XDICTIONARY
360
1000205
102
}
102
{ACAD_REACTORS
330
1000003
102
}
330
1000003
100
AcDbVisualStyle
  2
Brighten
 70
    12
 71
     2
 72
     2
 73
     0
 90
        0
 40
0.6
 41
30.0
 62
     5
 63
     7
421
 16777215
 74
     1
 91
        4
 64
     7
 65
   257
 75
     1
175
     1
 42
1.0
 92
        8
 66
     7
 43
1.0
 76
     1
 77
     6
 78
     2
 67
     7
 79
     5
170
     0
171
     0
290
     0
174
     0
 93
        1
 44
50.0
173
     0
291
     1
 45
0.0
1001
ACAD
1000
AcDbSavedByObjectVersion
1070
     0
  0
VISUALSTYLE
  5
1000013
102
{ACAD_XDICTIONARY
360
1000207
102
}
102
{ACAD_REACTORS
330
1000003
102
}
330
1000003
100
AcDbVisualStyle
  2
ColorChange
 70
    16
 71
     2
 72
     2
 73
     3
 90
        0
 40
0.6
 41
30.0
 62
     5
 63
     8
421
  8421504
 74
     1
 91
        4
 64
     7
 65
   257
 75
     1
175
     1
 42
1.0
 92
        8
 66
     8
424
  8421504
 43
1.0
 76
     1
 77
     6
 78
     2
 67
     7
 79
     5
170
     0
171
     0
290
     0
174
     0
 93
        1
 44
0.0
173
     0
291
     1
 45
0.0
1001
ACAD
1000
AcDbSavedByObjectVersion
1070
     0
  0
VISUALSTYLE
  5
100000D
102
{ACAD_XDICTIONARY
360
1000209
102
}
102
{ACAD_REACTORS
330
1000003
102
}
330
1000003
100
AcDbVisualStyle
  2
Conceptual
 70
     9
 71
     3
 72
     2
 73
     0
 90
        0
 40
0.6
 41
30.0
 62
     5
 63
     7
421
 16777215
 74
     2
 91
        2
 64
     7
 65
   257
 75
     1
175
     1
 42
179.0
 92
        8
 66
     7
 43
1.0
 76
     1
 77
     6
 78
     2
 67
     7
 79
     3
170
     0
171
     0
290
     0
174
     0
 93
        1
 44
0.0
173
     0
291
     0
 45
0.0
1001
ACAD
1000
AcDbSavedByObjectVersion
1070
     0
  0
VISUALSTYLE
  5
100000E
102
{ACAD_XDICTIONARY
360
100020B
102
}
102
{ACAD_REACTORS
330
1000003
102
}
330
1000003
100
AcDbVisualStyle
  2
Dim
 70
    11
 71
     2
 72
     2
 73
     0
 90
        0
 40
0.6
 41
30.0
 62
     5
 63
     7
421
 16777215
 74
     1
 91
        4
 64
     7
 65
   257
 75
     1
175
     1
 42
1.0
 92
        8
 66
     7
 43
1.0
 76
     1
 77
     6
 78
     2
 67
     7
 79
     5
170
     0
171
     0
290
     0
174
     0
 93
        1
 44
-50.0
173
     0
291
     1
 45
0.0
1001
ACAD
1000
AcDbSavedByObjectVersion
1070
     0
  0
VISUALSTYLE
  5
1000016
102
{ACAD_XDICTIONARY
360
100020D
102
}
102
{ACAD_REACTORS
330
1000003
102
}
330
1000003
100
AcDbVisualStyle
  2
EdgeColorOff
 70
    22
 71
     2
 72
     2
 73
     0
 90
        0
 40
0.6
 41
30.0
 62
     5
 63
     7
421
 16777215
 74
     1
 91
        4
 64
     7
 65
   257
 75
     1
175
     1
 42
1.0
 92
        8
 66
     7
 43
1.0
 76
     1
 77
     6
 78
     2
 67
     7
 79
     5
170
     0
171
     0
290
     0
174
     0
 93
        1
 44
0.0
173
     0
291
     1
 45
0.0
1001
ACAD
1000
AcDbSavedByObjectVersion
1070
     0
  0
VISUALSTYLE
  5
1000012
102
{ACAD_XDICTIONARY
360
100020F
102
}
102
{ACAD_REACTORS
330
1000003
102
}
330
1000003
100
AcDbVisualStyle
  2
Facepattern
 70
    15
 71
     2
 72
     2
 73
     0
 90
        0
 40
0.6
 41
30.0
 62
     5
 63
     7
421
 16777215
 74
     1
 91
        4
 64
     7
 65
   257
 75
     1
175
     1
 42
1.0
 92
        8
 66
     7
 43
1.0
 76
     1
 77
     6
 78
     2
 67
     7
 79
     5
170
     0
171
     0
290
     0
174
     0
 93
        1
 44
0.0
173
     0
291
     1
 45
0.0
1001
ACAD
1000
AcDbSavedByObjectVersion
1070
     0
  0
VISUALSTYLE
  5
1000004
102
{ACAD_XDICTIONARY
360
1000211
102
}
102
{ACAD_REACTORS
330
1000003
102
}
330
1000003
100
AcDbVisualStyle
  2
Flat
 70
     0
 71
     2
 72
     1
 73
     1
 90
        2
 40
0.6
 41
30.0
 62
     5
 63
     7
421
 16777215
 74
     0
 91
        0
 64
     7
 65
   257
 75
     1
175
     1
 42
1.0
 92
        8
 66
     7
 43
1.0
 76
     1
 77
     6
 78
     2
 67
     7
 79
     5
170
     0
171
     0
290
     0
174
     0
 93
       13
 44
0.0
173
     0
291
     1
 45
0.0
1001
ACAD
1000
AcDbSavedByObjectVersion
1070
     0
  0
VISUALSTYLE
  5
1000005
102
{ACAD_XDICTIONARY
360
1000213
102
}
102
{ACAD_REACTORS
330
1000003
102
}
330
1000003
100
AcDbVisualStyle
  2
FlatWithEdges
 70
     1
 71
     2
 72
     1
 73
     1
 90
        2
 40
0.6
 41
30.0
 62
     5
 63
     7
421
 16777215
 74
     1
 91
        0
 64
     7
 65
   257
 75
     1
175
     1
 42
1.0
 92
        0
 66
   257
 43
1.0
 76
     1
 77
     6
 78
     2
 67
     7
 79
     5
170
     0
171
     0
290
     0
174
     0
 93
       13
 44
0.0
173
     0
291
     1
 45
0.0
1001
ACAD
1000
AcDbSavedByObjectVersion
1070
     0
  0
VISUALSTYLE
  5
1000006
102
{ACAD_XDICTIONARY
360
1000215
102
}
102
{ACAD_REACTORS
330
1000003
102
}
330
1000003
100
AcDbVisualStyle
  2
Gouraud
 70
     2
 71
     2
 72
     2
 73
     1
 90
        2
 40
0.6
 41
30.0
 62
     5
 63
     7
421
 16777215
 74
     0
 91
        0
 64
     7
 65
   257
 75
     1
175
     1
 42
1.0
 92
        0
 66
     7
 43
1.0
 76
     1
 77
     6
 78
     2
 67
     7
 79
     5
170
     0
171
     0
290
     0
174
     0
 93
       13
 44
0.0
173
     0
291
     1
 45
0.0
1001
ACAD
1000
AcDbSavedByObjectVersion
1070
     0
  0
VISUALSTYLE
  5
1000007
102
{ACAD_XDICTIONARY
360
1000217
102
}
102
{ACAD_REACTORS
330
1000003
102
}
330
1000003
100
AcDbVisualStyle
  2
GouraudWithEdges
 70
     3
 71
     2
 72
     2
 73
     1
 90
        2
 40
0.6
 41
30.0
 62
     5
 63
     7
421
 16777215
 74
     1
 91
        0
 64
     7
 65
   257
 75
     1
175
     1
 42
1.0
 92
        0
 66
   257
 43
1.0
 76
     1
 77
     6
 78
     2
 67
     7
 79
     5
170
     0
171
     0
290
     0
174
     0
 93
       13
 44
0.0
173
     0
291
     1
 45
0.0
1001
ACAD
1000
AcDbSavedByObjectVersion
1070
     0
  0
VISUALSTYLE
  5
100000A
102
{ACAD_XDICTIONARY
360
1000219
102
}
102
{ACAD_REACTORS
330
1000003
102
}
330
1000003
100
AcDbVisualStyle
  2
Hidden
 70
     6
 71
     1
 72
     2
 73
     2
 90
        0
 40
0.6
 41
30.0
 62
     5
 63
     7
421
 16777215
 74
     2
 91
        2
 64
     7
 65
   257
 75
     2
175
     1
 42
40.0
 92
        0
 66
   257
 43
1.0
 76
     1
 77
     6
 78
     2
 67
     7
 79
     3
170
     0
171
     0
290
     0
174
     0
 93
        1
 44
0.0
173
     0
291
     0
 45
0.0
1001
ACAD
1000
AcDbSavedByObjectVersion
1070
     0
  0
VISUALSTYLE
  5
1000014
102
{ACAD_XDICTIONARY
360
100021B
102
}
102
{ACAD_REACTORS
330
1000003
102
}
330
1000003
100
AcDbVisualStyle
  2
JitterOff
 70
    20
 71
     2
 72
     2
 73
     0
 90
        0
 40
0.6
 41
30.0
 62
     5
 63
     7
421
 16777215
 74
     1
 91
        4
 64
     7
 65
   257
 75
     1
175
     1
 42
1.0
 92
       10
 66
     7
 43
1.0
 76
     1
 77
     6
 78
     2
 67
     7
 79
     5
170
     0
171
     0
290
     0
174
     0
 93
        1
 44
0.0
173
     0
291
     1
 45
0.0
1001
ACAD
1000
AcDbSavedByObjectVersion
1070
     0
  0
VISUALSTYLE
  5
1000011
102
{ACAD_XDICTIONARY
360
100021D
102
}
102
{ACAD_REACTORS
330
1000003
102
}
330
1000003
100
AcDbVisualStyle
  2
Linepattern
 70
    14
 71
     2
 72
     2
 73
     0
 90
        0
 40
0.6
 41
30.0
 62
     5
 63
     7
421
 16777215
 74
     1
 91
        4
 64
     7
 65
   257
 75
     7
175
     7
 42
1.0
 92
        8
 66
     7
 43
1.0
 76
     1
 77
     6
 78
     2
 67
     7
 79
     5
170
     0
171
     0
290
     0
174
     0
 93
        1
 44
0.0
173
     0
291
     1
 45
0.0
1001
ACAD
1000
AcDbSavedByObjectVersion
1070
     0
  0
VISUALSTYLE
  5
1000015
102
{ACAD_XDICTIONARY
360
100021F
102
}
102
{ACAD_REACTORS
330
1000003
102
}
330
1000003
100
AcDbVisualStyle
  2
OverhangOff
 70
    21
 71
     2
 72
     2
 73
     0
 90
        0
 40
0.6
 41
30.0
 62
     5
 63
     7
421
 16777215
 74
     1
 91
        4
 64
     7
 65
   257
 75
     1
175
     1
 42
1.0
 92
        9
 66
     7
 43
1.0
 76
     1
 77
     6
 78
     2
 67
     7
 79
     5
170
     0
171
     0
290
     0
174
     0
 93
        1
 44
0.0
173
     0
291
     1
 45
0.0
1001
ACAD
1000
AcDbSavedByObjectVersion
1070
     0
  0
VISUALSTYLE
  5
100000C
102
{ACAD_XDICTIONARY
360
1000221
102
}
102
{ACAD_REACTORS
330
1000003
102
}
330
1000003
100
AcDbVisualStyle
  2
Realistic
 70
     8
 71
     2
 72
     3
 73
     0
 90
        2
 40
0.6
 41
30.0
 62
     5
 63
     7
421
 16777215
 74
     0
 91
        0
 64
     7
 65
   257
 75
     1
175
     1
 42
1.0
 92
        8
 66
   257
 43
1.0
 76
     1
 77
     6
 78
     2
 67
     7
 79
     3
170
     0
171
     0
290
     0
174
     0
 93
       13
 44
0.0
173
     0
291
     0
 45
0.0
1001
ACAD
1000
AcDbSavedByObjectVersion
1070
     0
  0
VISUALSTYLE
  5
100001B
102
{ACAD_XDICTIONARY
360
1000223
102
}
102
{ACAD_REACTORS
330
1000003
102
}
330
1000003
100
AcDbVisualStyle
  2
Shaded
 70
    27
 71
     2
 72
     2
 73
     1
 90
        2
 40
0.6
 41
30.0
 62
     5
 63
     7
421
 16777215
 74
     0
 91
        4
 64
     7
 65
   257
 75
     1
175
     1
 42
1.0
 92
        8
 66
   257
 43
1.0
 76
     1
 77
     6
 78
     2
 67
     8
425
  7895160
 79
     3
170
     0
171
     0
290
     0
174
     0
 93
        5
 44
0.0
173
     0
291
     0
 45
0.0
1001
ACAD
1000
AcDbSavedByObjectVersion
1070
     0
  0
VISUALSTYLE
  5
100001A
102
{ACAD_XDICTIONARY
360
1000225
102
}
102
{ACAD_REACTORS
330
1000003
102
}
330
1000003
100
AcDbVisualStyle
  2
Shaded with edges
 70
    26
 71
     2
 72
     2
 73
     1
 90
        2
 40
0.6
 41
30.0
 62
     5
 63
     7
421
 16777215
 74
     1
 91
       10
 64
     7
 65
   257
 75
     2
175
     1
 42
1.0
 92
        8
 66
   257
 43
1.0
 76
     1
 77
     6
 78
     2
 67
     7
 79
     3
170
     0
171
     0
290
     0
174
     0
 93
        5
 44
0.0
173
     0
291
     0
 45
0.0
1001
ACAD
1000
AcDbSavedByObjectVersion
1070
     0
  0
VISUALSTYLE
  5
1000017
102
{ACAD_XDICTIONARY
360
1000227
102
}
102
{ACAD_REACTORS
330
1000003
102
}
330
1000003
100
AcDbVisualStyle
  2
Shades of Gray
 70
    23
 71
     2
 72
     2
 73
     3
 90
        0
 40
0.6
 41
30.0
 62
     5
 63
     7
421
 16777215
 74
     2
 91
        2
 64
     7
 65
     7
 75
     1
175
     1
 42
40.0
 92
        8
 66
     7
 43
1.0
 76
     1
 77
     6
 78
     2
 67
     7
 79
     3
170
     0
171
     0
290
     0
174
     0
 93
        1
 44
0.0
173
     0
291
     0
 45
0.0
1001
ACAD
1000
AcDbSavedByObjectVersion
1070
     0
  0
VISUALSTYLE
  5
1000018
102
{ACAD_XDICTIONARY
360
1000229
102
}
102
{ACAD_REACTORS
330
1000003
102
}
330
1000003
100
AcDbVisualStyle
  2
Sketchy
 70
    24
 71
     1
 72
     2
 73
     2
 90
        0
 40
0.6
 41
30.0
 62
     5
 63
     7
421
 16777215
 74
     2
 91
        2
 64
     7
 65
     7
 75
     1
175
     1
 42
40.0
 92
       11
 66
     7
 43
1.0
 76
     1
 77
     6
 78
     2
 67
     7
 79
     6
170
     0
171
     0
290
     0
174
     0
 93
        1
 44
0.0
173
     0
291
     0
 45
0.0
1001
ACAD
1000
AcDbSavedByObjectVersion
1070
     0
  0
VISUALSTYLE
  5
1000010
102
{ACAD_XDICTIONARY
360
100022B
102
}
102
{ACAD_REACTORS
330
1000003
102
}
330
1000003
100
AcDbVisualStyle
  2
Thicken
 70
    13
 71
     2
 72
     2
 73
     0
 90
        0
 40
0.6
 41
30.0
 62
     5
 63
     7
421
 16777215
 74
     1
 91
        4
 64
     7
 65
   257
 75
     1
175
     1
 42
1.0
 92
       12
 66
     7
 43
1.0
 76
     1
 77
     6
 78
     2
 67
     7
 79
     5
170
     0
171
     0
290
     0
174
     0
 93
        1
 44
0.0
173
     0
291
     1
 45
0.0
1001
ACAD
1000
AcDbSavedByObjectVersion
1070
     0
  0
VISUALSTYLE
  5
1000009
102
{ACAD_XDICTIONARY
360
100022D
102
}
102
{ACAD_REACTORS
330
1000003
102
}
330
1000003
100
AcDbVisualStyle
  2
Wireframe
 70
     5
 71
     0
 72
     2
 73
     0
 90
        0
 40
0.6
 41
30.0
 62
     5
 63
     7
421
 16777215
 74
     1
 91
        4
 64
     7
 65
   257
 75
     1
175
     1
 42
1.0
 92
        0
 66
   257
 43
1.0
 76
     1
 77
     6
 78
     2
 67
     7
 79
     3
170
     0
171
     0
290
     0
174
     0
 93
        1
 44
0.0
173
     0
291
     0
 45
0.0
1001
ACAD
1000
AcDbSavedByObjectVersion
1070
     0
  0
VISUALSTYLE
  5
1000019
102
{ACAD_XDICTIONARY
360
100022F
102
}
102
{ACAD_REACTORS
330
1000003
102
}
330
1000003
100
AcDbVisualStyle
  2
X-Ray
 70
    25
 71
     2
 72
     2
 73
     1
 90
        1
 40
0.5
 41
30.0
 62
     5
 63
     7
421
 16777215
 74
     1
 91
        0
 64
     7
 65
   257
 75
     1
175
     1
 42
1.0
 92
        8
 66
     7
 43
1.0
 76
     1
 77
     6
 78
     2
 67
     7
 79
     3
170
     0
171
     0
290
     0
174
     0
 93
       13
 44
0.0
173
     0
291
     0
 45
0.0
1001
ACAD
1000
AcDbSavedByObjectVersion
1070
     0
  0
DICTIONARYVAR
  5
10001EE
102
{ACAD_REACTORS
330
10001E9
102
}
330
10001E9
100
DictionaryVariables
280
     0
  1
1:1
  0
DICTIONARYVAR
  5
10001EB
102
{ACAD_REACTORS
330
10001E9
102
}
330
10001E9
100
DictionaryVariables
280
     0
  1
Standard
  0
DICTIONARYVAR
  5
10001EA
102
{ACAD_REACTORS
330
10001E9
102
}
330
10001E9
100
DictionaryVariables
280
     0
  1
Standard
  0
DICTIONARYVAR
  5
10001EC
102
{ACAD_REACTORS
330
10001E9
102
}
330
10001E9
100
DictionaryVariables
280
     0
  1
0
  0
DICTIONARYVAR
  5
10001ED
102
{ACAD_REACTORS
330
10001E9
102
}
330
10001E9
100
DictionaryVariables
280
     0
  1
2
  0
DICTIONARY
  5
10001F5
330
1000001
100
AcDbDictionary
280
     1
281
     1
  3
ACAD_XREC_ROUNDTRIP
360
10001F6
  0
DICTIONARY
  5
10001F7
330
1000000
100
AcDbDictionary
280
     1
281
     1
  3
ACAD_XREC_ROUNDTRIP
360
10001F8
  0
DICTIONARY
  5
10001F9
330
1000002
100
AcDbDictionary
280
     1
281
     1
  3
ACAD_XREC_ROUNDTRIP
360
10001FA
  0
DICTIONARY
  5
10001FC
330
1000020
100
AcDbDictionary
280
     1
281
     1
  3
ACAD_XREC_ROUNDTRIP
360
10001FD
  0
DICTIONARY
  5
10001FE
330
100001E
100
AcDbDictionary
280
     1
281
     1
  3
ACAD_ROUNDTRIP_2008_TABLESTYLE_CELLSTYLEMAP
360
1000200
  3
ACAD_XREC_ROUNDTRIP
360
10001FF
  0
DICTIONARY
  5
1000201
330
1000008
100
AcDbDictionary
280
     1
281
     1
  3
ACAD_XREC_ROUNDTRIP
360
1000202
  0
DICTIONARY
  5
1000203
330
100000B
100
AcDbDictionary
280
     1
281
     1
  3
ACAD_XREC_ROUNDTRIP
360
1000204
  0
DICTIONARY
  5
1000205
330
100000F
100
AcDbDictionary
280
     1
281
     1
  3
ACAD_XREC_ROUNDTRIP
360
1000206
  0
DICTIONARY
  5
1000207
330
1000013
100
AcDbDictionary
280
     1
281
     1
  3
ACAD_XREC_ROUNDTRIP
360
1000208
  0
DICTIONARY
  5
1000209
330
100000D
100
AcDbDictionary
280
     1
281
     1
  3
ACAD_XREC_ROUNDTRIP
360
100020A
  0
DICTIONARY
  5
100020B
330
100000E
100
AcDbDictionary
280
     1
281
     1
  3
ACAD_XREC_ROUNDTRIP
360
100020C
  0
DICTIONARY
  5
100020D
330
1000016
100
AcDbDictionary
280
     1
281
     1
  3
ACAD_XREC_ROUNDTRIP
360
100020E
  0
DICTIONARY
  5
100020F
330
1000012
100
AcDbDictionary
280
     1
281
     1
  3
ACAD_XREC_ROUNDTRIP
360
1000210
  0
DICTIONARY
  5
1000211
330
1000004
100
AcDbDictionary
280
     1
281
     1
  3
ACAD_XREC_ROUNDTRIP
360
1000212
  0
DICTIONARY
  5
1000213
330
1000005
100
AcDbDictionary
280
     1
281
     1
  3
ACAD_XREC_ROUNDTRIP
360
1000214
  0
DICTIONARY
  5
1000215
330
1000006
100
AcDbDictionary
280
     1
281
     1
  3
ACAD_XREC_ROUNDTRIP
360
1000216
  0
DICTIONARY
  5
1000217
330
1000007
100
AcDbDictionary
280
     1
281
     1
  3
ACAD_XREC_ROUNDTRIP
360
1000218
  0
DICTIONARY
  5
1000219
330
100000A
100
AcDbDictionary
280
     1
281
     1
  3
ACAD_XREC_ROUNDTRIP
360
100021A
  0
DICTIONARY
  5
100021B
330
1000014
100
AcDbDictionary
280
     1
281
     1
  3
ACAD_XREC_ROUNDTRIP
360
100021C
  0
DICTIONARY
  5
100021D
330
1000011
100
AcDbDictionary
280
     1
281
     1
  3
ACAD_XREC_ROUNDTRIP
360
100021E
  0
DICTIONARY
  5
100021F
330
1000015
100
AcDbDictionary
280
     1
281
     1
  3
ACAD_XREC_ROUNDTRIP
360
1000220
  0
DICTIONARY
  5
1000221
330
100000C
100
AcDbDictionary
280
     1
281
     1
  3
ACAD_XREC_ROUNDTRIP
360
1000222
  0
DICTIONARY
  5
1000223
330
100001B
100
AcDbDictionary
280
     1
281
     1
  3
ACAD_XREC_ROUNDTRIP
360
1000224
  0
DICTIONARY
  5
1000225
330
100001A
100
AcDbDictionary
280
     1
281
     1
  3
ACAD_XREC_ROUNDTRIP
360
1000226
  0
DICTIONARY
  5
1000227
330
1000017
100
AcDbDictionary
280
     1
281
     1
  3
ACAD_XREC_ROUNDTRIP
360
1000228
  0
DICTIONARY
  5
1000229
330
1000018
100
AcDbDictionary
280
     1
281
     1
  3
ACAD_XREC_ROUNDTRIP
360
100022A
  0
DICTIONARY
  5
100022B
330
1000010
100
AcDbDictionary
280
     1
281
     1
  3
ACAD_XREC_ROUNDTRIP
360
100022C
  0
DICTIONARY
  5
100022D
330
1000009
100
AcDbDictionary
280
     1
281
     1
  3
ACAD_XREC_ROUNDTRIP
360
100022E
  0
DICTIONARY
  5
100022F
330
1000019
100
AcDbDictionary
280
     1
281
     1
  3
ACAD_XREC_ROUNDTRIP
360
1000230
  0
XRECORD
  5
10001F6
102
{ACAD_REACTORS
330
10001F5
102
}
330
10001F5
100
AcDbXrecord
280
     1
102
MATERIAL
148
0.0
149
0.0
149
0.0
 93
        0
 94
      127
282
     0
 72
     0
 77
     0
171
     0
175
     0
179
     0
273
     0
  0
XRECORD
  5
10001F8
102
{ACAD_REACTORS
330
10001F7
102
}
330
10001F7
100
AcDbXrecord
280
     1
102
MATERIAL
148
0.0
149
0.0
149
0.0
 93
        0
 94
      127
282
     0
 72
     0
 77
     0
171
     0
175
     0
179
     0
273
     0
  0
XRECORD
  5
10001FA
102
{ACAD_REACTORS
330
10001F9
102
}
330
10001F9
100
AcDbXrecord
280
     1
102
MATERIAL
148
0.0
149
0.0
149
0.0
 93
        0
 94
      127
282
     0
 72
     0
 77
     0
171
     0
175
     0
179
     0
273
     0
  0
XRECORD
  5
10001FD
102
{ACAD_REACTORS
330
10001FC
102
}
330
10001FC
100
AcDbXrecord
280
     1
102
ACAD_ROUNDTRIP_2010_MLEADER_STYLE
  0
CELLSTYLEMAP
  5
1000200
102
{ACAD_REACTORS
330
10001FE
102
}
330
10001FE
100
AcDbCellStyleMap
 90
        3
300
CELLSTYLE
  1
TABLEFORMAT_BEGIN
 90
        5
170
     1
 91
        0
 92
    32768
 62
   257
 93
        1
300
CONTENTFORMAT
  1
CONTENTFORMAT_BEGIN
 90
        0
 91
        0
 92
        4
 93
        0
300

 40
0.0
140
1.0
 94
        5
 62
     7
340
E
144
0.25
309
CONTENTFORMAT_END
171
     1
301
MARGIN
  1
CELLMARGIN_BEGIN
 40
0.06
 40
0.06
 40
0.06
 40
0.06
 40
0.06
 40
0.06
309
CELLMARGIN_END
 94
        6
 95
        1
302
GRIDFORMAT
  1
GRIDFORMAT_BEGIN
 90
        0
 91
        1
 62
     0
 92
       -2
340
0
 93
        0
 40
0.045
309
GRIDFORMAT_END
 95
        2
302
GRIDFORMAT
  1
GRIDFORMAT_BEGIN
 90
        0
 91
        1
 62
     0
 92
       -2
340
0
 93
        0
 40
0.045
309
GRIDFORMAT_END
 95
        4
302
GRIDFORMAT
  1
GRIDFORMAT_BEGIN
 90
        0
 91
        1
 62
     0
 92
       -2
340
0
 93
        0
 40
0.045
309
GRIDFORMAT_END
 95
        8
302
GRIDFORMAT
  1
GRIDFORMAT_BEGIN
 90
        0
 91
        1
 62
     0
 92
       -2
340
0
 93
        0
 40
0.045
309
GRIDFORMAT_END
 95
       16
302
GRIDFORMAT
  1
GRIDFORMAT_BEGIN
 90
        0
 91
        1
 62
     0
 92
       -2
340
0
 93
        0
 40
0.045
309
GRIDFORMAT_END
 95
       32
302
GRIDFORMAT
  1
GRIDFORMAT_BEGIN
 90
        0
 91
        1
 62
     0
 92
       -2
340
0
 93
        0
 40
0.045
309
GRIDFORMAT_END
309
TABLEFORMAT_END
  1
CELLSTYLE_BEGIN
 90
        1
 91
        1
300
_TITLE
309
CELLSTYLE_END
300
CELLSTYLE
  1
TABLEFORMAT_BEGIN
 90
        5
170
     1
 91
        0
 92
        0
 62
   257
 93
        1
300
CONTENTFORMAT
  1
CONTENTFORMAT_BEGIN
 90
        0
 91
        0
 92
        4
 93
        0
300

 40
0.0
140
1.0
 94
        5
 62
     7
340
E
144
0.18
309
CONTENTFORMAT_END
171
     1
301
MARGIN
  1
CELLMARGIN_BEGIN
 40
0.06
 40
0.06
 40
0.06
 40
0.06
 40
0.06
 40
0.06
309
CELLMARGIN_END
 94
        6
 95
        1
302
GRIDFORMAT
  1
GRIDFORMAT_BEGIN
 90
        0
 91
        1
 62
     0
 92
       -2
340
0
 93
        0
 40
0.045
309
GRIDFORMAT_END
 95
        2
302
GRIDFORMAT
  1
GRIDFORMAT_BEGIN
 90
        0
 91
        1
 62
     0
 92
       -2
340
0
 93
        0
 40
0.045
309
GRIDFORMAT_END
 95
        4
302
GRIDFORMAT
  1
GRIDFORMAT_BEGIN
 90
        0
 91
        1
 62
     0
 92
       -2
340
0
 93
        0
 40
0.045
309
GRIDFORMAT_END
 95
        8
302
GRIDFORMAT
  1
GRIDFORMAT_BEGIN
 90
        0
 91
        1
 62
     0
 92
       -2
340
0
 93
        0
 40
0.045
309
GRIDFORMAT_END
 95
       16
302
GRIDFORMAT
  1
GRIDFORMAT_BEGIN
 90
        0
 91
        1
 62
     0
 92
       -2
340
0
 93
        0
 40
0.045
309
GRIDFORMAT_END
 95
       32
302
GRIDFORMAT
  1
GRIDFORMAT_BEGIN
 90
        0
 91
        1
 62
     0
 92
       -2
340
0
 93
        0
 40
0.045
309
GRIDFORMAT_END
309
TABLEFORMAT_END
  1
CELLSTYLE_BEGIN
 90
        2
 91
        1
300
_HEADER
309
CELLSTYLE_END
300
CELLSTYLE
  1
TABLEFORMAT_BEGIN
 90
        5
170
     1
 91
        0
 92
        0
 62
   257
 93
        1
300
CONTENTFORMAT
  1
CONTENTFORMAT_BEGIN
 90
        0
 91
        0
 92
        4
 93
        0
300

 40
0.0
140
1.0
 94
        2
 62
     7
340
E
144
0.18
309
CONTENTFORMAT_END
171
     1
301
MARGIN
  1
CELLMARGIN_BEGIN
 40
0.06
 40
0.06
 40
0.06
 40
0.06
 40
0.06
 40
0.06
309
CELLMARGIN_END
 94
        6
 95
        1
302
GRIDFORMAT
  1
GRIDFORMAT_BEGIN
 90
        0
 91
        1
 62
     0
 92
       -2
340
0
 93
        0
 40
0.045
309
GRIDFORMAT_END
 95
        2
302
GRIDFORMAT
  1
GRIDFORMAT_BEGIN
 90
        0
 91
        1
 62
     0
 92
       -2
340
0
 93
        0
 40
0.045
309
GRIDFORMAT_END
 95
        4
302
GRIDFORMAT
  1
GRIDFORMAT_BEGIN
 90
        0
 91
        1
 62
     0
 92
       -2
340
0
 93
        0
 40
0.045
309
GRIDFORMAT_END
 95
        8
302
GRIDFORMAT
  1
GRIDFORMAT_BEGIN
 90
        0
 91
        1
 62
     0
 92
       -2
340
0
 93
        0
 40
0.045
309
GRIDFORMAT_END
 95
       16
302
GRIDFORMAT
  1
GRIDFORMAT_BEGIN
 90
        0
 91
        1
 62
     0
 92
       -2
340
0
 93
        0
 40
0.045
309
GRIDFORMAT_END
 95
       32
302
GRIDFORMAT
  1
GRIDFORMAT_BEGIN
 90
        0
 91
        1
 62
     0
 92
       -2
340
0
 93
        0
 40
0.045
309
GRIDFORMAT_END
309
TABLEFORMAT_END
  1
CELLSTYLE_BEGIN
 90
        3
 91
        2
300
_DATA
309
CELLSTYLE_END
  0
XRECORD
  5
10001FF
102
{ACAD_REACTORS
330
10001FE
102
}
330
10001FE
100
AcDbXrecord
280
     1
102
ACAD_ROUNDTRIP_PRE2007_TABLESTYLE
 90
        4
 91
        0
  1

 92
        4
 93
        0
  2

 94
        4
 95
        0
  3

  0
XRECORD
  5
1000202
102
{ACAD_REACTORS
330
1000201
102
}
330
1000201
100
AcDbXrecord
280
     1
102
RTVSPropertyOp0
 70
     1
102
RTVSPropertyOp1
 70
     1
102
RTVSPropertyOp2
 70
     1
102
RTVSPropertyOp3
 70
     1
102
RTVSPropertyOp4
 70
     1
102
RTVSPropertyOp5
 70
     1
102
RTVSPropertyOp6
 70
     1
102
RTVSPropertyOp7
 70
     1
102
RTVSPropertyOp8
 70
     1
102
RTVSPropertyOp9
 70
     1
102
RTVSPropertyOp10
 70
     1
102
RTVSPropertyOp11
 70
     1
102
RTVSPropertyOp12
 70
     1
102
RTVSPropertyOp13
 70
     1
102
RTVSPropertyOp14
 70
     1
102
RTVSPropertyOp15
 70
     1
102
RTVSPropertyOp16
 70
     1
102
RTVSPropertyOp17
 70
     1
102
RTVSPropertyOp18
 70
     1
102
RTVSPropertyOp19
 70
     1
102
RTVSPropertyOp20
 70
     1
102
RTVSPropertyOp21
 70
     1
102
RTVSPropertyOp22
 70
     1
102
RTVSPropertyOp23
 70
     1
102
RTVSPropertyOp24
 70
     1
102
RTVSPropertyOp25
 70
     1
102
RTVSPropertyOp26
 70
     1
102
RTVSPropertyOp27
 70
     1
102
RTVSPropertyOp28
 70
     1
102
RTVSPropertyOp29
 70
     1
102
RTVSPropertyOp30
 70
     1
102
RTVSPropertyOp31
 70
     1
102
RTVSPropertyOp32
 70
     1
102
RTVSPropertyOp33
 70
     1
102
RTVSPropertyOp34
 70
     1
102
RTVSPropertyOp35
 70
     1
102
RTVSPropertyOp36
 70
     1
102
RTVSPropertyOp37
 70
     1
102
RTVSPropertyOp38
 70
     1
102
RTVSPropertyOp39
 70
     1
102
RTVSPropertyOp40
 70
     1
102
RTVSPropertyOp41
 70
     1
102
RTVSPropertyOp42
 70
     1
102
RTVSPropertyOp43
 70
     1
102
RTVSPropertyOp44
 70
     1
102
RTVSPropertyOp45
 70
     1
102
RTVSPropertyOp46
 70
     1
102
RTVSPropertyOp47
 70
     1
102
RTVSPropertyOp48
 70
     1
102
RTVSPropertyOp49
 70
     1
102
RTVSPropertyOp50
 70
     1
102
RTVSPropertyOp51
 70
     0
102
RTVSPropertyOp52
 70
     0
102
RTVSPropertyOp53
 70
     1
102
RTVSPropertyOp54
 70
     1
102
RTVSPropertyOp55
 70
     1
102
RTVSPropertyOp56
 70
     1
102
RTVSPropertyOp57
 70
     1
102
RTVSPost2010Prop28
280
     1
102
RTVSPost2010PropOp28
 70
     1
102
RTVSPost2010Prop29
280
     1
102
RTVSPost2010PropOp29
 70
     1
102
RTVSPost2010Prop30
280
     0
102
RTVSPost2010PropOp30
 70
     1
102
RTVSPost2010Prop31
280
     0
102
RTVSPost2010PropOp31
 70
     1
102
RTVSPost2010Prop32
280
     0
102
RTVSPost2010PropOp32
 70
     1
102
RTVSPost2010Prop33
280
     0
102
RTVSPost2010PropOp33
 70
     1
102
RTVSPost2010Prop34
280
     0
102
RTVSPost2010PropOp34
 70
     1
102
RTVSPost2010Prop35
280
     0
102
RTVSPost2010PropOp35
 70
     1
102
RTVSPost2010Prop36
280
     0
102
RTVSPost2010PropOp36
 70
     1
102
RTVSPost2010Prop37
 90
       50
102
RTVSPost2010PropOp37
 70
     1
102
RTVSPost2010Prop38
140
0.0
102
RTVSPost2010PropOp38
 70
     1
102
RTVSPost2010Prop39
140
1.0
102
RTVSPost2010PropOp39
 70
     1
102
RTVSPost2010Prop40
 90
        0
102
RTVSPost2010PropOp40
 70
     1
102
RTVSPost2010Prop41ColorIndex
 90
       18
102
RTVSPost2010Prop41ColorRGB
 90
        0
102
RTVSPost2010PropOp41
 70
     1
102
RTVSPost2010Prop42
 90
       50
102
RTVSPost2010PropOp42
 70
     1
102
RTVSPost2010Prop43
 90
        3
102
RTVSPost2010PropOp43
 70
     1
102
RTVSPost2010Prop44ColorIndex
 90
        5
102
RTVSPost2010Prop44ColorRGB
 90
      255
102
RTVSPost2010PropOp44
 70
     1
102
RTVSPost2010Prop45
280
     0
102
RTVSPost2010PropOp45
 70
     1
102
RTVSPost2010Prop46
 90
       50
102
RTVSPost2010PropOp46
 70
     1
102
RTVSPost2010Prop47
 90
       50
102
RTVSPost2010PropOp47
 70
     1
102
RTVSPost2010Prop48
 90
       50
102
RTVSPost2010PropOp48
 70
     1
102
RTVSPost2010Prop49
280
     0
102
RTVSPost2010PropOp49
 70
     1
102
RTVSPost2010Prop50
 90
       50
102
RTVSPost2010PropOp50
 70
     1
102
RTVSPost2010Prop51ColorIndex
 90
      256
102
RTVSPost2010Prop51ColorRGB
 90
-16777216
102
RTVSPost2010PropOp51
 70
     0
102
RTVSPost2010Prop52
140
1.0
102
RTVSPost2010PropOp52
 70
     0
102
RTVSPost2010Prop53
 90
        2
102
RTVSPost2010PropOp53
 70
     1
102
RTVSPost2010Prop54
  1
strokes_ogs.tif
102
RTVSPost2010PropOp54
 70
     1
102
RTVSPost2010Prop55
280
     0
102
RTVSPost2010PropOp55
 70
     1
102
RTVSPost2010Prop56
140
1.0
102
RTVSPost2010PropOp56
 70
     1
102
RTVSPost2010Prop57
140
1.0
102
RTVSPost2010PropOp57
 70
     1
  0
XRECORD
  5
1000204
102
{ACAD_REACTORS
330
1000203
102
}
330
1000203
100
AcDbXrecord
280
     1
102
RTVSPropertyOp0
 70
     1
102
RTVSPropertyOp1
 70
     1
102
RTVSPropertyOp2
 70
     1
102
RTVSPropertyOp3
 70
     1
102
RTVSPropertyOp4
 70
     1
102
RTVSPropertyOp5
 70
     1
102
RTVSPropertyOp6
 70
     1
102
RTVSPropertyOp7
 70
     1
102
RTVSPropertyOp8
 70
     1
102
RTVSPropertyOp9
 70
     1
102
RTVSPropertyOp10
 70
     1
102
RTVSPropertyOp11
 70
     1
102
RTVSPropertyOp12
 70
     1
102
RTVSPropertyOp13
 70
     1
102
RTVSPropertyOp14
 70
     1
102
RTVSPropertyOp15
 70
     1
102
RTVSPropertyOp16
 70
     1
102
RTVSPropertyOp17
 70
     1
102
RTVSPropertyOp18
 70
     1
102
RTVSPropertyOp19
 70
     1
102
RTVSPropertyOp20
 70
     1
102
RTVSPropertyOp21
 70
     1
102
RTVSPropertyOp22
 70
     1
102
RTVSPropertyOp23
 70
     1
102
RTVSPropertyOp24
 70
     1
102
RTVSPropertyOp25
 70
     1
102
RTVSPropertyOp26
 70
     1
102
RTVSPropertyOp27
 70
     1
102
RTVSPropertyOp28
 70
     1
102
RTVSPropertyOp29
 70
     1
102
RTVSPropertyOp30
 70
     1
102
RTVSPropertyOp31
 70
     1
102
RTVSPropertyOp32
 70
     1
102
RTVSPropertyOp33
 70
     1
102
RTVSPropertyOp34
 70
     1
102
RTVSPropertyOp35
 70
     1
102
RTVSPropertyOp36
 70
     1
102
RTVSPropertyOp37
 70
     1
102
RTVSPropertyOp38
 70
     1
102
RTVSPropertyOp39
 70
     1
102
RTVSPropertyOp40
 70
     1
102
RTVSPropertyOp41
 70
     1
102
RTVSPropertyOp42
 70
     1
102
RTVSPropertyOp43
 70
     1
102
RTVSPropertyOp44
 70
     1
102
RTVSPropertyOp45
 70
     1
102
RTVSPropertyOp46
 70
     1
102
RTVSPropertyOp47
 70
     1
102
RTVSPropertyOp48
 70
     1
102
RTVSPropertyOp49
 70
     1
102
RTVSPropertyOp50
 70
     1
102
RTVSPropertyOp51
 70
     0
102
RTVSPropertyOp52
 70
     0
102
RTVSPropertyOp53
 70
     1
102
RTVSPropertyOp54
 70
     1
102
RTVSPropertyOp55
 70
     1
102
RTVSPropertyOp56
 70
     1
102
RTVSPropertyOp57
 70
     1
102
RTVSPost2010Prop28
280
     0
102
RTVSPost2010PropOp28
 70
     1
102
RTVSPost2010Prop29
280
     1
102
RTVSPost2010PropOp29
 70
     1
102
RTVSPost2010Prop30
280
     1
102
RTVSPost2010PropOp30
 70
     1
102
RTVSPost2010Prop31
280
     0
102
RTVSPost2010PropOp31
 70
     1
102
RTVSPost2010Prop32
280
     0
102
RTVSPost2010PropOp32
 70
     1
102
RTVSPost2010Prop33
280
     0
102
RTVSPost2010PropOp33
 70
     1
102
RTVSPost2010Prop34
280
     0
102
RTVSPost2010PropOp34
 70
     1
102
RTVSPost2010Prop35
280
     0
102
RTVSPost2010PropOp35
 70
     1
102
RTVSPost2010Prop36
280
     0
102
RTVSPost2010PropOp36
 70
     1
102
RTVSPost2010Prop37
 90
       50
102
RTVSPost2010PropOp37
 70
     1
102
RTVSPost2010Prop38
140
0.0
102
RTVSPost2010PropOp38
 70
     1
102
RTVSPost2010Prop39
140
1.0
102
RTVSPost2010PropOp39
 70
     1
102
RTVSPost2010Prop40
 90
        0
102
RTVSPost2010PropOp40
 70
     1
102
RTVSPost2010Prop41ColorIndex
 90
       18
102
RTVSPost2010Prop41ColorRGB
 90
        0
102
RTVSPost2010PropOp41
 70
     1
102
RTVSPost2010Prop42
 90
       50
102
RTVSPost2010PropOp42
 70
     1
102
RTVSPost2010Prop43
 90
        3
102
RTVSPost2010PropOp43
 70
     1
102
RTVSPost2010Prop44ColorIndex
 90
        5
102
RTVSPost2010Prop44ColorRGB
 90
      255
102
RTVSPost2010PropOp44
 70
     1
102
RTVSPost2010Prop45
280
     0
102
RTVSPost2010PropOp45
 70
     1
102
RTVSPost2010Prop46
 90
       50
102
RTVSPost2010PropOp46
 70
     1
102
RTVSPost2010Prop47
 90
       50
102
RTVSPost2010PropOp47
 70
     1
102
RTVSPost2010Prop48
 90
       50
102
RTVSPost2010PropOp48
 70
     1
102
RTVSPost2010Prop49
280
     0
102
RTVSPost2010PropOp49
 70
     1
102
RTVSPost2010Prop50
 90
       50
102
RTVSPost2010PropOp50
 70
     1
102
RTVSPost2010Prop51ColorIndex
 90
      256
102
RTVSPost2010Prop51ColorRGB
 90
-16777216
102
RTVSPost2010PropOp51
 70
     0
102
RTVSPost2010Prop52
140
1.0
102
RTVSPost2010PropOp52
 70
     0
102
RTVSPost2010Prop53
 90
        2
102
RTVSPost2010PropOp53
 70
     1
102
RTVSPost2010Prop54
  1
strokes_ogs.tif
102
RTVSPost2010PropOp54
 70
     1
102
RTVSPost2010Prop55
280
     0
102
RTVSPost2010PropOp55
 70
     1
102
RTVSPost2010Prop56
140
1.0
102
RTVSPost2010PropOp56
 70
     1
102
RTVSPost2010Prop57
140
1.0
102
RTVSPost2010PropOp57
 70
     1
  0
XRECORD
  5
1000206
102
{ACAD_REACTORS
330
1000205
102
}
330
1000205
100
AcDbXrecord
280
     1
102
RTVSPropertyOp0
 70
     1
102
RTVSPropertyOp1
 70
     1
102
RTVSPropertyOp2
 70
     1
102
RTVSPropertyOp3
 70
     1
102
RTVSPropertyOp4
 70
     1
102
RTVSPropertyOp5
 70
     1
102
RTVSPropertyOp6
 70
     1
102
RTVSPropertyOp7
 70
     1
102
RTVSPropertyOp8
 70
     1
102
RTVSPropertyOp9
 70
     1
102
RTVSPropertyOp10
 70
     1
102
RTVSPropertyOp11
 70
     1
102
RTVSPropertyOp12
 70
     1
102
RTVSPropertyOp13
 70
     1
102
RTVSPropertyOp14
 70
     1
102
RTVSPropertyOp15
 70
     1
102
RTVSPropertyOp16
 70
     1
102
RTVSPropertyOp17
 70
     1
102
RTVSPropertyOp18
 70
     1
102
RTVSPropertyOp19
 70
     1
102
RTVSPropertyOp20
 70
     1
102
RTVSPropertyOp21
 70
     1
102
RTVSPropertyOp22
 70
     1
102
RTVSPropertyOp23
 70
     1
102
RTVSPropertyOp24
 70
     1
102
RTVSPropertyOp25
 70
     1
102
RTVSPropertyOp26
 70
     1
102
RTVSPropertyOp27
 70
     1
102
RTVSPropertyOp28
 70
     1
102
RTVSPropertyOp29
 70
     1
102
RTVSPropertyOp30
 70
     1
102
RTVSPropertyOp31
 70
     1
102
RTVSPropertyOp32
 70
     1
102
RTVSPropertyOp33
 70
     1
102
RTVSPropertyOp34
 70
     1
102
RTVSPropertyOp35
 70
     1
102
RTVSPropertyOp36
 70
     1
102
RTVSPropertyOp37
 70
     1
102
RTVSPropertyOp38
 70
     1
102
RTVSPropertyOp39
 70
     1
102
RTVSPropertyOp40
 70
     1
102
RTVSPropertyOp41
 70
     1
102
RTVSPropertyOp42
 70
     1
102
RTVSPropertyOp43
 70
     1
102
RTVSPropertyOp44
 70
     1
102
RTVSPropertyOp45
 70
     1
102
RTVSPropertyOp46
 70
     1
102
RTVSPropertyOp47
 70
     1
102
RTVSPropertyOp48
 70
     1
102
RTVSPropertyOp49
 70
     1
102
RTVSPropertyOp50
 70
     1
102
RTVSPropertyOp51
 70
     0
102
RTVSPropertyOp52
 70
     0
102
RTVSPropertyOp53
 70
     1
102
RTVSPropertyOp54
 70
     1
102
RTVSPropertyOp55
 70
     1
102
RTVSPropertyOp56
 70
     1
102
RTVSPropertyOp57
 70
     1
102
RTVSPost2010Prop28
280
     0
102
RTVSPost2010PropOp28
 70
     1
102
RTVSPost2010Prop29
280
     1
102
RTVSPost2010PropOp29
 70
     1
102
RTVSPost2010Prop30
280
     1
102
RTVSPost2010PropOp30
 70
     1
102
RTVSPost2010Prop31
280
     0
102
RTVSPost2010PropOp31
 70
     1
102
RTVSPost2010Prop32
280
     0
102
RTVSPost2010PropOp32
 70
     1
102
RTVSPost2010Prop33
280
     0
102
RTVSPost2010PropOp33
 70
     1
102
RTVSPost2010Prop34
280
     0
102
RTVSPost2010PropOp34
 70
     1
102
RTVSPost2010Prop35
280
     0
102
RTVSPost2010PropOp35
 70
     1
102
RTVSPost2010Prop36
280
     0
102
RTVSPost2010PropOp36
 70
     1
102
RTVSPost2010Prop37
 90
       50
102
RTVSPost2010PropOp37
 70
     1
102
RTVSPost2010Prop38
140
0.0
102
RTVSPost2010PropOp38
 70
     1
102
RTVSPost2010Prop39
140
1.0
102
RTVSPost2010PropOp39
 70
     1
102
RTVSPost2010Prop40
 90
        0
102
RTVSPost2010PropOp40
 70
     1
102
RTVSPost2010Prop41ColorIndex
 90
       18
102
RTVSPost2010Prop41ColorRGB
 90
        0
102
RTVSPost2010PropOp41
 70
     1
102
RTVSPost2010Prop42
 90
       50
102
RTVSPost2010PropOp42
 70
     1
102
RTVSPost2010Prop43
 90
        3
102
RTVSPost2010PropOp43
 70
     1
102
RTVSPost2010Prop44ColorIndex
 90
        5
102
RTVSPost2010Prop44ColorRGB
 90
      255
102
RTVSPost2010PropOp44
 70
     1
102
RTVSPost2010Prop45
280
     0
102
RTVSPost2010PropOp45
 70
     1
102
RTVSPost2010Prop46
 90
       50
102
RTVSPost2010PropOp46
 70
     1
102
RTVSPost2010Prop47
 90
       50
102
RTVSPost2010PropOp47
 70
     1
102
RTVSPost2010Prop48
 90
       50
102
RTVSPost2010PropOp48
 70
     1
102
RTVSPost2010Prop49
280
     0
102
RTVSPost2010PropOp49
 70
     1
102
RTVSPost2010Prop50
 90
       50
102
RTVSPost2010PropOp50
 70
     1
102
RTVSPost2010Prop51ColorIndex
 90
      256
102
RTVSPost2010Prop51ColorRGB
 90
-16777216
102
RTVSPost2010PropOp51
 70
     0
102
RTVSPost2010Prop52
140
1.0
102
RTVSPost2010PropOp52
 70
     0
102
RTVSPost2010Prop53
 90
        2
102
RTVSPost2010PropOp53
 70
     1
102
RTVSPost2010Prop54
  1
strokes_ogs.tif
102
RTVSPost2010PropOp54
 70
     1
102
RTVSPost2010Prop55
280
     0
102
RTVSPost2010PropOp55
 70
     1
102
RTVSPost2010Prop56
140
1.0
102
RTVSPost2010PropOp56
 70
     1
102
RTVSPost2010Prop57
140
1.0
102
RTVSPost2010PropOp57
 70
     1
  0
XRECORD
  5
1000208
102
{ACAD_REACTORS
330
1000207
102
}
330
1000207
100
AcDbXrecord
280
     1
102
RTVSPropertyOp0
 70
     1
102
RTVSPropertyOp1
 70
     1
102
RTVSPropertyOp2
 70
     1
102
RTVSPropertyOp3
 70
     1
102
RTVSPropertyOp4
 70
     1
102
RTVSPropertyOp5
 70
     1
102
RTVSPropertyOp6
 70
     1
102
RTVSPropertyOp7
 70
     1
102
RTVSPropertyOp8
 70
     1
102
RTVSPropertyOp9
 70
     1
102
RTVSPropertyOp10
 70
     1
102
RTVSPropertyOp11
 70
     1
102
RTVSPropertyOp12
 70
     1
102
RTVSPropertyOp13
 70
     1
102
RTVSPropertyOp14
 70
     1
102
RTVSPropertyOp15
 70
     1
102
RTVSPropertyOp16
 70
     1
102
RTVSPropertyOp17
 70
     1
102
RTVSPropertyOp18
 70
     1
102
RTVSPropertyOp19
 70
     1
102
RTVSPropertyOp20
 70
     1
102
RTVSPropertyOp21
 70
     1
102
RTVSPropertyOp22
 70
     1
102
RTVSPropertyOp23
 70
     1
102
RTVSPropertyOp24
 70
     1
102
RTVSPropertyOp25
 70
     1
102
RTVSPropertyOp26
 70
     1
102
RTVSPropertyOp27
 70
     1
102
RTVSPropertyOp28
 70
     1
102
RTVSPropertyOp29
 70
     1
102
RTVSPropertyOp30
 70
     1
102
RTVSPropertyOp31
 70
     1
102
RTVSPropertyOp32
 70
     1
102
RTVSPropertyOp33
 70
     1
102
RTVSPropertyOp34
 70
     1
102
RTVSPropertyOp35
 70
     1
102
RTVSPropertyOp36
 70
     1
102
RTVSPropertyOp37
 70
     1
102
RTVSPropertyOp38
 70
     1
102
RTVSPropertyOp39
 70
     1
102
RTVSPropertyOp40
 70
     1
102
RTVSPropertyOp41
 70
     1
102
RTVSPropertyOp42
 70
     1
102
RTVSPropertyOp43
 70
     1
102
RTVSPropertyOp44
 70
     1
102
RTVSPropertyOp45
 70
     1
102
RTVSPropertyOp46
 70
     1
102
RTVSPropertyOp47
 70
     1
102
RTVSPropertyOp48
 70
     1
102
RTVSPropertyOp49
 70
     1
102
RTVSPropertyOp50
 70
     1
102
RTVSPropertyOp51
 70
     0
102
RTVSPropertyOp52
 70
     0
102
RTVSPropertyOp53
 70
     1
102
RTVSPropertyOp54
 70
     1
102
RTVSPropertyOp55
 70
     1
102
RTVSPropertyOp56
 70
     1
102
RTVSPropertyOp57
 70
     1
102
RTVSPost2010Prop28
280
     0
102
RTVSPost2010PropOp28
 70
     1
102
RTVSPost2010Prop29
280
     1
102
RTVSPost2010PropOp29
 70
     1
102
RTVSPost2010Prop30
280
     1
102
RTVSPost2010PropOp30
 70
     1
102
RTVSPost2010Prop31
280
     0
102
RTVSPost2010PropOp31
 70
     1
102
RTVSPost2010Prop32
280
     0
102
RTVSPost2010PropOp32
 70
     1
102
RTVSPost2010Prop33
280
     0
102
RTVSPost2010PropOp33
 70
     1
102
RTVSPost2010Prop34
280
     0
102
RTVSPost2010PropOp34
 70
     1
102
RTVSPost2010Prop35
280
     0
102
RTVSPost2010PropOp35
 70
     1
102
RTVSPost2010Prop36
280
     0
102
RTVSPost2010PropOp36
 70
     1
102
RTVSPost2010Prop37
 90
       50
102
RTVSPost2010PropOp37
 70
     1
102
RTVSPost2010Prop38
140
0.0
102
RTVSPost2010PropOp38
 70
     1
102
RTVSPost2010Prop39
140
1.0
102
RTVSPost2010PropOp39
 70
     1
102
RTVSPost2010Prop40
 90
        0
102
RTVSPost2010PropOp40
 70
     1
102
RTVSPost2010Prop41ColorIndex
 90
       18
102
RTVSPost2010Prop41ColorRGB
 90
        0
102
RTVSPost2010PropOp41
 70
     1
102
RTVSPost2010Prop42
 90
       50
102
RTVSPost2010PropOp42
 70
     1
102
RTVSPost2010Prop43
 90
        3
102
RTVSPost2010PropOp43
 70
     1
102
RTVSPost2010Prop44ColorIndex
 90
        5
102
RTVSPost2010Prop44ColorRGB
 90
      255
102
RTVSPost2010PropOp44
 70
     1
102
RTVSPost2010Prop45
280
     0
102
RTVSPost2010PropOp45
 70
     1
102
RTVSPost2010Prop46
 90
       50
102
RTVSPost2010PropOp46
 70
     1
102
RTVSPost2010Prop47
 90
       50
102
RTVSPost2010PropOp47
 70
     1
102
RTVSPost2010Prop48
 90
       50
102
RTVSPost2010PropOp48
 70
     1
102
RTVSPost2010Prop49
280
     0
102
RTVSPost2010PropOp49
 70
     1
102
RTVSPost2010Prop50
 90
       50
102
RTVSPost2010PropOp50
 70
     1
102
RTVSPost2010Prop51ColorIndex
 90
      256
102
RTVSPost2010Prop51ColorRGB
 90
-16777216
102
RTVSPost2010PropOp51
 70
     0
102
RTVSPost2010Prop52
140
1.0
102
RTVSPost2010PropOp52
 70
     0
102
RTVSPost2010Prop53
 90
        2
102
RTVSPost2010PropOp53
 70
     1
102
RTVSPost2010Prop54
  1
strokes_ogs.tif
102
RTVSPost2010PropOp54
 70
     1
102
RTVSPost2010Prop55
280
     0
102
RTVSPost2010PropOp55
 70
     1
102
RTVSPost2010Prop56
140
1.0
102
RTVSPost2010PropOp56
 70
     1
102
RTVSPost2010Prop57
140
1.0
102
RTVSPost2010PropOp57
 70
     1
  0
XRECORD
  5
100020A
102
{ACAD_REACTORS
330
1000209
102
}
330
1000209
100
AcDbXrecord
280
     1
102
RTVSPropertyOp0
 70
     1
102
RTVSPropertyOp1
 70
     1
102
RTVSPropertyOp2
 70
     1
102
RTVSPropertyOp3
 70
     1
102
RTVSPropertyOp4
 70
     1
102
RTVSPropertyOp5
 70
     1
102
RTVSPropertyOp6
 70
     1
102
RTVSPropertyOp7
 70
     1
102
RTVSPropertyOp8
 70
     1
102
RTVSPropertyOp9
 70
     1
102
RTVSPropertyOp10
 70
     1
102
RTVSPropertyOp11
 70
     1
102
RTVSPropertyOp12
 70
     1
102
RTVSPropertyOp13
 70
     1
102
RTVSPropertyOp14
 70
     1
102
RTVSPropertyOp15
 70
     1
102
RTVSPropertyOp16
 70
     1
102
RTVSPropertyOp17
 70
     1
102
RTVSPropertyOp18
 70
     1
102
RTVSPropertyOp19
 70
     1
102
RTVSPropertyOp20
 70
     1
102
RTVSPropertyOp21
 70
     1
102
RTVSPropertyOp22
 70
     1
102
RTVSPropertyOp23
 70
     1
102
RTVSPropertyOp24
 70
     1
102
RTVSPropertyOp25
 70
     1
102
RTVSPropertyOp26
 70
     1
102
RTVSPropertyOp27
 70
     1
102
RTVSPropertyOp28
 70
     1
102
RTVSPropertyOp29
 70
     1
102
RTVSPropertyOp30
 70
     1
102
RTVSPropertyOp31
 70
     1
102
RTVSPropertyOp32
 70
     1
102
RTVSPropertyOp33
 70
     1
102
RTVSPropertyOp34
 70
     1
102
RTVSPropertyOp35
 70
     1
102
RTVSPropertyOp36
 70
     1
102
RTVSPropertyOp37
 70
     1
102
RTVSPropertyOp38
 70
     1
102
RTVSPropertyOp39
 70
     1
102
RTVSPropertyOp40
 70
     1
102
RTVSPropertyOp41
 70
     1
102
RTVSPropertyOp42
 70
     1
102
RTVSPropertyOp43
 70
     1
102
RTVSPropertyOp44
 70
     1
102
RTVSPropertyOp45
 70
     1
102
RTVSPropertyOp46
 70
     1
102
RTVSPropertyOp47
 70
     1
102
RTVSPropertyOp48
 70
     1
102
RTVSPropertyOp49
 70
     1
102
RTVSPropertyOp50
 70
     1
102
RTVSPropertyOp51
 70
     0
102
RTVSPropertyOp52
 70
     0
102
RTVSPropertyOp53
 70
     1
102
RTVSPropertyOp54
 70
     1
102
RTVSPropertyOp55
 70
     1
102
RTVSPropertyOp56
 70
     1
102
RTVSPropertyOp57
 70
     1
102
RTVSPost2010Prop28
280
     0
102
RTVSPost2010PropOp28
 70
     1
102
RTVSPost2010Prop29
280
     1
102
RTVSPost2010PropOp29
 70
     1
102
RTVSPost2010Prop30
280
     1
102
RTVSPost2010PropOp30
 70
     1
102
RTVSPost2010Prop31
280
     0
102
RTVSPost2010PropOp31
 70
     1
102
RTVSPost2010Prop32
280
     0
102
RTVSPost2010PropOp32
 70
     1
102
RTVSPost2010Prop33
280
     0
102
RTVSPost2010PropOp33
 70
     1
102
RTVSPost2010Prop34
280
     0
102
RTVSPost2010PropOp34
 70
     1
102
RTVSPost2010Prop35
280
     0
102
RTVSPost2010PropOp35
 70
     1
102
RTVSPost2010Prop36
280
     0
102
RTVSPost2010PropOp36
 70
     1
102
RTVSPost2010Prop37
 90
       50
102
RTVSPost2010PropOp37
 70
     1
102
RTVSPost2010Prop38
140
0.0
102
RTVSPost2010PropOp38
 70
     1
102
RTVSPost2010Prop39
140
1.0
102
RTVSPost2010PropOp39
 70
     1
102
RTVSPost2010Prop40
 90
        0
102
RTVSPost2010PropOp40
 70
     1
102
RTVSPost2010Prop41ColorIndex
 90
       18
102
RTVSPost2010Prop41ColorRGB
 90
        0
102
RTVSPost2010PropOp41
 70
     1
102
RTVSPost2010Prop42
 90
       50
102
RTVSPost2010PropOp42
 70
     1
102
RTVSPost2010Prop43
 90
        3
102
RTVSPost2010PropOp43
 70
     1
102
RTVSPost2010Prop44ColorIndex
 90
        5
102
RTVSPost2010Prop44ColorRGB
 90
      255
102
RTVSPost2010PropOp44
 70
     1
102
RTVSPost2010Prop45
280
     0
102
RTVSPost2010PropOp45
 70
     1
102
RTVSPost2010Prop46
 90
       50
102
RTVSPost2010PropOp46
 70
     1
102
RTVSPost2010Prop47
 90
       50
102
RTVSPost2010PropOp47
 70
     1
102
RTVSPost2010Prop48
 90
       50
102
RTVSPost2010PropOp48
 70
     1
102
RTVSPost2010Prop49
280
     0
102
RTVSPost2010PropOp49
 70
     1
102
RTVSPost2010Prop50
 90
       50
102
RTVSPost2010PropOp50
 70
     1
102
RTVSPost2010Prop51ColorIndex
 90
      256
102
RTVSPost2010Prop51ColorRGB
 90
-16777216
102
RTVSPost2010PropOp51
 70
     0
102
RTVSPost2010Prop52
140
1.0
102
RTVSPost2010PropOp52
 70
     0
102
RTVSPost2010Prop53
 90
        2
102
RTVSPost2010PropOp53
 70
     1
102
RTVSPost2010Prop54
  1
strokes_ogs.tif
102
RTVSPost2010PropOp54
 70
     1
102
RTVSPost2010Prop55
280
     0
102
RTVSPost2010PropOp55
 70
     1
102
RTVSPost2010Prop56
140
1.0
102
RTVSPost2010PropOp56
 70
     1
102
RTVSPost2010Prop57
140
1.0
102
RTVSPost2010PropOp57
 70
     1
  0
XRECORD
  5
100020C
102
{ACAD_REACTORS
330
100020B
102
}
330
100020B
100
AcDbXrecord
280
     1
102
RTVSPropertyOp0
 70
     1
102
RTVSPropertyOp1
 70
     1
102
RTVSPropertyOp2
 70
     1
102
RTVSPropertyOp3
 70
     1
102
RTVSPropertyOp4
 70
     1
102
RTVSPropertyOp5
 70
     1
102
RTVSPropertyOp6
 70
     1
102
RTVSPropertyOp7
 70
     1
102
RTVSPropertyOp8
 70
     1
102
RTVSPropertyOp9
 70
     1
102
RTVSPropertyOp10
 70
     1
102
RTVSPropertyOp11
 70
     1
102
RTVSPropertyOp12
 70
     1
102
RTVSPropertyOp13
 70
     1
102
RTVSPropertyOp14
 70
     1
102
RTVSPropertyOp15
 70
     1
102
RTVSPropertyOp16
 70
     1
102
RTVSPropertyOp17
 70
     1
102
RTVSPropertyOp18
 70
     1
102
RTVSPropertyOp19
 70
     1
102
RTVSPropertyOp20
 70
     1
102
RTVSPropertyOp21
 70
     1
102
RTVSPropertyOp22
 70
     1
102
RTVSPropertyOp23
 70
     1
102
RTVSPropertyOp24
 70
     1
102
RTVSPropertyOp25
 70
     1
102
RTVSPropertyOp26
 70
     1
102
RTVSPropertyOp27
 70
     1
102
RTVSPropertyOp28
 70
     1
102
RTVSPropertyOp29
 70
     1
102
RTVSPropertyOp30
 70
     1
102
RTVSPropertyOp31
 70
     1
102
RTVSPropertyOp32
 70
     1
102
RTVSPropertyOp33
 70
     1
102
RTVSPropertyOp34
 70
     1
102
RTVSPropertyOp35
 70
     1
102
RTVSPropertyOp36
 70
     1
102
RTVSPropertyOp37
 70
     1
102
RTVSPropertyOp38
 70
     1
102
RTVSPropertyOp39
 70
     1
102
RTVSPropertyOp40
 70
     1
102
RTVSPropertyOp41
 70
     1
102
RTVSPropertyOp42
 70
     1
102
RTVSPropertyOp43
 70
     1
102
RTVSPropertyOp44
 70
     1
102
RTVSPropertyOp45
 70
     1
102
RTVSPropertyOp46
 70
     1
102
RTVSPropertyOp47
 70
     1
102
RTVSPropertyOp48
 70
     1
102
RTVSPropertyOp49
 70
     1
102
RTVSPropertyOp50
 70
     1
102
RTVSPropertyOp51
 70
     0
102
RTVSPropertyOp52
 70
     0
102
RTVSPropertyOp53
 70
     1
102
RTVSPropertyOp54
 70
     1
102
RTVSPropertyOp55
 70
     1
102
RTVSPropertyOp56
 70
     1
102
RTVSPropertyOp57
 70
     1
102
RTVSPost2010Prop28
280
     0
102
RTVSPost2010PropOp28
 70
     1
102
RTVSPost2010Prop29
280
     1
102
RTVSPost2010PropOp29
 70
     1
102
RTVSPost2010Prop30
280
     1
102
RTVSPost2010PropOp30
 70
     1
102
RTVSPost2010Prop31
280
     0
102
RTVSPost2010PropOp31
 70
     1
102
RTVSPost2010Prop32
280
     0
102
RTVSPost2010PropOp32
 70
     1
102
RTVSPost2010Prop33
280
     0
102
RTVSPost2010PropOp33
 70
     1
102
RTVSPost2010Prop34
280
     0
102
RTVSPost2010PropOp34
 70
     1
102
RTVSPost2010Prop35
280
     0
102
RTVSPost2010PropOp35
 70
     1
102
RTVSPost2010Prop36
280
     0
102
RTVSPost2010PropOp36
 70
     1
102
RTVSPost2010Prop37
 90
       50
102
RTVSPost2010PropOp37
 70
     1
102
RTVSPost2010Prop38
140
0.0
102
RTVSPost2010PropOp38
 70
     1
102
RTVSPost2010Prop39
140
1.0
102
RTVSPost2010PropOp39
 70
     1
102
RTVSPost2010Prop40
 90
        0
102
RTVSPost2010PropOp40
 70
     1
102
RTVSPost2010Prop41ColorIndex
 90
       18
102
RTVSPost2010Prop41ColorRGB
 90
        0
102
RTVSPost2010PropOp41
 70
     1
102
RTVSPost2010Prop42
 90
       50
102
RTVSPost2010PropOp42
 70
     1
102
RTVSPost2010Prop43
 90
        3
102
RTVSPost2010PropOp43
 70
     1
102
RTVSPost2010Prop44ColorIndex
 90
        5
102
RTVSPost2010Prop44ColorRGB
 90
      255
102
RTVSPost2010PropOp44
 70
     1
102
RTVSPost2010Prop45
280
     0
102
RTVSPost2010PropOp45
 70
     1
102
RTVSPost2010Prop46
 90
       50
102
RTVSPost2010PropOp46
 70
     1
102
RTVSPost2010Prop47
 90
       50
102
RTVSPost2010PropOp47
 70
     1
102
RTVSPost2010Prop48
 90
       50
102
RTVSPost2010PropOp48
 70
     1
102
RTVSPost2010Prop49
280
     0
102
RTVSPost2010PropOp49
 70
     1
102
RTVSPost2010Prop50
 90
       50
102
RTVSPost2010PropOp50
 70
     1
102
RTVSPost2010Prop51ColorIndex
 90
      256
102
RTVSPost2010Prop51ColorRGB
 90
-16777216
102
RTVSPost2010PropOp51
 70
     0
102
RTVSPost2010Prop52
140
1.0
102
RTVSPost2010PropOp52
 70
     0
102
RTVSPost2010Prop53
 90
        2
102
RTVSPost2010PropOp53
 70
     1
102
RTVSPost2010Prop54
  1
strokes_ogs.tif
102
RTVSPost2010PropOp54
 70
     1
102
RTVSPost2010Prop55
280
     0
102
RTVSPost2010PropOp55
 70
     1
102
RTVSPost2010Prop56
140
1.0
102
RTVSPost2010PropOp56
 70
     1
102
RTVSPost2010Prop57
140
1.0
102
RTVSPost2010PropOp57
 70
     1
  0
XRECORD
  5
100020E
102
{ACAD_REACTORS
330
100020D
102
}
330
100020D
100
AcDbXrecord
280
     1
102
RTVSPropertyOp0
 70
     0
102
RTVSPropertyOp1
 70
     0
102
RTVSPropertyOp2
 70
     0
102
RTVSPropertyOp3
 70
     0
102
RTVSPropertyOp4
 70
     0
102
RTVSPropertyOp5
 70
     0
102
RTVSPropertyOp6
 70
     0
102
RTVSPropertyOp7
 70
     0
102
RTVSPropertyOp8
 70
     0
102
RTVSPropertyOp9
 70
     0
102
RTVSPropertyOp10
 70
     0
102
RTVSPropertyOp11
 70
     0
102
RTVSPropertyOp12
 70
     0
102
RTVSPropertyOp13
 70
     0
102
RTVSPropertyOp14
 70
     2
102
RTVSPropertyOp15
 70
     0
102
RTVSPropertyOp16
 70
     0
102
RTVSPropertyOp17
 70
     0
102
RTVSPropertyOp18
 70
     0
102
RTVSPropertyOp19
 70
     0
102
RTVSPropertyOp20
 70
     0
102
RTVSPropertyOp21
 70
     0
102
RTVSPropertyOp22
 70
     0
102
RTVSPropertyOp23
 70
     0
102
RTVSPropertyOp24
 70
     0
102
RTVSPropertyOp25
 70
     0
102
RTVSPropertyOp26
 70
     0
102
RTVSPropertyOp27
 70
     0
102
RTVSPropertyOp28
 70
     0
102
RTVSPropertyOp29
 70
     0
102
RTVSPropertyOp30
 70
     0
102
RTVSPropertyOp31
 70
     0
102
RTVSPropertyOp32
 70
     0
102
RTVSPropertyOp33
 70
     0
102
RTVSPropertyOp34
 70
     0
102
RTVSPropertyOp35
 70
     0
102
RTVSPropertyOp36
 70
     0
102
RTVSPropertyOp37
 70
     0
102
RTVSPropertyOp38
 70
     0
102
RTVSPropertyOp39
 70
     0
102
RTVSPropertyOp40
 70
     0
102
RTVSPropertyOp41
 70
     0
102
RTVSPropertyOp42
 70
     0
102
RTVSPropertyOp43
 70
     0
102
RTVSPropertyOp44
 70
     0
102
RTVSPropertyOp45
 70
     0
102
RTVSPropertyOp46
 70
     0
102
RTVSPropertyOp47
 70
     0
102
RTVSPropertyOp48
 70
     0
102
RTVSPropertyOp49
 70
     0
102
RTVSPropertyOp50
 70
     0
102
RTVSPropertyOp51
 70
     0
102
RTVSPropertyOp52
 70
     0
102
RTVSPropertyOp53
 70
     0
102
RTVSPropertyOp54
 70
     0
102
RTVSPropertyOp55
 70
     0
102
RTVSPropertyOp56
 70
     0
102
RTVSPropertyOp57
 70
     0
102
RTVSPost2010Prop28
280
     0
102
RTVSPost2010PropOp28
 70
     0
102
RTVSPost2010Prop29
280
     1
102
RTVSPost2010PropOp29
 70
     0
102
RTVSPost2010Prop30
280
     1
102
RTVSPost2010PropOp30
 70
     0
102
RTVSPost2010Prop31
280
     0
102
RTVSPost2010PropOp31
 70
     0
102
RTVSPost2010Prop32
280
     0
102
RTVSPost2010PropOp32
 70
     0
102
RTVSPost2010Prop33
280
     0
102
RTVSPost2010PropOp33
 70
     0
102
RTVSPost2010Prop34
280
     0
102
RTVSPost2010PropOp34
 70
     0
102
RTVSPost2010Prop35
280
     0
102
RTVSPost2010PropOp35
 70
     0
102
RTVSPost2010Prop36
280
     0
102
RTVSPost2010PropOp36
 70
     0
102
RTVSPost2010Prop37
 90
       50
102
RTVSPost2010PropOp37
 70
     0
102
RTVSPost2010Prop38
140
0.0
102
RTVSPost2010PropOp38
 70
     0
102
RTVSPost2010Prop39
140
1.0
102
RTVSPost2010PropOp39
 70
     0
102
RTVSPost2010Prop40
 90
        0
102
RTVSPost2010PropOp40
 70
     0
102
RTVSPost2010Prop41ColorIndex
 90
       18
102
RTVSPost2010Prop41ColorRGB
 90
        0
102
RTVSPost2010PropOp41
 70
     0
102
RTVSPost2010Prop42
 90
       50
102
RTVSPost2010PropOp42
 70
     0
102
RTVSPost2010Prop43
 90
        3
102
RTVSPost2010PropOp43
 70
     0
102
RTVSPost2010Prop44ColorIndex
 90
        5
102
RTVSPost2010Prop44ColorRGB
 90
      255
102
RTVSPost2010PropOp44
 70
     0
102
RTVSPost2010Prop45
280
     0
102
RTVSPost2010PropOp45
 70
     0
102
RTVSPost2010Prop46
 90
       50
102
RTVSPost2010PropOp46
 70
     0
102
RTVSPost2010Prop47
 90
       50
102
RTVSPost2010PropOp47
 70
     0
102
RTVSPost2010Prop48
 90
       50
102
RTVSPost2010PropOp48
 70
     0
102
RTVSPost2010Prop49
280
     0
102
RTVSPost2010PropOp49
 70
     0
102
RTVSPost2010Prop50
 90
       50
102
RTVSPost2010PropOp50
 70
     0
102
RTVSPost2010Prop51ColorIndex
 90
      256
102
RTVSPost2010Prop51ColorRGB
 90
-16777216
102
RTVSPost2010PropOp51
 70
     0
102
RTVSPost2010Prop52
140
1.0
102
RTVSPost2010PropOp52
 70
     0
102
RTVSPost2010Prop53
 90
        2
102
RTVSPost2010PropOp53
 70
     0
102
RTVSPost2010Prop54
  1
strokes_ogs.tif
102
RTVSPost2010PropOp54
 70
     0
102
RTVSPost2010Prop55
280
     0
102
RTVSPost2010PropOp55
 70
     0
102
RTVSPost2010Prop56
140
1.0
102
RTVSPost2010PropOp56
 70
     0
102
RTVSPost2010Prop57
140
1.0
102
RTVSPost2010PropOp57
 70
     0
  0
XRECORD
  5
1000210
102
{ACAD_REACTORS
330
100020F
102
}
330
100020F
100
AcDbXrecord
280
     1
102
RTVSPropertyOp0
 70
     1
102
RTVSPropertyOp1
 70
     1
102
RTVSPropertyOp2
 70
     1
102
RTVSPropertyOp3
 70
     1
102
RTVSPropertyOp4
 70
     1
102
RTVSPropertyOp5
 70
     1
102
RTVSPropertyOp6
 70
     1
102
RTVSPropertyOp7
 70
     1
102
RTVSPropertyOp8
 70
     1
102
RTVSPropertyOp9
 70
     1
102
RTVSPropertyOp10
 70
     1
102
RTVSPropertyOp11
 70
     1
102
RTVSPropertyOp12
 70
     1
102
RTVSPropertyOp13
 70
     1
102
RTVSPropertyOp14
 70
     1
102
RTVSPropertyOp15
 70
     1
102
RTVSPropertyOp16
 70
     1
102
RTVSPropertyOp17
 70
     1
102
RTVSPropertyOp18
 70
     1
102
RTVSPropertyOp19
 70
     1
102
RTVSPropertyOp20
 70
     1
102
RTVSPropertyOp21
 70
     1
102
RTVSPropertyOp22
 70
     1
102
RTVSPropertyOp23
 70
     1
102
RTVSPropertyOp24
 70
     1
102
RTVSPropertyOp25
 70
     1
102
RTVSPropertyOp26
 70
     1
102
RTVSPropertyOp27
 70
     1
102
RTVSPropertyOp28
 70
     1
102
RTVSPropertyOp29
 70
     1
102
RTVSPropertyOp30
 70
     1
102
RTVSPropertyOp31
 70
     1
102
RTVSPropertyOp32
 70
     1
102
RTVSPropertyOp33
 70
     1
102
RTVSPropertyOp34
 70
     1
102
RTVSPropertyOp35
 70
     1
102
RTVSPropertyOp36
 70
     1
102
RTVSPropertyOp37
 70
     1
102
RTVSPropertyOp38
 70
     1
102
RTVSPropertyOp39
 70
     1
102
RTVSPropertyOp40
 70
     1
102
RTVSPropertyOp41
 70
     1
102
RTVSPropertyOp42
 70
     1
102
RTVSPropertyOp43
 70
     1
102
RTVSPropertyOp44
 70
     1
102
RTVSPropertyOp45
 70
     1
102
RTVSPropertyOp46
 70
     1
102
RTVSPropertyOp47
 70
     1
102
RTVSPropertyOp48
 70
     1
102
RTVSPropertyOp49
 70
     1
102
RTVSPropertyOp50
 70
     1
102
RTVSPropertyOp51
 70
     0
102
RTVSPropertyOp52
 70
     0
102
RTVSPropertyOp53
 70
     1
102
RTVSPropertyOp54
 70
     1
102
RTVSPropertyOp55
 70
     1
102
RTVSPropertyOp56
 70
     1
102
RTVSPropertyOp57
 70
     1
102
RTVSPost2010Prop28
280
     0
102
RTVSPost2010PropOp28
 70
     1
102
RTVSPost2010Prop29
280
     1
102
RTVSPost2010PropOp29
 70
     1
102
RTVSPost2010Prop30
280
     1
102
RTVSPost2010PropOp30
 70
     1
102
RTVSPost2010Prop31
280
     0
102
RTVSPost2010PropOp31
 70
     1
102
RTVSPost2010Prop32
280
     0
102
RTVSPost2010PropOp32
 70
     1
102
RTVSPost2010Prop33
280
     0
102
RTVSPost2010PropOp33
 70
     1
102
RTVSPost2010Prop34
280
     0
102
RTVSPost2010PropOp34
 70
     1
102
RTVSPost2010Prop35
280
     0
102
RTVSPost2010PropOp35
 70
     1
102
RTVSPost2010Prop36
280
     0
102
RTVSPost2010PropOp36
 70
     1
102
RTVSPost2010Prop37
 90
       50
102
RTVSPost2010PropOp37
 70
     1
102
RTVSPost2010Prop38
140
0.0
102
RTVSPost2010PropOp38
 70
     1
102
RTVSPost2010Prop39
140
1.0
102
RTVSPost2010PropOp39
 70
     1
102
RTVSPost2010Prop40
 90
        0
102
RTVSPost2010PropOp40
 70
     1
102
RTVSPost2010Prop41ColorIndex
 90
       18
102
RTVSPost2010Prop41ColorRGB
 90
        0
102
RTVSPost2010PropOp41
 70
     1
102
RTVSPost2010Prop42
 90
       50
102
RTVSPost2010PropOp42
 70
     1
102
RTVSPost2010Prop43
 90
        3
102
RTVSPost2010PropOp43
 70
     1
102
RTVSPost2010Prop44ColorIndex
 90
        5
102
RTVSPost2010Prop44ColorRGB
 90
      255
102
RTVSPost2010PropOp44
 70
     1
102
RTVSPost2010Prop45
280
     0
102
RTVSPost2010PropOp45
 70
     1
102
RTVSPost2010Prop46
 90
       50
102
RTVSPost2010PropOp46
 70
     1
102
RTVSPost2010Prop47
 90
       50
102
RTVSPost2010PropOp47
 70
     1
102
RTVSPost2010Prop48
 90
       50
102
RTVSPost2010PropOp48
 70
     1
102
RTVSPost2010Prop49
280
     0
102
RTVSPost2010PropOp49
 70
     1
102
RTVSPost2010Prop50
 90
       50
102
RTVSPost2010PropOp50
 70
     1
102
RTVSPost2010Prop51ColorIndex
 90
      256
102
RTVSPost2010Prop51ColorRGB
 90
-16777216
102
RTVSPost2010PropOp51
 70
     0
102
RTVSPost2010Prop52
140
1.0
102
RTVSPost2010PropOp52
 70
     0
102
RTVSPost2010Prop53
 90
        2
102
RTVSPost2010PropOp53
 70
     1
102
RTVSPost2010Prop54
  1
strokes_ogs.tif
102
RTVSPost2010PropOp54
 70
     1
102
RTVSPost2010Prop55
280
     0
102
RTVSPost2010PropOp55
 70
     1
102
RTVSPost2010Prop56
140
1.0
102
RTVSPost2010PropOp56
 70
     1
102
RTVSPost2010Prop57
140
1.0
102
RTVSPost2010PropOp57
 70
     1
  0
XRECORD
  5
1000212
102
{ACAD_REACTORS
330
1000211
102
}
330
1000211
100
AcDbXrecord
280
     1
102
RTVSPropertyOp0
 70
     1
102
RTVSPropertyOp1
 70
     1
102
RTVSPropertyOp2
 70
     1
102
RTVSPropertyOp3
 70
     1
102
RTVSPropertyOp4
 70
     1
102
RTVSPropertyOp5
 70
     1
102
RTVSPropertyOp6
 70
     1
102
RTVSPropertyOp7
 70
     1
102
RTVSPropertyOp8
 70
     1
102
RTVSPropertyOp9
 70
     1
102
RTVSPropertyOp10
 70
     1
102
RTVSPropertyOp11
 70
     1
102
RTVSPropertyOp12
 70
     1
102
RTVSPropertyOp13
 70
     1
102
RTVSPropertyOp14
 70
     1
102
RTVSPropertyOp15
 70
     1
102
RTVSPropertyOp16
 70
     1
102
RTVSPropertyOp17
 70
     1
102
RTVSPropertyOp18
 70
     1
102
RTVSPropertyOp19
 70
     1
102
RTVSPropertyOp20
 70
     1
102
RTVSPropertyOp21
 70
     1
102
RTVSPropertyOp22
 70
     1
102
RTVSPropertyOp23
 70
     1
102
RTVSPropertyOp24
 70
     1
102
RTVSPropertyOp25
 70
     1
102
RTVSPropertyOp26
 70
     1
102
RTVSPropertyOp27
 70
     1
102
RTVSPropertyOp28
 70
     1
102
RTVSPropertyOp29
 70
     1
102
RTVSPropertyOp30
 70
     1
102
RTVSPropertyOp31
 70
     1
102
RTVSPropertyOp32
 70
     1
102
RTVSPropertyOp33
 70
     1
102
RTVSPropertyOp34
 70
     1
102
RTVSPropertyOp35
 70
     1
102
RTVSPropertyOp36
 70
     1
102
RTVSPropertyOp37
 70
     1
102
RTVSPropertyOp38
 70
     1
102
RTVSPropertyOp39
 70
     1
102
RTVSPropertyOp40
 70
     1
102
RTVSPropertyOp41
 70
     1
102
RTVSPropertyOp42
 70
     1
102
RTVSPropertyOp43
 70
     1
102
RTVSPropertyOp44
 70
     1
102
RTVSPropertyOp45
 70
     1
102
RTVSPropertyOp46
 70
     1
102
RTVSPropertyOp47
 70
     1
102
RTVSPropertyOp48
 70
     1
102
RTVSPropertyOp49
 70
     1
102
RTVSPropertyOp50
 70
     1
102
RTVSPropertyOp51
 70
     0
102
RTVSPropertyOp52
 70
     0
102
RTVSPropertyOp53
 70
     1
102
RTVSPropertyOp54
 70
     1
102
RTVSPropertyOp55
 70
     1
102
RTVSPropertyOp56
 70
     1
102
RTVSPropertyOp57
 70
     1
102
RTVSPost2010Prop28
280
     0
102
RTVSPost2010PropOp28
 70
     1
102
RTVSPost2010Prop29
280
     1
102
RTVSPost2010PropOp29
 70
     1
102
RTVSPost2010Prop30
280
     1
102
RTVSPost2010PropOp30
 70
     1
102
RTVSPost2010Prop31
280
     0
102
RTVSPost2010PropOp31
 70
     1
102
RTVSPost2010Prop32
280
     0
102
RTVSPost2010PropOp32
 70
     1
102
RTVSPost2010Prop33
280
     0
102
RTVSPost2010PropOp33
 70
     1
102
RTVSPost2010Prop34
280
     0
102
RTVSPost2010PropOp34
 70
     1
102
RTVSPost2010Prop35
280
     0
102
RTVSPost2010PropOp35
 70
     1
102
RTVSPost2010Prop36
280
     0
102
RTVSPost2010PropOp36
 70
     1
102
RTVSPost2010Prop37
 90
       50
102
RTVSPost2010PropOp37
 70
     1
102
RTVSPost2010Prop38
140
0.0
102
RTVSPost2010PropOp38
 70
     1
102
RTVSPost2010Prop39
140
1.0
102
RTVSPost2010PropOp39
 70
     1
102
RTVSPost2010Prop40
 90
        0
102
RTVSPost2010PropOp40
 70
     1
102
RTVSPost2010Prop41ColorIndex
 90
       18
102
RTVSPost2010Prop41ColorRGB
 90
        0
102
RTVSPost2010PropOp41
 70
     1
102
RTVSPost2010Prop42
 90
       50
102
RTVSPost2010PropOp42
 70
     1
102
RTVSPost2010Prop43
 90
        3
102
RTVSPost2010PropOp43
 70
     1
102
RTVSPost2010Prop44ColorIndex
 90
        5
102
RTVSPost2010Prop44ColorRGB
 90
      255
102
RTVSPost2010PropOp44
 70
     1
102
RTVSPost2010Prop45
280
     0
102
RTVSPost2010PropOp45
 70
     1
102
RTVSPost2010Prop46
 90
       50
102
RTVSPost2010PropOp46
 70
     1
102
RTVSPost2010Prop47
 90
       50
102
RTVSPost2010PropOp47
 70
     1
102
RTVSPost2010Prop48
 90
       50
102
RTVSPost2010PropOp48
 70
     1
102
RTVSPost2010Prop49
280
     0
102
RTVSPost2010PropOp49
 70
     1
102
RTVSPost2010Prop50
 90
       50
102
RTVSPost2010PropOp50
 70
     1
102
RTVSPost2010Prop51ColorIndex
 90
      256
102
RTVSPost2010Prop51ColorRGB
 90
-16777216
102
RTVSPost2010PropOp51
 70
     0
102
RTVSPost2010Prop52
140
1.0
102
RTVSPost2010PropOp52
 70
     0
102
RTVSPost2010Prop53
 90
        2
102
RTVSPost2010PropOp53
 70
     1
102
RTVSPost2010Prop54
  1
strokes_ogs.tif
102
RTVSPost2010PropOp54
 70
     1
102
RTVSPost2010Prop55
280
     0
102
RTVSPost2010PropOp55
 70
     1
102
RTVSPost2010Prop56
140
1.0
102
RTVSPost2010PropOp56
 70
     1
102
RTVSPost2010Prop57
140
1.0
102
RTVSPost2010PropOp57
 70
     1
  0
XRECORD
  5
1000214
102
{ACAD_REACTORS
330
1000213
102
}
330
1000213
100
AcDbXrecord
280
     1
102
RTVSPropertyOp0
 70
     1
102
RTVSPropertyOp1
 70
     1
102
RTVSPropertyOp2
 70
     1
102
RTVSPropertyOp3
 70
     1
102
RTVSPropertyOp4
 70
     1
102
RTVSPropertyOp5
 70
     1
102
RTVSPropertyOp6
 70
     1
102
RTVSPropertyOp7
 70
     1
102
RTVSPropertyOp8
 70
     1
102
RTVSPropertyOp9
 70
     1
102
RTVSPropertyOp10
 70
     1
102
RTVSPropertyOp11
 70
     1
102
RTVSPropertyOp12
 70
     1
102
RTVSPropertyOp13
 70
     1
102
RTVSPropertyOp14
 70
     1
102
RTVSPropertyOp15
 70
     1
102
RTVSPropertyOp16
 70
     1
102
RTVSPropertyOp17
 70
     1
102
RTVSPropertyOp18
 70
     1
102
RTVSPropertyOp19
 70
     1
102
RTVSPropertyOp20
 70
     1
102
RTVSPropertyOp21
 70
     1
102
RTVSPropertyOp22
 70
     1
102
RTVSPropertyOp23
 70
     1
102
RTVSPropertyOp24
 70
     1
102
RTVSPropertyOp25
 70
     1
102
RTVSPropertyOp26
 70
     1
102
RTVSPropertyOp27
 70
     1
102
RTVSPropertyOp28
 70
     1
102
RTVSPropertyOp29
 70
     1
102
RTVSPropertyOp30
 70
     1
102
RTVSPropertyOp31
 70
     1
102
RTVSPropertyOp32
 70
     1
102
RTVSPropertyOp33
 70
     1
102
RTVSPropertyOp34
 70
     1
102
RTVSPropertyOp35
 70
     1
102
RTVSPropertyOp36
 70
     1
102
RTVSPropertyOp37
 70
     1
102
RTVSPropertyOp38
 70
     1
102
RTVSPropertyOp39
 70
     1
102
RTVSPropertyOp40
 70
     1
102
RTVSPropertyOp41
 70
     1
102
RTVSPropertyOp42
 70
     1
102
RTVSPropertyOp43
 70
     1
102
RTVSPropertyOp44
 70
     1
102
RTVSPropertyOp45
 70
     1
102
RTVSPropertyOp46
 70
     1
102
RTVSPropertyOp47
 70
     1
102
RTVSPropertyOp48
 70
     1
102
RTVSPropertyOp49
 70
     1
102
RTVSPropertyOp50
 70
     1
102
RTVSPropertyOp51
 70
     0
102
RTVSPropertyOp52
 70
     0
102
RTVSPropertyOp53
 70
     1
102
RTVSPropertyOp54
 70
     1
102
RTVSPropertyOp55
 70
     1
102
RTVSPropertyOp56
 70
     1
102
RTVSPropertyOp57
 70
     1
102
RTVSPost2010Prop28
280
     0
102
RTVSPost2010PropOp28
 70
     1
102
RTVSPost2010Prop29
280
     1
102
RTVSPost2010PropOp29
 70
     1
102
RTVSPost2010Prop30
280
     1
102
RTVSPost2010PropOp30
 70
     1
102
RTVSPost2010Prop31
280
     0
102
RTVSPost2010PropOp31
 70
     1
102
RTVSPost2010Prop32
280
     0
102
RTVSPost2010PropOp32
 70
     1
102
RTVSPost2010Prop33
280
     0
102
RTVSPost2010PropOp33
 70
     1
102
RTVSPost2010Prop34
280
     0
102
RTVSPost2010PropOp34
 70
     1
102
RTVSPost2010Prop35
280
     0
102
RTVSPost2010PropOp35
 70
     1
102
RTVSPost2010Prop36
280
     0
102
RTVSPost2010PropOp36
 70
     1
102
RTVSPost2010Prop37
 90
       50
102
RTVSPost2010PropOp37
 70
     1
102
RTVSPost2010Prop38
140
0.0
102
RTVSPost2010PropOp38
 70
     1
102
RTVSPost2010Prop39
140
1.0
102
RTVSPost2010PropOp39
 70
     1
102
RTVSPost2010Prop40
 90
        0
102
RTVSPost2010PropOp40
 70
     1
102
RTVSPost2010Prop41ColorIndex
 90
       18
102
RTVSPost2010Prop41ColorRGB
 90
        0
102
RTVSPost2010PropOp41
 70
     1
102
RTVSPost2010Prop42
 90
       50
102
RTVSPost2010PropOp42
 70
     1
102
RTVSPost2010Prop43
 90
        3
102
RTVSPost2010PropOp43
 70
     1
102
RTVSPost2010Prop44ColorIndex
 90
        5
102
RTVSPost2010Prop44ColorRGB
 90
      255
102
RTVSPost2010PropOp44
 70
     1
102
RTVSPost2010Prop45
280
     0
102
RTVSPost2010PropOp45
 70
     1
102
RTVSPost2010Prop46
 90
       50
102
RTVSPost2010PropOp46
 70
     1
102
RTVSPost2010Prop47
 90
       50
102
RTVSPost2010PropOp47
 70
     1
102
RTVSPost2010Prop48
 90
       50
102
RTVSPost2010PropOp48
 70
     1
102
RTVSPost2010Prop49
280
     0
102
RTVSPost2010PropOp49
 70
     1
102
RTVSPost2010Prop50
 90
       50
102
RTVSPost2010PropOp50
 70
     1
102
RTVSPost2010Prop51ColorIndex
 90
      256
102
RTVSPost2010Prop51ColorRGB
 90
-16777216
102
RTVSPost2010PropOp51
 70
     0
102
RTVSPost2010Prop52
140
1.0
102
RTVSPost2010PropOp52
 70
     0
102
RTVSPost2010Prop53
 90
        2
102
RTVSPost2010PropOp53
 70
     1
102
RTVSPost2010Prop54
  1
strokes_ogs.tif
102
RTVSPost2010PropOp54
 70
     1
102
RTVSPost2010Prop55
280
     0
102
RTVSPost2010PropOp55
 70
     1
102
RTVSPost2010Prop56
140
1.0
102
RTVSPost2010PropOp56
 70
     1
102
RTVSPost2010Prop57
140
1.0
102
RTVSPost2010PropOp57
 70
     1
  0
XRECORD
  5
1000216
102
{ACAD_REACTORS
330
1000215
102
}
330
1000215
100
AcDbXrecord
280
     1
102
RTVSPropertyOp0
 70
     1
102
RTVSPropertyOp1
 70
     1
102
RTVSPropertyOp2
 70
     1
102
RTVSPropertyOp3
 70
     1
102
RTVSPropertyOp4
 70
     1
102
RTVSPropertyOp5
 70
     1
102
RTVSPropertyOp6
 70
     1
102
RTVSPropertyOp7
 70
     1
102
RTVSPropertyOp8
 70
     1
102
RTVSPropertyOp9
 70
     1
102
RTVSPropertyOp10
 70
     1
102
RTVSPropertyOp11
 70
     1
102
RTVSPropertyOp12
 70
     1
102
RTVSPropertyOp13
 70
     1
102
RTVSPropertyOp14
 70
     1
102
RTVSPropertyOp15
 70
     1
102
RTVSPropertyOp16
 70
     1
102
RTVSPropertyOp17
 70
     1
102
RTVSPropertyOp18
 70
     1
102
RTVSPropertyOp19
 70
     1
102
RTVSPropertyOp20
 70
     1
102
RTVSPropertyOp21
 70
     1
102
RTVSPropertyOp22
 70
     1
102
RTVSPropertyOp23
 70
     1
102
RTVSPropertyOp24
 70
     1
102
RTVSPropertyOp25
 70
     1
102
RTVSPropertyOp26
 70
     1
102
RTVSPropertyOp27
 70
     1
102
RTVSPropertyOp28
 70
     1
102
RTVSPropertyOp29
 70
     1
102
RTVSPropertyOp30
 70
     1
102
RTVSPropertyOp31
 70
     1
102
RTVSPropertyOp32
 70
     1
102
RTVSPropertyOp33
 70
     1
102
RTVSPropertyOp34
 70
     1
102
RTVSPropertyOp35
 70
     1
102
RTVSPropertyOp36
 70
     1
102
RTVSPropertyOp37
 70
     1
102
RTVSPropertyOp38
 70
     1
102
RTVSPropertyOp39
 70
     1
102
RTVSPropertyOp40
 70
     1
102
RTVSPropertyOp41
 70
     1
102
RTVSPropertyOp42
 70
     1
102
RTVSPropertyOp43
 70
     1
102
RTVSPropertyOp44
 70
     1
102
RTVSPropertyOp45
 70
     1
102
RTVSPropertyOp46
 70
     1
102
RTVSPropertyOp47
 70
     1
102
RTVSPropertyOp48
 70
     1
102
RTVSPropertyOp49
 70
     1
102
RTVSPropertyOp50
 70
     1
102
RTVSPropertyOp51
 70
     0
102
RTVSPropertyOp52
 70
     0
102
RTVSPropertyOp53
 70
     1
102
RTVSPropertyOp54
 70
     1
102
RTVSPropertyOp55
 70
     1
102
RTVSPropertyOp56
 70
     1
102
RTVSPropertyOp57
 70
     1
102
RTVSPost2010Prop28
280
     0
102
RTVSPost2010PropOp28
 70
     1
102
RTVSPost2010Prop29
280
     1
102
RTVSPost2010PropOp29
 70
     1
102
RTVSPost2010Prop30
280
     1
102
RTVSPost2010PropOp30
 70
     1
102
RTVSPost2010Prop31
280
     0
102
RTVSPost2010PropOp31
 70
     1
102
RTVSPost2010Prop32
280
     0
102
RTVSPost2010PropOp32
 70
     1
102
RTVSPost2010Prop33
280
     0
102
RTVSPost2010PropOp33
 70
     1
102
RTVSPost2010Prop34
280
     0
102
RTVSPost2010PropOp34
 70
     1
102
RTVSPost2010Prop35
280
     0
102
RTVSPost2010PropOp35
 70
     1
102
RTVSPost2010Prop36
280
     0
102
RTVSPost2010PropOp36
 70
     1
102
RTVSPost2010Prop37
 90
       50
102
RTVSPost2010PropOp37
 70
     1
102
RTVSPost2010Prop38
140
0.0
102
RTVSPost2010PropOp38
 70
     1
102
RTVSPost2010Prop39
140
1.0
102
RTVSPost2010PropOp39
 70
     1
102
RTVSPost2010Prop40
 90
        0
102
RTVSPost2010PropOp40
 70
     1
102
RTVSPost2010Prop41ColorIndex
 90
       18
102
RTVSPost2010Prop41ColorRGB
 90
        0
102
RTVSPost2010PropOp41
 70
     1
102
RTVSPost2010Prop42
 90
       50
102
RTVSPost2010PropOp42
 70
     1
102
RTVSPost2010Prop43
 90
        3
102
RTVSPost2010PropOp43
 70
     1
102
RTVSPost2010Prop44ColorIndex
 90
        5
102
RTVSPost2010Prop44ColorRGB
 90
      255
102
RTVSPost2010PropOp44
 70
     1
102
RTVSPost2010Prop45
280
     0
102
RTVSPost2010PropOp45
 70
     1
102
RTVSPost2010Prop46
 90
       50
102
RTVSPost2010PropOp46
 70
     1
102
RTVSPost2010Prop47
 90
       50
102
RTVSPost2010PropOp47
 70
     1
102
RTVSPost2010Prop48
 90
       50
102
RTVSPost2010PropOp48
 70
     1
102
RTVSPost2010Prop49
280
     0
102
RTVSPost2010PropOp49
 70
     1
102
RTVSPost2010Prop50
 90
       50
102
RTVSPost2010PropOp50
 70
     1
102
RTVSPost2010Prop51ColorIndex
 90
      256
102
RTVSPost2010Prop51ColorRGB
 90
-16777216
102
RTVSPost2010PropOp51
 70
     0
102
RTVSPost2010Prop52
140
1.0
102
RTVSPost2010PropOp52
 70
     0
102
RTVSPost2010Prop53
 90
        2
102
RTVSPost2010PropOp53
 70
     1
102
RTVSPost2010Prop54
  1
strokes_ogs.tif
102
RTVSPost2010PropOp54
 70
     1
102
RTVSPost2010Prop55
280
     0
102
RTVSPost2010PropOp55
 70
     1
102
RTVSPost2010Prop56
140
1.0
102
RTVSPost2010PropOp56
 70
     1
102
RTVSPost2010Prop57
140
1.0
102
RTVSPost2010PropOp57
 70
     1
  0
XRECORD
  5
1000218
102
{ACAD_REACTORS
330
1000217
102
}
330
1000217
100
AcDbXrecord
280
     1
102
RTVSPropertyOp0
 70
     1
102
RTVSPropertyOp1
 70
     1
102
RTVSPropertyOp2
 70
     1
102
RTVSPropertyOp3
 70
     1
102
RTVSPropertyOp4
 70
     1
102
RTVSPropertyOp5
 70
     1
102
RTVSPropertyOp6
 70
     1
102
RTVSPropertyOp7
 70
     1
102
RTVSPropertyOp8
 70
     1
102
RTVSPropertyOp9
 70
     1
102
RTVSPropertyOp10
 70
     1
102
RTVSPropertyOp11
 70
     1
102
RTVSPropertyOp12
 70
     1
102
RTVSPropertyOp13
 70
     1
102
RTVSPropertyOp14
 70
     1
102
RTVSPropertyOp15
 70
     1
102
RTVSPropertyOp16
 70
     1
102
RTVSPropertyOp17
 70
     1
102
RTVSPropertyOp18
 70
     1
102
RTVSPropertyOp19
 70
     1
102
RTVSPropertyOp20
 70
     1
102
RTVSPropertyOp21
 70
     1
102
RTVSPropertyOp22
 70
     1
102
RTVSPropertyOp23
 70
     1
102
RTVSPropertyOp24
 70
     1
102
RTVSPropertyOp25
 70
     1
102
RTVSPropertyOp26
 70
     1
102
RTVSPropertyOp27
 70
     1
102
RTVSPropertyOp28
 70
     1
102
RTVSPropertyOp29
 70
     1
102
RTVSPropertyOp30
 70
     1
102
RTVSPropertyOp31
 70
     1
102
RTVSPropertyOp32
 70
     1
102
RTVSPropertyOp33
 70
     1
102
RTVSPropertyOp34
 70
     1
102
RTVSPropertyOp35
 70
     1
102
RTVSPropertyOp36
 70
     1
102
RTVSPropertyOp37
 70
     1
102
RTVSPropertyOp38
 70
     1
102
RTVSPropertyOp39
 70
     1
102
RTVSPropertyOp40
 70
     1
102
RTVSPropertyOp41
 70
     1
102
RTVSPropertyOp42
 70
     1
102
RTVSPropertyOp43
 70
     1
102
RTVSPropertyOp44
 70
     1
102
RTVSPropertyOp45
 70
     1
102
RTVSPropertyOp46
 70
     1
102
RTVSPropertyOp47
 70
     1
102
RTVSPropertyOp48
 70
     1
102
RTVSPropertyOp49
 70
     1
102
RTVSPropertyOp50
 70
     1
102
RTVSPropertyOp51
 70
     0
102
RTVSPropertyOp52
 70
     0
102
RTVSPropertyOp53
 70
     1
102
RTVSPropertyOp54
 70
     1
102
RTVSPropertyOp55
 70
     1
102
RTVSPropertyOp56
 70
     1
102
RTVSPropertyOp57
 70
     1
102
RTVSPost2010Prop28
280
     0
102
RTVSPost2010PropOp28
 70
     1
102
RTVSPost2010Prop29
280
     1
102
RTVSPost2010PropOp29
 70
     1
102
RTVSPost2010Prop30
280
     1
102
RTVSPost2010PropOp30
 70
     1
102
RTVSPost2010Prop31
280
     0
102
RTVSPost2010PropOp31
 70
     1
102
RTVSPost2010Prop32
280
     0
102
RTVSPost2010PropOp32
 70
     1
102
RTVSPost2010Prop33
280
     0
102
RTVSPost2010PropOp33
 70
     1
102
RTVSPost2010Prop34
280
     0
102
RTVSPost2010PropOp34
 70
     1
102
RTVSPost2010Prop35
280
     0
102
RTVSPost2010PropOp35
 70
     1
102
RTVSPost2010Prop36
280
     0
102
RTVSPost2010PropOp36
 70
     1
102
RTVSPost2010Prop37
 90
       50
102
RTVSPost2010PropOp37
 70
     1
102
RTVSPost2010Prop38
140
0.0
102
RTVSPost2010PropOp38
 70
     1
102
RTVSPost2010Prop39
140
1.0
102
RTVSPost2010PropOp39
 70
     1
102
RTVSPost2010Prop40
 90
        0
102
RTVSPost2010PropOp40
 70
     1
102
RTVSPost2010Prop41ColorIndex
 90
       18
102
RTVSPost2010Prop41ColorRGB
 90
        0
102
RTVSPost2010PropOp41
 70
     1
102
RTVSPost2010Prop42
 90
       50
102
RTVSPost2010PropOp42
 70
     1
102
RTVSPost2010Prop43
 90
        3
102
RTVSPost2010PropOp43
 70
     1
102
RTVSPost2010Prop44ColorIndex
 90
        5
102
RTVSPost2010Prop44ColorRGB
 90
      255
102
RTVSPost2010PropOp44
 70
     1
102
RTVSPost2010Prop45
280
     0
102
RTVSPost2010PropOp45
 70
     1
102
RTVSPost2010Prop46
 90
       50
102
RTVSPost2010PropOp46
 70
     1
102
RTVSPost2010Prop47
 90
       50
102
RTVSPost2010PropOp47
 70
     1
102
RTVSPost2010Prop48
 90
       50
102
RTVSPost2010PropOp48
 70
     1
102
RTVSPost2010Prop49
280
     0
102
RTVSPost2010PropOp49
 70
     1
102
RTVSPost2010Prop50
 90
       50
102
RTVSPost2010PropOp50
 70
     1
102
RTVSPost2010Prop51ColorIndex
 90
      256
102
RTVSPost2010Prop51ColorRGB
 90
-16777216
102
RTVSPost2010PropOp51
 70
     0
102
RTVSPost2010Prop52
140
1.0
102
RTVSPost2010PropOp52
 70
     0
102
RTVSPost2010Prop53
 90
        2
102
RTVSPost2010PropOp53
 70
     1
102
RTVSPost2010Prop54
  1
strokes_ogs.tif
102
RTVSPost2010PropOp54
 70
     1
102
RTVSPost2010Prop55
280
     0
102
RTVSPost2010PropOp55
 70
     1
102
RTVSPost2010Prop56
140
1.0
102
RTVSPost2010PropOp56
 70
     1
102
RTVSPost2010Prop57
140
1.0
102
RTVSPost2010PropOp57
 70
     1
  0
XRECORD
  5
100021A
102
{ACAD_REACTORS
330
1000219
102
}
330
1000219
100
AcDbXrecord
280
     1
102
RTVSPropertyOp0
 70
     1
102
RTVSPropertyOp1
 70
     1
102
RTVSPropertyOp2
 70
     1
102
RTVSPropertyOp3
 70
     1
102
RTVSPropertyOp4
 70
     1
102
RTVSPropertyOp5
 70
     1
102
RTVSPropertyOp6
 70
     1
102
RTVSPropertyOp7
 70
     1
102
RTVSPropertyOp8
 70
     1
102
RTVSPropertyOp9
 70
     1
102
RTVSPropertyOp10
 70
     1
102
RTVSPropertyOp11
 70
     1
102
RTVSPropertyOp12
 70
     1
102
RTVSPropertyOp13
 70
     1
102
RTVSPropertyOp14
 70
     1
102
RTVSPropertyOp15
 70
     1
102
RTVSPropertyOp16
 70
     1
102
RTVSPropertyOp17
 70
     1
102
RTVSPropertyOp18
 70
     1
102
RTVSPropertyOp19
 70
     1
102
RTVSPropertyOp20
 70
     1
102
RTVSPropertyOp21
 70
     1
102
RTVSPropertyOp22
 70
     1
102
RTVSPropertyOp23
 70
     1
102
RTVSPropertyOp24
 70
     1
102
RTVSPropertyOp25
 70
     1
102
RTVSPropertyOp26
 70
     1
102
RTVSPropertyOp27
 70
     1
102
RTVSPropertyOp28
 70
     1
102
RTVSPropertyOp29
 70
     1
102
RTVSPropertyOp30
 70
     1
102
RTVSPropertyOp31
 70
     1
102
RTVSPropertyOp32
 70
     1
102
RTVSPropertyOp33
 70
     1
102
RTVSPropertyOp34
 70
     1
102
RTVSPropertyOp35
 70
     1
102
RTVSPropertyOp36
 70
     1
102
RTVSPropertyOp37
 70
     1
102
RTVSPropertyOp38
 70
     1
102
RTVSPropertyOp39
 70
     1
102
RTVSPropertyOp40
 70
     1
102
RTVSPropertyOp41
 70
     1
102
RTVSPropertyOp42
 70
     1
102
RTVSPropertyOp43
 70
     1
102
RTVSPropertyOp44
 70
     1
102
RTVSPropertyOp45
 70
     1
102
RTVSPropertyOp46
 70
     1
102
RTVSPropertyOp47
 70
     1
102
RTVSPropertyOp48
 70
     1
102
RTVSPropertyOp49
 70
     1
102
RTVSPropertyOp50
 70
     1
102
RTVSPropertyOp51
 70
     0
102
RTVSPropertyOp52
 70
     0
102
RTVSPropertyOp53
 70
     1
102
RTVSPropertyOp54
 70
     1
102
RTVSPropertyOp55
 70
     1
102
RTVSPropertyOp56
 70
     1
102
RTVSPropertyOp57
 70
     1
102
RTVSPost2010Prop28
280
     0
102
RTVSPost2010PropOp28
 70
     1
102
RTVSPost2010Prop29
280
     1
102
RTVSPost2010PropOp29
 70
     1
102
RTVSPost2010Prop30
280
     1
102
RTVSPost2010PropOp30
 70
     1
102
RTVSPost2010Prop31
280
     0
102
RTVSPost2010PropOp31
 70
     1
102
RTVSPost2010Prop32
280
     0
102
RTVSPost2010PropOp32
 70
     1
102
RTVSPost2010Prop33
280
     0
102
RTVSPost2010PropOp33
 70
     1
102
RTVSPost2010Prop34
280
     0
102
RTVSPost2010PropOp34
 70
     1
102
RTVSPost2010Prop35
280
     0
102
RTVSPost2010PropOp35
 70
     1
102
RTVSPost2010Prop36
280
     0
102
RTVSPost2010PropOp36
 70
     1
102
RTVSPost2010Prop37
 90
       50
102
RTVSPost2010PropOp37
 70
     1
102
RTVSPost2010Prop38
140
0.0
102
RTVSPost2010PropOp38
 70
     1
102
RTVSPost2010Prop39
140
1.0
102
RTVSPost2010PropOp39
 70
     1
102
RTVSPost2010Prop40
 90
        0
102
RTVSPost2010PropOp40
 70
     1
102
RTVSPost2010Prop41ColorIndex
 90
       18
102
RTVSPost2010Prop41ColorRGB
 90
        0
102
RTVSPost2010PropOp41
 70
     1
102
RTVSPost2010Prop42
 90
       50
102
RTVSPost2010PropOp42
 70
     1
102
RTVSPost2010Prop43
 90
        3
102
RTVSPost2010PropOp43
 70
     1
102
RTVSPost2010Prop44ColorIndex
 90
        5
102
RTVSPost2010Prop44ColorRGB
 90
      255
102
RTVSPost2010PropOp44
 70
     1
102
RTVSPost2010Prop45
280
     0
102
RTVSPost2010PropOp45
 70
     1
102
RTVSPost2010Prop46
 90
       50
102
RTVSPost2010PropOp46
 70
     1
102
RTVSPost2010Prop47
 90
       50
102
RTVSPost2010PropOp47
 70
     1
102
RTVSPost2010Prop48
 90
       50
102
RTVSPost2010PropOp48
 70
     1
102
RTVSPost2010Prop49
280
     0
102
RTVSPost2010PropOp49
 70
     1
102
RTVSPost2010Prop50
 90
       50
102
RTVSPost2010PropOp50
 70
     1
102
RTVSPost2010Prop51ColorIndex
 90
      256
102
RTVSPost2010Prop51ColorRGB
 90
-16777216
102
RTVSPost2010PropOp51
 70
     0
102
RTVSPost2010Prop52
140
1.0
102
RTVSPost2010PropOp52
 70
     0
102
RTVSPost2010Prop53
 90
        2
102
RTVSPost2010PropOp53
 70
     1
102
RTVSPost2010Prop54
  1
strokes_ogs.tif
102
RTVSPost2010PropOp54
 70
     1
102
RTVSPost2010Prop55
280
     0
102
RTVSPost2010PropOp55
 70
     1
102
RTVSPost2010Prop56
140
1.0
102
RTVSPost2010PropOp56
 70
     1
102
RTVSPost2010Prop57
140
1.0
102
RTVSPost2010PropOp57
 70
     1
  0
XRECORD
  5
100021C
102
{ACAD_REACTORS
330
100021B
102
}
330
100021B
100
AcDbXrecord
280
     1
102
RTVSPropertyOp0
 70
     0
102
RTVSPropertyOp1
 70
     0
102
RTVSPropertyOp2
 70
     0
102
RTVSPropertyOp3
 70
     0
102
RTVSPropertyOp4
 70
     0
102
RTVSPropertyOp5
 70
     0
102
RTVSPropertyOp6
 70
     0
102
RTVSPropertyOp7
 70
     0
102
RTVSPropertyOp8
 70
     0
102
RTVSPropertyOp9
 70
     0
102
RTVSPropertyOp10
 70
     0
102
RTVSPropertyOp11
 70
     0
102
RTVSPropertyOp12
 70
     0
102
RTVSPropertyOp13
 70
     0
102
RTVSPropertyOp14
 70
     2
102
RTVSPropertyOp15
 70
     0
102
RTVSPropertyOp16
 70
     0
102
RTVSPropertyOp17
 70
     0
102
RTVSPropertyOp18
 70
     0
102
RTVSPropertyOp19
 70
     0
102
RTVSPropertyOp20
 70
     0
102
RTVSPropertyOp21
 70
     0
102
RTVSPropertyOp22
 70
     0
102
RTVSPropertyOp23
 70
     0
102
RTVSPropertyOp24
 70
     0
102
RTVSPropertyOp25
 70
     0
102
RTVSPropertyOp26
 70
     0
102
RTVSPropertyOp27
 70
     0
102
RTVSPropertyOp28
 70
     0
102
RTVSPropertyOp29
 70
     0
102
RTVSPropertyOp30
 70
     0
102
RTVSPropertyOp31
 70
     0
102
RTVSPropertyOp32
 70
     0
102
RTVSPropertyOp33
 70
     0
102
RTVSPropertyOp34
 70
     0
102
RTVSPropertyOp35
 70
     0
102
RTVSPropertyOp36
 70
     0
102
RTVSPropertyOp37
 70
     0
102
RTVSPropertyOp38
 70
     0
102
RTVSPropertyOp39
 70
     0
102
RTVSPropertyOp40
 70
     0
102
RTVSPropertyOp41
 70
     0
102
RTVSPropertyOp42
 70
     0
102
RTVSPropertyOp43
 70
     0
102
RTVSPropertyOp44
 70
     0
102
RTVSPropertyOp45
 70
     0
102
RTVSPropertyOp46
 70
     0
102
RTVSPropertyOp47
 70
     0
102
RTVSPropertyOp48
 70
     0
102
RTVSPropertyOp49
 70
     0
102
RTVSPropertyOp50
 70
     0
102
RTVSPropertyOp51
 70
     0
102
RTVSPropertyOp52
 70
     0
102
RTVSPropertyOp53
 70
     0
102
RTVSPropertyOp54
 70
     0
102
RTVSPropertyOp55
 70
     0
102
RTVSPropertyOp56
 70
     0
102
RTVSPropertyOp57
 70
     0
102
RTVSPost2010Prop28
280
     0
102
RTVSPost2010PropOp28
 70
     0
102
RTVSPost2010Prop29
280
     1
102
RTVSPost2010PropOp29
 70
     0
102
RTVSPost2010Prop30
280
     1
102
RTVSPost2010PropOp30
 70
     0
102
RTVSPost2010Prop31
280
     0
102
RTVSPost2010PropOp31
 70
     0
102
RTVSPost2010Prop32
280
     0
102
RTVSPost2010PropOp32
 70
     0
102
RTVSPost2010Prop33
280
     0
102
RTVSPost2010PropOp33
 70
     0
102
RTVSPost2010Prop34
280
     0
102
RTVSPost2010PropOp34
 70
     0
102
RTVSPost2010Prop35
280
     0
102
RTVSPost2010PropOp35
 70
     0
102
RTVSPost2010Prop36
280
     0
102
RTVSPost2010PropOp36
 70
     0
102
RTVSPost2010Prop37
 90
       50
102
RTVSPost2010PropOp37
 70
     0
102
RTVSPost2010Prop38
140
0.0
102
RTVSPost2010PropOp38
 70
     0
102
RTVSPost2010Prop39
140
1.0
102
RTVSPost2010PropOp39
 70
     0
102
RTVSPost2010Prop40
 90
        0
102
RTVSPost2010PropOp40
 70
     0
102
RTVSPost2010Prop41ColorIndex
 90
       18
102
RTVSPost2010Prop41ColorRGB
 90
        0
102
RTVSPost2010PropOp41
 70
     0
102
RTVSPost2010Prop42
 90
       50
102
RTVSPost2010PropOp42
 70
     0
102
RTVSPost2010Prop43
 90
        3
102
RTVSPost2010PropOp43
 70
     0
102
RTVSPost2010Prop44ColorIndex
 90
        5
102
RTVSPost2010Prop44ColorRGB
 90
      255
102
RTVSPost2010PropOp44
 70
     0
102
RTVSPost2010Prop45
280
     0
102
RTVSPost2010PropOp45
 70
     0
102
RTVSPost2010Prop46
 90
       50
102
RTVSPost2010PropOp46
 70
     0
102
RTVSPost2010Prop47
 90
       50
102
RTVSPost2010PropOp47
 70
     0
102
RTVSPost2010Prop48
 90
       50
102
RTVSPost2010PropOp48
 70
     0
102
RTVSPost2010Prop49
280
     0
102
RTVSPost2010PropOp49
 70
     0
102
RTVSPost2010Prop50
 90
       50
102
RTVSPost2010PropOp50
 70
     0
102
RTVSPost2010Prop51ColorIndex
 90
      256
102
RTVSPost2010Prop51ColorRGB
 90
-16777216
102
RTVSPost2010PropOp51
 70
     0
102
RTVSPost2010Prop52
140
1.0
102
RTVSPost2010PropOp52
 70
     0
102
RTVSPost2010Prop53
 90
        2
102
RTVSPost2010PropOp53
 70
     0
102
RTVSPost2010Prop54
  1
strokes_ogs.tif
102
RTVSPost2010PropOp54
 70
     0
102
RTVSPost2010Prop55
280
     0
102
RTVSPost2010PropOp55
 70
     0
102
RTVSPost2010Prop56
140
1.0
102
RTVSPost2010PropOp56
 70
     0
102
RTVSPost2010Prop57
140
1.0
102
RTVSPost2010PropOp57
 70
     0
  0
XRECORD
  5
100021E
102
{ACAD_REACTORS
330
100021D
102
}
330
100021D
100
AcDbXrecord
280
     1
102
RTVSPropertyOp0
 70
     1
102
RTVSPropertyOp1
 70
     1
102
RTVSPropertyOp2
 70
     1
102
RTVSPropertyOp3
 70
     1
102
RTVSPropertyOp4
 70
     1
102
RTVSPropertyOp5
 70
     1
102
RTVSPropertyOp6
 70
     1
102
RTVSPropertyOp7
 70
     1
102
RTVSPropertyOp8
 70
     1
102
RTVSPropertyOp9
 70
     1
102
RTVSPropertyOp10
 70
     1
102
RTVSPropertyOp11
 70
     1
102
RTVSPropertyOp12
 70
     1
102
RTVSPropertyOp13
 70
     1
102
RTVSPropertyOp14
 70
     1
102
RTVSPropertyOp15
 70
     1
102
RTVSPropertyOp16
 70
     1
102
RTVSPropertyOp17
 70
     1
102
RTVSPropertyOp18
 70
     1
102
RTVSPropertyOp19
 70
     1
102
RTVSPropertyOp20
 70
     1
102
RTVSPropertyOp21
 70
     1
102
RTVSPropertyOp22
 70
     1
102
RTVSPropertyOp23
 70
     1
102
RTVSPropertyOp24
 70
     1
102
RTVSPropertyOp25
 70
     1
102
RTVSPropertyOp26
 70
     1
102
RTVSPropertyOp27
 70
     1
102
RTVSPropertyOp28
 70
     1
102
RTVSPropertyOp29
 70
     1
102
RTVSPropertyOp30
 70
     1
102
RTVSPropertyOp31
 70
     1
102
RTVSPropertyOp32
 70
     1
102
RTVSPropertyOp33
 70
     1
102
RTVSPropertyOp34
 70
     1
102
RTVSPropertyOp35
 70
     1
102
RTVSPropertyOp36
 70
     1
102
RTVSPropertyOp37
 70
     1
102
RTVSPropertyOp38
 70
     1
102
RTVSPropertyOp39
 70
     1
102
RTVSPropertyOp40
 70
     1
102
RTVSPropertyOp41
 70
     1
102
RTVSPropertyOp42
 70
     1
102
RTVSPropertyOp43
 70
     1
102
RTVSPropertyOp44
 70
     1
102
RTVSPropertyOp45
 70
     1
102
RTVSPropertyOp46
 70
     1
102
RTVSPropertyOp47
 70
     1
102
RTVSPropertyOp48
 70
     1
102
RTVSPropertyOp49
 70
     1
102
RTVSPropertyOp50
 70
     1
102
RTVSPropertyOp51
 70
     0
102
RTVSPropertyOp52
 70
     0
102
RTVSPropertyOp53
 70
     1
102
RTVSPropertyOp54
 70
     1
102
RTVSPropertyOp55
 70
     1
102
RTVSPropertyOp56
 70
     1
102
RTVSPropertyOp57
 70
     1
102
RTVSPost2010Prop28
280
     0
102
RTVSPost2010PropOp28
 70
     1
102
RTVSPost2010Prop29
280
     1
102
RTVSPost2010PropOp29
 70
     1
102
RTVSPost2010Prop30
280
     1
102
RTVSPost2010PropOp30
 70
     1
102
RTVSPost2010Prop31
280
     0
102
RTVSPost2010PropOp31
 70
     1
102
RTVSPost2010Prop32
280
     0
102
RTVSPost2010PropOp32
 70
     1
102
RTVSPost2010Prop33
280
     0
102
RTVSPost2010PropOp33
 70
     1
102
RTVSPost2010Prop34
280
     0
102
RTVSPost2010PropOp34
 70
     1
102
RTVSPost2010Prop35
280
     0
102
RTVSPost2010PropOp35
 70
     1
102
RTVSPost2010Prop36
280
     0
102
RTVSPost2010PropOp36
 70
     1
102
RTVSPost2010Prop37
 90
       50
102
RTVSPost2010PropOp37
 70
     1
102
RTVSPost2010Prop38
140
0.0
102
RTVSPost2010PropOp38
 70
     1
102
RTVSPost2010Prop39
140
1.0
102
RTVSPost2010PropOp39
 70
     1
102
RTVSPost2010Prop40
 90
        0
102
RTVSPost2010PropOp40
 70
     1
102
RTVSPost2010Prop41ColorIndex
 90
       18
102
RTVSPost2010Prop41ColorRGB
 90
        0
102
RTVSPost2010PropOp41
 70
     1
102
RTVSPost2010Prop42
 90
       50
102
RTVSPost2010PropOp42
 70
     1
102
RTVSPost2010Prop43
 90
        3
102
RTVSPost2010PropOp43
 70
     1
102
RTVSPost2010Prop44ColorIndex
 90
        5
102
RTVSPost2010Prop44ColorRGB
 90
      255
102
RTVSPost2010PropOp44
 70
     1
102
RTVSPost2010Prop45
280
     0
102
RTVSPost2010PropOp45
 70
     1
102
RTVSPost2010Prop46
 90
       50
102
RTVSPost2010PropOp46
 70
     1
102
RTVSPost2010Prop47
 90
       50
102
RTVSPost2010PropOp47
 70
     1
102
RTVSPost2010Prop48
 90
       50
102
RTVSPost2010PropOp48
 70
     1
102
RTVSPost2010Prop49
280
     0
102
RTVSPost2010PropOp49
 70
     1
102
RTVSPost2010Prop50
 90
       50
102
RTVSPost2010PropOp50
 70
     1
102
RTVSPost2010Prop51ColorIndex
 90
      256
102
RTVSPost2010Prop51ColorRGB
 90
-16777216
102
RTVSPost2010PropOp51
 70
     0
102
RTVSPost2010Prop52
140
1.0
102
RTVSPost2010PropOp52
 70
     0
102
RTVSPost2010Prop53
 90
        2
102
RTVSPost2010PropOp53
 70
     1
102
RTVSPost2010Prop54
  1
strokes_ogs.tif
102
RTVSPost2010PropOp54
 70
     1
102
RTVSPost2010Prop55
280
     0
102
RTVSPost2010PropOp55
 70
     1
102
RTVSPost2010Prop56
140
1.0
102
RTVSPost2010PropOp56
 70
     1
102
RTVSPost2010Prop57
140
1.0
102
RTVSPost2010PropOp57
 70
     1
  0
XRECORD
  5
1000220
102
{ACAD_REACTORS
330
100021F
102
}
330
100021F
100
AcDbXrecord
280
     1
102
RTVSPropertyOp0
 70
     0
102
RTVSPropertyOp1
 70
     0
102
RTVSPropertyOp2
 70
     0
102
RTVSPropertyOp3
 70
     0
102
RTVSPropertyOp4
 70
     0
102
RTVSPropertyOp5
 70
     0
102
RTVSPropertyOp6
 70
     0
102
RTVSPropertyOp7
 70
     0
102
RTVSPropertyOp8
 70
     0
102
RTVSPropertyOp9
 70
     0
102
RTVSPropertyOp10
 70
     0
102
RTVSPropertyOp11
 70
     0
102
RTVSPropertyOp12
 70
     0
102
RTVSPropertyOp13
 70
     0
102
RTVSPropertyOp14
 70
     2
102
RTVSPropertyOp15
 70
     0
102
RTVSPropertyOp16
 70
     0
102
RTVSPropertyOp17
 70
     0
102
RTVSPropertyOp18
 70
     0
102
RTVSPropertyOp19
 70
     0
102
RTVSPropertyOp20
 70
     0
102
RTVSPropertyOp21
 70
     0
102
RTVSPropertyOp22
 70
     0
102
RTVSPropertyOp23
 70
     0
102
RTVSPropertyOp24
 70
     0
102
RTVSPropertyOp25
 70
     0
102
RTVSPropertyOp26
 70
     0
102
RTVSPropertyOp27
 70
     0
102
RTVSPropertyOp28
 70
     0
102
RTVSPropertyOp29
 70
     0
102
RTVSPropertyOp30
 70
     0
102
RTVSPropertyOp31
 70
     0
102
RTVSPropertyOp32
 70
     0
102
RTVSPropertyOp33
 70
     0
102
RTVSPropertyOp34
 70
     0
102
RTVSPropertyOp35
 70
     0
102
RTVSPropertyOp36
 70
     0
102
RTVSPropertyOp37
 70
     0
102
RTVSPropertyOp38
 70
     0
102
RTVSPropertyOp39
 70
     0
102
RTVSPropertyOp40
 70
     0
102
RTVSPropertyOp41
 70
     0
102
RTVSPropertyOp42
 70
     0
102
RTVSPropertyOp43
 70
     0
102
RTVSPropertyOp44
 70
     0
102
RTVSPropertyOp45
 70
     0
102
RTVSPropertyOp46
 70
     0
102
RTVSPropertyOp47
 70
     0
102
RTVSPropertyOp48
 70
     0
102
RTVSPropertyOp49
 70
     0
102
RTVSPropertyOp50
 70
     0
102
RTVSPropertyOp51
 70
     0
102
RTVSPropertyOp52
 70
     0
102
RTVSPropertyOp53
 70
     0
102
RTVSPropertyOp54
 70
     0
102
RTVSPropertyOp55
 70
     0
102
RTVSPropertyOp56
 70
     0
102
RTVSPropertyOp57
 70
     0
102
RTVSPost2010Prop28
280
     0
102
RTVSPost2010PropOp28
 70
     0
102
RTVSPost2010Prop29
280
     1
102
RTVSPost2010PropOp29
 70
     0
102
RTVSPost2010Prop30
280
     1
102
RTVSPost2010PropOp30
 70
     0
102
RTVSPost2010Prop31
280
     0
102
RTVSPost2010PropOp31
 70
     0
102
RTVSPost2010Prop32
280
     0
102
RTVSPost2010PropOp32
 70
     0
102
RTVSPost2010Prop33
280
     0
102
RTVSPost2010PropOp33
 70
     0
102
RTVSPost2010Prop34
280
     0
102
RTVSPost2010PropOp34
 70
     0
102
RTVSPost2010Prop35
280
     0
102
RTVSPost2010PropOp35
 70
     0
102
RTVSPost2010Prop36
280
     0
102
RTVSPost2010PropOp36
 70
     0
102
RTVSPost2010Prop37
 90
       50
102
RTVSPost2010PropOp37
 70
     0
102
RTVSPost2010Prop38
140
0.0
102
RTVSPost2010PropOp38
 70
     0
102
RTVSPost2010Prop39
140
1.0
102
RTVSPost2010PropOp39
 70
     0
102
RTVSPost2010Prop40
 90
        0
102
RTVSPost2010PropOp40
 70
     0
102
RTVSPost2010Prop41ColorIndex
 90
       18
102
RTVSPost2010Prop41ColorRGB
 90
        0
102
RTVSPost2010PropOp41
 70
     0
102
RTVSPost2010Prop42
 90
       50
102
RTVSPost2010PropOp42
 70
     0
102
RTVSPost2010Prop43
 90
        3
102
RTVSPost2010PropOp43
 70
     0
102
RTVSPost2010Prop44ColorIndex
 90
        5
102
RTVSPost2010Prop44ColorRGB
 90
      255
102
RTVSPost2010PropOp44
 70
     0
102
RTVSPost2010Prop45
280
     0
102
RTVSPost2010PropOp45
 70
     0
102
RTVSPost2010Prop46
 90
       50
102
RTVSPost2010PropOp46
 70
     0
102
RTVSPost2010Prop47
 90
       50
102
RTVSPost2010PropOp47
 70
     0
102
RTVSPost2010Prop48
 90
       50
102
RTVSPost2010PropOp48
 70
     0
102
RTVSPost2010Prop49
280
     0
102
RTVSPost2010PropOp49
 70
     0
102
RTVSPost2010Prop50
 90
       50
102
RTVSPost2010PropOp50
 70
     0
102
RTVSPost2010Prop51ColorIndex
 90
      256
102
RTVSPost2010Prop51ColorRGB
 90
-16777216
102
RTVSPost2010PropOp51
 70
     0
102
RTVSPost2010Prop52
140
1.0
102
RTVSPost2010PropOp52
 70
     0
102
RTVSPost2010Prop53
 90
        2
102
RTVSPost2010PropOp53
 70
     0
102
RTVSPost2010Prop54
  1
strokes_ogs.tif
102
RTVSPost2010PropOp54
 70
     0
102
RTVSPost2010Prop55
280
     0
102
RTVSPost2010PropOp55
 70
     0
102
RTVSPost2010Prop56
140
1.0
102
RTVSPost2010PropOp56
 70
     0
102
RTVSPost2010Prop57
140
1.0
102
RTVSPost2010PropOp57
 70
     0
  0
XRECORD
  5
1000222
102
{ACAD_REACTORS
330
1000221
102
}
330
1000221
100
AcDbXrecord
280
     1
102
RTVSPropertyOp0
 70
     1
102
RTVSPropertyOp1
 70
     1
102
RTVSPropertyOp2
 70
     1
102
RTVSPropertyOp3
 70
     1
102
RTVSPropertyOp4
 70
     1
102
RTVSPropertyOp5
 70
     1
102
RTVSPropertyOp6
 70
     1
102
RTVSPropertyOp7
 70
     1
102
RTVSPropertyOp8
 70
     1
102
RTVSPropertyOp9
 70
     1
102
RTVSPropertyOp10
 70
     1
102
RTVSPropertyOp11
 70
     1
102
RTVSPropertyOp12
 70
     1
102
RTVSPropertyOp13
 70
     1
102
RTVSPropertyOp14
 70
     1
102
RTVSPropertyOp15
 70
     1
102
RTVSPropertyOp16
 70
     1
102
RTVSPropertyOp17
 70
     1
102
RTVSPropertyOp18
 70
     1
102
RTVSPropertyOp19
 70
     1
102
RTVSPropertyOp20
 70
     1
102
RTVSPropertyOp21
 70
     1
102
RTVSPropertyOp22
 70
     1
102
RTVSPropertyOp23
 70
     1
102
RTVSPropertyOp24
 70
     1
102
RTVSPropertyOp25
 70
     1
102
RTVSPropertyOp26
 70
     1
102
RTVSPropertyOp27
 70
     1
102
RTVSPropertyOp28
 70
     1
102
RTVSPropertyOp29
 70
     1
102
RTVSPropertyOp30
 70
     1
102
RTVSPropertyOp31
 70
     1
102
RTVSPropertyOp32
 70
     1
102
RTVSPropertyOp33
 70
     1
102
RTVSPropertyOp34
 70
     1
102
RTVSPropertyOp35
 70
     1
102
RTVSPropertyOp36
 70
     1
102
RTVSPropertyOp37
 70
     1
102
RTVSPropertyOp38
 70
     1
102
RTVSPropertyOp39
 70
     1
102
RTVSPropertyOp40
 70
     1
102
RTVSPropertyOp41
 70
     1
102
RTVSPropertyOp42
 70
     1
102
RTVSPropertyOp43
 70
     1
102
RTVSPropertyOp44
 70
     1
102
RTVSPropertyOp45
 70
     1
102
RTVSPropertyOp46
 70
     1
102
RTVSPropertyOp47
 70
     1
102
RTVSPropertyOp48
 70
     1
102
RTVSPropertyOp49
 70
     1
102
RTVSPropertyOp50
 70
     1
102
RTVSPropertyOp51
 70
     0
102
RTVSPropertyOp52
 70
     0
102
RTVSPropertyOp53
 70
     1
102
RTVSPropertyOp54
 70
     1
102
RTVSPropertyOp55
 70
     1
102
RTVSPropertyOp56
 70
     1
102
RTVSPropertyOp57
 70
     1
102
RTVSPost2010Prop28
280
     0
102
RTVSPost2010PropOp28
 70
     1
102
RTVSPost2010Prop29
280
     1
102
RTVSPost2010PropOp29
 70
     1
102
RTVSPost2010Prop30
280
     1
102
RTVSPost2010PropOp30
 70
     1
102
RTVSPost2010Prop31
280
     0
102
RTVSPost2010PropOp31
 70
     1
102
RTVSPost2010Prop32
280
     0
102
RTVSPost2010PropOp32
 70
     1
102
RTVSPost2010Prop33
280
     0
102
RTVSPost2010PropOp33
 70
     1
102
RTVSPost2010Prop34
280
     0
102
RTVSPost2010PropOp34
 70
     1
102
RTVSPost2010Prop35
280
     0
102
RTVSPost2010PropOp35
 70
     1
102
RTVSPost2010Prop36
280
     0
102
RTVSPost2010PropOp36
 70
     1
102
RTVSPost2010Prop37
 90
       50
102
RTVSPost2010PropOp37
 70
     1
102
RTVSPost2010Prop38
140
0.0
102
RTVSPost2010PropOp38
 70
     1
102
RTVSPost2010Prop39
140
1.0
102
RTVSPost2010PropOp39
 70
     1
102
RTVSPost2010Prop40
 90
        0
102
RTVSPost2010PropOp40
 70
     1
102
RTVSPost2010Prop41ColorIndex
 90
       18
102
RTVSPost2010Prop41ColorRGB
 90
        0
102
RTVSPost2010PropOp41
 70
     1
102
RTVSPost2010Prop42
 90
       50
102
RTVSPost2010PropOp42
 70
     1
102
RTVSPost2010Prop43
 90
        3
102
RTVSPost2010PropOp43
 70
     1
102
RTVSPost2010Prop44ColorIndex
 90
        5
102
RTVSPost2010Prop44ColorRGB
 90
      255
102
RTVSPost2010PropOp44
 70
     1
102
RTVSPost2010Prop45
280
     0
102
RTVSPost2010PropOp45
 70
     1
102
RTVSPost2010Prop46
 90
       50
102
RTVSPost2010PropOp46
 70
     1
102
RTVSPost2010Prop47
 90
       50
102
RTVSPost2010PropOp47
 70
     1
102
RTVSPost2010Prop48
 90
       50
102
RTVSPost2010PropOp48
 70
     1
102
RTVSPost2010Prop49
280
     0
102
RTVSPost2010PropOp49
 70
     1
102
RTVSPost2010Prop50
 90
       50
102
RTVSPost2010PropOp50
 70
     1
102
RTVSPost2010Prop51ColorIndex
 90
      256
102
RTVSPost2010Prop51ColorRGB
 90
-16777216
102
RTVSPost2010PropOp51
 70
     0
102
RTVSPost2010Prop52
140
1.0
102
RTVSPost2010PropOp52
 70
     0
102
RTVSPost2010Prop53
 90
        2
102
RTVSPost2010PropOp53
 70
     1
102
RTVSPost2010Prop54
  1
strokes_ogs.tif
102
RTVSPost2010PropOp54
 70
     1
102
RTVSPost2010Prop55
280
     0
102
RTVSPost2010PropOp55
 70
     1
102
RTVSPost2010Prop56
140
1.0
102
RTVSPost2010PropOp56
 70
     1
102
RTVSPost2010Prop57
140
1.0
102
RTVSPost2010PropOp57
 70
     1
  0
XRECORD
  5
1000224
102
{ACAD_REACTORS
330
1000223
102
}
330
1000223
100
AcDbXrecord
280
     1
102
RTVSPropertyOp0
 70
     1
102
RTVSPropertyOp1
 70
     1
102
RTVSPropertyOp2
 70
     1
102
RTVSPropertyOp3
 70
     1
102
RTVSPropertyOp4
 70
     1
102
RTVSPropertyOp5
 70
     1
102
RTVSPropertyOp6
 70
     1
102
RTVSPropertyOp7
 70
     1
102
RTVSPropertyOp8
 70
     1
102
RTVSPropertyOp9
 70
     1
102
RTVSPropertyOp10
 70
     1
102
RTVSPropertyOp11
 70
     1
102
RTVSPropertyOp12
 70
     1
102
RTVSPropertyOp13
 70
     1
102
RTVSPropertyOp14
 70
     1
102
RTVSPropertyOp15
 70
     1
102
RTVSPropertyOp16
 70
     1
102
RTVSPropertyOp17
 70
     1
102
RTVSPropertyOp18
 70
     1
102
RTVSPropertyOp19
 70
     1
102
RTVSPropertyOp20
 70
     1
102
RTVSPropertyOp21
 70
     1
102
RTVSPropertyOp22
 70
     1
102
RTVSPropertyOp23
 70
     1
102
RTVSPropertyOp24
 70
     1
102
RTVSPropertyOp25
 70
     1
102
RTVSPropertyOp26
 70
     1
102
RTVSPropertyOp27
 70
     1
102
RTVSPropertyOp28
 70
     1
102
RTVSPropertyOp29
 70
     1
102
RTVSPropertyOp30
 70
     1
102
RTVSPropertyOp31
 70
     1
102
RTVSPropertyOp32
 70
     1
102
RTVSPropertyOp33
 70
     1
102
RTVSPropertyOp34
 70
     1
102
RTVSPropertyOp35
 70
     1
102
RTVSPropertyOp36
 70
     1
102
RTVSPropertyOp37
 70
     1
102
RTVSPropertyOp38
 70
     1
102
RTVSPropertyOp39
 70
     1
102
RTVSPropertyOp40
 70
     1
102
RTVSPropertyOp41
 70
     1
102
RTVSPropertyOp42
 70
     1
102
RTVSPropertyOp43
 70
     1
102
RTVSPropertyOp44
 70
     1
102
RTVSPropertyOp45
 70
     1
102
RTVSPropertyOp46
 70
     1
102
RTVSPropertyOp47
 70
     1
102
RTVSPropertyOp48
 70
     1
102
RTVSPropertyOp49
 70
     1
102
RTVSPropertyOp50
 70
     1
102
RTVSPropertyOp51
 70
     0
102
RTVSPropertyOp52
 70
     0
102
RTVSPropertyOp53
 70
     1
102
RTVSPropertyOp54
 70
     1
102
RTVSPropertyOp55
 70
     1
102
RTVSPropertyOp56
 70
     1
102
RTVSPropertyOp57
 70
     1
102
RTVSPost2010Prop28
280
     0
102
RTVSPost2010PropOp28
 70
     1
102
RTVSPost2010Prop29
280
     1
102
RTVSPost2010PropOp29
 70
     1
102
RTVSPost2010Prop30
280
     1
102
RTVSPost2010PropOp30
 70
     1
102
RTVSPost2010Prop31
280
     0
102
RTVSPost2010PropOp31
 70
     1
102
RTVSPost2010Prop32
280
     0
102
RTVSPost2010PropOp32
 70
     1
102
RTVSPost2010Prop33
280
     0
102
RTVSPost2010PropOp33
 70
     1
102
RTVSPost2010Prop34
280
     0
102
RTVSPost2010PropOp34
 70
     1
102
RTVSPost2010Prop35
280
     0
102
RTVSPost2010PropOp35
 70
     1
102
RTVSPost2010Prop36
280
     0
102
RTVSPost2010PropOp36
 70
     1
102
RTVSPost2010Prop37
 90
       50
102
RTVSPost2010PropOp37
 70
     1
102
RTVSPost2010Prop38
140
0.0
102
RTVSPost2010PropOp38
 70
     1
102
RTVSPost2010Prop39
140
1.0
102
RTVSPost2010PropOp39
 70
     1
102
RTVSPost2010Prop40
 90
        0
102
RTVSPost2010PropOp40
 70
     1
102
RTVSPost2010Prop41ColorIndex
 90
       18
102
RTVSPost2010Prop41ColorRGB
 90
        0
102
RTVSPost2010PropOp41
 70
     1
102
RTVSPost2010Prop42
 90
       50
102
RTVSPost2010PropOp42
 70
     1
102
RTVSPost2010Prop43
 90
        3
102
RTVSPost2010PropOp43
 70
     1
102
RTVSPost2010Prop44ColorIndex
 90
        5
102
RTVSPost2010Prop44ColorRGB
 90
      255
102
RTVSPost2010PropOp44
 70
     1
102
RTVSPost2010Prop45
280
     0
102
RTVSPost2010PropOp45
 70
     1
102
RTVSPost2010Prop46
 90
       50
102
RTVSPost2010PropOp46
 70
     1
102
RTVSPost2010Prop47
 90
       50
102
RTVSPost2010PropOp47
 70
     1
102
RTVSPost2010Prop48
 90
       50
102
RTVSPost2010PropOp48
 70
     1
102
RTVSPost2010Prop49
280
     0
102
RTVSPost2010PropOp49
 70
     1
102
RTVSPost2010Prop50
 90
       50
102
RTVSPost2010PropOp50
 70
     1
102
RTVSPost2010Prop51ColorIndex
 90
      256
102
RTVSPost2010Prop51ColorRGB
 90
-16777216
102
RTVSPost2010PropOp51
 70
     0
102
RTVSPost2010Prop52
140
1.0
102
RTVSPost2010PropOp52
 70
     0
102
RTVSPost2010Prop53
 90
        2
102
RTVSPost2010PropOp53
 70
     1
102
RTVSPost2010Prop54
  1
strokes_ogs.tif
102
RTVSPost2010PropOp54
 70
     1
102
RTVSPost2010Prop55
280
     0
102
RTVSPost2010PropOp55
 70
     1
102
RTVSPost2010Prop56
140
1.0
102
RTVSPost2010PropOp56
 70
     1
102
RTVSPost2010Prop57
140
1.0
102
RTVSPost2010PropOp57
 70
     1
  0
XRECORD
  5
1000226
102
{ACAD_REACTORS
330
1000225
102
}
330
1000225
100
AcDbXrecord
280
     1
102
RTVSPropertyOp0
 70
     1
102
RTVSPropertyOp1
 70
     1
102
RTVSPropertyOp2
 70
     1
102
RTVSPropertyOp3
 70
     1
102
RTVSPropertyOp4
 70
     1
102
RTVSPropertyOp5
 70
     1
102
RTVSPropertyOp6
 70
     1
102
RTVSPropertyOp7
 70
     1
102
RTVSPropertyOp8
 70
     1
102
RTVSPropertyOp9
 70
     1
102
RTVSPropertyOp10
 70
     1
102
RTVSPropertyOp11
 70
     1
102
RTVSPropertyOp12
 70
     1
102
RTVSPropertyOp13
 70
     1
102
RTVSPropertyOp14
 70
     1
102
RTVSPropertyOp15
 70
     1
102
RTVSPropertyOp16
 70
     1
102
RTVSPropertyOp17
 70
     1
102
RTVSPropertyOp18
 70
     1
102
RTVSPropertyOp19
 70
     1
102
RTVSPropertyOp20
 70
     1
102
RTVSPropertyOp21
 70
     1
102
RTVSPropertyOp22
 70
     1
102
RTVSPropertyOp23
 70
     1
102
RTVSPropertyOp24
 70
     1
102
RTVSPropertyOp25
 70
     1
102
RTVSPropertyOp26
 70
     1
102
RTVSPropertyOp27
 70
     1
102
RTVSPropertyOp28
 70
     1
102
RTVSPropertyOp29
 70
     1
102
RTVSPropertyOp30
 70
     1
102
RTVSPropertyOp31
 70
     1
102
RTVSPropertyOp32
 70
     1
102
RTVSPropertyOp33
 70
     1
102
RTVSPropertyOp34
 70
     1
102
RTVSPropertyOp35
 70
     1
102
RTVSPropertyOp36
 70
     1
102
RTVSPropertyOp37
 70
     1
102
RTVSPropertyOp38
 70
     1
102
RTVSPropertyOp39
 70
     1
102
RTVSPropertyOp40
 70
     1
102
RTVSPropertyOp41
 70
     1
102
RTVSPropertyOp42
 70
     1
102
RTVSPropertyOp43
 70
     1
102
RTVSPropertyOp44
 70
     1
102
RTVSPropertyOp45
 70
     1
102
RTVSPropertyOp46
 70
     1
102
RTVSPropertyOp47
 70
     1
102
RTVSPropertyOp48
 70
     1
102
RTVSPropertyOp49
 70
     1
102
RTVSPropertyOp50
 70
     1
102
RTVSPropertyOp51
 70
     0
102
RTVSPropertyOp52
 70
     0
102
RTVSPropertyOp53
 70
     1
102
RTVSPropertyOp54
 70
     1
102
RTVSPropertyOp55
 70
     1
102
RTVSPropertyOp56
 70
     1
102
RTVSPropertyOp57
 70
     1
102
RTVSPost2010Prop28
280
     0
102
RTVSPost2010PropOp28
 70
     1
102
RTVSPost2010Prop29
280
     1
102
RTVSPost2010PropOp29
 70
     1
102
RTVSPost2010Prop30
280
     1
102
RTVSPost2010PropOp30
 70
     1
102
RTVSPost2010Prop31
280
     0
102
RTVSPost2010PropOp31
 70
     1
102
RTVSPost2010Prop32
280
     0
102
RTVSPost2010PropOp32
 70
     1
102
RTVSPost2010Prop33
280
     0
102
RTVSPost2010PropOp33
 70
     1
102
RTVSPost2010Prop34
280
     0
102
RTVSPost2010PropOp34
 70
     1
102
RTVSPost2010Prop35
280
     0
102
RTVSPost2010PropOp35
 70
     1
102
RTVSPost2010Prop36
280
     0
102
RTVSPost2010PropOp36
 70
     1
102
RTVSPost2010Prop37
 90
       50
102
RTVSPost2010PropOp37
 70
     1
102
RTVSPost2010Prop38
140
0.0
102
RTVSPost2010PropOp38
 70
     1
102
RTVSPost2010Prop39
140
1.0
102
RTVSPost2010PropOp39
 70
     1
102
RTVSPost2010Prop40
 90
        0
102
RTVSPost2010PropOp40
 70
     1
102
RTVSPost2010Prop41ColorIndex
 90
       18
102
RTVSPost2010Prop41ColorRGB
 90
        0
102
RTVSPost2010PropOp41
 70
     1
102
RTVSPost2010Prop42
 90
       50
102
RTVSPost2010PropOp42
 70
     1
102
RTVSPost2010Prop43
 90
        3
102
RTVSPost2010PropOp43
 70
     1
102
RTVSPost2010Prop44ColorIndex
 90
        5
102
RTVSPost2010Prop44ColorRGB
 90
      255
102
RTVSPost2010PropOp44
 70
     1
102
RTVSPost2010Prop45
280
     0
102
RTVSPost2010PropOp45
 70
     1
102
RTVSPost2010Prop46
 90
       50
102
RTVSPost2010PropOp46
 70
     1
102
RTVSPost2010Prop47
 90
       50
102
RTVSPost2010PropOp47
 70
     1
102
RTVSPost2010Prop48
 90
       50
102
RTVSPost2010PropOp48
 70
     1
102
RTVSPost2010Prop49
280
     0
102
RTVSPost2010PropOp49
 70
     1
102
RTVSPost2010Prop50
 90
       50
102
RTVSPost2010PropOp50
 70
     1
102
RTVSPost2010Prop51ColorIndex
 90
      256
102
RTVSPost2010Prop51ColorRGB
 90
-16777216
102
RTVSPost2010PropOp51
 70
     0
102
RTVSPost2010Prop52
140
1.0
102
RTVSPost2010PropOp52
 70
     0
102
RTVSPost2010Prop53
 90
        2
102
RTVSPost2010PropOp53
 70
     1
102
RTVSPost2010Prop54
  1
strokes_ogs.tif
102
RTVSPost2010PropOp54
 70
     1
102
RTVSPost2010Prop55
280
     0
102
RTVSPost2010PropOp55
 70
     1
102
RTVSPost2010Prop56
140
1.0
102
RTVSPost2010PropOp56
 70
     1
102
RTVSPost2010Prop57
140
1.0
102
RTVSPost2010PropOp57
 70
     1
  0
XRECORD
  5
1000228
102
{ACAD_REACTORS
330
1000227
102
}
330
1000227
100
AcDbXrecord
280
     1
102
RTVSPropertyOp0
 70
     1
102
RTVSPropertyOp1
 70
     1
102
RTVSPropertyOp2
 70
     1
102
RTVSPropertyOp3
 70
     1
102
RTVSPropertyOp4
 70
     1
102
RTVSPropertyOp5
 70
     1
102
RTVSPropertyOp6
 70
     1
102
RTVSPropertyOp7
 70
     1
102
RTVSPropertyOp8
 70
     1
102
RTVSPropertyOp9
 70
     1
102
RTVSPropertyOp10
 70
     1
102
RTVSPropertyOp11
 70
     1
102
RTVSPropertyOp12
 70
     1
102
RTVSPropertyOp13
 70
     1
102
RTVSPropertyOp14
 70
     1
102
RTVSPropertyOp15
 70
     1
102
RTVSPropertyOp16
 70
     1
102
RTVSPropertyOp17
 70
     1
102
RTVSPropertyOp18
 70
     1
102
RTVSPropertyOp19
 70
     1
102
RTVSPropertyOp20
 70
     1
102
RTVSPropertyOp21
 70
     1
102
RTVSPropertyOp22
 70
     1
102
RTVSPropertyOp23
 70
     1
102
RTVSPropertyOp24
 70
     1
102
RTVSPropertyOp25
 70
     1
102
RTVSPropertyOp26
 70
     1
102
RTVSPropertyOp27
 70
     1
102
RTVSPropertyOp28
 70
     1
102
RTVSPropertyOp29
 70
     1
102
RTVSPropertyOp30
 70
     1
102
RTVSPropertyOp31
 70
     1
102
RTVSPropertyOp32
 70
     1
102
RTVSPropertyOp33
 70
     1
102
RTVSPropertyOp34
 70
     1
102
RTVSPropertyOp35
 70
     1
102
RTVSPropertyOp36
 70
     1
102
RTVSPropertyOp37
 70
     1
102
RTVSPropertyOp38
 70
     1
102
RTVSPropertyOp39
 70
     1
102
RTVSPropertyOp40
 70
     1
102
RTVSPropertyOp41
 70
     1
102
RTVSPropertyOp42
 70
     1
102
RTVSPropertyOp43
 70
     1
102
RTVSPropertyOp44
 70
     1
102
RTVSPropertyOp45
 70
     1
102
RTVSPropertyOp46
 70
     1
102
RTVSPropertyOp47
 70
     1
102
RTVSPropertyOp48
 70
     1
102
RTVSPropertyOp49
 70
     1
102
RTVSPropertyOp50
 70
     1
102
RTVSPropertyOp51
 70
     0
102
RTVSPropertyOp52
 70
     0
102
RTVSPropertyOp53
 70
     1
102
RTVSPropertyOp54
 70
     1
102
RTVSPropertyOp55
 70
     1
102
RTVSPropertyOp56
 70
     1
102
RTVSPropertyOp57
 70
     1
102
RTVSPost2010Prop28
280
     0
102
RTVSPost2010PropOp28
 70
     1
102
RTVSPost2010Prop29
280
     1
102
RTVSPost2010PropOp29
 70
     1
102
RTVSPost2010Prop30
280
     1
102
RTVSPost2010PropOp30
 70
     1
102
RTVSPost2010Prop31
280
     0
102
RTVSPost2010PropOp31
 70
     1
102
RTVSPost2010Prop32
280
     0
102
RTVSPost2010PropOp32
 70
     1
102
RTVSPost2010Prop33
280
     0
102
RTVSPost2010PropOp33
 70
     1
102
RTVSPost2010Prop34
280
     0
102
RTVSPost2010PropOp34
 70
     1
102
RTVSPost2010Prop35
280
     0
102
RTVSPost2010PropOp35
 70
     1
102
RTVSPost2010Prop36
280
     0
102
RTVSPost2010PropOp36
 70
     1
102
RTVSPost2010Prop37
 90
       50
102
RTVSPost2010PropOp37
 70
     1
102
RTVSPost2010Prop38
140
0.0
102
RTVSPost2010PropOp38
 70
     1
102
RTVSPost2010Prop39
140
1.0
102
RTVSPost2010PropOp39
 70
     1
102
RTVSPost2010Prop40
 90
        0
102
RTVSPost2010PropOp40
 70
     1
102
RTVSPost2010Prop41ColorIndex
 90
       18
102
RTVSPost2010Prop41ColorRGB
 90
        0
102
RTVSPost2010PropOp41
 70
     1
102
RTVSPost2010Prop42
 90
       50
102
RTVSPost2010PropOp42
 70
     1
102
RTVSPost2010Prop43
 90
        3
102
RTVSPost2010PropOp43
 70
     1
102
RTVSPost2010Prop44ColorIndex
 90
        5
102
RTVSPost2010Prop44ColorRGB
 90
      255
102
RTVSPost2010PropOp44
 70
     1
102
RTVSPost2010Prop45
280
     0
102
RTVSPost2010PropOp45
 70
     1
102
RTVSPost2010Prop46
 90
       50
102
RTVSPost2010PropOp46
 70
     1
102
RTVSPost2010Prop47
 90
       50
102
RTVSPost2010PropOp47
 70
     1
102
RTVSPost2010Prop48
 90
       50
102
RTVSPost2010PropOp48
 70
     1
102
RTVSPost2010Prop49
280
     0
102
RTVSPost2010PropOp49
 70
     1
102
RTVSPost2010Prop50
 90
       50
102
RTVSPost2010PropOp50
 70
     1
102
RTVSPost2010Prop51ColorIndex
 90
      256
102
RTVSPost2010Prop51ColorRGB
 90
-16777216
102
RTVSPost2010PropOp51
 70
     0
102
RTVSPost2010Prop52
140
1.0
102
RTVSPost2010PropOp52
 70
     0
102
RTVSPost2010Prop53
 90
        2
102
RTVSPost2010PropOp53
 70
     1
102
RTVSPost2010Prop54
  1
strokes_ogs.tif
102
RTVSPost2010PropOp54
 70
     1
102
RTVSPost2010Prop55
280
     0
102
RTVSPost2010PropOp55
 70
     1
102
RTVSPost2010Prop56
140
1.0
102
RTVSPost2010PropOp56
 70
     1
102
RTVSPost2010Prop57
140
1.0
102
RTVSPost2010PropOp57
 70
     1
  0
XRECORD
  5
100022A
102
{ACAD_REACTORS
330
1000229
102
}
330
1000229
100
AcDbXrecord
280
     1
102
RTVSPropertyOp0
 70
     1
102
RTVSPropertyOp1
 70
     1
102
RTVSPropertyOp2
 70
     1
102
RTVSPropertyOp3
 70
     1
102
RTVSPropertyOp4
 70
     1
102
RTVSPropertyOp5
 70
     1
102
RTVSPropertyOp6
 70
     1
102
RTVSPropertyOp7
 70
     1
102
RTVSPropertyOp8
 70
     1
102
RTVSPropertyOp9
 70
     1
102
RTVSPropertyOp10
 70
     1
102
RTVSPropertyOp11
 70
     1
102
RTVSPropertyOp12
 70
     1
102
RTVSPropertyOp13
 70
     1
102
RTVSPropertyOp14
 70
     1
102
RTVSPropertyOp15
 70
     1
102
RTVSPropertyOp16
 70
     1
102
RTVSPropertyOp17
 70
     1
102
RTVSPropertyOp18
 70
     1
102
RTVSPropertyOp19
 70
     1
102
RTVSPropertyOp20
 70
     1
102
RTVSPropertyOp21
 70
     1
102
RTVSPropertyOp22
 70
     1
102
RTVSPropertyOp23
 70
     1
102
RTVSPropertyOp24
 70
     1
102
RTVSPropertyOp25
 70
     1
102
RTVSPropertyOp26
 70
     1
102
RTVSPropertyOp27
 70
     1
102
RTVSPropertyOp28
 70
     1
102
RTVSPropertyOp29
 70
     1
102
RTVSPropertyOp30
 70
     1
102
RTVSPropertyOp31
 70
     1
102
RTVSPropertyOp32
 70
     1
102
RTVSPropertyOp33
 70
     1
102
RTVSPropertyOp34
 70
     1
102
RTVSPropertyOp35
 70
     1
102
RTVSPropertyOp36
 70
     1
102
RTVSPropertyOp37
 70
     1
102
RTVSPropertyOp38
 70
     1
102
RTVSPropertyOp39
 70
     1
102
RTVSPropertyOp40
 70
     1
102
RTVSPropertyOp41
 70
     1
102
RTVSPropertyOp42
 70
     1
102
RTVSPropertyOp43
 70
     1
102
RTVSPropertyOp44
 70
     1
102
RTVSPropertyOp45
 70
     1
102
RTVSPropertyOp46
 70
     1
102
RTVSPropertyOp47
 70
     1
102
RTVSPropertyOp48
 70
     1
102
RTVSPropertyOp49
 70
     1
102
RTVSPropertyOp50
 70
     1
102
RTVSPropertyOp51
 70
     0
102
RTVSPropertyOp52
 70
     0
102
RTVSPropertyOp53
 70
     1
102
RTVSPropertyOp54
 70
     1
102
RTVSPropertyOp55
 70
     1
102
RTVSPropertyOp56
 70
     1
102
RTVSPropertyOp57
 70
     1
102
RTVSPost2010Prop28
280
     0
102
RTVSPost2010PropOp28
 70
     1
102
RTVSPost2010Prop29
280
     1
102
RTVSPost2010PropOp29
 70
     1
102
RTVSPost2010Prop30
280
     1
102
RTVSPost2010PropOp30
 70
     1
102
RTVSPost2010Prop31
280
     0
102
RTVSPost2010PropOp31
 70
     1
102
RTVSPost2010Prop32
280
     0
102
RTVSPost2010PropOp32
 70
     1
102
RTVSPost2010Prop33
280
     0
102
RTVSPost2010PropOp33
 70
     1
102
RTVSPost2010Prop34
280
     0
102
RTVSPost2010PropOp34
 70
     1
102
RTVSPost2010Prop35
280
     0
102
RTVSPost2010PropOp35
 70
     1
102
RTVSPost2010Prop36
280
     0
102
RTVSPost2010PropOp36
 70
     1
102
RTVSPost2010Prop37
 90
       50
102
RTVSPost2010PropOp37
 70
     1
102
RTVSPost2010Prop38
140
0.0
102
RTVSPost2010PropOp38
 70
     1
102
RTVSPost2010Prop39
140
1.0
102
RTVSPost2010PropOp39
 70
     1
102
RTVSPost2010Prop40
 90
        0
102
RTVSPost2010PropOp40
 70
     1
102
RTVSPost2010Prop41ColorIndex
 90
       18
102
RTVSPost2010Prop41ColorRGB
 90
        0
102
RTVSPost2010PropOp41
 70
     1
102
RTVSPost2010Prop42
 90
       50
102
RTVSPost2010PropOp42
 70
     1
102
RTVSPost2010Prop43
 90
        3
102
RTVSPost2010PropOp43
 70
     1
102
RTVSPost2010Prop44ColorIndex
 90
        5
102
RTVSPost2010Prop44ColorRGB
 90
      255
102
RTVSPost2010PropOp44
 70
     1
102
RTVSPost2010Prop45
280
     0
102
RTVSPost2010PropOp45
 70
     1
102
RTVSPost2010Prop46
 90
       50
102
RTVSPost2010PropOp46
 70
     1
102
RTVSPost2010Prop47
 90
       50
102
RTVSPost2010PropOp47
 70
     1
102
RTVSPost2010Prop48
 90
       50
102
RTVSPost2010PropOp48
 70
     1
102
RTVSPost2010Prop49
280
     0
102
RTVSPost2010PropOp49
 70
     1
102
RTVSPost2010Prop50
 90
       50
102
RTVSPost2010PropOp50
 70
     1
102
RTVSPost2010Prop51ColorIndex
 90
      256
102
RTVSPost2010Prop51ColorRGB
 90
-16777216
102
RTVSPost2010PropOp51
 70
     0
102
RTVSPost2010Prop52
140
1.0
102
RTVSPost2010PropOp52
 70
     0
102
RTVSPost2010Prop53
 90
        2
102
RTVSPost2010PropOp53
 70
     1
102
RTVSPost2010Prop54
  1
strokes_ogs.tif
102
RTVSPost2010PropOp54
 70
     1
102
RTVSPost2010Prop55
280
     0
102
RTVSPost2010PropOp55
 70
     1
102
RTVSPost2010Prop56
140
1.0
102
RTVSPost2010PropOp56
 70
     1
102
RTVSPost2010Prop57
140
1.0
102
RTVSPost2010PropOp57
 70
     1
  0
XRECORD
  5
100022C
102
{ACAD_REACTORS
330
100022B
102
}
330
100022B
100
AcDbXrecord
280
     1
102
RTVSPropertyOp0
 70
     1
102
RTVSPropertyOp1
 70
     1
102
RTVSPropertyOp2
 70
     1
102
RTVSPropertyOp3
 70
     1
102
RTVSPropertyOp4
 70
     1
102
RTVSPropertyOp5
 70
     1
102
RTVSPropertyOp6
 70
     1
102
RTVSPropertyOp7
 70
     1
102
RTVSPropertyOp8
 70
     1
102
RTVSPropertyOp9
 70
     1
102
RTVSPropertyOp10
 70
     1
102
RTVSPropertyOp11
 70
     1
102
RTVSPropertyOp12
 70
     1
102
RTVSPropertyOp13
 70
     1
102
RTVSPropertyOp14
 70
     1
102
RTVSPropertyOp15
 70
     1
102
RTVSPropertyOp16
 70
     1
102
RTVSPropertyOp17
 70
     1
102
RTVSPropertyOp18
 70
     1
102
RTVSPropertyOp19
 70
     1
102
RTVSPropertyOp20
 70
     1
102
RTVSPropertyOp21
 70
     1
102
RTVSPropertyOp22
 70
     1
102
RTVSPropertyOp23
 70
     1
102
RTVSPropertyOp24
 70
     1
102
RTVSPropertyOp25
 70
     1
102
RTVSPropertyOp26
 70
     1
102
RTVSPropertyOp27
 70
     1
102
RTVSPropertyOp28
 70
     1
102
RTVSPropertyOp29
 70
     1
102
RTVSPropertyOp30
 70
     1
102
RTVSPropertyOp31
 70
     1
102
RTVSPropertyOp32
 70
     1
102
RTVSPropertyOp33
 70
     1
102
RTVSPropertyOp34
 70
     1
102
RTVSPropertyOp35
 70
     1
102
RTVSPropertyOp36
 70
     1
102
RTVSPropertyOp37
 70
     1
102
RTVSPropertyOp38
 70
     1
102
RTVSPropertyOp39
 70
     1
102
RTVSPropertyOp40
 70
     1
102
RTVSPropertyOp41
 70
     1
102
RTVSPropertyOp42
 70
     1
102
RTVSPropertyOp43
 70
     1
102
RTVSPropertyOp44
 70
     1
102
RTVSPropertyOp45
 70
     1
102
RTVSPropertyOp46
 70
     1
102
RTVSPropertyOp47
 70
     1
102
RTVSPropertyOp48
 70
     1
102
RTVSPropertyOp49
 70
     1
102
RTVSPropertyOp50
 70
     1
102
RTVSPropertyOp51
 70
     0
102
RTVSPropertyOp52
 70
     0
102
RTVSPropertyOp53
 70
     1
102
RTVSPropertyOp54
 70
     1
102
RTVSPropertyOp55
 70
     1
102
RTVSPropertyOp56
 70
     1
102
RTVSPropertyOp57
 70
     1
102
RTVSPost2010Prop28
280
     0
102
RTVSPost2010PropOp28
 70
     1
102
RTVSPost2010Prop29
280
     1
102
RTVSPost2010PropOp29
 70
     1
102
RTVSPost2010Prop30
280
     1
102
RTVSPost2010PropOp30
 70
     1
102
RTVSPost2010Prop31
280
     0
102
RTVSPost2010PropOp31
 70
     1
102
RTVSPost2010Prop32
280
     0
102
RTVSPost2010PropOp32
 70
     1
102
RTVSPost2010Prop33
280
     0
102
RTVSPost2010PropOp33
 70
     1
102
RTVSPost2010Prop34
280
     0
102
RTVSPost2010PropOp34
 70
     1
102
RTVSPost2010Prop35
280
     0
102
RTVSPost2010PropOp35
 70
     1
102
RTVSPost2010Prop36
280
     0
102
RTVSPost2010PropOp36
 70
     1
102
RTVSPost2010Prop37
 90
       50
102
RTVSPost2010PropOp37
 70
     1
102
RTVSPost2010Prop38
140
0.0
102
RTVSPost2010PropOp38
 70
     1
102
RTVSPost2010Prop39
140
1.0
102
RTVSPost2010PropOp39
 70
     1
102
RTVSPost2010Prop40
 90
        0
102
RTVSPost2010PropOp40
 70
     1
102
RTVSPost2010Prop41ColorIndex
 90
       18
102
RTVSPost2010Prop41ColorRGB
 90
        0
102
RTVSPost2010PropOp41
 70
     1
102
RTVSPost2010Prop42
 90
       50
102
RTVSPost2010PropOp42
 70
     1
102
RTVSPost2010Prop43
 90
        3
102
RTVSPost2010PropOp43
 70
     1
102
RTVSPost2010Prop44ColorIndex
 90
        5
102
RTVSPost2010Prop44ColorRGB
 90
      255
102
RTVSPost2010PropOp44
 70
     1
102
RTVSPost2010Prop45
280
     0
102
RTVSPost2010PropOp45
 70
     1
102
RTVSPost2010Prop46
 90
       50
102
RTVSPost2010PropOp46
 70
     1
102
RTVSPost2010Prop47
 90
       50
102
RTVSPost2010PropOp47
 70
     1
102
RTVSPost2010Prop48
 90
       50
102
RTVSPost2010PropOp48
 70
     1
102
RTVSPost2010Prop49
280
     0
102
RTVSPost2010PropOp49
 70
     1
102
RTVSPost2010Prop50
 90
       50
102
RTVSPost2010PropOp50
 70
     1
102
RTVSPost2010Prop51ColorIndex
 90
      256
102
RTVSPost2010Prop51ColorRGB
 90
-16777216
102
RTVSPost2010PropOp51
 70
     0
102
RTVSPost2010Prop52
140
1.0
102
RTVSPost2010PropOp52
 70
     0
102
RTVSPost2010Prop53
 90
        2
102
RTVSPost2010PropOp53
 70
     1
102
RTVSPost2010Prop54
  1
strokes_ogs.tif
102
RTVSPost2010PropOp54
 70
     1
102
RTVSPost2010Prop55
280
     0
102
RTVSPost2010PropOp55
 70
     1
102
RTVSPost2010Prop56
140
1.0
102
RTVSPost2010PropOp56
 70
     1
102
RTVSPost2010Prop57
140
1.0
102
RTVSPost2010PropOp57
 70
     1
  0
XRECORD
  5
100022E
102
{ACAD_REACTORS
330
100022D
102
}
330
100022D
100
AcDbXrecord
280
     1
102
RTVSPropertyOp0
 70
     1
102
RTVSPropertyOp1
 70
     1
102
RTVSPropertyOp2
 70
     1
102
RTVSPropertyOp3
 70
     1
102
RTVSPropertyOp4
 70
     1
102
RTVSPropertyOp5
 70
     1
102
RTVSPropertyOp6
 70
     1
102
RTVSPropertyOp7
 70
     1
102
RTVSPropertyOp8
 70
     1
102
RTVSPropertyOp9
 70
     1
102
RTVSPropertyOp10
 70
     1
102
RTVSPropertyOp11
 70
     1
102
RTVSPropertyOp12
 70
     1
102
RTVSPropertyOp13
 70
     1
102
RTVSPropertyOp14
 70
     1
102
RTVSPropertyOp15
 70
     1
102
RTVSPropertyOp16
 70
     1
102
RTVSPropertyOp17
 70
     1
102
RTVSPropertyOp18
 70
     1
102
RTVSPropertyOp19
 70
     1
102
RTVSPropertyOp20
 70
     1
102
RTVSPropertyOp21
 70
     1
102
RTVSPropertyOp22
 70
     1
102
RTVSPropertyOp23
 70
     1
102
RTVSPropertyOp24
 70
     1
102
RTVSPropertyOp25
 70
     1
102
RTVSPropertyOp26
 70
     1
102
RTVSPropertyOp27
 70
     1
102
RTVSPropertyOp28
 70
     1
102
RTVSPropertyOp29
 70
     1
102
RTVSPropertyOp30
 70
     1
102
RTVSPropertyOp31
 70
     1
102
RTVSPropertyOp32
 70
     1
102
RTVSPropertyOp33
 70
     1
102
RTVSPropertyOp34
 70
     1
102
RTVSPropertyOp35
 70
     1
102
RTVSPropertyOp36
 70
     1
102
RTVSPropertyOp37
 70
     1
102
RTVSPropertyOp38
 70
     1
102
RTVSPropertyOp39
 70
     1
102
RTVSPropertyOp40
 70
     1
102
RTVSPropertyOp41
 70
     1
102
RTVSPropertyOp42
 70
     1
102
RTVSPropertyOp43
 70
     1
102
RTVSPropertyOp44
 70
     1
102
RTVSPropertyOp45
 70
     1
102
RTVSPropertyOp46
 70
     1
102
RTVSPropertyOp47
 70
     1
102
RTVSPropertyOp48
 70
     1
102
RTVSPropertyOp49
 70
     1
102
RTVSPropertyOp50
 70
     1
102
RTVSPropertyOp51
 70
     0
102
RTVSPropertyOp52
 70
     0
102
RTVSPropertyOp53
 70
     1
102
RTVSPropertyOp54
 70
     1
102
RTVSPropertyOp55
 70
     1
102
RTVSPropertyOp56
 70
     1
102
RTVSPropertyOp57
 70
     1
102
RTVSPost2010Prop28
280
     0
102
RTVSPost2010PropOp28
 70
     1
102
RTVSPost2010Prop29
280
     1
102
RTVSPost2010PropOp29
 70
     1
102
RTVSPost2010Prop30
280
     1
102
RTVSPost2010PropOp30
 70
     1
102
RTVSPost2010Prop31
280
     0
102
RTVSPost2010PropOp31
 70
     1
102
RTVSPost2010Prop32
280
     0
102
RTVSPost2010PropOp32
 70
     1
102
RTVSPost2010Prop33
280
     0
102
RTVSPost2010PropOp33
 70
     1
102
RTVSPost2010Prop34
280
     0
102
RTVSPost2010PropOp34
 70
     1
102
RTVSPost2010Prop35
280
     0
102
RTVSPost2010PropOp35
 70
     1
102
RTVSPost2010Prop36
280
     0
102
RTVSPost2010PropOp36
 70
     1
102
RTVSPost2010Prop37
 90
       50
102
RTVSPost2010PropOp37
 70
     1
102
RTVSPost2010Prop38
140
0.0
102
RTVSPost2010PropOp38
 70
     1
102
RTVSPost2010Prop39
140
1.0
102
RTVSPost2010PropOp39
 70
     1
102
RTVSPost2010Prop40
 90
        0
102
RTVSPost2010PropOp40
 70
     1
102
RTVSPost2010Prop41ColorIndex
 90
       18
102
RTVSPost2010Prop41ColorRGB
 90
        0
102
RTVSPost2010PropOp41
 70
     1
102
RTVSPost2010Prop42
 90
       50
102
RTVSPost2010PropOp42
 70
     1
102
RTVSPost2010Prop43
 90
        3
102
RTVSPost2010PropOp43
 70
     1
102
RTVSPost2010Prop44ColorIndex
 90
        5
102
RTVSPost2010Prop44ColorRGB
 90
      255
102
RTVSPost2010PropOp44
 70
     1
102
RTVSPost2010Prop45
280
     0
102
RTVSPost2010PropOp45
 70
     1
102
RTVSPost2010Prop46
 90
       50
102
RTVSPost2010PropOp46
 70
     1
102
RTVSPost2010Prop47
 90
       50
102
RTVSPost2010PropOp47
 70
     1
102
RTVSPost2010Prop48
 90
       50
102
RTVSPost2010PropOp48
 70
     1
102
RTVSPost2010Prop49
280
     0
102
RTVSPost2010PropOp49
 70
     1
102
RTVSPost2010Prop50
 90
       50
102
RTVSPost2010PropOp50
 70
     1
102
RTVSPost2010Prop51ColorIndex
 90
      256
102
RTVSPost2010Prop51ColorRGB
 90
-16777216
102
RTVSPost2010PropOp51
 70
     0
102
RTVSPost2010Prop52
140
1.0
102
RTVSPost2010PropOp52
 70
     0
102
RTVSPost2010Prop53
 90
        2
102
RTVSPost2010PropOp53
 70
     1
102
RTVSPost2010Prop54
  1
strokes_ogs.tif
102
RTVSPost2010PropOp54
 70
     1
102
RTVSPost2010Prop55
280
     0
102
RTVSPost2010PropOp55
 70
     1
102
RTVSPost2010Prop56
140
1.0
102
RTVSPost2010PropOp56
 70
     1
102
RTVSPost2010Prop57
140
1.0
102
RTVSPost2010PropOp57
 70
     1
  0
XRECORD
  5
1000230
102
{ACAD_REACTORS
330
100022F
102
}
330
100022F
100
AcDbXrecord
280
     1
102
RTVSPropertyOp0
 70
     1
102
RTVSPropertyOp1
 70
     1
102
RTVSPropertyOp2
 70
     1
102
RTVSPropertyOp3
 70
     1
102
RTVSPropertyOp4
 70
     1
102
RTVSPropertyOp5
 70
     1
102
RTVSPropertyOp6
 70
     1
102
RTVSPropertyOp7
 70
     1
102
RTVSPropertyOp8
 70
     1
102
RTVSPropertyOp9
 70
     1
102
RTVSPropertyOp10
 70
     1
102
RTVSPropertyOp11
 70
     1
102
RTVSPropertyOp12
 70
     1
102
RTVSPropertyOp13
 70
     1
102
RTVSPropertyOp14
 70
     1
102
RTVSPropertyOp15
 70
     1
102
RTVSPropertyOp16
 70
     1
102
RTVSPropertyOp17
 70
     1
102
RTVSPropertyOp18
 70
     1
102
RTVSPropertyOp19
 70
     1
102
RTVSPropertyOp20
 70
     1
102
RTVSPropertyOp21
 70
     1
102
RTVSPropertyOp22
 70
     1
102
RTVSPropertyOp23
 70
     1
102
RTVSPropertyOp24
 70
     1
102
RTVSPropertyOp25
 70
     1
102
RTVSPropertyOp26
 70
     1
102
RTVSPropertyOp27
 70
     1
102
RTVSPropertyOp28
 70
     1
102
RTVSPropertyOp29
 70
     1
102
RTVSPropertyOp30
 70
     1
102
RTVSPropertyOp31
 70
     1
102
RTVSPropertyOp32
 70
     1
102
RTVSPropertyOp33
 70
     1
102
RTVSPropertyOp34
 70
     1
102
RTVSPropertyOp35
 70
     1
102
RTVSPropertyOp36
 70
     1
102
RTVSPropertyOp37
 70
     1
102
RTVSPropertyOp38
 70
     1
102
RTVSPropertyOp39
 70
     1
102
RTVSPropertyOp40
 70
     1
102
RTVSPropertyOp41
 70
     1
102
RTVSPropertyOp42
 70
     1
102
RTVSPropertyOp43
 70
     1
102
RTVSPropertyOp44
 70
     1
102
RTVSPropertyOp45
 70
     1
102
RTVSPropertyOp46
 70
     1
102
RTVSPropertyOp47
 70
     1
102
RTVSPropertyOp48
 70
     1
102
RTVSPropertyOp49
 70
     1
102
RTVSPropertyOp50
 70
     1
102
RTVSPropertyOp51
 70
     0
102
RTVSPropertyOp52
 70
     0
102
RTVSPropertyOp53
 70
     1
102
RTVSPropertyOp54
 70
     1
102
RTVSPropertyOp55
 70
     1
102
RTVSPropertyOp56
 70
     1
102
RTVSPropertyOp57
 70
     1
102
RTVSPost2010Prop28
280
     0
102
RTVSPost2010PropOp28
 70
     1
102
RTVSPost2010Prop29
280
     1
102
RTVSPost2010PropOp29
 70
     1
102
RTVSPost2010Prop30
280
     1
102
RTVSPost2010PropOp30
 70
     1
102
RTVSPost2010Prop31
280
     0
102
RTVSPost2010PropOp31
 70
     1
102
RTVSPost2010Prop32
280
     0
102
RTVSPost2010PropOp32
 70
     1
102
RTVSPost2010Prop33
280
     0
102
RTVSPost2010PropOp33
 70
     1
102
RTVSPost2010Prop34
280
     0
102
RTVSPost2010PropOp34
 70
     1
102
RTVSPost2010Prop35
280
     0
102
RTVSPost2010PropOp35
 70
     1
102
RTVSPost2010Prop36
280
     0
102
RTVSPost2010PropOp36
 70
     1
102
RTVSPost2010Prop37
 90
       50
102
RTVSPost2010PropOp37
 70
     1
102
RTVSPost2010Prop38
140
0.0
102
RTVSPost2010PropOp38
 70
     1
102
RTVSPost2010Prop39
140
1.0
102
RTVSPost2010PropOp39
 70
     1
102
RTVSPost2010Prop40
 90
        0
102
RTVSPost2010PropOp40
 70
     1
102
RTVSPost2010Prop41ColorIndex
 90
       18
102
RTVSPost2010Prop41ColorRGB
 90
        0
102
RTVSPost2010PropOp41
 70
     1
102
RTVSPost2010Prop42
 90
       50
102
RTVSPost2010PropOp42
 70
     1
102
RTVSPost2010Prop43
 90
        3
102
RTVSPost2010PropOp43
 70
     1
102
RTVSPost2010Prop44ColorIndex
 90
        5
102
RTVSPost2010Prop44ColorRGB
 90
      255
102
RTVSPost2010PropOp44
 70
     1
102
RTVSPost2010Prop45
280
     0
102
RTVSPost2010PropOp45
 70
     1
102
RTVSPost2010Prop46
 90
       50
102
RTVSPost2010PropOp46
 70
     1
102
RTVSPost2010Prop47
 90
       50
102
RTVSPost2010PropOp47
 70
     1
102
RTVSPost2010Prop48
 90
       50
102
RTVSPost2010PropOp48
 70
     1
102
RTVSPost2010Prop49
280
     0
102
RTVSPost2010PropOp49
 70
     1
102
RTVSPost2010Prop50
 90
       50
102
RTVSPost2010PropOp50
 70
     1
102
RTVSPost2010Prop51ColorIndex
 90
      256
102
RTVSPost2010Prop51ColorRGB
 90
-16777216
102
RTVSPost2010PropOp51
 70
     0
102
RTVSPost2010Prop52
140
1.0
102
RTVSPost2010PropOp52
 70
     0
102
RTVSPost2010Prop53
 90
        2
102
RTVSPost2010PropOp53
 70
     1
102
RTVSPost2010Prop54
  1
strokes_ogs.tif
102
RTVSPost2010PropOp54
 70
     1
102
RTVSPost2010Prop55
280
     0
102
RTVSPost2010PropOp55
 70
     1
102
RTVSPost2010Prop56
140
1.0
102
RTVSPost2010PropOp56
 70
     1
102
RTVSPost2010Prop57
140
1.0
102
RTVSPost2010PropOp57
 70
     1
  0
ENDSEC
  0
EOF
