  0
SECTION
  2
HEADER
  9
$ACADVER
  1
AC1018
  9
$HANDSEED
  5
FFFFFF
  9
$EXTMAX
 10
7570494.0
 20
5715574.0700000003
 30
1000000.00
  9
$EXTMIN
 10
7570399.66000000015
 20
5715458.79000000004
 30
0.00
  9
$LIMMIN
 10
7570399.66000000015
 20
5715458.79000000004
  9
$LIMMAX
 10
7570494.0
 20
5715574.0700000003
  9
$DIMASZ
 40
2.5
  9
$DIMGAP
 40
0.625
  9
$INSUNITS
 70
6
  9
$DIMEXO
 40
0.625
  9
$DIMTXT
 40
2.5
  9
$DIMSTYLE
  2
Standard
  9
$PLIMMIN
 10
0.0
 20
0.0
  9
$PLIMMAX
 10
210.0
 20
297.0
  9
$DIMEXE
 40
1.25
  9
$TEXTSIZE
 40
2.5
  9
$TEXTSTYLE
  7
Standard
  9
$LWDISPLAY
290
1
  9
$TDCREATE
 40
44478.364531921
  9
$TDUCREATE
 40
44478.281198588
  9
$TDUPDATE
 40
44478.364531921
  9
$TDUUPDATE
 40
44478.281198588
  9
$TDINDWG
 40
0.0
  9
$TDUSRTIMER
 40
0.0
  9
$USRTIMER
 70
1
  0
ENDSEC
  0
SECTION
  2
TABLES
  0
TABLE
  2
VPORT
  5
1
100
AcDbSymbolTable
 70
1
  0
VPORT
  5
2
100
AcDbSymbolTableRecord
100
AcDbViewportTableRecord
  2
*ACTIVE
 70
0
 10
0.0
 20
0.0
 11
1.0
 21
1.0
 12
7570446.83
 22
5715516.43
 13
0.0
 23
0.0
 14
1.0
 24
1.0
 15
0.0
 25
0.0
 16
0.0
 26
0.0
 36
1.0
 17
0.0
 27
0.0
 37
0.0
 40
115.28
 41
0.82
 42
50.0
 43
0.0
 44
0.0
 50
0.0
 51
0.0
 71
0
 72
100
 73
1
 74
1
 75
0
 76
0
 77
0
 78
0
  0
ENDTAB
  0
TABLE
  2
LTYPE
  5
3
100
AcDbSymbolTable
 70
3
  0
LTYPE
  5
4
100
AcDbSymbolTableRecord
100
AcDbLinetypeTableRecord
  2
ByBlock
 70
0
  3

 72
65
 73
0
 40
0.0
  0
LTYPE
  5
5
100
AcDbSymbolTableRecord
100
AcDbLinetypeTableRecord
  2
ByLayer
 70
0
  3

 72
65
 73
0
 40
0.0
  0
LTYPE
  5
6
100
AcDbSymbolTableRecord
100
AcDbLinetypeTableRecord
  2
CONTINUOUS
 70
0
  3
Solid line
 72
65
 73
0
 40
0.0
  0
LTYPE
  5
8
100
AcDbSymbolTableRecord
100
AcDbLinetypeTableRecord
  2
L_0_02
 70
0
  3
Dzialka_ewidencyjna (MLineStyle)
 72
65
 73
0
 40
0.0
  0
LTYPE
  5
9
100
AcDbSymbolTableRecord
100
AcDbLinetypeTableRecord
  2
L_0_03
 70
0
  3
Uzytek_gruntowy
 72
65
 73
2
 40
1.0
 49
0.5
 74
0
 49
-0.5
 74
0
  0
LTYPE
  5
A
100
AcDbSymbolTableRecord
100
AcDbLinetypeTableRecord
  2
L_0_04
 70
0
  3
Budynek_projektowany
 72
65
 73
2
 40
1.5
 49
1.0
 74
0
 49
-0.5
 74
0
  0
LTYPE
  5
B
100
AcDbSymbolTableRecord
100
AcDbLinetypeTableRecord
  2
L_0_06
 70
0
  3
Granica_konturu_klasyfikacyjnego_Krawedz_chodnika
 72
65
 73
2
 40
2.0
 49
1.5
 74
0
 49
-0.5
 74
0
  0
LTYPE
  5
C
100
AcDbSymbolTableRecord
100
AcDbLinetypeTableRecord
  2
L_0_9C_SHX
 70
0
  3
Wyciag_narciarski_1_500
 72
65
 73
6
 40
2.0
 49
0.0
 74
0
 49
-0.25
 74
0
 49
-0.5
 74
4
 75
1
340
D
 46
0.05
 50
0.0
 44
0.0
 45
0.0
 49
-0.5
 74
4
 75
2
340
D
 46
0.05
 50
0.0
 44
0.0
 45
0.0
 49
-0.5
 74
0
 49
-0.25
 74
0
  0
LTYPE
  5
F
100
AcDbSymbolTableRecord
100
AcDbLinetypeTableRecord
  2
L_0_9C
 70
0
  3
Wyciag_narciarski_1_500 (MLineStyle)
 72
65
 73
0
 40
0.0
  0
ENDTAB
  0
TABLE
  2
LAYER
  5
10
100
AcDbSymbolTable
 70
4
  0
LAYER
  5
11
100
AcDbSymbolTableRecord
100
AcDbLayerTableRecord
  2
0
 70
0
420
0
  6
CONTINUOUS
370
18
390
12
  0
LAYER
  5
13
100
AcDbSymbolTableRecord
100
AcDbLayerTableRecord
  2
Dzialki
 70
0
420
0
  6
L_0_02
370
18
390
12
  0
LAYER
  5
14
100
AcDbSymbolTableRecord
100
AcDbLayerTableRecord
  2
EGBB_L_1
 70
0
420
0
  6
CONTINUOUS
370
50
390
12
  0
LAYER
  5
15
100
AcDbSymbolTableRecord
100
AcDbLayerTableRecord
  2
Numery_dzialek
 70
0
420
0
  6
CONTINUOUS
370
18
390
12
  0
ENDTAB
  0
TABLE
  2
STYLE
  5
16
100
AcDbSymbolTable
 70
3
  0
STYLE
  5
17
100
AcDbSymbolTableRecord
100
AcDbTextStyleTableRecord
  2
STANDARD
 70
0
 40
0.0
 41
1.0
 50
0.0
 71
0
  3
simplex.shx
  4

  0
STYLE
  5
18
100
AcDbSymbolTableRecord
100
AcDbTextStyleTableRecord
  2
STANDARD_ITALIC
 70
0
 40
0.0
 41
1.0
 50
15.0
 71
0
  3
simplex.shx
  4

  0
STYLE
  5
D
100
AcDbSymbolTableRecord
100
AcDbTextStyleTableRecord
  2

 70
1
 40
0.0
 41
0.050
 50
0.0
 71
0
  3
dzialka+bud_828.shx
  4

  0
ENDTAB
  0
TABLE
  2
VIEW
  5
19
100
AcDbSymbolTable
 70
0
  0
ENDTAB
  0
TABLE
  2
UCS
  5
1A
100
AcDbSymbolTable
 70
0
  0
ENDTAB
  0
TABLE
  2
APPID
  5
1B
100
AcDbSymbolTable
 70
1
  0
APPID
  5
1C
100
AcDbSymbolTableRecord
100
AcDbRegAppTableRecord
  2
ACAD
 70
0
  0
ENDTAB
  0
TABLE
  2
DIMSTYLE
  5
1D
100
AcDbSymbolTable
 70
1
100
AcDbDimStyleTable
  0
DIMSTYLE
105
1E
100
AcDbSymbolTableRecord
100
AcDbDimStyleTableRecord
  2
Standard
 70
0
340
17
  0
ENDTAB
  0
TABLE
  2
BLOCK_RECORD
  5
1F
100
AcDbSymbolTable
 70
21
  0
BLOCK_RECORD
  5
20
100
AcDbSymbolTableRecord
100
AcDbBlockTableRecord
  2
*Model_Space
340
21
  0
BLOCK_RECORD
  5
22
100
AcDbSymbolTableRecord
100
AcDbBlockTableRecord
  2
*Paper_Space
340
23
  0
BLOCK_RECORD
  5
24
100
AcDbSymbolTableRecord
100
AcDbBlockTableRecord
  2
GRT
340
25
  0
BLOCK_RECORD
  5
26
100
AcDbSymbolTableRecord
100
AcDbBlockTableRecord
  2
GRO
340
27
  0
BLOCK_RECORD
  5
28
100
AcDbSymbolTableRecord
100
AcDbBlockTableRecord
  2
BGB
340
29
  0
BLOCK_RECORD
  5
2A
100
AcDbSymbolTableRecord
100
AcDbBlockTableRecord
  2
BUJ
340
2B
  0
BLOCK_RECORD
  5
2C
100
AcDbSymbolTableRecord
100
AcDbBlockTableRecord
  2
DIG
340
2D
  0
BLOCK_RECORD
  5
2E
100
AcDbSymbolTableRecord
100
AcDbBlockTableRecord
  2
DLI
340
2F
  0
BLOCK_RECORD
  5
30
100
AcDbSymbolTableRecord
100
AcDbBlockTableRecord
  2
OSM
340
31
  0
BLOCK_RECORD
  5
32
100
AcDbSymbolTableRecord
100
AcDbBlockTableRecord
  2
SUUS13
340
33
  0
BLOCK_RECORD
  5
34
100
AcDbSymbolTableRecord
100
AcDbBlockTableRecord
  2
SUUS22_01
340
35
  0
BLOCK_RECORD
  5
36
100
AcDbSymbolTableRecord
100
AcDbBlockTableRecord
  2
RTPW02
340
37
  0
BLOCK_RECORD
  5
38
100
AcDbSymbolTableRecord
100
AcDbBlockTableRecord
  2
SUUS31_01
340
39
  0
BLOCK_RECORD
  5
3A
100
AcDbSymbolTableRecord
100
AcDbBlockTableRecord
  2
SUPS01_03
340
3B
  0
BLOCK_RECORD
  5
3C
100
AcDbSymbolTableRecord
100
AcDbBlockTableRecord
  2
SUPS01_04
340
3D
  0
BLOCK_RECORD
  5
3E
100
AcDbSymbolTableRecord
100
AcDbBlockTableRecord
  2
SUPS01_07
340
3F
  0
BLOCK_RECORD
  5
40
100
AcDbSymbolTableRecord
100
AcDbBlockTableRecord
  2
SUPS01_08
340
41
  0
BLOCK_RECORD
  5
42
100
AcDbSymbolTableRecord
100
AcDbBlockTableRecord
  2
SUSM04_01
340
43
  0
BLOCK_RECORD
  5
44
100
AcDbSymbolTableRecord
100
AcDbBlockTableRecord
  2
pikieta
340
45
  0
BLOCK_RECORD
  5
46
100
AcDbSymbolTableRecord
100
AcDbBlockTableRecord
  2
L_0_02_1
340
47
  0
BLOCK_RECORD
  5
48
100
AcDbSymbolTableRecord
100
AcDbBlockTableRecord
  2
L_0_02_2
340
49
  0
ENDTAB
  0
ENDSEC
  0
SECTION
  2
BLOCKS
  0
BLOCK
  5
4A
100
AcDbEntity
  8
0
100
AcDbBlockBegin
  2
*Model_Space
 70
0
 10
0.0
 20
0.0
 30
0.0
  3
*Model_Space
  1

  0
ENDBLK
  5
4B
100
AcDbEntity
  8
0
100
AcDbBlockEnd
  0
BLOCK
  5
4C
100
AcDbEntity
 67
1
  8
0
100
AcDbBlockBegin
  2
*Paper_Space
 70
0
 10
0.0
 20
0.0
 30
0.0
  3
*Paper_Space
  1

  0
ENDBLK
  5
4D
100
AcDbEntity
 67
1
  8
0
100
AcDbBlockEnd
  0
BLOCK
  5
25
100
AcDbEntity
  8
0
100
AcDbBlockBegin
 62
0
370
13
  2
GRT
 70
0
 10
0
 20
0
 30
0
  3
GRT
  0
HATCH
  5
4E
100
AcDbEntity
  8
0
  6
CONTINUOUS
420
16777215
370
18
100
AcDbHatch
 10
0.0
 20
0.0
 30
0.0
210
0.0
220
0.0
230
1.0
  2
SOLID
 70
1
 71
1
 91
1
 92
3
 72
1
 73
1
 93
2
 10
0.0
 20
-0.5
 42
1.0
 10
0.0
 20
0.5
 42
1.0
 97
0
 75
0
 76
1
 98
0
  0
CIRCLE
  5
4F
100
AcDbEntity
  8
0
  6
CONTINUOUS
 62
0
370
18
100
AcDbCircle
 10
0.0
 20
-0.0
 40
0.5
  0
ENDBLK
  5
50
100
AcDbEntity
  8
0
100
AcDbBlockEnd
  0
BLOCK
  5
27
100
AcDbEntity
  8
0
100
AcDbBlockBegin
 62
0
370
13
  2
GRO
 70
0
 10
0
 20
0
 30
0
  3
GRO
  0
HATCH
  5
51
100
AcDbEntity
  8
0
  6
CONTINUOUS
 62
0
370
13
100
AcDbHatch
 10
0.0
 20
0.0
 30
0.0
210
0.0
220
0.0
230
1.0
  2
SOLID
 70
1
 71
1
 91
1
 92
3
 72
1
 73
1
 93
2
 10
0.0
 20
-0.1
 42
1.0
 10
0.0
 20
0.1
 42
1.0
 97
0
 75
0
 76
1
 98
0
  0
CIRCLE
  5
52
100
AcDbEntity
  8
0
  6
CONTINUOUS
 62
0
370
13
100
AcDbCircle
 10
0.0
 20
-0.0
 40
0.1
  0
ENDBLK
  5
53
100
AcDbEntity
  8
0
100
AcDbBlockEnd
  0
BLOCK
  5
29
100
AcDbEntity
  8
0
100
AcDbBlockBegin
 62
0
370
13
  2
BGB
 70
0
 10
0
 20
0
 30
0
  3
BGB
  0
ARC
  5
54
100
AcDbEntity
  8
0
  6
CONTINUOUS
 62
0
370
35
100
AcDbCircle
 10
3.0000000000
 20
-0.0000000000
 30
0
 40
2.9954579942
100
AcDbArc
 50
119.9816393688
 51
180.0000000000
  0
ARC
  5
55
100
AcDbEntity
  8
0
  6
CONTINUOUS
 62
0
370
35
100
AcDbCircle
 10
-3.0000000000
 20
-0.0000000000
 30
0
 40
2.9954579942
100
AcDbArc
 50
0.0000000000
 51
60.0183606312
  0
ENDBLK
  5
56
100
AcDbEntity
  8
0
100
AcDbBlockEnd
  0
BLOCK
  5
2B
100
AcDbEntity
  8
0
100
AcDbBlockBegin
 62
0
370
13
  2
BUJ
 70
0
 10
0
 20
0
 30
0
  3
BUJ
  0
CIRCLE
  5
57
100
AcDbEntity
  8
0
  6
CONTINUOUS
 62
0
370
18
100
AcDbCircle
 10
0.0
 20
-0.0
 40
0.5
  0
ENDBLK
  5
58
100
AcDbEntity
  8
0
100
AcDbBlockEnd
  0
BLOCK
  5
2D
100
AcDbEntity
  8
0
100
AcDbBlockBegin
 62
0
370
13
  2
DIG
 70
0
 10
0
 20
0
 30
0
  3
DIG
  0
POLYLINE
  5
59
100
AcDbEntity
  8
0
  6
CONTINUOUS
 62
0
370
18
100
AcDb2dPolyline
 66
1
 70
128
  0
VERTEX
  5
5A
100
AcDbEntity
  8
0
100
AcDbVertex
100
AcDb2dVertex
 10
0.0
 20
-1.74
  0
VERTEX
  5
5B
100
AcDbEntity
  8
0
100
AcDbVertex
100
AcDb2dVertex
 10
-0.35
 20
-0.48
  0
VERTEX
  5
5C
100
AcDbEntity
  8
0
100
AcDbVertex
100
AcDb2dVertex
 10
-1.65
 20
-0.54
  0
VERTEX
  5
5D
100
AcDbEntity
  8
0
100
AcDbVertex
100
AcDb2dVertex
 10
-0.57
 20
0.18
  0
VERTEX
  5
5E
100
AcDbEntity
  8
0
100
AcDbVertex
100
AcDb2dVertex
 10
-1.02
 20
1.4
  0
VERTEX
  5
5F
100
AcDbEntity
  8
0
100
AcDbVertex
100
AcDb2dVertex
 10
0.0
 20
0.6
  0
VERTEX
  5
60
100
AcDbEntity
  8
0
100
AcDbVertex
100
AcDb2dVertex
 10
1.02
 20
1.4
  0
VERTEX
  5
61
100
AcDbEntity
  8
0
100
AcDbVertex
100
AcDb2dVertex
 10
0.57
 20
0.18
  0
VERTEX
  5
62
100
AcDbEntity
  8
0
100
AcDbVertex
100
AcDb2dVertex
 10
1.65
 20
-0.54
  0
VERTEX
  5
63
100
AcDbEntity
  8
0
100
AcDbVertex
100
AcDb2dVertex
 10
0.35
 20
-0.48
  0
VERTEX
  5
64
100
AcDbEntity
  8
0
100
AcDbVertex
100
AcDb2dVertex
 10
0.0
 20
-1.74
  0
SEQEND
  5
65
100
AcDbEntity
  8
0
  0
HATCH
  5
66
100
AcDbEntity
  8
0
  6
CONTINUOUS
 62
0
370
18
100
AcDbHatch
 10
0.0
 20
0.0
 30
0.0
210
0.0
220
0.0
230
1.0
  2
SOLID
 70
1
 71
1
 91
1
 92
3
 72
1
 73
1
 93
2
 10
0.0
 20
-0.1
 42
1.0
 10
0.0
 20
0.1
 42
1.0
 97
0
 75
0
 76
1
 98
0
  0
CIRCLE
  5
67
100
AcDbEntity
  8
0
  6
CONTINUOUS
 62
0
370
18
100
AcDbCircle
 10
0.0
 20
-0.0
 40
0.1
  0
ENDBLK
  5
68
100
AcDbEntity
  8
0
100
AcDbBlockEnd
  0
BLOCK
  5
2F
100
AcDbEntity
  8
0
100
AcDbBlockBegin
 62
0
370
13
  2
DLI
 70
0
 10
0
 20
0
 30
0
  3
DLI
  0
ARC
  5
69
100
AcDbEntity
  8
0
  6
CONTINUOUS
 62
0
370
18
100
AcDbCircle
 10
0.0000000000
 20
0.8000000000
 30
0
 40
0.7000000000
100
AcDbArc
 50
29.8459319497
 51
150.1540680503
  0
ARC
  5
6A
100
AcDbEntity
  8
0
  6
CONTINUOUS
 62
0
370
18
100
AcDbCircle
 10
0.7700000000
 20
0.2500000000
 30
0
 40
0.7000000000
100
AcDbArc
 50
317.3373058591
 51
78.3663660011
  0
ARC
  5
6B
100
AcDbEntity
  8
0
  6
CONTINUOUS
 62
0
370
18
100
AcDbCircle
 10
0.4600000000
 20
-0.6400000000
 30
0
 40
0.7100000000
100
AcDbArc
 50
247.4427533653
 51
5.6306827576
  0
ARC
  5
6C
100
AcDbEntity
  8
0
  6
CONTINUOUS
 62
0
370
18
100
AcDbCircle
 10
-0.4600000000
 20
-0.6400000000
 30
0
 40
0.7100000000
100
AcDbArc
 50
174.3693172424
 51
292.5572466347
  0
ARC
  5
6D
100
AcDbEntity
  8
0
  6
CONTINUOUS
 62
0
370
18
100
AcDbCircle
 10
-0.7700000000
 20
0.2500000000
 30
0
 40
0.7000000000
100
AcDbArc
 50
101.6336339989
 51
222.6626941409
  0
HATCH
  5
6E
100
AcDbEntity
  8
0
  6
CONTINUOUS
 62
0
370
18
100
AcDbHatch
 10
0.0
 20
0.0
 30
0.0
210
0.0
220
0.0
230
1.0
  2
SOLID
 70
1
 71
1
 91
1
 92
3
 72
1
 73
1
 93
2
 10
0.0
 20
-0.1
 42
1.0
 10
0.0
 20
0.1
 42
1.0
 97
0
 75
0
 76
1
 98
0
  0
CIRCLE
  5
6F
100
AcDbEntity
  8
0
  6
CONTINUOUS
 62
0
370
18
100
AcDbCircle
 10
0.0
 20
-0.0
 40
0.1
  0
ENDBLK
  5
70
100
AcDbEntity
  8
0
100
AcDbBlockEnd
  0
BLOCK
  5
31
100
AcDbEntity
  8
0
100
AcDbBlockBegin
 62
0
370
13
  2
OSM
 70
0
 10
0
 20
0
 30
0
  3
OSM
  0
HATCH
  5
71
100
AcDbEntity
  8
0
  6
CONTINUOUS
420
16777215
370
18
100
AcDbHatch
 10
0.0
 20
0.0
 30
0.0
210
0.0
220
0.0
230
1.0
  2
SOLID
 70
1
 71
1
 91
1
 92
3
 72
1
 73
1
 93
2
 10
0.0
 20
-0.8
 42
1.0
 10
0.0
 20
0.8
 42
1.0
 97
0
 75
0
 76
1
 98
0
  0
CIRCLE
  5
72
100
AcDbEntity
  8
0
  6
CONTINUOUS
 62
0
370
18
100
AcDbCircle
 10
0.0
 20
-0.0
 40
0.8
  0
POLYLINE
  5
73
100
AcDbEntity
  8
0
  6
CONTINUOUS
 62
0
370
18
100
AcDb2dPolyline
 66
1
 70
128
  0
VERTEX
  5
74
100
AcDbEntity
  8
0
100
AcDbVertex
100
AcDb2dVertex
 10
0.0
 20
0.8
  0
VERTEX
  5
75
100
AcDbEntity
  8
0
100
AcDbVertex
100
AcDb2dVertex
 10
0.0
 20
1.8
  0
SEQEND
  5
76
100
AcDbEntity
  8
0
  0
ENDBLK
  5
77
100
AcDbEntity
  8
0
100
AcDbBlockEnd
  0
BLOCK
  5
33
100
AcDbEntity
  8
0
100
AcDbBlockBegin
 62
0
370
13
  2
SUUS13
 70
0
 10
0
 20
0
 30
0
  3
SUUS13
  0
HATCH
  5
78
100
AcDbEntity
  8
0
  6
CONTINUOUS
420
16777215
370
18
100
AcDbHatch
 10
0.0
 20
0.0
 30
0.0
210
0.0
220
0.0
230
1.0
  2
SOLID
 70
1
 71
1
 91
1
 92
3
 72
1
 73
1
 93
2
 10
0.0
 20
-1.5
 42
1.0
 10
0.0
 20
1.5
 42
1.0
 97
0
 75
0
 76
1
 98
0
  0
CIRCLE
  5
79
100
AcDbEntity
  8
0
  6
CONTINUOUS
 62
0
370
18
100
AcDbCircle
 10
0.0
 20
-0.0
 40
1.5
  0
CIRCLE
  5
7A
100
AcDbEntity
  8
0
  6
CONTINUOUS
 62
0
370
18
100
AcDbCircle
 10
0.0
 20
-0.0
 40
0.5
  0
ENDBLK
  5
7B
100
AcDbEntity
  8
0
100
AcDbBlockEnd
  0
BLOCK
  5
35
100
AcDbEntity
  8
0
100
AcDbBlockBegin
 62
0
370
13
  2
SUUS22_01
 70
0
 10
0
 20
0
 30
0
  3
SUUS22_01
  0
CIRCLE
  5
7C
100
AcDbEntity
  8
0
  6
CONTINUOUS
 62
0
370
13
100
AcDbCircle
 10
0.0
 20
-0.0
 40
0.5
  0
ENDBLK
  5
7D
100
AcDbEntity
  8
0
100
AcDbBlockEnd
  0
BLOCK
  5
37
100
AcDbEntity
  8
0
100
AcDbBlockBegin
 62
0
370
13
  2
RTPW02
 70
0
 10
0
 20
0
 30
0
  3
RTPW02
  0
HATCH
  5
7E
100
AcDbEntity
  8
0
  6
CONTINUOUS
 62
0
370
13
100
AcDbHatch
 10
0.0
 20
0.0
 30
0.0
210
0.0
220
0.0
230
1.0
  2
SOLID
 70
1
 71
1
 91
1
 92
3
 72
1
 73
1
 93
2
 10
0.0
 20
-0.090553851381
 42
1.0
 10
0.0
 20
0.090553851381
 42
1.0
 97
0
 75
0
 76
1
 98
0
  0
CIRCLE
  5
7F
100
AcDbEntity
  8
0
  6
CONTINUOUS
 62
0
370
13
100
AcDbCircle
 10
0.0
 20
-0.0
 40
0.090553851381
  0
ENDBLK
  5
80
100
AcDbEntity
  8
0
100
AcDbBlockEnd
  0
BLOCK
  5
39
100
AcDbEntity
  8
0
100
AcDbBlockBegin
 62
0
370
13
  2
SUUS31_01
 70
0
 10
0
 20
0
 30
0
  3
SUUS31_01
  0
HATCH
  5
81
100
AcDbEntity
  8
0
  6
CONTINUOUS
 62
0
370
13
100
AcDbHatch
 10
0.0
 20
0.0
 30
0.0
210
0.0
220
0.0
230
1.0
  2
SOLID
 70
1
 71
1
 91
1
 92
3
 72
1
 73
1
 93
2
 10
0.0
 20
-0.500099990002
 42
1.0
 10
0.0
 20
0.500099990002
 42
1.0
 97
0
 75
0
 76
1
 98
0
  0
CIRCLE
  5
82
100
AcDbEntity
  8
0
  6
CONTINUOUS
 62
0
370
13
100
AcDbCircle
 10
0.0
 20
-0.0
 40
0.500099990002
  0
ENDBLK
  5
83
100
AcDbEntity
  8
0
100
AcDbBlockEnd
  0
BLOCK
  5
3B
100
AcDbEntity
  8
0
100
AcDbBlockBegin
 62
0
370
13
  2
SUPS01_03
 70
0
 10
0
 20
0
 30
0
  3
SUPS01_03
  0
HATCH
  5
84
100
AcDbEntity
  8
0
  6
CONTINUOUS
 62
0
370
13
100
AcDbHatch
 10
0.0
 20
0.0
 30
0.0
210
0.0
220
0.0
230
1.0
  2
SOLID
 70
1
 71
1
 91
1
 92
3
 72
1
 73
1
 93
2
 10
0.0
 20
-0.090553851381
 42
1.0
 10
0.0
 20
0.090553851381
 42
1.0
 97
0
 75
0
 76
1
 98
0
  0
CIRCLE
  5
85
100
AcDbEntity
  8
0
  6
CONTINUOUS
 62
0
370
13
100
AcDbCircle
 10
0.0
 20
-0.0
 40
0.090553851381
  0
ENDBLK
  5
86
100
AcDbEntity
  8
0
100
AcDbBlockEnd
  0
BLOCK
  5
3D
100
AcDbEntity
  8
0
100
AcDbBlockBegin
 62
0
370
13
  2
SUPS01_04
 70
0
 10
0
 20
0
 30
0
  3
SUPS01_04
  0
HATCH
  5
87
100
AcDbEntity
  8
0
  6
CONTINUOUS
 62
0
370
13
100
AcDbHatch
 10
0.0
 20
0.0
 30
0.0
210
0.0
220
0.0
230
1.0
  2
SOLID
 70
1
 71
1
 91
1
 92
3
 72
1
 73
1
 93
2
 10
0.0
 20
-0.090553851381
 42
1.0
 10
0.0
 20
0.090553851381
 42
1.0
 97
0
 75
0
 76
1
 98
0
  0
CIRCLE
  5
88
100
AcDbEntity
  8
0
  6
CONTINUOUS
 62
0
370
13
100
AcDbCircle
 10
0.0
 20
-0.0
 40
0.090553851381
  0
ENDBLK
  5
89
100
AcDbEntity
  8
0
100
AcDbBlockEnd
  0
BLOCK
  5
3F
100
AcDbEntity
  8
0
100
AcDbBlockBegin
 62
0
370
13
  2
SUPS01_07
 70
0
 10
0
 20
0
 30
0
  3
SUPS01_07
  0
HATCH
  5
8A
100
AcDbEntity
  8
0
  6
CONTINUOUS
 62
0
370
13
100
AcDbHatch
 10
0.0
 20
0.0
 30
0.0
210
0.0
220
0.0
230
1.0
  2
SOLID
 70
1
 71
1
 91
1
 92
3
 72
1
 73
1
 93
2
 10
0.0
 20
-0.090553851381
 42
1.0
 10
0.0
 20
0.090553851381
 42
1.0
 97
0
 75
0
 76
1
 98
0
  0
CIRCLE
  5
8B
100
AcDbEntity
  8
0
  6
CONTINUOUS
 62
0
370
13
100
AcDbCircle
 10
0.0
 20
-0.0
 40
0.090553851381
  0
ENDBLK
  5
8C
100
AcDbEntity
  8
0
100
AcDbBlockEnd
  0
BLOCK
  5
41
100
AcDbEntity
  8
0
100
AcDbBlockBegin
 62
0
370
13
  2
SUPS01_08
 70
0
 10
0
 20
0
 30
0
  3
SUPS01_08
  0
HATCH
  5
8D
100
AcDbEntity
  8
0
  6
CONTINUOUS
 62
0
370
13
100
AcDbHatch
 10
0.0
 20
0.0
 30
0.0
210
0.0
220
0.0
230
1.0
  2
SOLID
 70
1
 71
1
 91
1
 92
3
 72
1
 73
1
 93
2
 10
0.0
 20
-0.090553851381
 42
1.0
 10
0.0
 20
0.090553851381
 42
1.0
 97
0
 75
0
 76
1
 98
0
  0
CIRCLE
  5
8E
100
AcDbEntity
  8
0
  6
CONTINUOUS
 62
0
370
13
100
AcDbCircle
 10
0.0
 20
-0.0
 40
0.090553851381
  0
ENDBLK
  5
8F
100
AcDbEntity
  8
0
100
AcDbBlockEnd
  0
BLOCK
  5
43
100
AcDbEntity
  8
0
100
AcDbBlockBegin
 62
0
370
13
  2
SUSM04_01
 70
0
 10
0
 20
0
 30
0
  3
SUSM04_01
  0
HATCH
  5
90
100
AcDbEntity
  8
0
  6
CONTINUOUS
420
16777215
370
18
100
AcDbHatch
 10
0.0
 20
0.0
 30
0.0
210
0.0
220
0.0
230
1.0
  2
SOLID
 70
1
 71
1
 91
1
 92
3
 72
1
 73
1
 93
2
 10
0.0
 20
-0.5
 42
1.0
 10
0.0
 20
0.5
 42
1.0
 97
0
 75
0
 76
1
 98
0
  0
CIRCLE
  5
91
100
AcDbEntity
  8
0
  6
CONTINUOUS
 62
0
370
18
100
AcDbCircle
 10
0.0
 20
-0.0
 40
0.5
  0
ENDBLK
  5
92
100
AcDbEntity
  8
0
100
AcDbBlockEnd
  0
BLOCK
  5
45
100
AcDbEntity
  8
0
100
AcDbBlockBegin
 62
0
370
13
  2
pikieta
 70
0
 10
0
 20
0
 30
0
  3
pikieta
  0
POINT
  5
93
100
AcDbEntity
  8
0
100
AcDbPoint
 62
0
 10
0.0
 20
0.0
 30
0.00
  0
ENDBLK
  5
94
100
AcDbEntity
  8
0
100
AcDbBlockEnd
  0
BLOCK
  5
47
100
AcDbEntity
  8
0
100
AcDbBlockBegin
 62
0
370
13
  2
L_0_02_1
 70
0
 10
0
 20
0
 30
0
  3
L_0_02_1
  0
POINT
  5
95
100
AcDbEntity
  8
0
100
AcDbPoint
 62
0
 10
0.0
 20
0.0
 30
0.00
  0
ENDBLK
  5
96
100
AcDbEntity
  8
0
100
AcDbBlockEnd
  0
BLOCK
  5
49
100
AcDbEntity
  8
0
100
AcDbBlockBegin
 62
0
370
13
  2
L_0_02_2
 70
0
 10
0
 20
0
 30
0
  3
L_0_02_2
  0
POINT
  5
97
100
AcDbEntity
  8
0
100
AcDbPoint
 62
0
 10
-0.0
 20
-0.0
 30
0.00
  0
ENDBLK
  5
98
100
AcDbEntity
  8
0
100
AcDbBlockEnd
  0
ENDSEC
  0
SECTION
  2
ENTITIES
  0
INSERT
  5
99
100
AcDbEntity
  8
Dzialki
  6
CONTINUOUS
100
AcDbBlockReference
 66
0
  2
L_0_02_1
 10
7570418.75637637544
 20
5715574.06866915524
 41
0.50
 42
0.50
 43
0.50
 50
268.27
  0
INSERT
  5
9A
100
AcDbEntity
  8
Dzialki
  6
CONTINUOUS
100
AcDbBlockReference
 66
0
  2
pikieta
 10
7570418.29318818822
 20
5715558.75933457725
 41
0.50
 42
0.50
 43
0.50
 50
268.27
  0
INSERT
  5
9B
100
AcDbEntity
  8
Dzialki
  6
CONTINUOUS
100
AcDbBlockReference
 66
0
  2
L_0_02_2
 10
7570417.83000000007
 20
5715543.45000000019
 41
0.50
 42
0.50
 43
0.50
 50
88.27
  0
MLINE
  5
9C
100
AcDbEntity
  8
Dzialki
  6
L_0_02
370
18
100
AcDbMline
  2
L_0_02
340
7
 40
1.0
 70
1
 71
1
 72
2
 73
1
 10
7570418.75637637544
 20
5715574.06866915524
210
0.0
220
0.0
230
1.0
 11
7570418.75637637544
 21
5715574.06866915524
 12
-0.03024144085
 22
-0.999542623031
 13
0.999542623031
 23
-0.03024144085
 74
3
 41
0.0
 41
0.25
 41
30.382679837316
 75
0
 11
7570417.83000000007
 21
5715543.45000000019
 12
-0.03024144085
 22
-0.999542623031
 13
0.999542623031
 23
-0.03024144085
 74
0
 75
0
  0
INSERT
  5
9D
100
AcDbEntity
  8
Dzialki
  6
CONTINUOUS
100
AcDbBlockReference
 66
0
  2
L_0_02_1
 10
7570417.83000000007
 20
5715543.45000000019
 30
0.00
 41
0.50
 42
0.50
 43
0.50
 50
358.79
  0
INSERT
  5
9E
100
AcDbEntity
  8
Dzialki
  6
CONTINUOUS
100
AcDbBlockReference
 66
0
  2
pikieta
 10
7570425.17499999981
 20
5715543.29499999993
 30
0.00
 41
0.50
 42
0.50
 43
0.50
 50
358.79
  0
INSERT
  5
9F
100
AcDbEntity
  8
Dzialki
  6
CONTINUOUS
100
AcDbBlockReference
 66
0
  2
L_0_02_2
 10
7570432.51999999955
 20
5715543.13999999966
 30
0.00
 41
0.50
 42
0.50
 43
0.50
 50
178.79
  0
MLINE
  5
A0
100
AcDbEntity
  8
Dzialki
  6
L_0_02
370
18
100
AcDbMline
  2
L_0_02
340
7
 40
1.0
 70
1
 71
1
 72
2
 73
1
 10
7570417.83000000007
 20
5715543.45000000019
210
0.0
220
0.0
230
1.0
 11
7570417.83000000007
 21
5715543.45000000019
 12
0.999777410446
 22
-0.02109809379
 13
0.02109809379
 23
0.999777410446
 74
3
 41
0.0
 41
0.25
 41
14.443270568019
 75
0
 11
7570432.51999999955
 21
5715543.13999999966
 12
0.999777410446
 22
-0.02109809379
 13
0.02109809379
 23
0.999777410446
 74
0
 75
0
  0
INSERT
  5
A1
100
AcDbEntity
  8
Dzialki
  6
CONTINUOUS
100
AcDbBlockReference
 66
0
  2
L_0_02_1
 10
7570432.51999999955
 20
5715543.13999999966
 30
0.00
 41
0.50
 42
0.50
 43
0.50
 50
89.18
  0
INSERT
  5
A2
100
AcDbEntity
  8
Dzialki
  6
CONTINUOUS
100
AcDbBlockReference
 66
0
  2
pikieta
 10
7570432.73832630459
 20
5715558.34457342699
 30
0.00
 41
0.50
 42
0.50
 43
0.50
 50
89.18
  0
INSERT
  5
A3
100
AcDbEntity
  8
Dzialki
  6
CONTINUOUS
100
AcDbBlockReference
 66
0
  2
L_0_02_2
 10
7570432.95665260963
 20
5715573.54914685432
 30
0.00
 41
0.50
 42
0.50
 43
0.50
 50
269.18
  0
MLINE
  5
A4
100
AcDbEntity
  8
Dzialki
  6
L_0_02
370
18
100
AcDbMline
  2
L_0_02
340
7
 40
1.0
 70
1
 71
1
 72
2
 73
1
 10
7570432.51999999955
 20
5715543.13999999966
210
0.0
220
0.0
230
1.0
 11
7570432.51999999955
 21
5715543.13999999966
 12
0.014357772115
 22
0.999896921877
 13
-0.999896921877
 23
0.014357772115
 74
3
 41
0.0
 41
0.25
 41
30.162281695555
 75
0
 11
7570432.95665260963
 21
5715573.54914685432
 12
0.014357772115
 22
0.999896921877
 13
-0.999896921877
 23
0.014357772115
 74
0
 75
0
  0
INSERT
  5
A5
100
AcDbEntity
  8
Dzialki
  6
CONTINUOUS
100
AcDbBlockReference
 66
0
  2
L_0_02_1
 10
7570432.51999999955
 20
5715543.13999999966
 30
0.00
 41
0.50
 42
0.50
 43
0.50
 50
357.16
  0
INSERT
  5
A6
100
AcDbEntity
  8
Dzialki
  6
CONTINUOUS
100
AcDbBlockReference
 66
0
  2
pikieta
 10
7570441.40499999933
 20
5715542.69999999925
 30
0.00
 41
0.50
 42
0.50
 43
0.50
 50
357.16
  0
INSERT
  5
A7
100
AcDbEntity
  8
Dzialki
  6
CONTINUOUS
100
AcDbBlockReference
 66
0
  2
L_0_02_2
 10
7570450.29000000004
 20
5715542.25999999978
 30
0.00
 41
0.50
 42
0.50
 43
0.50
 50
177.16
  0
MLINE
  5
A8
100
AcDbEntity
  8
Dzialki
  6
L_0_02
370
18
100
AcDbMline
  2
L_0_02
340
7
 40
1.0
 70
1
 71
1
 72
2
 73
1
 10
7570432.51999999955
 20
5715543.13999999966
210
0.0
220
0.0
230
1.0
 11
7570432.51999999955
 21
5715543.13999999966
 12
0.998776053054
 22
-0.04946105383
 13
0.04946105383
 23
0.998776053054
 74
3
 41
0.0
 41
0.25
 41
17.541776190617
 75
0
 11
7570450.29000000004
 21
5715542.25999999978
 12
0.998776053054
 22
-0.04946105383
 13
0.04946105383
 23
0.998776053054
 74
0
 75
0
  0
INSERT
  5
A9
100
AcDbEntity
  8
Dzialki
  6
CONTINUOUS
100
AcDbBlockReference
 66
0
  2
L_0_02_1
 10
7570450.29000000004
 20
5715542.25999999978
 30
0.00
 41
0.50
 42
0.50
 43
0.50
 50
88.82
  0
INSERT
  5
AA
100
AcDbEntity
  8
Dzialki
  6
CONTINUOUS
100
AcDbBlockReference
 66
0
  2
pikieta
 10
7570450.43999999948
 20
5715549.5700000003
 30
0.00
 41
0.50
 42
0.50
 43
0.50
 50
88.82
  0
INSERT
  5
AB
100
AcDbEntity
  8
Dzialki
  6
CONTINUOUS
100
AcDbBlockReference
 66
0
  2
L_0_02_2
 10
7570450.58999999985
 20
5715556.87999999989
 30
0.00
 41
0.50
 42
0.50
 43
0.50
 50
268.82
  0
MLINE
  5
AC
100
AcDbEntity
  8
Dzialki
  6
L_0_02
370
18
100
AcDbMline
  2
L_0_02
340
7
 40
1.0
 70
1
 71
1
 72
2
 73
1
 10
7570450.29000000004
 20
5715542.25999999978
210
0.0
220
0.0
230
1.0
 11
7570450.29000000004
 21
5715542.25999999978
 12
0.020515517114
 22
0.999789534631
 13
-0.999789534631
 23
0.020515517114
 74
3
 41
0.0
 41
0.25
 41
14.373077651546
 75
0
 11
7570450.58999999985
 21
5715556.87999999989
 12
0.020515517114
 22
0.999789534631
 13
-0.999789534631
 23
0.020515517114
 74
0
 75
0
  0
INSERT
  5
AD
100
AcDbEntity
  8
Dzialki
  6
CONTINUOUS
100
AcDbBlockReference
 66
0
  2
L_0_02_1
 10
7570450.58999999985
 20
5715556.87999999989
 30
0.00
 41
0.50
 42
0.50
 43
0.50
 50
92.78
  0
INSERT
  5
AE
100
AcDbEntity
  8
Dzialki
  6
CONTINUOUS
100
AcDbBlockReference
 66
0
  2
pikieta
 10
7570450.20032918081
 20
5715564.90626844391
 30
0.00
 41
0.50
 42
0.50
 43
0.50
 50
92.78
  0
INSERT
  5
AF
100
AcDbEntity
  8
Dzialki
  6
CONTINUOUS
100
AcDbBlockReference
 66
0
  2
L_0_02_2
 10
7570449.81065836269
 20
5715572.93253688794
 30
0.00
 41
0.50
 42
0.50
 43
0.50
 50
272.78
  0
MLINE
  5
B0
100
AcDbEntity
  8
Dzialki
  6
L_0_02
370
18
100
AcDbMline
  2
L_0_02
340
7
 40
1.0
 70
1
 71
1
 72
2
 73
1
 10
7570450.58999999985
 20
5715556.87999999989
210
0.0
220
0.0
230
1.0
 11
7570450.58999999985
 21
5715556.87999999989
 12
-0.048492321823
 22
0.998823555351
 13
-0.998823555351
 23
-0.048492321823
 74
3
 41
0.0
 41
0.25
 41
15.821444052404
 75
0
 11
7570449.81065836269
 21
5715572.93253688794
 12
-0.048492321823
 22
0.998823555351
 13
-0.998823555351
 23
-0.048492321823
 74
0
 75
0
  0
INSERT
  5
B1
100
AcDbEntity
  8
Dzialki
  6
CONTINUOUS
100
AcDbBlockReference
 66
0
  2
L_0_02_1
 10
7570450.29000000004
 20
5715542.25999999978
 30
0.00
 41
0.50
 42
0.50
 43
0.50
 50
27.93
  0
INSERT
  5
B2
100
AcDbEntity
  8
Dzialki
  6
CONTINUOUS
100
AcDbBlockReference
 66
0
  2
pikieta
 10
7570452.76999999955
 20
5715543.57499999925
 30
0.00
 41
0.50
 42
0.50
 43
0.50
 50
27.93
  0
INSERT
  5
B3
100
AcDbEntity
  8
Dzialki
  6
CONTINUOUS
100
AcDbBlockReference
 66
0
  2
L_0_02_2
 10
7570455.25
 20
5715544.88999999966
 30
0.00
 41
0.50
 42
0.50
 43
0.50
 50
207.93
  0
MLINE
  5
B4
100
AcDbEntity
  8
Dzialki
  6
L_0_02
370
18
100
AcDbMline
  2
L_0_02
340
7
 40
1.0
 70
1
 71
1
 72
2
 73
1
 10
7570450.29000000004
 20
5715542.25999999978
210
0.0
220
0.0
230
1.0
 11
7570450.29000000004
 21
5715542.25999999978
 12
0.883484442104
 22
0.468460500534
 13
-0.468460500534
 23
0.883484442104
 74
3
 41
0.0
 41
0.25
 41
5.364133949154
 75
0
 11
7570455.25
 21
5715544.88999999966
 12
0.883484442104
 22
0.468460500534
 13
-0.468460500534
 23
0.883484442104
 74
0
 75
0
  0
INSERT
  5
B5
100
AcDbEntity
  8
Dzialki
  6
CONTINUOUS
100
AcDbBlockReference
 66
0
  2
L_0_02_1
 10
7570455.25
 20
5715544.88999999966
 30
0.00
 41
0.50
 42
0.50
 43
0.50
 50
57.36
  0
INSERT
  5
B6
100
AcDbEntity
  8
Dzialki
  6
CONTINUOUS
100
AcDbBlockReference
 66
0
  2
pikieta
 10
7570457.20000000019
 20
5715547.93500000052
 30
0.00
 41
0.50
 42
0.50
 43
0.50
 50
57.36
  0
INSERT
  5
B7
100
AcDbEntity
  8
Dzialki
  6
CONTINUOUS
100
AcDbBlockReference
 66
0
  2
L_0_02_2
 10
7570459.15000000037
 20
5715550.98000000045
 30
0.00
 41
0.50
 42
0.50
 43
0.50
 50
237.36
  0
MLINE
  5
B8
100
AcDbEntity
  8
Dzialki
  6
L_0_02
370
18
100
AcDbMline
  2
L_0_02
340
7
 40
1.0
 70
1
 71
1
 72
2
 73
1
 10
7570455.25
 20
5715544.88999999966
210
0.0
220
0.0
230
1.0
 11
7570455.25
 21
5715544.88999999966
 12
0.539289111094
 22
0.842120688889
 13
-0.842120688889
 23
0.539289111094
 74
3
 41
0.0
 41
0.25
 41
6.981742529462
 75
0
 11
7570459.15000000037
 21
5715550.98000000045
 12
0.539289111094
 22
0.842120688889
 13
-0.842120688889
 23
0.539289111094
 74
0
 75
0
  0
INSERT
  5
B9
100
AcDbEntity
  8
Dzialki
  6
CONTINUOUS
100
AcDbBlockReference
 66
0
  2
L_0_02_1
 10
7570459.15000000037
 20
5715550.98000000045
 30
0.00
 41
0.50
 42
0.50
 43
0.50
 50
67.67
  0
INSERT
  5
BA
100
AcDbEntity
  8
Dzialki
  6
CONTINUOUS
100
AcDbBlockReference
 66
0
  2
pikieta
 10
7570459.875
 20
5715552.74500000011
 30
0.00
 41
0.50
 42
0.50
 43
0.50
 50
67.67
  0
INSERT
  5
BB
100
AcDbEntity
  8
Dzialki
  6
CONTINUOUS
100
AcDbBlockReference
 66
0
  2
L_0_02_2
 10
7570460.59999999963
 20
5715554.50999999978
 30
0.00
 41
0.50
 42
0.50
 43
0.50
 50
247.67
  0
MLINE
  5
BC
100
AcDbEntity
  8
Dzialki
  6
L_0_02
370
18
100
AcDbMline
  2
L_0_02
340
7
 40
1.0
 70
1
 71
1
 72
2
 73
1
 10
7570459.15000000037
 20
5715550.98000000045
210
0.0
220
0.0
230
1.0
 11
7570459.15000000037
 21
5715550.98000000045
 12
0.379958892464
 22
0.925003372987
 13
-0.925003372987
 23
0.379958892464
 74
3
 41
0.0
 41
0.25
 41
3.566202299814
 75
0
 11
7570460.59999999963
 21
5715554.50999999978
 12
0.379958892464
 22
0.925003372987
 13
-0.925003372987
 23
0.379958892464
 74
0
 75
0
  0
INSERT
  5
BD
100
AcDbEntity
  8
Dzialki
  6
CONTINUOUS
100
AcDbBlockReference
 66
0
  2
L_0_02_1
 10
7570460.59999999963
 20
5715554.50999999978
 30
0.00
 41
0.50
 42
0.50
 43
0.50
 50
76.30
  0
INSERT
  5
BE
100
AcDbEntity
  8
Dzialki
  6
CONTINUOUS
100
AcDbBlockReference
 66
0
  2
pikieta
 10
7570461.04000000004
 20
5715556.31499999948
 30
0.00
 41
0.50
 42
0.50
 43
0.50
 50
76.30
  0
INSERT
  5
BF
100
AcDbEntity
  8
Dzialki
  6
CONTINUOUS
100
AcDbBlockReference
 66
0
  2
L_0_02_2
 10
7570461.48000000045
 20
5715558.12000000011
 30
0.00
 41
0.50
 42
0.50
 43
0.50
 50
256.30
  0
MLINE
  5
C0
100
AcDbEntity
  8
Dzialki
  6
L_0_02
370
18
100
AcDbMline
  2
L_0_02
340
7
 40
1.0
 70
1
 71
1
 72
2
 73
1
 10
7570460.59999999963
 20
5715554.50999999978
210
0.0
220
0.0
230
1.0
 11
7570460.59999999963
 21
5715554.50999999978
 12
0.236832267944
 22
0.97155055291
 13
-0.97155055291
 23
0.236832267944
 74
3
 41
0.0
 41
0.25
 41
3.465709892317
 75
0
 11
7570461.48000000045
 21
5715558.12000000011
 12
0.236832267944
 22
0.97155055291
 13
-0.97155055291
 23
0.236832267944
 74
0
 75
0
  0
INSERT
  5
C1
100
AcDbEntity
  8
Dzialki
  6
CONTINUOUS
100
AcDbBlockReference
 66
0
  2
L_0_02_1
 10
7570461.48000000045
 20
5715558.12000000011
 30
0.00
 41
0.50
 42
0.50
 43
0.50
 50
85.73
  0
INSERT
  5
C2
100
AcDbEntity
  8
Dzialki
  6
CONTINUOUS
100
AcDbBlockReference
 66
0
  2
pikieta
 10
7570462.01506605465
 20
5715565.29322928935
 30
0.00
 41
0.50
 42
0.50
 43
0.50
 50
85.73
  0
INSERT
  5
C3
100
AcDbEntity
  8
Dzialki
  6
CONTINUOUS
100
AcDbBlockReference
 66
0
  2
L_0_02_2
 10
7570462.55013210885
 20
5715572.46645857953
 30
0.00
 41
0.50
 42
0.50
 43
0.50
 50
265.73
  0
MLINE
  5
C4
100
AcDbEntity
  8
Dzialki
  6
L_0_02
370
18
100
AcDbMline
  2
L_0_02
340
7
 40
1.0
 70
1
 71
1
 72
2
 73
1
 10
7570461.48000000045
 20
5715558.12000000011
210
0.0
220
0.0
230
1.0
 11
7570461.48000000045
 21
5715558.12000000011
 12
0.074385422229
 22
0.99722956683
 13
-0.99722956683
 23
0.074385422229
 74
3
 41
0.0
 41
0.25
 41
14.136314903417
 75
0
 11
7570462.55013210885
 21
5715572.46645857953
 12
0.074385422229
 22
0.99722956683
 13
-0.99722956683
 23
0.074385422229
 74
0
 75
0
  0
INSERT
  5
C5
100
AcDbEntity
  8
Dzialki
  6
CONTINUOUS
100
AcDbBlockReference
 66
0
  2
L_0_02_1
 10
7570482.65235411096
 20
5715458.79290660378
 41
0.50
 42
0.50
 43
0.50
 50
88.49
  0
INSERT
  5
C6
100
AcDbEntity
  8
Dzialki
  6
CONTINUOUS
100
AcDbBlockReference
 66
0
  2
pikieta
 10
7570484.08617705479
 20
5715513.0564533025
 41
0.50
 42
0.50
 43
0.50
 50
88.49
  0
INSERT
  5
C7
100
AcDbEntity
  8
Dzialki
  6
CONTINUOUS
100
AcDbBlockReference
 66
0
  2
L_0_02_2
 10
7570485.51999999955
 20
5715567.3200000003
 41
0.50
 42
0.50
 43
0.50
 50
268.49
  0
MLINE
  5
C8
100
AcDbEntity
  8
Dzialki
  6
L_0_02
370
18
100
AcDbMline
  2
L_0_02
340
7
 40
1.0
 70
1
 71
1
 72
2
 73
1
 10
7570482.65235411096
 20
5715458.79290660378
210
0.0
220
0.0
230
1.0
 11
7570482.65235411096
 21
5715458.79290660378
 12
0.026414098447
 22
0.999651086831
 13
-0.999651086831
 23
0.026414098447
 74
3
 41
0.0
 41
0.25
 41
108.3149731453
 75
0
 11
7570485.51999999955
 21
5715567.3200000003
 12
0.026414098447
 22
0.999651086831
 13
-0.999651086831
 23
0.026414098447
 74
0
 75
0
  0
INSERT
  5
C9
100
AcDbEntity
  8
Dzialki
  6
CONTINUOUS
100
AcDbBlockReference
 66
0
  2
L_0_02_1
 10
7570468.27125980519
 20
5715572.25714902952
 41
0.50
 42
0.50
 43
0.50
 50
266.24
  0
INSERT
  5
CA
100
AcDbEntity
  8
Dzialki
  6
CONTINUOUS
100
AcDbBlockReference
 66
0
  2
pikieta
 10
7570467.02562990226
 20
5715553.32357451506
 41
0.50
 42
0.50
 43
0.50
 50
266.24
  0
INSERT
  5
CB
100
AcDbEntity
  8
Dzialki
  6
CONTINUOUS
100
AcDbBlockReference
 66
0
  2
L_0_02_2
 10
7570465.78000000026
 20
5715534.38999999966
 41
0.50
 42
0.50
 43
0.50
 50
86.24
  0
MLINE
  5
CC
100
AcDbEntity
  8
Dzialki
  6
L_0_02
370
18
100
AcDbMline
  2
L_0_02
340
7
 40
1.0
 70
1
 71
1
 72
2
 73
1
 10
7570468.27125980519
 20
5715572.25714902952
210
0.0
220
0.0
230
1.0
 11
7570468.27125980519
 21
5715572.25714902952
 12
-0.06564755741
 22
-0.997842872504
 13
0.997842872504
 23
-0.06564755741
 74
3
 41
0.0
 41
0.25
 41
37.69900988254
 75
0
 11
7570465.78000000026
 21
5715534.38999999966
 12
-0.06564755741
 22
-0.997842872504
 13
0.997842872504
 23
-0.06564755741
 74
0
 75
0
  0
INSERT
  5
CD
100
AcDbEntity
  8
Dzialki
  6
CONTINUOUS
100
AcDbBlockReference
 66
0
  2
L_0_02_1
 10
7570465.78000000026
 20
5715534.38999999966
 30
0.00
 41
0.50
 42
0.50
 43
0.50
 50
268.89
  0
INSERT
  5
CE
100
AcDbEntity
  8
Dzialki
  6
CONTINUOUS
100
AcDbBlockReference
 66
0
  2
pikieta
 10
7570465.05598950386
 20
5715496.96365053859
 30
0.00
 41
0.50
 42
0.50
 43
0.50
 50
268.89
  0
INSERT
  5
CF
100
AcDbEntity
  8
Dzialki
  6
CONTINUOUS
100
AcDbBlockReference
 66
0
  2
L_0_02_2
 10
7570464.33197900839
 20
5715459.53730107751
 30
0.00
 41
0.50
 42
0.50
 43
0.50
 50
88.89
  0
MLINE
  5
D0
100
AcDbEntity
  8
Dzialki
  6
L_0_02
370
18
100
AcDbMline
  2
L_0_02
340
7
 40
1.0
 70
1
 71
1
 72
2
 73
1
 10
7570465.78000000026
 20
5715534.38999999966
210
0.0
220
0.0
230
1.0
 11
7570465.78000000026
 21
5715534.38999999966
 12
-0.019341321618
 22
-0.999812939143
 13
0.999812939143
 23
-0.019341321618
 74
3
 41
0.0
 41
0.25
 41
74.616703551873
 75
0
 11
7570464.33197900839
 21
5715459.53730107751
 12
-0.019341321618
 22
-0.999812939143
 13
0.999812939143
 23
-0.019341321618
 74
0
 75
0
  0
INSERT
  5
D1
100
AcDbEntity
  8
Dzialki
  6
CONTINUOUS
100
AcDbBlockReference
 66
0
  2
L_0_02_1
 10
7570465.78000000026
 20
5715534.38999999966
 30
0.00
 41
0.50
 42
0.50
 43
0.50
 50
178.75
  0
INSERT
  5
D2
100
AcDbEntity
  8
Dzialki
  6
CONTINUOUS
100
AcDbBlockReference
 66
0
  2
pikieta
 10
7570460.29000000004
 20
5715534.50999999978
 30
0.00
 41
0.50
 42
0.50
 43
0.50
 50
178.75
  0
INSERT
  5
D3
100
AcDbEntity
  8
Dzialki
  6
CONTINUOUS
100
AcDbBlockReference
 66
0
  2
L_0_02_2
 10
7570454.79999999981
 20
5715534.62999999989
 30
0.00
 41
0.50
 42
0.50
 43
0.50
 50
358.75
  0
MLINE
  5
D4
100
AcDbEntity
  8
Dzialki
  6
L_0_02
370
18
100
AcDbMline
  2
L_0_02
340
7
 40
1.0
 70
1
 71
1
 72
2
 73
1
 10
7570465.78000000026
 20
5715534.38999999966
210
0.0
220
0.0
230
1.0
 11
7570465.78000000026
 21
5715534.38999999966
 12
-0.999761201154
 22
0.02185270387
 13
-0.02185270387
 23
-0.999761201154
 74
3
 41
0.0
 41
0.25
 41
10.732622638055
 75
0
 11
7570454.79999999981
 21
5715534.62999999989
 12
-0.999761201154
 22
0.02185270387
 13
-0.02185270387
 23
-0.999761201154
 74
0
 75
0
  0
INSERT
  5
D5
100
AcDbEntity
  8
Dzialki
  6
CONTINUOUS
100
AcDbBlockReference
 66
0
  2
L_0_02_1
 10
7570454.79999999981
 20
5715534.62999999989
 30
0.00
 41
0.50
 42
0.50
 43
0.50
 50
308.64
  0
INSERT
  5
D6
100
AcDbEntity
  8
Dzialki
  6
CONTINUOUS
100
AcDbBlockReference
 66
0
  2
pikieta
 10
7570456.25499999989
 20
5715532.81000000052
 30
0.00
 41
0.50
 42
0.50
 43
0.50
 50
308.64
  0
INSERT
  5
D7
100
AcDbEntity
  8
Dzialki
  6
CONTINUOUS
100
AcDbBlockReference
 66
0
  2
L_0_02_2
 10
7570457.70999999996
 20
5715530.99000000022
 30
0.00
 41
0.50
 42
0.50
 43
0.50
 50
128.64
  0
MLINE
  5
D8
100
AcDbEntity
  8
Dzialki
  6
L_0_02
370
18
100
AcDbMline
  2
L_0_02
340
7
 40
1.0
 70
1
 71
1
 72
2
 73
1
 10
7570454.79999999981
 20
5715534.62999999989
210
0.0
220
0.0
230
1.0
 11
7570454.79999999981
 21
5715534.62999999989
 12
0.624433327287
 22
-0.781078113746
 13
0.781078113746
 23
0.624433327287
 74
3
 41
0.0
 41
0.25
 41
4.410225316272
 75
0
 11
7570457.70999999996
 21
5715530.99000000022
 12
0.624433327287
 22
-0.781078113746
 13
0.781078113746
 23
0.624433327287
 74
0
 75
0
  0
INSERT
  5
D9
100
AcDbEntity
  8
Dzialki
  6
CONTINUOUS
100
AcDbBlockReference
 66
0
  2
L_0_02_1
 10
7570457.70999999996
 20
5715530.99000000022
 30
0.00
 41
0.50
 42
0.50
 43
0.50
 50
268.89
  0
INSERT
  5
DA
100
AcDbEntity
  8
Dzialki
  6
CONTINUOUS
100
AcDbBlockReference
 66
0
  2
pikieta
 10
7570457.02397279069
 20
5715495.42605753802
 30
0.00
 41
0.50
 42
0.50
 43
0.50
 50
268.89
  0
INSERT
  5
DB
100
AcDbEntity
  8
Dzialki
  6
CONTINUOUS
100
AcDbBlockReference
 66
0
  2
L_0_02_2
 10
7570456.33794558141
 20
5715459.86211507674
 30
0.00
 41
0.50
 42
0.50
 43
0.50
 50
88.89
  0
MLINE
  5
DC
100
AcDbEntity
  8
Dzialki
  6
L_0_02
370
18
100
AcDbMline
  2
L_0_02
340
7
 40
1.0
 70
1
 71
1
 72
2
 73
1
 10
7570457.70999999996
 20
5715530.99000000022
210
0.0
220
0.0
230
1.0
 11
7570457.70999999996
 21
5715530.99000000022
 12
-0.019286377187
 22
-0.99981400053
 13
0.99981400053
 23
-0.019286377187
 74
3
 41
0.0
 41
0.25
 41
70.891117133591
 75
0
 11
7570456.33794558141
 21
5715459.86211507674
 12
-0.019286377187
 22
-0.99981400053
 13
0.99981400053
 23
-0.019286377187
 74
0
 75
0
  0
INSERT
  5
DD
100
AcDbEntity
  8
Dzialki
  6
CONTINUOUS
100
AcDbBlockReference
 66
0
  2
L_0_02_1
 10
7570454.79999999981
 20
5715534.62999999989
 30
0.00
 41
0.50
 42
0.50
 43
0.50
 50
175.94
  0
INSERT
  5
DE
100
AcDbEntity
  8
Dzialki
  6
CONTINUOUS
100
AcDbBlockReference
 66
0
  2
pikieta
 10
7570452.54499999993
 20
5715534.79000000004
 30
0.00
 41
0.50
 42
0.50
 43
0.50
 50
175.94
  0
INSERT
  5
DF
100
AcDbEntity
  8
Dzialki
  6
CONTINUOUS
100
AcDbBlockReference
 66
0
  2
L_0_02_2
 10
7570450.29000000004
 20
5715534.95000000019
 30
0.00
 41
0.50
 42
0.50
 43
0.50
 50
355.94
  0
MLINE
  5
E0
100
AcDbEntity
  8
Dzialki
  6
L_0_02
370
18
100
AcDbMline
  2
L_0_02
340
7
 40
1.0
 70
1
 71
1
 72
2
 73
1
 10
7570454.79999999981
 20
5715534.62999999989
210
0.0
220
0.0
230
1.0
 11
7570454.79999999981
 21
5715534.62999999989
 12
-0.997492269605
 22
0.070775504786
 13
-0.070775504786
 23
-0.997492269605
 74
3
 41
0.0
 41
0.25
 41
4.271338297249
 75
0
 11
7570450.29000000004
 21
5715534.95000000019
 12
-0.997492269605
 22
0.070775504786
 13
-0.070775504786
 23
-0.997492269605
 74
0
 75
0
  0
INSERT
  5
E1
100
AcDbEntity
  8
Dzialki
  6
CONTINUOUS
100
AcDbBlockReference
 66
0
  2
L_0_02_1
 10
7570450.29000000004
 20
5715534.95000000019
 30
0.00
 41
0.50
 42
0.50
 43
0.50
 50
176.36
  0
INSERT
  5
E2
100
AcDbEntity
  8
Dzialki
  6
CONTINUOUS
100
AcDbBlockReference
 66
0
  2
pikieta
 10
7570441.41500000004
 20
5715535.5150000006
 30
0.00
 41
0.50
 42
0.50
 43
0.50
 50
176.36
  0
INSERT
  5
E3
100
AcDbEntity
  8
Dzialki
  6
CONTINUOUS
100
AcDbBlockReference
 66
0
  2
L_0_02_2
 10
7570432.54000000004
 20
5715536.08000000007
 30
0.00
 41
0.50
 42
0.50
 43
0.50
 50
356.36
  0
MLINE
  5
E4
100
AcDbEntity
  8
Dzialki
  6
L_0_02
370
18
100
AcDbMline
  2
L_0_02
340
7
 40
1.0
 70
1
 71
1
 72
2
 73
1
 10
7570450.29000000004
 20
5715534.95000000019
210
0.0
220
0.0
230
1.0
 11
7570450.29000000004
 21
5715534.95000000019
 12
-0.997979715529
 22
0.063533356532
 13
-0.063533356532
 23
-0.997979715529
 74
3
 41
0.0
 41
0.25
 41
17.535932643518
 75
0
 11
7570432.54000000004
 21
5715536.08000000007
 12
-0.997979715529
 22
0.063533356532
 13
-0.063533356532
 23
-0.997979715529
 74
0
 75
0
  0
INSERT
  5
E5
100
AcDbEntity
  8
Dzialki
  6
CONTINUOUS
100
AcDbBlockReference
 66
0
  2
L_0_02_1
 10
7570432.54000000004
 20
5715536.08000000007
 30
0.00
 41
0.50
 42
0.50
 43
0.50
 50
268.44
  0
INSERT
  5
E6
100
AcDbEntity
  8
Dzialki
  6
CONTINUOUS
100
AcDbBlockReference
 66
0
  2
pikieta
 10
7570432.14499999955
 20
5715521.54999999888
 30
0.00
 41
0.50
 42
0.50
 43
0.50
 50
268.44
  0
INSERT
  5
E7
100
AcDbEntity
  8
Dzialki
  6
CONTINUOUS
100
AcDbBlockReference
 66
0
  2
L_0_02_2
 10
7570431.75
 20
5715507.01999999862
 30
0.00
 41
0.50
 42
0.50
 43
0.50
 50
88.44
  0
MLINE
  5
E8
100
AcDbEntity
  8
Dzialki
  6
L_0_02
370
18
100
AcDbMline
  2
L_0_02
340
7
 40
1.0
 70
1
 71
1
 72
2
 73
1
 10
7570432.54000000004
 20
5715536.08000000007
210
0.0
220
0.0
230
1.0
 11
7570432.54000000004
 21
5715536.08000000007
 12
-0.027175094434
 22
-0.999630688926
 13
0.999630688926
 23
-0.027175094434
 74
3
 41
0.0
 41
0.25
 41
28.820736146243
 75
0
 11
7570431.75
 21
5715507.01999999862
 12
-0.027175094434
 22
-0.999630688926
 13
0.999630688926
 23
-0.027175094434
 74
0
 75
0
  0
INSERT
  5
E9
100
AcDbEntity
  8
Dzialki
  6
CONTINUOUS
100
AcDbBlockReference
 66
0
  2
L_0_02_1
 10
7570431.75
 20
5715507.01999999862
 30
0.00
 41
0.50
 42
0.50
 43
0.50
 50
268.45
  0
INSERT
  5
EA
100
AcDbEntity
  8
Dzialki
  6
CONTINUOUS
100
AcDbBlockReference
 66
0
  2
pikieta
 10
7570431.12629840709
 20
5715483.96592918225
 30
0.00
 41
0.50
 42
0.50
 43
0.50
 50
268.45
  0
INSERT
  5
EB
100
AcDbEntity
  8
Dzialki
  6
CONTINUOUS
100
AcDbBlockReference
 66
0
  2
L_0_02_2
 10
7570430.50259681418
 20
5715460.9118583668
 30
0.00
 41
0.50
 42
0.50
 43
0.50
 50
88.45
  0
MLINE
  5
EC
100
AcDbEntity
  8
Dzialki
  6
L_0_02
370
18
100
AcDbMline
  2
L_0_02
340
7
 40
1.0
 70
1
 71
1
 72
2
 73
1
 10
7570431.75
 20
5715507.01999999862
210
0.0
220
0.0
230
1.0
 11
7570431.75
 21
5715507.01999999862
 12
-0.027043964425
 22
-0.999634245106
 13
0.999634245106
 23
-0.027043964425
 74
3
 41
0.0
 41
0.25
 41
45.875012080734
 75
0
 11
7570430.50259681418
 21
5715460.9118583668
 12
-0.027043964425
 22
-0.999634245106
 13
0.999634245106
 23
-0.027043964425
 74
0
 75
0
  0
INSERT
  5
ED
100
AcDbEntity
  8
Dzialki
  6
CONTINUOUS
100
AcDbBlockReference
 66
0
  2
L_0_02_1
 10
7570415.65743406955
 20
5715461.51504782401
 41
0.50
 42
0.50
 43
0.50
 50
88.62
  0
INSERT
  5
EE
100
AcDbEntity
  8
Dzialki
  6
CONTINUOUS
100
AcDbBlockReference
 66
0
  2
pikieta
 10
7570415.89871703461
 20
5715471.53252391145
 41
0.50
 42
0.50
 43
0.50
 50
88.62
  0
INSERT
  5
EF
100
AcDbEntity
  8
Dzialki
  6
CONTINUOUS
100
AcDbBlockReference
 66
0
  2
L_0_02_2
 10
7570416.13999999966
 20
5715481.54999999981
 41
0.50
 42
0.50
 43
0.50
 50
268.62
  0
MLINE
  5
F0
100
AcDbEntity
  8
Dzialki
  6
L_0_02
370
18
100
AcDbMline
  2
L_0_02
340
7
 40
1.0
 70
1
 71
1
 72
2
 73
1
 10
7570415.65743406955
 20
5715461.51504782401
210
0.0
220
0.0
230
1.0
 11
7570415.65743406955
 21
5715461.51504782401
 12
0.024079219536
 22
0.999710053559
 13
-0.999710053559
 23
0.024079219536
 74
3
 41
0.0
 41
0.25
 41
19.790762923692
 75
0
 11
7570416.13999999966
 21
5715481.54999999981
 12
0.024079219536
 22
0.999710053559
 13
-0.999710053559
 23
0.024079219536
 74
0
 75
0
  0
INSERT
  5
F1
100
AcDbEntity
  8
Dzialki
  6
CONTINUOUS
100
AcDbBlockReference
 66
0
  2
L_0_02_1
 10
7570416.13999999966
 20
5715481.54999999981
 30
0.00
 41
0.50
 42
0.50
 43
0.50
 50
88.43
  0
INSERT
  5
F2
100
AcDbEntity
  8
Dzialki
  6
CONTINUOUS
100
AcDbBlockReference
 66
0
  2
pikieta
 10
7570416.41999999993
 20
5715491.79499999993
 30
0.00
 41
0.50
 42
0.50
 43
0.50
 50
88.43
  0
INSERT
  5
F3
100
AcDbEntity
  8
Dzialki
  6
CONTINUOUS
100
AcDbBlockReference
 66
0
  2
L_0_02_2
 10
7570416.70000000019
 20
5715502.04000000004
 30
0.00
 41
0.50
 42
0.50
 43
0.50
 50
268.43
  0
MLINE
  5
F4
100
AcDbEntity
  8
Dzialki
  6
L_0_02
370
18
100
AcDbMline
  2
L_0_02
340
7
 40
1.0
 70
1
 71
1
 72
2
 73
1
 10
7570416.13999999966
 20
5715481.54999999981
210
0.0
220
0.0
230
1.0
 11
7570416.13999999966
 21
5715481.54999999981
 12
0.027320203578
 22
0.999626733574
 13
-0.999626733574
 23
0.027320203578
 74
3
 41
0.0
 41
0.25
 41
20.247651085179
 75
0
 11
7570416.70000000019
 21
5715502.04000000004
 12
0.027320203578
 22
0.999626733574
 13
-0.999626733574
 23
0.027320203578
 74
0
 75
0
  0
INSERT
  5
F5
100
AcDbEntity
  8
Dzialki
  6
CONTINUOUS
100
AcDbBlockReference
 66
0
  2
L_0_02_1
 10
7570416.70000000019
 20
5715502.04000000004
 30
0.00
 41
0.50
 42
0.50
 43
0.50
 50
88.64
  0
INSERT
  5
F6
100
AcDbEntity
  8
Dzialki
  6
CONTINUOUS
100
AcDbBlockReference
 66
0
  2
pikieta
 10
7570416.8049999997
 20
5715506.47499999963
 30
0.00
 41
0.50
 42
0.50
 43
0.50
 50
88.64
  0
INSERT
  5
F7
100
AcDbEntity
  8
Dzialki
  6
CONTINUOUS
100
AcDbBlockReference
 66
0
  2
L_0_02_2
 10
7570416.91000000015
 20
5715510.91000000015
 30
0.00
 41
0.50
 42
0.50
 43
0.50
 50
268.64
  0
MLINE
  5
F8
100
AcDbEntity
  8
Dzialki
  6
L_0_02
370
18
100
AcDbMline
  2
L_0_02
340
7
 40
1.0
 70
1
 71
1
 72
2
 73
1
 10
7570416.70000000019
 20
5715502.04000000004
210
0.0
220
0.0
230
1.0
 11
7570416.70000000019
 21
5715502.04000000004
 12
0.023668677571
 22
0.999719857611
 13
-0.999719857611
 23
0.023668677571
 74
3
 41
0.0
 41
0.25
 41
8.622485559412
 75
0
 11
7570416.91000000015
 21
5715510.91000000015
 12
0.023668677571
 22
0.999719857611
 13
-0.999719857611
 23
0.023668677571
 74
0
 75
0
  0
INSERT
  5
F9
100
AcDbEntity
  8
Dzialki
  6
CONTINUOUS
100
AcDbBlockReference
 66
0
  2
L_0_02_1
 10
7570416.91000000015
 20
5715510.91000000015
 30
0.00
 41
0.50
 42
0.50
 43
0.50
 50
88.66
  0
INSERT
  5
FA
100
AcDbEntity
  8
Dzialki
  6
CONTINUOUS
100
AcDbBlockReference
 66
0
  2
pikieta
 10
7570417.20500000007
 20
5715523.5150000006
 30
0.00
 41
0.50
 42
0.50
 43
0.50
 50
88.66
  0
INSERT
  5
FB
100
AcDbEntity
  8
Dzialki
  6
CONTINUOUS
100
AcDbBlockReference
 66
0
  2
L_0_02_2
 10
7570417.5
 20
5715536.12000000011
 30
0.00
 41
0.50
 42
0.50
 43
0.50
 50
268.66
  0
MLINE
  5
FC
100
AcDbEntity
  8
Dzialki
  6
L_0_02
370
18
100
AcDbMline
  2
L_0_02
340
7
 40
1.0
 70
1
 71
1
 72
2
 73
1
 10
7570416.91000000015
 20
5715510.91000000015
210
0.0
220
0.0
230
1.0
 11
7570416.91000000015
 21
5715510.91000000015
 12
0.023397004716
 22
0.999726252616
 13
-0.999726252616
 23
0.023397004716
 74
3
 41
0.0
 41
0.25
 41
24.9669030612
 75
0
 11
7570417.5
 21
5715536.12000000011
 12
0.023397004716
 22
0.999726252616
 13
-0.999726252616
 23
0.023397004716
 74
0
 75
0
  0
INSERT
  5
FD
100
AcDbEntity
  8
Dzialki
  6
CONTINUOUS
100
AcDbBlockReference
 66
0
  2
L_0_02_1
 10
7570417.5
 20
5715536.12000000011
 30
0.00
 41
0.50
 42
0.50
 43
0.50
 50
177.42
  0
INSERT
  5
FE
100
AcDbEntity
  8
Dzialki
  6
CONTINUOUS
100
AcDbBlockReference
 66
0
  2
pikieta
 10
7570409.04616879486
 20
5715536.50036646798
 30
0.00
 41
0.50
 42
0.50
 43
0.50
 50
177.42
  0
INSERT
  5
FF
100
AcDbEntity
  8
Dzialki
  6
CONTINUOUS
100
AcDbBlockReference
 66
0
  2
L_0_02_2
 10
7570400.59233758878
 20
5715536.88073293585
 30
0.00
 41
0.50
 42
0.50
 43
0.50
 50
357.42
  0
MLINE
  5
100
100
AcDbEntity
  8
Dzialki
  6
L_0_02
370
18
100
AcDbMline
  2
L_0_02
340
7
 40
1.0
 70
1
 71
1
 72
2
 73
1
 10
7570417.5
 20
5715536.12000000011
210
0.0
220
0.0
230
1.0
 11
7570417.5
 21
5715536.12000000011
 12
-0.998989331971
 22
0.044947909936
 13
-0.044947909936
 23
-0.998989331971
 74
3
 41
0.0
 41
0.25
 41
16.674767732862
 75
0
 11
7570400.59233758878
 21
5715536.88073293585
 12
-0.998989331971
 22
0.044947909936
 13
-0.044947909936
 23
-0.998989331971
 74
0
 75
0
  0
INSERT
  5
101
100
AcDbEntity
  8
Dzialki
  6
CONTINUOUS
100
AcDbBlockReference
 66
0
  2
L_0_02_1
 10
7570432.54000000004
 20
5715536.08000000007
 30
0.00
 41
0.50
 42
0.50
 43
0.50
 50
179.85
  0
INSERT
  5
102
100
AcDbEntity
  8
Dzialki
  6
CONTINUOUS
100
AcDbBlockReference
 66
0
  2
pikieta
 10
7570425.01999999955
 20
5715536.09999999963
 30
0.00
 41
0.50
 42
0.50
 43
0.50
 50
179.85
  0
INSERT
  5
103
100
AcDbEntity
  8
Dzialki
  6
CONTINUOUS
100
AcDbBlockReference
 66
0
  2
L_0_02_2
 10
7570417.5
 20
5715536.12000000011
 30
0.00
 41
0.50
 42
0.50
 43
0.50
 50
359.85
  0
MLINE
  5
104
100
AcDbEntity
  8
Dzialki
  6
L_0_02
370
18
100
AcDbMline
  2
L_0_02
340
7
 40
1.0
 70
1
 71
1
 72
2
 73
1
 10
7570432.54000000004
 20
5715536.08000000007
210
0.0
220
0.0
230
1.0
 11
7570432.54000000004
 21
5715536.08000000007
 12
-0.999996463351
 22
0.002659565065
 13
-0.002659565065
 23
-0.999996463351
 74
3
 41
0.0
 41
0.25
 41
14.790053191433
 75
0
 11
7570417.5
 21
5715536.12000000011
 12
-0.999996463351
 22
0.002659565065
 13
-0.002659565065
 23
-0.999996463351
 74
0
 75
0
  0
INSERT
  5
105
100
AcDbEntity
  8
Dzialki
  6
CONTINUOUS
100
AcDbBlockReference
 66
0
  2
L_0_02_1
 10
7570416.91000000015
 20
5715510.91000000015
 30
0.00
 41
0.50
 42
0.50
 43
0.50
 50
337.70
  0
INSERT
  5
106
100
AcDbEntity
  8
Dzialki
  6
CONTINUOUS
100
AcDbBlockReference
 66
0
  2
pikieta
 10
7570421.6400000006
 20
5715508.97000000067
 30
0.00
 41
0.50
 42
0.50
 43
0.50
 50
337.70
  0
INSERT
  5
107
100
AcDbEntity
  8
Dzialki
  6
CONTINUOUS
100
AcDbBlockReference
 66
0
  2
L_0_02_2
 10
7570426.37000000011
 20
5715507.03000000026
 30
0.00
 41
0.50
 42
0.50
 43
0.50
 50
157.70
  0
MLINE
  5
108
100
AcDbEntity
  8
Dzialki
  6
L_0_02
370
18
100
AcDbMline
  2
L_0_02
340
7
 40
1.0
 70
1
 71
1
 72
2
 73
1
 10
7570416.91000000015
 20
5715510.91000000015
210
0.0
220
0.0
230
1.0
 11
7570416.91000000015
 21
5715510.91000000015
 12
0.925203838407
 22
-0.379470496082
 13
0.379470496082
 23
0.925203838407
 74
3
 41
0.0
 41
0.25
 41
9.974773836053
 75
0
 11
7570426.37000000011
 21
5715507.03000000026
 12
0.925203838407
 22
-0.379470496082
 13
0.379470496082
 23
0.925203838407
 74
0
 75
0
  0
INSERT
  5
109
100
AcDbEntity
  8
Dzialki
  6
CONTINUOUS
100
AcDbBlockReference
 66
0
  2
L_0_02_1
 10
7570426.37000000011
 20
5715507.03000000026
 30
0.00
 41
0.50
 42
0.50
 43
0.50
 50
359.88
  0
INSERT
  5
10A
100
AcDbEntity
  8
Dzialki
  6
CONTINUOUS
100
AcDbBlockReference
 66
0
  2
pikieta
 10
7570428.6799999997
 20
5715507.02499999944
 30
0.00
 41
0.50
 42
0.50
 43
0.50
 50
359.88
  0
INSERT
  5
10B
100
AcDbEntity
  8
Dzialki
  6
CONTINUOUS
100
AcDbBlockReference
 66
0
  2
L_0_02_2
 10
7570430.99000000022
 20
5715507.01999999862
 30
0.00
 41
0.50
 42
0.50
 43
0.50
 50
179.88
  0
MLINE
  5
10C
100
AcDbEntity
  8
Dzialki
  6
L_0_02
370
18
100
AcDbMline
  2
L_0_02
340
7
 40
1.0
 70
1
 71
1
 72
2
 73
1
 10
7570426.37000000011
 20
5715507.03000000026
210
0.0
220
0.0
230
1.0
 11
7570426.37000000011
 21
5715507.03000000026
 12
0.999997657473
 22
-0.002164497449
 13
0.002164497449
 23
0.999997657473
 74
3
 41
0.0
 41
0.25
 41
4.370010822613
 75
0
 11
7570430.99000000022
 21
5715507.01999999862
 12
0.999997657473
 22
-0.002164497449
 13
0.002164497449
 23
0.999997657473
 74
0
 75
0
  0
INSERT
  5
10D
100
AcDbEntity
  8
Dzialki
  6
CONTINUOUS
100
AcDbBlockReference
 66
0
  2
L_0_02_1
 10
7570430.99000000022
 20
5715507.01999999862
 30
0.00
 41
0.50
 42
0.50
 43
0.50
 50
0.00
  0
INSERT
  5
10E
100
AcDbEntity
  8
Dzialki
  6
CONTINUOUS
100
AcDbBlockReference
 66
0
  2
pikieta
 10
7570431.37000000011
 20
5715507.01999999862
 30
0.00
 41
0.50
 42
0.50
 43
0.50
 50
0.00
  0
INSERT
  5
10F
100
AcDbEntity
  8
Dzialki
  6
CONTINUOUS
100
AcDbBlockReference
 66
0
  2
L_0_02_2
 10
7570431.75
 20
5715507.01999999862
 30
0.00
 41
0.50
 42
0.50
 43
0.50
 50
180.00
  0
MLINE
  5
110
100
AcDbEntity
  8
Dzialki
  6
L_0_02
370
18
100
AcDbMline
  2
L_0_02
340
7
 40
1.0
 70
1
 71
1
 72
2
 73
1
 10
7570430.99000000022
 20
5715507.01999999862
210
0.0
220
0.0
230
1.0
 11
7570430.99000000022
 21
5715507.01999999862
 12
1.0
 22
0.0
 13
0.0
 23
1.0
 74
3
 41
0.0
 41
0.25
 41
0.509999999776
 75
0
 11
7570431.75
 21
5715507.01999999862
 12
1.0
 22
0.0
 13
0.0
 23
1.0
 74
0
 75
0
  0
INSERT
  5
111
100
AcDbEntity
  8
Dzialki
  6
CONTINUOUS
100
AcDbBlockReference
 66
0
  2
L_0_02_1
 10
7570400.76159818843
 20
5715543.93325793557
 41
0.50
 42
0.50
 43
0.50
 50
358.38
  0
INSERT
  5
112
100
AcDbEntity
  8
Dzialki
  6
CONTINUOUS
100
AcDbBlockReference
 66
0
  2
pikieta
 10
7570409.29579909425
 20
5715543.69162896834
 41
0.50
 42
0.50
 43
0.50
 50
358.38
  0
INSERT
  5
113
100
AcDbEntity
  8
Dzialki
  6
CONTINUOUS
100
AcDbBlockReference
 66
0
  2
L_0_02_2
 10
7570417.83000000007
 20
5715543.45000000019
 41
0.50
 42
0.50
 43
0.50
 50
178.38
  0
MLINE
  5
114
100
AcDbEntity
  8
Dzialki
  6
L_0_02
370
18
100
AcDbMline
  2
L_0_02
340
7
 40
1.0
 70
1
 71
1
 72
2
 73
1
 10
7570400.76159818843
 20
5715543.93325793557
210
0.0
220
0.0
230
1.0
 11
7570400.76159818843
 21
5715543.93325793557
 12
0.999599427376
 22
-0.028301674686
 13
0.028301674686
 23
0.999599427376
 74
3
 41
0.0
 41
0.25
 41
16.825241686016
 75
0
 11
7570417.83000000007
 21
5715543.45000000019
 12
0.999599427376
 22
-0.028301674686
 13
0.028301674686
 23
0.999599427376
 74
0
 75
0
  0
POLYLINE
  5
115
100
AcDbEntity
  8
EGBB_L_1
  6
CONTINUOUS
370
50
100
AcDb2dPolyline
 66
1
 70
128
  0
VERTEX
  5
116
100
AcDbEntity
  8
EGBB_L_1
100
AcDbVertex
100
AcDb2dVertex
 10
7570444.15633170959
 20
5715533.10148612037
  0
VERTEX
  5
117
100
AcDbEntity
  8
EGBB_L_1
100
AcDbVertex
100
AcDb2dVertex
 10
7570444.14801596943
 20
5715531.19772724062
  0
SEQEND
  5
118
100
AcDbEntity
  8
EGBB_L_1
  0
POLYLINE
  5
119
100
AcDbEntity
  8
EGBB_L_1
  6
CONTINUOUS
370
50
100
AcDb2dPolyline
 66
1
 70
128
  0
VERTEX
  5
11A
100
AcDbEntity
  8
EGBB_L_1
100
AcDbVertex
100
AcDb2dVertex
 10
7570448.86955352966
 20
5715522.89278217964
  0
VERTEX
  5
11B
100
AcDbEntity
  8
EGBB_L_1
100
AcDbVertex
100
AcDb2dVertex
 10
7570449.24065797962
 20
5715533.12100369018
  0
SEQEND
  5
11C
100
AcDbEntity
  8
EGBB_L_1
  0
POLYLINE
  5
11D
100
AcDbEntity
  8
EGBB_L_1
  6
CONTINUOUS
370
50
100
AcDb2dPolyline
 66
1
 70
128
  0
VERTEX
  5
11E
100
AcDbEntity
  8
EGBB_L_1
100
AcDbVertex
100
AcDb2dVertex
 10
7570444.09820059035
 20
5715522.79785007983
  0
VERTEX
  5
11F
100
AcDbEntity
  8
EGBB_L_1
100
AcDbVertex
100
AcDb2dVertex
 10
7570448.86955352966
 20
5715522.89278217964
  0
SEQEND
  5
120
100
AcDbEntity
  8
EGBB_L_1
  0
POLYLINE
  5
121
100
AcDbEntity
  8
EGBB_L_1
  6
CONTINUOUS
370
50
100
AcDb2dPolyline
 66
1
 70
128
  0
VERTEX
  5
122
100
AcDbEntity
  8
EGBB_L_1
100
AcDbVertex
100
AcDb2dVertex
 10
7570444.04271045979
 20
5715528.11731552985
  0
VERTEX
  5
123
100
AcDbEntity
  8
EGBB_L_1
100
AcDbVertex
100
AcDb2dVertex
 10
7570444.09820059035
 20
5715522.79785007983
  0
SEQEND
  5
124
100
AcDbEntity
  8
EGBB_L_1
  0
POLYLINE
  5
125
100
AcDbEntity
  8
EGBB_L_1
  6
CONTINUOUS
370
50
100
AcDb2dPolyline
 66
1
 70
128
  0
VERTEX
  5
126
100
AcDbEntity
  8
EGBB_L_1
100
AcDbVertex
100
AcDb2dVertex
 10
7570444.14801596943
 20
5715531.19772724062
  0
VERTEX
  5
127
100
AcDbEntity
  8
EGBB_L_1
100
AcDbVertex
100
AcDb2dVertex
 10
7570444.04271045979
 20
5715528.11731552985
  0
SEQEND
  5
128
100
AcDbEntity
  8
EGBB_L_1
  0
POLYLINE
  5
129
100
AcDbEntity
  8
EGBB_L_1
  6
CONTINUOUS
370
50
100
AcDb2dPolyline
 66
1
 70
128
  0
VERTEX
  5
12A
100
AcDbEntity
  8
EGBB_L_1
100
AcDbVertex
100
AcDb2dVertex
 10
7570449.24065797962
 20
5715533.12100369018
  0
VERTEX
  5
12B
100
AcDbEntity
  8
EGBB_L_1
100
AcDbVertex
100
AcDb2dVertex
 10
7570444.15633170959
 20
5715533.10148612037
  0
SEQEND
  5
12C
100
AcDbEntity
  8
EGBB_L_1
  0
TEXT
  5
12D
100
AcDbEntity
  8
Numery_dzialek
370
35
100
AcDbText
 39
0.35
 10
7570471.50824367255
 20
5715505.34499999974
 40
1.75
  1
10-994
 50
0.00
 41
0.66
  7
STANDARD
 72
0
 11
7570471.50824367255
 21
5715507.09499999974
100
AcDbText
 73
3
  0
TEXT
  5
12E
100
AcDbEntity
  8
Numery_dzialek
370
35
100
AcDbText
 39
0.35
 10
7570441.5999999987
 20
5715499.94999999832
 40
1.75
  1
10-828
 50
0.00
 41
0.66
  7
STANDARD
 72
0
 11
7570441.5999999987
 21
5715501.69999999832
100
AcDbText
 73
3
  0
TEXT
  5
12F
100
AcDbEntity
  8
Numery_dzialek
370
35
100
AcDbText
 39
0.35
 10
7570419.78999999631
 20
5715501.82999999728
 40
1.75
  1
10-827/1
 50
0.00
 41
0.66
  7
STANDARD
 72
0
 11
7570419.78999999631
 21
5715503.57999999728
100
AcDbText
 73
3
  0
TEXT
  5
130
100
AcDbEntity
  8
Numery_dzialek
370
35
100
AcDbText
 39
0.35
 10
7570424.76461917255
 20
5715552.79750822112
 40
1.75
  1
10-781
 50
0.00
 41
0.66
  7
STANDARD
 72
0
 11
7570424.76461917255
 21
5715554.54750822112
100
AcDbText
 73
3
  0
TEXT
  5
131
100
AcDbEntity
  8
Numery_dzialek
370
35
100
AcDbText
 39
0.35
 10
7570439.19999999646
 20
5715552.46999999694
 40
1.75
  1
10-782
 50
0.00
 41
0.66
  7
STANDARD
 72
0
 11
7570439.19999999646
 21
5715554.21999999694
100
AcDbText
 73
3
  0
TEXT
  5
132
100
AcDbEntity
  8
Numery_dzialek
370
35
100
AcDbText
 39
0.35
 10
7570455.62687984947
 20
5715552.68100017216
 40
1.75
  1
10-783
 50
0.00
 41
0.66
  7
STANDARD
 72
0
 11
7570455.62687984947
 21
5715554.43100017216
100
AcDbText
 73
3
  0
TEXT
  5
133
100
AcDbEntity
  8
Numery_dzialek
370
35
100
AcDbText
 39
0.35
 10
7570486.89364721067
 20
5715491.85005331598
 40
1.75
  1
10-996
 50
0.00
 41
0.66
  7
STANDARD
 72
0
 11
7570486.89364721067
 21
5715493.60005331598
100
AcDbText
 73
3
  0
TEXT
  5
134
100
AcDbEntity
  8
Numery_dzialek
370
35
100
AcDbText
 39
0.35
 10
7570406.76712817792
 20
5715480.39493283909
 40
1.75
  1
10-826
 50
0.00
 41
0.66
  7
STANDARD
 72
0
 11
7570406.76712817792
 21
5715482.14493283909
100
AcDbText
 73
3
  0
TEXT
  5
135
100
AcDbEntity
  8
Numery_dzialek
370
35
100
AcDbText
 39
0.35
 10
7570411.94338438287
 20
5715551.91671399865
 40
1.75
  1
10-780
 50
0.00
 41
0.66
  7
STANDARD
 72
0
 11
7570411.94338438287
 21
5715553.66671399865
100
AcDbText
 73
3
  0
TEXT
  5
136
100
AcDbEntity
  8
Numery_dzialek
370
35
100
AcDbText
 39
0.35
 10
7570452.87635300867
 20
5715537.38493718952
 40
1.75
  1
10-784
 50
0.00
 41
0.66
  7
STANDARD
 72
0
 11
7570452.87635300867
 21
5715539.13493718952
100
AcDbText
 73
3
  0
ENDSEC
  0
SECTION
  2
OBJECTS
  0
DICTIONARY
  5
137
330
0
100
AcDbDictionary
280
0
281
1
  3
ACAD_GROUP
350
138
  3
ACAD_LAYOUT
350
139
  3
ACAD_MLINESTYLE
350
13A
  3
ACAD_PLOTSETTINGS
350
13B
  3
ACAD_PLOTSTYLENAME
350
13C
  0
DICTIONARY
  5
138
102
{ACAD_REACTORS
330
137
102
}
330
137
100
AcDbDictionary
280
0
281
1
  0
DICTIONARY
  5
139
102
{ACAD_REACTORS
330
137
102
}
330
137
100
AcDbDictionary
280
0
281
1
  3
Layout
350
23
  3
Model
350
21
  0
DICTIONARY
  5
13A
102
{ACAD_REACTORS
330
137
102
}
330
137
100
AcDbDictionary
280
0
281
1
  3
Standard
350
13D
  3
L_0_02
350
7
  3
L_0_9C
350
E
  0
DICTIONARY
  5
13B
102
{ACAD_REACTORS
330
137
102
}
330
137
100
AcDbDictionary
280
0
281
1
  0
ACDBDICTIONARYWDFLT
  5
13C
102
{ACAD_REACTORS
330
137
102
}
330
137
100
AcDbDictionary
281
1
  3
Normal
350
12
100
AcDbDictionaryWithDefault
340
12
  0
LAYOUT
  5
23
100
AcDbPlotSettings
  1

  2

  4

  6

 40
0.0
 41
0.0
 42
0.0
 43
0.0
 44
0.0
 45
0.0
 46
0.0
 47
0.0
 48
0.0
 49
0.0
140
0.0
141
0.0
142
1.0
143
1.0
 70
688
 72
1
 73
0
 74
5
  7

 75
0
147
1.0
148
0.0
149
0.0
100
AcDbLayout
  1
Layout
 70
1
 71
1
 10
0.0
 20
0.0
 11
420.0
 21
297.0
 12
0.0
 22
0.0
 32
0.0
 14
100000000000000000000.0
 24
100000000000000000000.0
 34
100000000000000000000.0
 15
-100000000000000000000.0
 25
-100000000000000000000.0
 35
-100000000000000000000.0
146
0.0
 13
0.0
 23
0.0
 33
0.0
 16
1.0
 26
0.0
 36
0.0
 17
0.0
 27
1.0
 37
0.0
 76
0
330
22
  0
LAYOUT
  5
21
100
AcDbPlotSettings
  1

  2

  4

  6

 40
0.0
 41
0.0
 42
0.0
 43
0.0
 44
0.0
 45
0.0
 46
0.0
 47
0.0
 48
0.0
 49
0.0
140
0.0
141
0.0
142
1.0
143
1.0
 70
1712
 72
1
 73
0
 74
0
  7

 75
0
147
1.0
148
0.0
149
0.0
100
AcDbLayout
  1
Model
 70
1
 71
0
 10
0.0
 20
0.0
 11
12.0
 21
9.0
 12
0.0
 22
0.0
 32
0.0
 14
0.0
 24
0.0
 34
0.0
 15
0.0
 25
0.0
 35
0.0
146
0.0
 13
0.0
 23
0.0
 33
0.0
 16
1.0
 26
0.0
 36
0.0
 17
0.0
 27
1.0
 37
0.0
 76
0
330
20
  0
MLINESTYLE
  5
13D
102
{ACAD_REACTORS
330
13A
102
}
330
13A
100
AcDbMlineStyle
  2
Standard
 70
0
  3

 62
256
 51
90.0
 52
90.0
  2
Standard
 71
2
 49
0.5
 62
256
  6
ByLayer
 49
-0.5
 62
256
  6
ByLayer
  0
MLINESTYLE
  5
7
100
AcDbMlineStyle
  2
L_0_02
 70
0
  3

 51
90.0
 52
90.0
 71
1
 49
0.0
 62
256
  6
CONTINUOUS
  0
MLINESTYLE
  5
E
100
AcDbMlineStyle
  2
L_0_9C
 70
0
  3

 51
90.0
 52
90.0
 71
2
 49
0.0
 62
256
  6
L_0_9C_SHX
 49
0.0
 62
256
  6
CONTINUOUS
  0
ACDBPLACEHOLDER
  5
12
  0
ENDSEC
  0
EOF
