  0
SECTION
  2
HEADER
  9
$ACADVER
  1
AC1018
  9
$HANDSEED
  5
FFFFFF
  9
$EXTMAX
 10
7571502.5
 20
5715202.5
 30
1000000.00
  9
$EXTMIN
 10
7571183.50999999978
 20
5714600.6799999997
 30
0.00
  9
$LIMMIN
 10
7571183.50999999978
 20
5714600.6799999997
  9
$LIMMAX
 10
7571502.5
 20
5715202.5
  9
$DIMASZ
 40
2.5
  9
$DIMGAP
 40
0.625
  9
$INSUNITS
 70
6
  9
$DIMEXO
 40
0.625
  9
$DIMTXT
 40
2.5
  9
$DIMSTYLE
  2
Standard
  9
$PLIMMIN
 10
0.0
 20
0.0
  9
$PLIMMAX
 10
210.0
 20
297.0
  9
$DIMEXE
 40
1.25
  9
$TEXTSIZE
 40
2.5
  9
$TEXTSTYLE
  7
Standard
  9
$LWDISPLAY
290
1
  9
$TDCREATE
 40
44791.454888079
  9
$TDUCREATE
 40
44791.371554745
  9
$TDUPDATE
 40
44791.454888079
  9
$TDUUPDATE
 40
44791.371554745
  9
$TDINDWG
 40
0.0
  9
$TDUSRTIMER
 40
0.0
  9
$USRTIMER
 70
1
  0
ENDSEC
  0
SECTION
  2
CLASSES
  0
CLASS
  1
WIPEOUT
  2
AcDbWipeout
  3
WipeOut
 90
127
 91
1
280
0
281
1
  0
CLASS
  1
WIPEOUTVARIABLES
  2
AcDbWipeoutVariables
  3
WipeOut
 90
0
 91
1
280
0
281
0
  0
ENDSEC
  0
SECTION
  2
TABLES
  0
TABLE
  2
VPORT
  5
1
100
AcDbSymbolTable
 70
1
  0
VPORT
  5
2
100
AcDbSymbolTableRecord
100
AcDbViewportTableRecord
  2
*ACTIVE
 70
0
 10
0.0
 20
0.0
 11
1.0
 21
1.0
 12
7571343.00
 22
5714901.59
 13
0.0
 23
0.0
 14
1.0
 24
1.0
 15
0.0
 25
0.0
 16
0.0
 26
0.0
 36
1.0
 17
0.0
 27
0.0
 37
0.0
 40
601.82
 41
0.53
 42
50.0
 43
0.0
 44
0.0
 50
0.0
 51
0.0
 71
0
 72
100
 73
1
 74
1
 75
0
 76
0
 77
0
 78
0
  0
ENDTAB
  0
TABLE
  2
LTYPE
  5
3
100
AcDbSymbolTable
 70
3
  0
LTYPE
  5
4
100
AcDbSymbolTableRecord
100
AcDbLinetypeTableRecord
  2
ByBlock
 70
0
  3

 72
65
 73
0
 40
0.0
  0
LTYPE
  5
5
100
AcDbSymbolTableRecord
100
AcDbLinetypeTableRecord
  2
ByLayer
 70
0
  3

 72
65
 73
0
 40
0.0
  0
LTYPE
  5
6
100
AcDbSymbolTableRecord
100
AcDbLinetypeTableRecord
  2
CONTINUOUS
 70
0
  3
Solid line
 72
65
 73
0
 40
0.0
  0
LTYPE
  5
7
100
AcDbSymbolTableRecord
100
AcDbLinetypeTableRecord
  2
L_0_03
 70
0
  3
Uzytek_gruntowy
 72
65
 73
2
 40
1.0
 49
0.5
 74
0
 49
-0.5
 74
0
  0
LTYPE
  5
8
100
AcDbSymbolTableRecord
100
AcDbLinetypeTableRecord
  2
L_0_04
 70
0
  3
Budynek_projektowany
 72
65
 73
2
 40
1.5
 49
1.0
 74
0
 49
-0.5
 74
0
  0
LTYPE
  5
9
100
AcDbSymbolTableRecord
100
AcDbLinetypeTableRecord
  2
L_0_05
 70
0
  3
Szczyt_skarpy_nie_umocnionej_Podnoze_skarpy
 72
65
 73
2
 40
1.75
 49
1.25
 74
0
 49
-0.5
 74
0
  0
LTYPE
  5
A
100
AcDbSymbolTableRecord
100
AcDbLinetypeTableRecord
  2
L_0_06
 70
0
  3
Granica_konturu_klasyfikacyjnego_Krawedz_chodnika
 72
65
 73
2
 40
2.0
 49
1.5
 74
0
 49
-0.5
 74
0
  0
ENDTAB
  0
TABLE
  2
LAYER
  5
B
100
AcDbSymbolTable
 70
4
  0
LAYER
  5
C
100
AcDbSymbolTableRecord
100
AcDbLayerTableRecord
  2
0
 70
0
 62
7
  6
CONTINUOUS
370
18
390
D
  0
LAYER
  5
E
100
AcDbSymbolTableRecord
100
AcDbLayerTableRecord
  2
DZIALKI_L_0
 70
0
 62
96
  6
CONTINUOUS
370
18
390
D
  0
LAYER
  5
F
100
AcDbSymbolTableRecord
100
AcDbLayerTableRecord
  2
krzyze_500
 70
0
 62
7
  6
CONTINUOUS
370
18
390
D
  0
LAYER
  5
10
100
AcDbSymbolTableRecord
100
AcDbLayerTableRecord
  2
NR_DZIALKI_T_0
 70
0
 62
96
  6
CONTINUOUS
370
18
390
D
  0
ENDTAB
  0
TABLE
  2
STYLE
  5
11
100
AcDbSymbolTable
 70
2
  0
STYLE
  5
12
100
AcDbSymbolTableRecord
100
AcDbTextStyleTableRecord
  2
STANDARD
 70
0
 40
0.0
 41
1.0
 50
0.0
 71
0
  3
simplex.shx
  4

  0
STYLE
  5
13
100
AcDbSymbolTableRecord
100
AcDbTextStyleTableRecord
  2
STANDARD_ITALIC
 70
0
 40
0.0
 41
1.0
 50
15.0
 71
0
  3
simplex.shx
  4

  0
ENDTAB
  0
TABLE
  2
VIEW
  5
14
100
AcDbSymbolTable
 70
0
  0
ENDTAB
  0
TABLE
  2
UCS
  5
15
100
AcDbSymbolTable
 70
0
  0
ENDTAB
  0
TABLE
  2
APPID
  5
16
100
AcDbSymbolTable
 70
1
  0
APPID
  5
17
100
AcDbSymbolTableRecord
100
AcDbRegAppTableRecord
  2
ACAD
 70
0
  0
ENDTAB
  0
TABLE
  2
DIMSTYLE
  5
18
100
AcDbSymbolTable
 70
1
100
AcDbDimStyleTable
  0
DIMSTYLE
105
19
100
AcDbSymbolTableRecord
100
AcDbDimStyleTableRecord
  2
Standard
 70
0
340
12
  0
ENDTAB
  0
TABLE
  2
BLOCK_RECORD
  5
1A
100
AcDbSymbolTable
 70
3
  0
BLOCK_RECORD
  5
1B
100
AcDbSymbolTableRecord
100
AcDbBlockTableRecord
  2
*Model_Space
340
1C
  0
BLOCK_RECORD
  5
1D
100
AcDbSymbolTableRecord
100
AcDbBlockTableRecord
  2
*Paper_Space
340
1E
  0
BLOCK_RECORD
  5
1F
100
AcDbSymbolTableRecord
100
AcDbBlockTableRecord
  2
OTRN
340
20
  0
ENDTAB
  0
ENDSEC
  0
SECTION
  2
BLOCKS
  0
BLOCK
  5
21
100
AcDbEntity
  8
0
100
AcDbBlockBegin
  2
*Model_Space
 70
0
 10
0.0
 20
0.0
 30
0.0
  3
*Model_Space
  1

  0
ENDBLK
  5
22
100
AcDbEntity
  8
0
100
AcDbBlockEnd
  0
BLOCK
  5
23
100
AcDbEntity
 67
1
  8
0
100
AcDbBlockBegin
  2
*Paper_Space
 70
0
 10
0.0
 20
0.0
 30
0.0
  3
*Paper_Space
  1

  0
ENDBLK
  5
24
100
AcDbEntity
 67
1
  8
0
100
AcDbBlockEnd
  0
BLOCK
  5
20
100
AcDbEntity
  8
0
100
AcDbBlockBegin
 62
0
370
13
  2
OTRN
 70
0
 10
0
 20
0
 30
0
  3
OTRN
  0
HATCH
  5
25
100
AcDbEntity
  8
0
  6
CONTINUOUS
 62
0
370
13
100
AcDbHatch
 10
0.0
 20
0.0
 30
0.0
210
0.0
220
0.0
230
1.0
  2
SOLID
 70
1
 71
1
 91
1
 92
3
 72
1
 73
1
 93
2
 10
0.0
 20
-0.090553851381
 42
1.0
 10
0.0
 20
0.090553851381
 42
1.0
 97
0
 75
0
 76
1
 98
0
  0
CIRCLE
  5
26
100
AcDbEntity
  8
0
  6
CONTINUOUS
 62
0
370
13
100
AcDbCircle
 10
0.0
 20
-0.0
 40
0.090553851381
  0
ENDBLK
  5
27
100
AcDbEntity
  8
0
100
AcDbBlockEnd
  0
ENDSEC
  0
SECTION
  2
ENTITIES
  0
POLYLINE
  5
28
100
AcDbEntity
  8
DZIALKI_L_0
  6
CONTINUOUS
370
18
100
AcDb2dPolyline
 66
1
 70
128
  0
VERTEX
  5
29
100
AcDbEntity
  8
DZIALKI_L_0
100
AcDbVertex
100
AcDb2dVertex
 10
7571350.0700000003
 20
5715075.80999999959
  0
VERTEX
  5
2A
100
AcDbEntity
  8
DZIALKI_L_0
100
AcDbVertex
100
AcDb2dVertex
 10
7571371.78000000026
 20
5715076.45000000019
  0
SEQEND
  5
2B
100
AcDbEntity
  8
DZIALKI_L_0
  0
POLYLINE
  5
2C
100
AcDbEntity
  8
DZIALKI_L_0
  6
CONTINUOUS
370
18
100
AcDb2dPolyline
 66
1
 70
128
  0
VERTEX
  5
2D
100
AcDbEntity
  8
DZIALKI_L_0
100
AcDbVertex
100
AcDb2dVertex
 10
7571371.78000000026
 20
5715076.45000000019
  0
VERTEX
  5
2E
100
AcDbEntity
  8
DZIALKI_L_0
100
AcDbVertex
100
AcDb2dVertex
 10
7571383.3200000003
 20
5715076.24000000022
  0
SEQEND
  5
2F
100
AcDbEntity
  8
DZIALKI_L_0
  0
POLYLINE
  5
30
100
AcDbEntity
  8
DZIALKI_L_0
  6
CONTINUOUS
370
18
100
AcDb2dPolyline
 66
1
 70
128
  0
VERTEX
  5
31
100
AcDbEntity
  8
DZIALKI_L_0
100
AcDbVertex
100
AcDb2dVertex
 10
7571383.3200000003
 20
5715076.24000000022
  0
VERTEX
  5
32
100
AcDbEntity
  8
DZIALKI_L_0
100
AcDbVertex
100
AcDb2dVertex
 10
7571392.95999999996
 20
5715076.05999999959
  0
SEQEND
  5
33
100
AcDbEntity
  8
DZIALKI_L_0
  0
POLYLINE
  5
34
100
AcDbEntity
  8
DZIALKI_L_0
  6
CONTINUOUS
370
18
100
AcDb2dPolyline
 66
1
 70
128
  0
VERTEX
  5
35
100
AcDbEntity
  8
DZIALKI_L_0
100
AcDbVertex
100
AcDb2dVertex
 10
7571315.70999999996
 20
5715077.46999999974
  0
VERTEX
  5
36
100
AcDbEntity
  8
DZIALKI_L_0
100
AcDbVertex
100
AcDb2dVertex
 10
7571298.33999999985
 20
5715082.04999999981
  0
SEQEND
  5
37
100
AcDbEntity
  8
DZIALKI_L_0
  0
POLYLINE
  5
38
100
AcDbEntity
  8
DZIALKI_L_0
  6
CONTINUOUS
370
18
100
AcDb2dPolyline
 66
1
 70
128
  0
VERTEX
  5
39
100
AcDbEntity
  8
DZIALKI_L_0
100
AcDbVertex
100
AcDb2dVertex
 10
7571273.90000000037
 20
5715089.84999999963
  0
VERTEX
  5
3A
100
AcDbEntity
  8
DZIALKI_L_0
100
AcDbVertex
100
AcDb2dVertex
 10
7571298.33999999985
 20
5715082.04999999981
  0
SEQEND
  5
3B
100
AcDbEntity
  8
DZIALKI_L_0
  0
POLYLINE
  5
3C
100
AcDbEntity
  8
DZIALKI_L_0
  6
CONTINUOUS
370
18
100
AcDb2dPolyline
 66
1
 70
128
  0
VERTEX
  5
3D
100
AcDbEntity
  8
DZIALKI_L_0
100
AcDbVertex
100
AcDb2dVertex
 10
7571353.55999999959
 20
5714995.26999999862
  0
VERTEX
  5
3E
100
AcDbEntity
  8
DZIALKI_L_0
100
AcDbVertex
100
AcDb2dVertex
 10
7571368.04999999981
 20
5714993.90000000037
  0
SEQEND
  5
3F
100
AcDbEntity
  8
DZIALKI_L_0
  0
POLYLINE
  5
40
100
AcDbEntity
  8
DZIALKI_L_0
  6
CONTINUOUS
370
18
100
AcDb2dPolyline
 66
1
 70
128
  0
VERTEX
  5
41
100
AcDbEntity
  8
DZIALKI_L_0
100
AcDbVertex
100
AcDb2dVertex
 10
7571293.19000000041
 20
5715018.3200000003
  0
VERTEX
  5
42
100
AcDbEntity
  8
DZIALKI_L_0
100
AcDbVertex
100
AcDb2dVertex
 10
7571269.62999999989
 20
5715026.00999999978
  0
SEQEND
  5
43
100
AcDbEntity
  8
DZIALKI_L_0
  0
POLYLINE
  5
44
100
AcDbEntity
  8
DZIALKI_L_0
  6
CONTINUOUS
370
18
100
AcDb2dPolyline
 66
1
 70
128
  0
VERTEX
  5
45
100
AcDbEntity
  8
DZIALKI_L_0
100
AcDbVertex
100
AcDb2dVertex
 10
7571280.37999999989
 20
5715026.70000000019
  0
VERTEX
  5
46
100
AcDbEntity
  8
DZIALKI_L_0
100
AcDbVertex
100
AcDb2dVertex
 10
7571255.87000000011
 20
5715034.70000000019
  0
SEQEND
  5
47
100
AcDbEntity
  8
DZIALKI_L_0
  0
POLYLINE
  5
48
100
AcDbEntity
  8
DZIALKI_L_0
  6
CONTINUOUS
370
18
100
AcDb2dPolyline
 66
1
 70
128
  0
VERTEX
  5
49
100
AcDbEntity
  8
DZIALKI_L_0
100
AcDbVertex
100
AcDb2dVertex
 10
7571297.62000000011
 20
5715021.08000000007
  0
VERTEX
  5
4A
100
AcDbEntity
  8
DZIALKI_L_0
100
AcDbVertex
100
AcDb2dVertex
 10
7571280.37999999989
 20
5715026.70000000019
  0
SEQEND
  5
4B
100
AcDbEntity
  8
DZIALKI_L_0
  0
POLYLINE
  5
4C
100
AcDbEntity
  8
DZIALKI_L_0
  6
CONTINUOUS
370
18
100
AcDb2dPolyline
 66
1
 70
128
  0
VERTEX
  5
4D
100
AcDbEntity
  8
DZIALKI_L_0
100
AcDbVertex
100
AcDb2dVertex
 10
7571357.53000000026
 20
5715001.75999999978
  0
VERTEX
  5
4E
100
AcDbEntity
  8
DZIALKI_L_0
100
AcDbVertex
100
AcDb2dVertex
 10
7571368.05999999959
 20
5715000.83000000007
  0
SEQEND
  5
4F
100
AcDbEntity
  8
DZIALKI_L_0
  0
POLYLINE
  5
50
100
AcDbEntity
  8
DZIALKI_L_0
  6
CONTINUOUS
370
18
100
AcDb2dPolyline
 66
1
 70
128
  0
VERTEX
  5
51
100
AcDbEntity
  8
DZIALKI_L_0
100
AcDbVertex
100
AcDb2dVertex
 10
7571346.91999999992
 20
5715005.0
  0
VERTEX
  5
52
100
AcDbEntity
  8
DZIALKI_L_0
100
AcDbVertex
100
AcDb2dVertex
 10
7571356.54000000004
 20
5715001.86000000034
  0
SEQEND
  5
53
100
AcDbEntity
  8
DZIALKI_L_0
  0
POLYLINE
  5
54
100
AcDbEntity
  8
DZIALKI_L_0
  6
CONTINUOUS
370
18
100
AcDb2dPolyline
 66
1
 70
128
  0
VERTEX
  5
55
100
AcDbEntity
  8
DZIALKI_L_0
100
AcDbVertex
100
AcDb2dVertex
 10
7571337.29000000004
 20
5715003.9299999997
  0
VERTEX
  5
56
100
AcDbEntity
  8
DZIALKI_L_0
100
AcDbVertex
100
AcDb2dVertex
 10
7571356.54000000004
 20
5715001.86000000034
  0
SEQEND
  5
57
100
AcDbEntity
  8
DZIALKI_L_0
  0
POLYLINE
  5
58
100
AcDbEntity
  8
DZIALKI_L_0
  6
CONTINUOUS
370
18
100
AcDb2dPolyline
 66
1
 70
128
  0
VERTEX
  5
59
100
AcDbEntity
  8
DZIALKI_L_0
100
AcDbVertex
100
AcDb2dVertex
 10
7571403.03000000026
 20
5715075.87999999989
  0
VERTEX
  5
5A
100
AcDbEntity
  8
DZIALKI_L_0
100
AcDbVertex
100
AcDb2dVertex
 10
7571405.79000000004
 20
5715075.84999999963
  0
SEQEND
  5
5B
100
AcDbEntity
  8
DZIALKI_L_0
  0
POLYLINE
  5
5C
100
AcDbEntity
  8
DZIALKI_L_0
  6
CONTINUOUS
370
18
100
AcDb2dPolyline
 66
1
 70
128
  0
VERTEX
  5
5D
100
AcDbEntity
  8
DZIALKI_L_0
100
AcDbVertex
100
AcDb2dVertex
 10
7571398.38999999966
 20
5715075.96999999974
  0
VERTEX
  5
5E
100
AcDbEntity
  8
DZIALKI_L_0
100
AcDbVertex
100
AcDb2dVertex
 10
7571403.03000000026
 20
5715075.87999999989
  0
SEQEND
  5
5F
100
AcDbEntity
  8
DZIALKI_L_0
  0
POLYLINE
  5
60
100
AcDbEntity
  8
DZIALKI_L_0
  6
CONTINUOUS
370
18
100
AcDb2dPolyline
 66
1
 70
128
  0
VERTEX
  5
61
100
AcDbEntity
  8
DZIALKI_L_0
100
AcDbVertex
100
AcDb2dVertex
 10
7571392.95999999996
 20
5715076.05999999959
  0
VERTEX
  5
62
100
AcDbEntity
  8
DZIALKI_L_0
100
AcDbVertex
100
AcDb2dVertex
 10
7571398.38999999966
 20
5715075.96999999974
  0
SEQEND
  5
63
100
AcDbEntity
  8
DZIALKI_L_0
  0
POLYLINE
  5
64
100
AcDbEntity
  8
DZIALKI_L_0
  6
CONTINUOUS
370
18
100
AcDb2dPolyline
 66
1
 70
128
  0
VERTEX
  5
65
100
AcDbEntity
  8
DZIALKI_L_0
100
AcDbVertex
100
AcDb2dVertex
 10
7571371.78000000026
 20
5715076.45000000019
  0
VERTEX
  5
66
100
AcDbEntity
  8
DZIALKI_L_0
100
AcDbVertex
100
AcDb2dVertex
 10
7571346.91999999992
 20
5715005.0
  0
SEQEND
  5
67
100
AcDbEntity
  8
DZIALKI_L_0
  0
POLYLINE
  5
68
100
AcDbEntity
  8
DZIALKI_L_0
  6
CONTINUOUS
370
18
100
AcDb2dPolyline
 66
1
 70
128
  0
VERTEX
  5
69
100
AcDbEntity
  8
DZIALKI_L_0
100
AcDbVertex
100
AcDb2dVertex
 10
7571329.50999999978
 20
5715010.6799999997
  0
VERTEX
  5
6A
100
AcDbEntity
  8
DZIALKI_L_0
100
AcDbVertex
100
AcDb2dVertex
 10
7571346.91999999992
 20
5715005.0
  0
SEQEND
  5
6B
100
AcDbEntity
  8
DZIALKI_L_0
  0
POLYLINE
  5
6C
100
AcDbEntity
  8
DZIALKI_L_0
  6
CONTINUOUS
370
18
100
AcDb2dPolyline
 66
1
 70
128
  0
VERTEX
  5
6D
100
AcDbEntity
  8
DZIALKI_L_0
100
AcDbVertex
100
AcDb2dVertex
 10
7571405.79000000004
 20
5715075.84999999963
  0
VERTEX
  5
6E
100
AcDbEntity
  8
DZIALKI_L_0
100
AcDbVertex
100
AcDb2dVertex
 10
7571413.19000000041
 20
5715075.76999999862
  0
SEQEND
  5
6F
100
AcDbEntity
  8
DZIALKI_L_0
  0
POLYLINE
  5
70
100
AcDbEntity
  8
DZIALKI_L_0
  6
CONTINUOUS
370
18
100
AcDb2dPolyline
 66
1
 70
128
  0
VERTEX
  5
71
100
AcDbEntity
  8
DZIALKI_L_0
100
AcDbVertex
100
AcDb2dVertex
 10
7571337.29000000004
 20
5715003.9299999997
  0
VERTEX
  5
72
100
AcDbEntity
  8
DZIALKI_L_0
100
AcDbVertex
100
AcDb2dVertex
 10
7571293.19000000041
 20
5715018.3200000003
  0
SEQEND
  5
73
100
AcDbEntity
  8
DZIALKI_L_0
  0
POLYLINE
  5
74
100
AcDbEntity
  8
DZIALKI_L_0
  6
CONTINUOUS
370
18
100
AcDb2dPolyline
 66
1
 70
128
  0
VERTEX
  5
75
100
AcDbEntity
  8
DZIALKI_L_0
100
AcDbVertex
100
AcDb2dVertex
 10
7571335.12000000011
 20
5715076.12999999989
  0
VERTEX
  5
76
100
AcDbEntity
  8
DZIALKI_L_0
100
AcDbVertex
100
AcDb2dVertex
 10
7571350.0700000003
 20
5715075.80999999959
  0
SEQEND
  5
77
100
AcDbEntity
  8
DZIALKI_L_0
  0
POLYLINE
  5
78
100
AcDbEntity
  8
DZIALKI_L_0
  6
CONTINUOUS
370
18
100
AcDb2dPolyline
 66
1
 70
128
  0
VERTEX
  5
79
100
AcDbEntity
  8
DZIALKI_L_0
100
AcDbVertex
100
AcDb2dVertex
 10
7571329.50999999978
 20
5715010.6799999997
  0
VERTEX
  5
7A
100
AcDbEntity
  8
DZIALKI_L_0
100
AcDbVertex
100
AcDb2dVertex
 10
7571350.0700000003
 20
5715075.80999999959
  0
SEQEND
  5
7B
100
AcDbEntity
  8
DZIALKI_L_0
  0
POLYLINE
  5
7C
100
AcDbEntity
  8
DZIALKI_L_0
  6
CONTINUOUS
370
18
100
AcDb2dPolyline
 66
1
 70
128
  0
VERTEX
  5
7D
100
AcDbEntity
  8
DZIALKI_L_0
100
AcDbVertex
100
AcDb2dVertex
 10
7571311.46999999974
 20
5715006.70999999996
  0
VERTEX
  5
7E
100
AcDbEntity
  8
DZIALKI_L_0
100
AcDbVertex
100
AcDb2dVertex
 10
7571314.70000000019
 20
5715006.36000000034
  0
SEQEND
  5
7F
100
AcDbEntity
  8
DZIALKI_L_0
  0
POLYLINE
  5
80
100
AcDbEntity
  8
DZIALKI_L_0
  6
CONTINUOUS
370
18
100
AcDb2dPolyline
 66
1
 70
128
  0
VERTEX
  5
81
100
AcDbEntity
  8
DZIALKI_L_0
100
AcDbVertex
100
AcDb2dVertex
 10
7571290.24000000022
 20
5715009.4299999997
  0
VERTEX
  5
82
100
AcDbEntity
  8
DZIALKI_L_0
100
AcDbVertex
100
AcDb2dVertex
 10
7571311.46999999974
 20
5715006.70999999996
  0
SEQEND
  5
83
100
AcDbEntity
  8
DZIALKI_L_0
  0
POLYLINE
  5
84
100
AcDbEntity
  8
DZIALKI_L_0
  6
CONTINUOUS
370
18
100
AcDb2dPolyline
 66
1
 70
128
  0
VERTEX
  5
85
100
AcDbEntity
  8
DZIALKI_L_0
100
AcDbVertex
100
AcDb2dVertex
 10
7571293.19000000041
 20
5715018.3200000003
  0
VERTEX
  5
86
100
AcDbEntity
  8
DZIALKI_L_0
100
AcDbVertex
100
AcDb2dVertex
 10
7571290.24000000022
 20
5715009.4299999997
  0
SEQEND
  5
87
100
AcDbEntity
  8
DZIALKI_L_0
  0
POLYLINE
  5
88
100
AcDbEntity
  8
DZIALKI_L_0
  6
CONTINUOUS
370
18
100
AcDb2dPolyline
 66
1
 70
128
  0
VERTEX
  5
89
100
AcDbEntity
  8
DZIALKI_L_0
100
AcDbVertex
100
AcDb2dVertex
 10
7571328.66999999993
 20
5715076.26999999862
  0
VERTEX
  5
8A
100
AcDbEntity
  8
DZIALKI_L_0
100
AcDbVertex
100
AcDb2dVertex
 10
7571315.70999999996
 20
5715077.46999999974
  0
SEQEND
  5
8B
100
AcDbEntity
  8
DZIALKI_L_0
  0
POLYLINE
  5
8C
100
AcDbEntity
  8
DZIALKI_L_0
  6
CONTINUOUS
370
18
100
AcDb2dPolyline
 66
1
 70
128
  0
VERTEX
  5
8D
100
AcDbEntity
  8
DZIALKI_L_0
100
AcDbVertex
100
AcDb2dVertex
 10
7571335.12000000011
 20
5715076.12999999989
  0
VERTEX
  5
8E
100
AcDbEntity
  8
DZIALKI_L_0
100
AcDbVertex
100
AcDb2dVertex
 10
7571328.66999999993
 20
5715076.26999999862
  0
SEQEND
  5
8F
100
AcDbEntity
  8
DZIALKI_L_0
  0
POLYLINE
  5
90
100
AcDbEntity
  8
DZIALKI_L_0
  6
CONTINUOUS
370
18
100
AcDb2dPolyline
 66
1
 70
128
  0
VERTEX
  5
91
100
AcDbEntity
  8
DZIALKI_L_0
100
AcDbVertex
100
AcDb2dVertex
 10
7571315.0700000003
 20
5715015.38999999966
  0
VERTEX
  5
92
100
AcDbEntity
  8
DZIALKI_L_0
100
AcDbVertex
100
AcDb2dVertex
 10
7571335.12000000011
 20
5715076.12999999989
  0
SEQEND
  5
93
100
AcDbEntity
  8
DZIALKI_L_0
  0
POLYLINE
  5
94
100
AcDbEntity
  8
DZIALKI_L_0
  6
CONTINUOUS
370
18
100
AcDb2dPolyline
 66
1
 70
128
  0
VERTEX
  5
95
100
AcDbEntity
  8
DZIALKI_L_0
100
AcDbVertex
100
AcDb2dVertex
 10
7571315.0700000003
 20
5715015.38999999966
  0
VERTEX
  5
96
100
AcDbEntity
  8
DZIALKI_L_0
100
AcDbVertex
100
AcDb2dVertex
 10
7571329.50999999978
 20
5715010.6799999997
  0
SEQEND
  5
97
100
AcDbEntity
  8
DZIALKI_L_0
  0
POLYLINE
  5
98
100
AcDbEntity
  8
DZIALKI_L_0
  6
CONTINUOUS
370
18
100
AcDb2dPolyline
 66
1
 70
128
  0
VERTEX
  5
99
100
AcDbEntity
  8
DZIALKI_L_0
100
AcDbVertex
100
AcDb2dVertex
 10
7571315.0700000003
 20
5715015.38999999966
  0
VERTEX
  5
9A
100
AcDbEntity
  8
DZIALKI_L_0
100
AcDbVertex
100
AcDb2dVertex
 10
7571297.62000000011
 20
5715021.08000000007
  0
SEQEND
  5
9B
100
AcDbEntity
  8
DZIALKI_L_0
  0
POLYLINE
  5
9C
100
AcDbEntity
  8
DZIALKI_L_0
  6
CONTINUOUS
370
18
100
AcDb2dPolyline
 66
1
 70
128
  0
VERTEX
  5
9D
100
AcDbEntity
  8
DZIALKI_L_0
100
AcDbVertex
100
AcDb2dVertex
 10
7571315.70999999996
 20
5715077.46999999974
  0
VERTEX
  5
9E
100
AcDbEntity
  8
DZIALKI_L_0
100
AcDbVertex
100
AcDb2dVertex
 10
7571297.62000000011
 20
5715021.08000000007
  0
SEQEND
  5
9F
100
AcDbEntity
  8
DZIALKI_L_0
  0
POLYLINE
  5
A0
100
AcDbEntity
  8
DZIALKI_L_0
  6
CONTINUOUS
370
18
100
AcDb2dPolyline
 66
1
 70
128
  0
VERTEX
  5
A1
100
AcDbEntity
  8
DZIALKI_L_0
100
AcDbVertex
100
AcDb2dVertex
 10
7571332.63999999966
 20
5714997.26999999862
  0
VERTEX
  5
A2
100
AcDbEntity
  8
DZIALKI_L_0
100
AcDbVertex
100
AcDb2dVertex
 10
7571326.51999999955
 20
5714997.84999999963
  0
SEQEND
  5
A3
100
AcDbEntity
  8
DZIALKI_L_0
  0
POLYLINE
  5
A4
100
AcDbEntity
  8
DZIALKI_L_0
  6
CONTINUOUS
370
18
100
AcDb2dPolyline
 66
1
 70
128
  0
VERTEX
  5
A5
100
AcDbEntity
  8
DZIALKI_L_0
100
AcDbVertex
100
AcDb2dVertex
 10
7571202.33000000007
 20
5714604.74000000022
  0
VERTEX
  5
A6
100
AcDbEntity
  8
DZIALKI_L_0
100
AcDbVertex
100
AcDb2dVertex
 10
7571332.63999999966
 20
5714997.26999999862
  0
SEQEND
  5
A7
100
AcDbEntity
  8
DZIALKI_L_0
  0
POLYLINE
  5
A8
100
AcDbEntity
  8
DZIALKI_L_0
  6
CONTINUOUS
370
18
100
AcDb2dPolyline
 66
1
 70
128
  0
VERTEX
  5
A9
100
AcDbEntity
  8
DZIALKI_L_0
100
AcDbVertex
100
AcDb2dVertex
 10
7571339.99000000022
 20
5714996.55999999959
  0
VERTEX
  5
AA
100
AcDbEntity
  8
DZIALKI_L_0
100
AcDbVertex
100
AcDb2dVertex
 10
7571332.63999999966
 20
5714997.26999999862
  0
SEQEND
  5
AB
100
AcDbEntity
  8
DZIALKI_L_0
  0
POLYLINE
  5
AC
100
AcDbEntity
  8
DZIALKI_L_0
  6
CONTINUOUS
370
18
100
AcDb2dPolyline
 66
1
 70
128
  0
VERTEX
  5
AD
100
AcDbEntity
  8
DZIALKI_L_0
100
AcDbVertex
100
AcDb2dVertex
 10
7571375.03000000026
 20
5714991.62999999989
  0
VERTEX
  5
AE
100
AcDbEntity
  8
DZIALKI_L_0
100
AcDbVertex
100
AcDb2dVertex
 10
7571368.04999999981
 20
5714993.90000000037
  0
SEQEND
  5
AF
100
AcDbEntity
  8
DZIALKI_L_0
  0
POLYLINE
  5
B0
100
AcDbEntity
  8
DZIALKI_L_0
  6
CONTINUOUS
370
18
100
AcDb2dPolyline
 66
1
 70
128
  0
VERTEX
  5
B1
100
AcDbEntity
  8
DZIALKI_L_0
100
AcDbVertex
100
AcDb2dVertex
 10
7571281.63999999966
 20
5714710.01999999862
  0
VERTEX
  5
B2
100
AcDbEntity
  8
DZIALKI_L_0
100
AcDbVertex
100
AcDb2dVertex
 10
7571375.03000000026
 20
5714991.62999999989
  0
SEQEND
  5
B3
100
AcDbEntity
  8
DZIALKI_L_0
  0
POLYLINE
  5
B4
100
AcDbEntity
  8
DZIALKI_L_0
  6
CONTINUOUS
370
18
100
AcDb2dPolyline
 66
1
 70
128
  0
VERTEX
  5
B5
100
AcDbEntity
  8
DZIALKI_L_0
100
AcDbVertex
100
AcDb2dVertex
 10
7571196.8200000003
 20
5714606.54000000004
  0
VERTEX
  5
B6
100
AcDbEntity
  8
DZIALKI_L_0
100
AcDbVertex
100
AcDb2dVertex
 10
7571326.51999999955
 20
5714997.84999999963
  0
SEQEND
  5
B7
100
AcDbEntity
  8
DZIALKI_L_0
  0
POLYLINE
  5
B8
100
AcDbEntity
  8
DZIALKI_L_0
  6
CONTINUOUS
370
18
100
AcDb2dPolyline
 66
1
 70
128
  0
VERTEX
  5
B9
100
AcDbEntity
  8
DZIALKI_L_0
100
AcDbVertex
100
AcDb2dVertex
 10
7571353.55999999959
 20
5714995.26999999862
  0
VERTEX
  5
BA
100
AcDbEntity
  8
DZIALKI_L_0
100
AcDbVertex
100
AcDb2dVertex
 10
7571345.91000000015
 20
5714996.0
  0
SEQEND
  5
BB
100
AcDbEntity
  8
DZIALKI_L_0
  0
POLYLINE
  5
BC
100
AcDbEntity
  8
DZIALKI_L_0
  6
CONTINUOUS
370
18
100
AcDb2dPolyline
 66
1
 70
128
  0
VERTEX
  5
BD
100
AcDbEntity
  8
DZIALKI_L_0
100
AcDbVertex
100
AcDb2dVertex
 10
7571261.16999999993
 20
5714716.73000000045
  0
VERTEX
  5
BE
100
AcDbEntity
  8
DZIALKI_L_0
100
AcDbVertex
100
AcDb2dVertex
 10
7571353.55999999959
 20
5714995.26999999862
  0
SEQEND
  5
BF
100
AcDbEntity
  8
DZIALKI_L_0
  0
POLYLINE
  5
C0
100
AcDbEntity
  8
DZIALKI_L_0
  6
CONTINUOUS
370
18
100
AcDb2dPolyline
 66
1
 70
128
  0
VERTEX
  5
C1
100
AcDbEntity
  8
DZIALKI_L_0
100
AcDbVertex
100
AcDb2dVertex
 10
7571337.29000000004
 20
5715003.9299999997
  0
VERTEX
  5
C2
100
AcDbEntity
  8
DZIALKI_L_0
100
AcDbVertex
100
AcDb2dVertex
 10
7571314.70000000019
 20
5715006.36000000034
  0
SEQEND
  5
C3
100
AcDbEntity
  8
DZIALKI_L_0
  0
POLYLINE
  5
C4
100
AcDbEntity
  8
DZIALKI_L_0
  6
CONTINUOUS
370
18
100
AcDb2dPolyline
 66
1
 70
128
  0
VERTEX
  5
C5
100
AcDbEntity
  8
DZIALKI_L_0
100
AcDbVertex
100
AcDb2dVertex
 10
7571209.36000000034
 20
5714602.45000000019
  0
VERTEX
  5
C6
100
AcDbEntity
  8
DZIALKI_L_0
100
AcDbVertex
100
AcDb2dVertex
 10
7571339.99000000022
 20
5714996.55999999959
  0
SEQEND
  5
C7
100
AcDbEntity
  8
DZIALKI_L_0
  0
POLYLINE
  5
C8
100
AcDbEntity
  8
DZIALKI_L_0
  6
CONTINUOUS
370
18
100
AcDb2dPolyline
 66
1
 70
128
  0
VERTEX
  5
C9
100
AcDbEntity
  8
DZIALKI_L_0
100
AcDbVertex
100
AcDb2dVertex
 10
7571345.91000000015
 20
5714996.0
  0
VERTEX
  5
CA
100
AcDbEntity
  8
DZIALKI_L_0
100
AcDbVertex
100
AcDb2dVertex
 10
7571339.99000000022
 20
5714996.55999999959
  0
SEQEND
  5
CB
100
AcDbEntity
  8
DZIALKI_L_0
  0
POLYLINE
  5
CC
100
AcDbEntity
  8
DZIALKI_L_0
  6
CONTINUOUS
370
18
100
AcDb2dPolyline
 66
1
 70
128
  0
VERTEX
  5
CD
100
AcDbEntity
  8
DZIALKI_L_0
100
AcDbVertex
100
AcDb2dVertex
 10
7571214.78000000026
 20
5714600.6799999997
  0
VERTEX
  5
CE
100
AcDbEntity
  8
DZIALKI_L_0
100
AcDbVertex
100
AcDb2dVertex
 10
7571345.91000000015
 20
5714996.0
  0
SEQEND
  5
CF
100
AcDbEntity
  8
DZIALKI_L_0
  0
POLYLINE
  5
D0
100
AcDbEntity
  8
DZIALKI_L_0
  6
CONTINUOUS
370
18
100
AcDb2dPolyline
 66
1
 70
128
  0
VERTEX
  5
D1
100
AcDbEntity
  8
DZIALKI_L_0
100
AcDbVertex
100
AcDb2dVertex
 10
7571392.95999999996
 20
5715076.05999999959
  0
VERTEX
  5
D2
100
AcDbEntity
  8
DZIALKI_L_0
100
AcDbVertex
100
AcDb2dVertex
 10
7571368.05999999959
 20
5715000.83000000007
  0
SEQEND
  5
D3
100
AcDbEntity
  8
DZIALKI_L_0
  0
POLYLINE
  5
D4
100
AcDbEntity
  8
DZIALKI_L_0
  6
CONTINUOUS
370
18
100
AcDb2dPolyline
 66
1
 70
128
  0
VERTEX
  5
D5
100
AcDbEntity
  8
DZIALKI_L_0
100
AcDbVertex
100
AcDb2dVertex
 10
7571288.0
 20
5715002.6799999997
  0
VERTEX
  5
D6
100
AcDbEntity
  8
DZIALKI_L_0
100
AcDbVertex
100
AcDb2dVertex
 10
7571312.41000000015
 20
5714999.46999999974
  0
SEQEND
  5
D7
100
AcDbEntity
  8
DZIALKI_L_0
  0
POLYLINE
  5
D8
100
AcDbEntity
  8
DZIALKI_L_0
  6
CONTINUOUS
370
18
100
AcDb2dPolyline
 66
1
 70
128
  0
VERTEX
  5
D9
100
AcDbEntity
  8
DZIALKI_L_0
100
AcDbVertex
100
AcDb2dVertex
 10
7571326.51999999955
 20
5714997.84999999963
  0
VERTEX
  5
DA
100
AcDbEntity
  8
DZIALKI_L_0
100
AcDbVertex
100
AcDb2dVertex
 10
7571312.41000000015
 20
5714999.46999999974
  0
SEQEND
  5
DB
100
AcDbEntity
  8
DZIALKI_L_0
  0
POLYLINE
  5
DC
100
AcDbEntity
  8
DZIALKI_L_0
  6
CONTINUOUS
370
18
100
AcDb2dPolyline
 66
1
 70
128
  0
VERTEX
  5
DD
100
AcDbEntity
  8
DZIALKI_L_0
100
AcDbVertex
100
AcDb2dVertex
 10
7571368.04999999981
 20
5714993.90000000037
  0
VERTEX
  5
DE
100
AcDbEntity
  8
DZIALKI_L_0
100
AcDbVertex
100
AcDb2dVertex
 10
7571386.33000000007
 20
5714992.15000000037
  0
SEQEND
  5
DF
100
AcDbEntity
  8
DZIALKI_L_0
  0
POLYLINE
  5
E0
100
AcDbEntity
  8
DZIALKI_L_0
  6
CONTINUOUS
370
18
100
AcDb2dPolyline
 66
1
 70
128
  0
VERTEX
  5
E1
100
AcDbEntity
  8
DZIALKI_L_0
100
AcDbVertex
100
AcDb2dVertex
 10
7571269.09999999963
 20
5715005.16000000015
  0
VERTEX
  5
E2
100
AcDbEntity
  8
DZIALKI_L_0
100
AcDbVertex
100
AcDb2dVertex
 10
7571288.0
 20
5715002.6799999997
  0
SEQEND
  5
E3
100
AcDbEntity
  8
DZIALKI_L_0
  0
POLYLINE
  5
E4
100
AcDbEntity
  8
DZIALKI_L_0
  6
CONTINUOUS
370
18
100
AcDb2dPolyline
 66
1
 70
128
  0
VERTEX
  5
E5
100
AcDbEntity
  8
DZIALKI_L_0
100
AcDbVertex
100
AcDb2dVertex
 10
7571356.54000000004
 20
5715001.86000000034
  0
VERTEX
  5
E6
100
AcDbEntity
  8
DZIALKI_L_0
100
AcDbVertex
100
AcDb2dVertex
 10
7571357.53000000026
 20
5715001.75999999978
  0
SEQEND
  5
E7
100
AcDbEntity
  8
DZIALKI_L_0
  0
POLYLINE
  5
E8
100
AcDbEntity
  8
DZIALKI_L_0
  6
CONTINUOUS
370
18
100
AcDb2dPolyline
 66
1
 70
128
  0
VERTEX
  5
E9
100
AcDbEntity
  8
DZIALKI_L_0
100
AcDbVertex
100
AcDb2dVertex
 10
7571290.24000000022
 20
5715009.4299999997
  0
VERTEX
  5
EA
100
AcDbEntity
  8
DZIALKI_L_0
100
AcDbVertex
100
AcDb2dVertex
 10
7571281.78000000026
 20
5715010.50999999978
  0
SEQEND
  5
EB
100
AcDbEntity
  8
DZIALKI_L_0
  0
POLYLINE
  5
EC
100
AcDbEntity
  8
DZIALKI_L_0
  6
CONTINUOUS
370
18
100
AcDb2dPolyline
 66
1
 70
128
  0
VERTEX
  5
ED
100
AcDbEntity
  8
DZIALKI_L_0
100
AcDbVertex
100
AcDb2dVertex
 10
7571281.78000000026
 20
5715010.50999999978
  0
VERTEX
  5
EE
100
AcDbEntity
  8
DZIALKI_L_0
100
AcDbVertex
100
AcDb2dVertex
 10
7571265.58000000007
 20
5715013.79000000004
  0
SEQEND
  5
EF
100
AcDbEntity
  8
DZIALKI_L_0
  0
POLYLINE
  5
F0
100
AcDbEntity
  8
DZIALKI_L_0
  6
CONTINUOUS
370
18
100
AcDb2dPolyline
 66
1
 70
128
  0
VERTEX
  5
F1
100
AcDbEntity
  8
DZIALKI_L_0
100
AcDbVertex
100
AcDb2dVertex
 10
7571380.26999999955
 20
5714999.79000000004
  0
VERTEX
  5
F2
100
AcDbEntity
  8
DZIALKI_L_0
100
AcDbVertex
100
AcDb2dVertex
 10
7571372.88999999966
 20
5715000.4299999997
  0
SEQEND
  5
F3
100
AcDbEntity
  8
DZIALKI_L_0
  0
POLYLINE
  5
F4
100
AcDbEntity
  8
DZIALKI_L_0
  6
CONTINUOUS
370
18
100
AcDb2dPolyline
 66
1
 70
128
  0
VERTEX
  5
F5
100
AcDbEntity
  8
DZIALKI_L_0
100
AcDbVertex
100
AcDb2dVertex
 10
7571368.05999999959
 20
5715000.83000000007
  0
VERTEX
  5
F6
100
AcDbEntity
  8
DZIALKI_L_0
100
AcDbVertex
100
AcDb2dVertex
 10
7571372.88999999966
 20
5715000.4299999997
  0
SEQEND
  5
F7
100
AcDbEntity
  8
DZIALKI_L_0
  0
POLYLINE
  5
F8
100
AcDbEntity
  8
DZIALKI_L_0
  6
CONTINUOUS
370
18
100
AcDb2dPolyline
 66
1
 70
128
  0
VERTEX
  5
F9
100
AcDbEntity
  8
DZIALKI_L_0
100
AcDbVertex
100
AcDb2dVertex
 10
7571312.41000000015
 20
5714999.46999999974
  0
VERTEX
  5
FA
100
AcDbEntity
  8
DZIALKI_L_0
100
AcDbVertex
100
AcDb2dVertex
 10
7571183.50999999978
 20
5714610.88999999966
  0
SEQEND
  5
FB
100
AcDbEntity
  8
DZIALKI_L_0
  0
POLYLINE
  5
FC
100
AcDbEntity
  8
DZIALKI_L_0
  6
CONTINUOUS
370
18
100
AcDb2dPolyline
 66
1
 70
128
  0
VERTEX
  5
FD
100
AcDbEntity
  8
DZIALKI_L_0
100
AcDbVertex
100
AcDb2dVertex
 10
7571387.63999999966
 20
5714999.16000000015
  0
VERTEX
  5
FE
100
AcDbEntity
  8
DZIALKI_L_0
100
AcDbVertex
100
AcDb2dVertex
 10
7571380.26999999955
 20
5714999.79000000004
  0
SEQEND
  5
FF
100
AcDbEntity
  8
DZIALKI_L_0
  0
POLYLINE
  5
100
100
AcDbEntity
  8
DZIALKI_L_0
  6
CONTINUOUS
370
18
100
AcDb2dPolyline
 66
1
 70
128
  0
VERTEX
  5
101
100
AcDbEntity
  8
DZIALKI_L_0
100
AcDbVertex
100
AcDb2dVertex
 10
7571386.33000000007
 20
5714992.15000000037
  0
VERTEX
  5
102
100
AcDbEntity
  8
DZIALKI_L_0
100
AcDbVertex
100
AcDb2dVertex
 10
7571415.66000000015
 20
5714989.62000000011
  0
SEQEND
  5
103
100
AcDbEntity
  8
DZIALKI_L_0
  0
POLYLINE
  5
104
100
AcDbEntity
  8
DZIALKI_L_0
  6
CONTINUOUS
370
18
100
AcDb2dPolyline
 66
1
 70
128
  0
VERTEX
  5
105
100
AcDbEntity
  8
DZIALKI_L_0
100
AcDbVertex
100
AcDb2dVertex
 10
7571417.91999999993
 20
5714996.54999999981
  0
VERTEX
  5
106
100
AcDbEntity
  8
DZIALKI_L_0
100
AcDbVertex
100
AcDb2dVertex
 10
7571405.51999999955
 20
5714997.62000000011
  0
SEQEND
  5
107
100
AcDbEntity
  8
DZIALKI_L_0
  0
POLYLINE
  5
108
100
AcDbEntity
  8
DZIALKI_L_0
  6
CONTINUOUS
370
18
100
AcDb2dPolyline
 66
1
 70
128
  0
VERTEX
  5
109
100
AcDbEntity
  8
DZIALKI_L_0
100
AcDbVertex
100
AcDb2dVertex
 10
7571405.51999999955
 20
5714997.62000000011
  0
VERTEX
  5
10A
100
AcDbEntity
  8
DZIALKI_L_0
100
AcDbVertex
100
AcDb2dVertex
 10
7571387.63999999966
 20
5714999.16000000015
  0
SEQEND
  5
10B
100
AcDbEntity
  8
DZIALKI_L_0
  0
POLYLINE
  5
10C
100
AcDbEntity
  8
DZIALKI_L_0
  6
CONTINUOUS
370
18
100
AcDb2dPolyline
 66
1
 70
128
  0
VERTEX
  5
10D
100
AcDbEntity
  8
DZIALKI_L_0
100
AcDbVertex
100
AcDb2dVertex
 10
7571383.3200000003
 20
5715076.24000000022
  0
VERTEX
  5
10E
100
AcDbEntity
  8
DZIALKI_L_0
100
AcDbVertex
100
AcDb2dVertex
 10
7571357.53000000026
 20
5715001.75999999978
  0
SEQEND
  5
10F
100
AcDbEntity
  8
DZIALKI_L_0
  0
POLYLINE
  5
110
100
AcDbEntity
  8
DZIALKI_L_0
  6
CONTINUOUS
370
18
100
AcDb2dPolyline
 66
1
 70
128
  0
VERTEX
  5
111
100
AcDbEntity
  8
DZIALKI_L_0
100
AcDbVertex
100
AcDb2dVertex
 10
7571298.33999999985
 20
5715082.04999999981
  0
VERTEX
  5
112
100
AcDbEntity
  8
DZIALKI_L_0
100
AcDbVertex
100
AcDb2dVertex
 10
7571280.37999999989
 20
5715026.70000000019
  0
SEQEND
  5
113
100
AcDbEntity
  8
DZIALKI_L_0
  0
POLYLINE
  5
114
100
AcDbEntity
  8
krzyze_500
  6
CONTINUOUS
370
18
100
AcDb2dPolyline
 66
1
 70
128
  0
VERTEX
  5
115
100
AcDbEntity
  8
krzyze_500
100
AcDbVertex
100
AcDb2dVertex
 10
7571250.0
 20
5714947.5
  0
VERTEX
  5
116
100
AcDbEntity
  8
krzyze_500
100
AcDbVertex
100
AcDb2dVertex
 10
7571250.0
 20
5714952.5
  0
SEQEND
  5
117
100
AcDbEntity
  8
krzyze_500
  0
POLYLINE
  5
118
100
AcDbEntity
  8
krzyze_500
  6
CONTINUOUS
370
18
100
AcDb2dPolyline
 66
1
 70
128
  0
VERTEX
  5
119
100
AcDbEntity
  8
krzyze_500
100
AcDbVertex
100
AcDb2dVertex
 10
7571247.5
 20
5714950.0
  0
VERTEX
  5
11A
100
AcDbEntity
  8
krzyze_500
100
AcDbVertex
100
AcDb2dVertex
 10
7571252.5
 20
5714950.0
  0
SEQEND
  5
11B
100
AcDbEntity
  8
krzyze_500
  0
POLYLINE
  5
11C
100
AcDbEntity
  8
krzyze_500
  6
CONTINUOUS
370
18
100
AcDb2dPolyline
 66
1
 70
128
  0
VERTEX
  5
11D
100
AcDbEntity
  8
krzyze_500
100
AcDbVertex
100
AcDb2dVertex
 10
7571300.0
 20
5714947.5
  0
VERTEX
  5
11E
100
AcDbEntity
  8
krzyze_500
100
AcDbVertex
100
AcDb2dVertex
 10
7571300.0
 20
5714952.5
  0
SEQEND
  5
11F
100
AcDbEntity
  8
krzyze_500
  0
POLYLINE
  5
120
100
AcDbEntity
  8
krzyze_500
  6
CONTINUOUS
370
18
100
AcDb2dPolyline
 66
1
 70
128
  0
VERTEX
  5
121
100
AcDbEntity
  8
krzyze_500
100
AcDbVertex
100
AcDb2dVertex
 10
7571297.5
 20
5714950.0
  0
VERTEX
  5
122
100
AcDbEntity
  8
krzyze_500
100
AcDbVertex
100
AcDb2dVertex
 10
7571302.5
 20
5714950.0
  0
SEQEND
  5
123
100
AcDbEntity
  8
krzyze_500
  0
POLYLINE
  5
124
100
AcDbEntity
  8
krzyze_500
  6
CONTINUOUS
370
18
100
AcDb2dPolyline
 66
1
 70
128
  0
VERTEX
  5
125
100
AcDbEntity
  8
krzyze_500
100
AcDbVertex
100
AcDb2dVertex
 10
7571350.0
 20
5714947.5
  0
VERTEX
  5
126
100
AcDbEntity
  8
krzyze_500
100
AcDbVertex
100
AcDb2dVertex
 10
7571350.0
 20
5714952.5
  0
SEQEND
  5
127
100
AcDbEntity
  8
krzyze_500
  0
POLYLINE
  5
128
100
AcDbEntity
  8
krzyze_500
  6
CONTINUOUS
370
18
100
AcDb2dPolyline
 66
1
 70
128
  0
VERTEX
  5
129
100
AcDbEntity
  8
krzyze_500
100
AcDbVertex
100
AcDb2dVertex
 10
7571347.5
 20
5714950.0
  0
VERTEX
  5
12A
100
AcDbEntity
  8
krzyze_500
100
AcDbVertex
100
AcDb2dVertex
 10
7571352.5
 20
5714950.0
  0
SEQEND
  5
12B
100
AcDbEntity
  8
krzyze_500
  0
POLYLINE
  5
12C
100
AcDbEntity
  8
krzyze_500
  6
CONTINUOUS
370
18
100
AcDb2dPolyline
 66
1
 70
128
  0
VERTEX
  5
12D
100
AcDbEntity
  8
krzyze_500
100
AcDbVertex
100
AcDb2dVertex
 10
7571400.0
 20
5714947.5
  0
VERTEX
  5
12E
100
AcDbEntity
  8
krzyze_500
100
AcDbVertex
100
AcDb2dVertex
 10
7571400.0
 20
5714952.5
  0
SEQEND
  5
12F
100
AcDbEntity
  8
krzyze_500
  0
POLYLINE
  5
130
100
AcDbEntity
  8
krzyze_500
  6
CONTINUOUS
370
18
100
AcDb2dPolyline
 66
1
 70
128
  0
VERTEX
  5
131
100
AcDbEntity
  8
krzyze_500
100
AcDbVertex
100
AcDb2dVertex
 10
7571397.5
 20
5714950.0
  0
VERTEX
  5
132
100
AcDbEntity
  8
krzyze_500
100
AcDbVertex
100
AcDb2dVertex
 10
7571402.5
 20
5714950.0
  0
SEQEND
  5
133
100
AcDbEntity
  8
krzyze_500
  0
POLYLINE
  5
134
100
AcDbEntity
  8
krzyze_500
  6
CONTINUOUS
370
18
100
AcDb2dPolyline
 66
1
 70
128
  0
VERTEX
  5
135
100
AcDbEntity
  8
krzyze_500
100
AcDbVertex
100
AcDb2dVertex
 10
7571450.0
 20
5714947.5
  0
VERTEX
  5
136
100
AcDbEntity
  8
krzyze_500
100
AcDbVertex
100
AcDb2dVertex
 10
7571450.0
 20
5714952.5
  0
SEQEND
  5
137
100
AcDbEntity
  8
krzyze_500
  0
POLYLINE
  5
138
100
AcDbEntity
  8
krzyze_500
  6
CONTINUOUS
370
18
100
AcDb2dPolyline
 66
1
 70
128
  0
VERTEX
  5
139
100
AcDbEntity
  8
krzyze_500
100
AcDbVertex
100
AcDb2dVertex
 10
7571447.5
 20
5714950.0
  0
VERTEX
  5
13A
100
AcDbEntity
  8
krzyze_500
100
AcDbVertex
100
AcDb2dVertex
 10
7571452.5
 20
5714950.0
  0
SEQEND
  5
13B
100
AcDbEntity
  8
krzyze_500
  0
POLYLINE
  5
13C
100
AcDbEntity
  8
krzyze_500
  6
CONTINUOUS
370
18
100
AcDb2dPolyline
 66
1
 70
128
  0
VERTEX
  5
13D
100
AcDbEntity
  8
krzyze_500
100
AcDbVertex
100
AcDb2dVertex
 10
7571500.0
 20
5714947.5
  0
VERTEX
  5
13E
100
AcDbEntity
  8
krzyze_500
100
AcDbVertex
100
AcDb2dVertex
 10
7571500.0
 20
5714952.5
  0
SEQEND
  5
13F
100
AcDbEntity
  8
krzyze_500
  0
POLYLINE
  5
140
100
AcDbEntity
  8
krzyze_500
  6
CONTINUOUS
370
18
100
AcDb2dPolyline
 66
1
 70
128
  0
VERTEX
  5
141
100
AcDbEntity
  8
krzyze_500
100
AcDbVertex
100
AcDb2dVertex
 10
7571497.5
 20
5714950.0
  0
VERTEX
  5
142
100
AcDbEntity
  8
krzyze_500
100
AcDbVertex
100
AcDb2dVertex
 10
7571502.5
 20
5714950.0
  0
SEQEND
  5
143
100
AcDbEntity
  8
krzyze_500
  0
POLYLINE
  5
144
100
AcDbEntity
  8
krzyze_500
  6
CONTINUOUS
370
18
100
AcDb2dPolyline
 66
1
 70
128
  0
VERTEX
  5
145
100
AcDbEntity
  8
krzyze_500
100
AcDbVertex
100
AcDb2dVertex
 10
7571250.0
 20
5714997.5
  0
VERTEX
  5
146
100
AcDbEntity
  8
krzyze_500
100
AcDbVertex
100
AcDb2dVertex
 10
7571250.0
 20
5715002.5
  0
SEQEND
  5
147
100
AcDbEntity
  8
krzyze_500
  0
POLYLINE
  5
148
100
AcDbEntity
  8
krzyze_500
  6
CONTINUOUS
370
18
100
AcDb2dPolyline
 66
1
 70
128
  0
VERTEX
  5
149
100
AcDbEntity
  8
krzyze_500
100
AcDbVertex
100
AcDb2dVertex
 10
7571247.5
 20
5715000.0
  0
VERTEX
  5
14A
100
AcDbEntity
  8
krzyze_500
100
AcDbVertex
100
AcDb2dVertex
 10
7571252.5
 20
5715000.0
  0
SEQEND
  5
14B
100
AcDbEntity
  8
krzyze_500
  0
POLYLINE
  5
14C
100
AcDbEntity
  8
krzyze_500
  6
CONTINUOUS
370
18
100
AcDb2dPolyline
 66
1
 70
128
  0
VERTEX
  5
14D
100
AcDbEntity
  8
krzyze_500
100
AcDbVertex
100
AcDb2dVertex
 10
7571300.0
 20
5714997.5
  0
VERTEX
  5
14E
100
AcDbEntity
  8
krzyze_500
100
AcDbVertex
100
AcDb2dVertex
 10
7571300.0
 20
5715002.5
  0
SEQEND
  5
14F
100
AcDbEntity
  8
krzyze_500
  0
POLYLINE
  5
150
100
AcDbEntity
  8
krzyze_500
  6
CONTINUOUS
370
18
100
AcDb2dPolyline
 66
1
 70
128
  0
VERTEX
  5
151
100
AcDbEntity
  8
krzyze_500
100
AcDbVertex
100
AcDb2dVertex
 10
7571297.5
 20
5715000.0
  0
VERTEX
  5
152
100
AcDbEntity
  8
krzyze_500
100
AcDbVertex
100
AcDb2dVertex
 10
7571302.5
 20
5715000.0
  0
SEQEND
  5
153
100
AcDbEntity
  8
krzyze_500
  0
POLYLINE
  5
154
100
AcDbEntity
  8
krzyze_500
  6
CONTINUOUS
370
18
100
AcDb2dPolyline
 66
1
 70
128
  0
VERTEX
  5
155
100
AcDbEntity
  8
krzyze_500
100
AcDbVertex
100
AcDb2dVertex
 10
7571350.0
 20
5714997.5
  0
VERTEX
  5
156
100
AcDbEntity
  8
krzyze_500
100
AcDbVertex
100
AcDb2dVertex
 10
7571350.0
 20
5715002.5
  0
SEQEND
  5
157
100
AcDbEntity
  8
krzyze_500
  0
POLYLINE
  5
158
100
AcDbEntity
  8
krzyze_500
  6
CONTINUOUS
370
18
100
AcDb2dPolyline
 66
1
 70
128
  0
VERTEX
  5
159
100
AcDbEntity
  8
krzyze_500
100
AcDbVertex
100
AcDb2dVertex
 10
7571347.5
 20
5715000.0
  0
VERTEX
  5
15A
100
AcDbEntity
  8
krzyze_500
100
AcDbVertex
100
AcDb2dVertex
 10
7571352.5
 20
5715000.0
  0
SEQEND
  5
15B
100
AcDbEntity
  8
krzyze_500
  0
POLYLINE
  5
15C
100
AcDbEntity
  8
krzyze_500
  6
CONTINUOUS
370
18
100
AcDb2dPolyline
 66
1
 70
128
  0
VERTEX
  5
15D
100
AcDbEntity
  8
krzyze_500
100
AcDbVertex
100
AcDb2dVertex
 10
7571400.0
 20
5714997.5
  0
VERTEX
  5
15E
100
AcDbEntity
  8
krzyze_500
100
AcDbVertex
100
AcDb2dVertex
 10
7571400.0
 20
5715002.5
  0
SEQEND
  5
15F
100
AcDbEntity
  8
krzyze_500
  0
POLYLINE
  5
160
100
AcDbEntity
  8
krzyze_500
  6
CONTINUOUS
370
18
100
AcDb2dPolyline
 66
1
 70
128
  0
VERTEX
  5
161
100
AcDbEntity
  8
krzyze_500
100
AcDbVertex
100
AcDb2dVertex
 10
7571397.5
 20
5715000.0
  0
VERTEX
  5
162
100
AcDbEntity
  8
krzyze_500
100
AcDbVertex
100
AcDb2dVertex
 10
7571402.5
 20
5715000.0
  0
SEQEND
  5
163
100
AcDbEntity
  8
krzyze_500
  0
POLYLINE
  5
164
100
AcDbEntity
  8
krzyze_500
  6
CONTINUOUS
370
18
100
AcDb2dPolyline
 66
1
 70
128
  0
VERTEX
  5
165
100
AcDbEntity
  8
krzyze_500
100
AcDbVertex
100
AcDb2dVertex
 10
7571450.0
 20
5714997.5
  0
VERTEX
  5
166
100
AcDbEntity
  8
krzyze_500
100
AcDbVertex
100
AcDb2dVertex
 10
7571450.0
 20
5715002.5
  0
SEQEND
  5
167
100
AcDbEntity
  8
krzyze_500
  0
POLYLINE
  5
168
100
AcDbEntity
  8
krzyze_500
  6
CONTINUOUS
370
18
100
AcDb2dPolyline
 66
1
 70
128
  0
VERTEX
  5
169
100
AcDbEntity
  8
krzyze_500
100
AcDbVertex
100
AcDb2dVertex
 10
7571447.5
 20
5715000.0
  0
VERTEX
  5
16A
100
AcDbEntity
  8
krzyze_500
100
AcDbVertex
100
AcDb2dVertex
 10
7571452.5
 20
5715000.0
  0
SEQEND
  5
16B
100
AcDbEntity
  8
krzyze_500
  0
POLYLINE
  5
16C
100
AcDbEntity
  8
krzyze_500
  6
CONTINUOUS
370
18
100
AcDb2dPolyline
 66
1
 70
128
  0
VERTEX
  5
16D
100
AcDbEntity
  8
krzyze_500
100
AcDbVertex
100
AcDb2dVertex
 10
7571500.0
 20
5714997.5
  0
VERTEX
  5
16E
100
AcDbEntity
  8
krzyze_500
100
AcDbVertex
100
AcDb2dVertex
 10
7571500.0
 20
5715002.5
  0
SEQEND
  5
16F
100
AcDbEntity
  8
krzyze_500
  0
POLYLINE
  5
170
100
AcDbEntity
  8
krzyze_500
  6
CONTINUOUS
370
18
100
AcDb2dPolyline
 66
1
 70
128
  0
VERTEX
  5
171
100
AcDbEntity
  8
krzyze_500
100
AcDbVertex
100
AcDb2dVertex
 10
7571497.5
 20
5715000.0
  0
VERTEX
  5
172
100
AcDbEntity
  8
krzyze_500
100
AcDbVertex
100
AcDb2dVertex
 10
7571502.5
 20
5715000.0
  0
SEQEND
  5
173
100
AcDbEntity
  8
krzyze_500
  0
POLYLINE
  5
174
100
AcDbEntity
  8
krzyze_500
  6
CONTINUOUS
370
18
100
AcDb2dPolyline
 66
1
 70
128
  0
VERTEX
  5
175
100
AcDbEntity
  8
krzyze_500
100
AcDbVertex
100
AcDb2dVertex
 10
7571250.0
 20
5715047.5
  0
VERTEX
  5
176
100
AcDbEntity
  8
krzyze_500
100
AcDbVertex
100
AcDb2dVertex
 10
7571250.0
 20
5715052.5
  0
SEQEND
  5
177
100
AcDbEntity
  8
krzyze_500
  0
POLYLINE
  5
178
100
AcDbEntity
  8
krzyze_500
  6
CONTINUOUS
370
18
100
AcDb2dPolyline
 66
1
 70
128
  0
VERTEX
  5
179
100
AcDbEntity
  8
krzyze_500
100
AcDbVertex
100
AcDb2dVertex
 10
7571247.5
 20
5715050.0
  0
VERTEX
  5
17A
100
AcDbEntity
  8
krzyze_500
100
AcDbVertex
100
AcDb2dVertex
 10
7571252.5
 20
5715050.0
  0
SEQEND
  5
17B
100
AcDbEntity
  8
krzyze_500
  0
POLYLINE
  5
17C
100
AcDbEntity
  8
krzyze_500
  6
CONTINUOUS
370
18
100
AcDb2dPolyline
 66
1
 70
128
  0
VERTEX
  5
17D
100
AcDbEntity
  8
krzyze_500
100
AcDbVertex
100
AcDb2dVertex
 10
7571300.0
 20
5715047.5
  0
VERTEX
  5
17E
100
AcDbEntity
  8
krzyze_500
100
AcDbVertex
100
AcDb2dVertex
 10
7571300.0
 20
5715052.5
  0
SEQEND
  5
17F
100
AcDbEntity
  8
krzyze_500
  0
POLYLINE
  5
180
100
AcDbEntity
  8
krzyze_500
  6
CONTINUOUS
370
18
100
AcDb2dPolyline
 66
1
 70
128
  0
VERTEX
  5
181
100
AcDbEntity
  8
krzyze_500
100
AcDbVertex
100
AcDb2dVertex
 10
7571297.5
 20
5715050.0
  0
VERTEX
  5
182
100
AcDbEntity
  8
krzyze_500
100
AcDbVertex
100
AcDb2dVertex
 10
7571302.5
 20
5715050.0
  0
SEQEND
  5
183
100
AcDbEntity
  8
krzyze_500
  0
POLYLINE
  5
184
100
AcDbEntity
  8
krzyze_500
  6
CONTINUOUS
370
18
100
AcDb2dPolyline
 66
1
 70
128
  0
VERTEX
  5
185
100
AcDbEntity
  8
krzyze_500
100
AcDbVertex
100
AcDb2dVertex
 10
7571350.0
 20
5715047.5
  0
VERTEX
  5
186
100
AcDbEntity
  8
krzyze_500
100
AcDbVertex
100
AcDb2dVertex
 10
7571350.0
 20
5715052.5
  0
SEQEND
  5
187
100
AcDbEntity
  8
krzyze_500
  0
POLYLINE
  5
188
100
AcDbEntity
  8
krzyze_500
  6
CONTINUOUS
370
18
100
AcDb2dPolyline
 66
1
 70
128
  0
VERTEX
  5
189
100
AcDbEntity
  8
krzyze_500
100
AcDbVertex
100
AcDb2dVertex
 10
7571347.5
 20
5715050.0
  0
VERTEX
  5
18A
100
AcDbEntity
  8
krzyze_500
100
AcDbVertex
100
AcDb2dVertex
 10
7571352.5
 20
5715050.0
  0
SEQEND
  5
18B
100
AcDbEntity
  8
krzyze_500
  0
POLYLINE
  5
18C
100
AcDbEntity
  8
krzyze_500
  6
CONTINUOUS
370
18
100
AcDb2dPolyline
 66
1
 70
128
  0
VERTEX
  5
18D
100
AcDbEntity
  8
krzyze_500
100
AcDbVertex
100
AcDb2dVertex
 10
7571400.0
 20
5715047.5
  0
VERTEX
  5
18E
100
AcDbEntity
  8
krzyze_500
100
AcDbVertex
100
AcDb2dVertex
 10
7571400.0
 20
5715052.5
  0
SEQEND
  5
18F
100
AcDbEntity
  8
krzyze_500
  0
POLYLINE
  5
190
100
AcDbEntity
  8
krzyze_500
  6
CONTINUOUS
370
18
100
AcDb2dPolyline
 66
1
 70
128
  0
VERTEX
  5
191
100
AcDbEntity
  8
krzyze_500
100
AcDbVertex
100
AcDb2dVertex
 10
7571397.5
 20
5715050.0
  0
VERTEX
  5
192
100
AcDbEntity
  8
krzyze_500
100
AcDbVertex
100
AcDb2dVertex
 10
7571402.5
 20
5715050.0
  0
SEQEND
  5
193
100
AcDbEntity
  8
krzyze_500
  0
POLYLINE
  5
194
100
AcDbEntity
  8
krzyze_500
  6
CONTINUOUS
370
18
100
AcDb2dPolyline
 66
1
 70
128
  0
VERTEX
  5
195
100
AcDbEntity
  8
krzyze_500
100
AcDbVertex
100
AcDb2dVertex
 10
7571450.0
 20
5715047.5
  0
VERTEX
  5
196
100
AcDbEntity
  8
krzyze_500
100
AcDbVertex
100
AcDb2dVertex
 10
7571450.0
 20
5715052.5
  0
SEQEND
  5
197
100
AcDbEntity
  8
krzyze_500
  0
POLYLINE
  5
198
100
AcDbEntity
  8
krzyze_500
  6
CONTINUOUS
370
18
100
AcDb2dPolyline
 66
1
 70
128
  0
VERTEX
  5
199
100
AcDbEntity
  8
krzyze_500
100
AcDbVertex
100
AcDb2dVertex
 10
7571447.5
 20
5715050.0
  0
VERTEX
  5
19A
100
AcDbEntity
  8
krzyze_500
100
AcDbVertex
100
AcDb2dVertex
 10
7571452.5
 20
5715050.0
  0
SEQEND
  5
19B
100
AcDbEntity
  8
krzyze_500
  0
POLYLINE
  5
19C
100
AcDbEntity
  8
krzyze_500
  6
CONTINUOUS
370
18
100
AcDb2dPolyline
 66
1
 70
128
  0
VERTEX
  5
19D
100
AcDbEntity
  8
krzyze_500
100
AcDbVertex
100
AcDb2dVertex
 10
7571500.0
 20
5715047.5
  0
VERTEX
  5
19E
100
AcDbEntity
  8
krzyze_500
100
AcDbVertex
100
AcDb2dVertex
 10
7571500.0
 20
5715052.5
  0
SEQEND
  5
19F
100
AcDbEntity
  8
krzyze_500
  0
POLYLINE
  5
1A0
100
AcDbEntity
  8
krzyze_500
  6
CONTINUOUS
370
18
100
AcDb2dPolyline
 66
1
 70
128
  0
VERTEX
  5
1A1
100
AcDbEntity
  8
krzyze_500
100
AcDbVertex
100
AcDb2dVertex
 10
7571497.5
 20
5715050.0
  0
VERTEX
  5
1A2
100
AcDbEntity
  8
krzyze_500
100
AcDbVertex
100
AcDb2dVertex
 10
7571502.5
 20
5715050.0
  0
SEQEND
  5
1A3
100
AcDbEntity
  8
krzyze_500
  0
POLYLINE
  5
1A4
100
AcDbEntity
  8
krzyze_500
  6
CONTINUOUS
370
18
100
AcDb2dPolyline
 66
1
 70
128
  0
VERTEX
  5
1A5
100
AcDbEntity
  8
krzyze_500
100
AcDbVertex
100
AcDb2dVertex
 10
7571250.0
 20
5715097.5
  0
VERTEX
  5
1A6
100
AcDbEntity
  8
krzyze_500
100
AcDbVertex
100
AcDb2dVertex
 10
7571250.0
 20
5715102.5
  0
SEQEND
  5
1A7
100
AcDbEntity
  8
krzyze_500
  0
POLYLINE
  5
1A8
100
AcDbEntity
  8
krzyze_500
  6
CONTINUOUS
370
18
100
AcDb2dPolyline
 66
1
 70
128
  0
VERTEX
  5
1A9
100
AcDbEntity
  8
krzyze_500
100
AcDbVertex
100
AcDb2dVertex
 10
7571247.5
 20
5715100.0
  0
VERTEX
  5
1AA
100
AcDbEntity
  8
krzyze_500
100
AcDbVertex
100
AcDb2dVertex
 10
7571252.5
 20
5715100.0
  0
SEQEND
  5
1AB
100
AcDbEntity
  8
krzyze_500
  0
POLYLINE
  5
1AC
100
AcDbEntity
  8
krzyze_500
  6
CONTINUOUS
370
18
100
AcDb2dPolyline
 66
1
 70
128
  0
VERTEX
  5
1AD
100
AcDbEntity
  8
krzyze_500
100
AcDbVertex
100
AcDb2dVertex
 10
7571300.0
 20
5715097.5
  0
VERTEX
  5
1AE
100
AcDbEntity
  8
krzyze_500
100
AcDbVertex
100
AcDb2dVertex
 10
7571300.0
 20
5715102.5
  0
SEQEND
  5
1AF
100
AcDbEntity
  8
krzyze_500
  0
POLYLINE
  5
1B0
100
AcDbEntity
  8
krzyze_500
  6
CONTINUOUS
370
18
100
AcDb2dPolyline
 66
1
 70
128
  0
VERTEX
  5
1B1
100
AcDbEntity
  8
krzyze_500
100
AcDbVertex
100
AcDb2dVertex
 10
7571297.5
 20
5715100.0
  0
VERTEX
  5
1B2
100
AcDbEntity
  8
krzyze_500
100
AcDbVertex
100
AcDb2dVertex
 10
7571302.5
 20
5715100.0
  0
SEQEND
  5
1B3
100
AcDbEntity
  8
krzyze_500
  0
POLYLINE
  5
1B4
100
AcDbEntity
  8
krzyze_500
  6
CONTINUOUS
370
18
100
AcDb2dPolyline
 66
1
 70
128
  0
VERTEX
  5
1B5
100
AcDbEntity
  8
krzyze_500
100
AcDbVertex
100
AcDb2dVertex
 10
7571350.0
 20
5715097.5
  0
VERTEX
  5
1B6
100
AcDbEntity
  8
krzyze_500
100
AcDbVertex
100
AcDb2dVertex
 10
7571350.0
 20
5715102.5
  0
SEQEND
  5
1B7
100
AcDbEntity
  8
krzyze_500
  0
POLYLINE
  5
1B8
100
AcDbEntity
  8
krzyze_500
  6
CONTINUOUS
370
18
100
AcDb2dPolyline
 66
1
 70
128
  0
VERTEX
  5
1B9
100
AcDbEntity
  8
krzyze_500
100
AcDbVertex
100
AcDb2dVertex
 10
7571347.5
 20
5715100.0
  0
VERTEX
  5
1BA
100
AcDbEntity
  8
krzyze_500
100
AcDbVertex
100
AcDb2dVertex
 10
7571352.5
 20
5715100.0
  0
SEQEND
  5
1BB
100
AcDbEntity
  8
krzyze_500
  0
POLYLINE
  5
1BC
100
AcDbEntity
  8
krzyze_500
  6
CONTINUOUS
370
18
100
AcDb2dPolyline
 66
1
 70
128
  0
VERTEX
  5
1BD
100
AcDbEntity
  8
krzyze_500
100
AcDbVertex
100
AcDb2dVertex
 10
7571400.0
 20
5715097.5
  0
VERTEX
  5
1BE
100
AcDbEntity
  8
krzyze_500
100
AcDbVertex
100
AcDb2dVertex
 10
7571400.0
 20
5715102.5
  0
SEQEND
  5
1BF
100
AcDbEntity
  8
krzyze_500
  0
POLYLINE
  5
1C0
100
AcDbEntity
  8
krzyze_500
  6
CONTINUOUS
370
18
100
AcDb2dPolyline
 66
1
 70
128
  0
VERTEX
  5
1C1
100
AcDbEntity
  8
krzyze_500
100
AcDbVertex
100
AcDb2dVertex
 10
7571397.5
 20
5715100.0
  0
VERTEX
  5
1C2
100
AcDbEntity
  8
krzyze_500
100
AcDbVertex
100
AcDb2dVertex
 10
7571402.5
 20
5715100.0
  0
SEQEND
  5
1C3
100
AcDbEntity
  8
krzyze_500
  0
POLYLINE
  5
1C4
100
AcDbEntity
  8
krzyze_500
  6
CONTINUOUS
370
18
100
AcDb2dPolyline
 66
1
 70
128
  0
VERTEX
  5
1C5
100
AcDbEntity
  8
krzyze_500
100
AcDbVertex
100
AcDb2dVertex
 10
7571450.0
 20
5715097.5
  0
VERTEX
  5
1C6
100
AcDbEntity
  8
krzyze_500
100
AcDbVertex
100
AcDb2dVertex
 10
7571450.0
 20
5715102.5
  0
SEQEND
  5
1C7
100
AcDbEntity
  8
krzyze_500
  0
POLYLINE
  5
1C8
100
AcDbEntity
  8
krzyze_500
  6
CONTINUOUS
370
18
100
AcDb2dPolyline
 66
1
 70
128
  0
VERTEX
  5
1C9
100
AcDbEntity
  8
krzyze_500
100
AcDbVertex
100
AcDb2dVertex
 10
7571447.5
 20
5715100.0
  0
VERTEX
  5
1CA
100
AcDbEntity
  8
krzyze_500
100
AcDbVertex
100
AcDb2dVertex
 10
7571452.5
 20
5715100.0
  0
SEQEND
  5
1CB
100
AcDbEntity
  8
krzyze_500
  0
POLYLINE
  5
1CC
100
AcDbEntity
  8
krzyze_500
  6
CONTINUOUS
370
18
100
AcDb2dPolyline
 66
1
 70
128
  0
VERTEX
  5
1CD
100
AcDbEntity
  8
krzyze_500
100
AcDbVertex
100
AcDb2dVertex
 10
7571500.0
 20
5715097.5
  0
VERTEX
  5
1CE
100
AcDbEntity
  8
krzyze_500
100
AcDbVertex
100
AcDb2dVertex
 10
7571500.0
 20
5715102.5
  0
SEQEND
  5
1CF
100
AcDbEntity
  8
krzyze_500
  0
POLYLINE
  5
1D0
100
AcDbEntity
  8
krzyze_500
  6
CONTINUOUS
370
18
100
AcDb2dPolyline
 66
1
 70
128
  0
VERTEX
  5
1D1
100
AcDbEntity
  8
krzyze_500
100
AcDbVertex
100
AcDb2dVertex
 10
7571497.5
 20
5715100.0
  0
VERTEX
  5
1D2
100
AcDbEntity
  8
krzyze_500
100
AcDbVertex
100
AcDb2dVertex
 10
7571502.5
 20
5715100.0
  0
SEQEND
  5
1D3
100
AcDbEntity
  8
krzyze_500
  0
POLYLINE
  5
1D4
100
AcDbEntity
  8
krzyze_500
  6
CONTINUOUS
370
18
100
AcDb2dPolyline
 66
1
 70
128
  0
VERTEX
  5
1D5
100
AcDbEntity
  8
krzyze_500
100
AcDbVertex
100
AcDb2dVertex
 10
7571250.0
 20
5715147.5
  0
VERTEX
  5
1D6
100
AcDbEntity
  8
krzyze_500
100
AcDbVertex
100
AcDb2dVertex
 10
7571250.0
 20
5715152.5
  0
SEQEND
  5
1D7
100
AcDbEntity
  8
krzyze_500
  0
POLYLINE
  5
1D8
100
AcDbEntity
  8
krzyze_500
  6
CONTINUOUS
370
18
100
AcDb2dPolyline
 66
1
 70
128
  0
VERTEX
  5
1D9
100
AcDbEntity
  8
krzyze_500
100
AcDbVertex
100
AcDb2dVertex
 10
7571247.5
 20
5715150.0
  0
VERTEX
  5
1DA
100
AcDbEntity
  8
krzyze_500
100
AcDbVertex
100
AcDb2dVertex
 10
7571252.5
 20
5715150.0
  0
SEQEND
  5
1DB
100
AcDbEntity
  8
krzyze_500
  0
POLYLINE
  5
1DC
100
AcDbEntity
  8
krzyze_500
  6
CONTINUOUS
370
18
100
AcDb2dPolyline
 66
1
 70
128
  0
VERTEX
  5
1DD
100
AcDbEntity
  8
krzyze_500
100
AcDbVertex
100
AcDb2dVertex
 10
7571300.0
 20
5715147.5
  0
VERTEX
  5
1DE
100
AcDbEntity
  8
krzyze_500
100
AcDbVertex
100
AcDb2dVertex
 10
7571300.0
 20
5715152.5
  0
SEQEND
  5
1DF
100
AcDbEntity
  8
krzyze_500
  0
POLYLINE
  5
1E0
100
AcDbEntity
  8
krzyze_500
  6
CONTINUOUS
370
18
100
AcDb2dPolyline
 66
1
 70
128
  0
VERTEX
  5
1E1
100
AcDbEntity
  8
krzyze_500
100
AcDbVertex
100
AcDb2dVertex
 10
7571297.5
 20
5715150.0
  0
VERTEX
  5
1E2
100
AcDbEntity
  8
krzyze_500
100
AcDbVertex
100
AcDb2dVertex
 10
7571302.5
 20
5715150.0
  0
SEQEND
  5
1E3
100
AcDbEntity
  8
krzyze_500
  0
POLYLINE
  5
1E4
100
AcDbEntity
  8
krzyze_500
  6
CONTINUOUS
370
18
100
AcDb2dPolyline
 66
1
 70
128
  0
VERTEX
  5
1E5
100
AcDbEntity
  8
krzyze_500
100
AcDbVertex
100
AcDb2dVertex
 10
7571350.0
 20
5715147.5
  0
VERTEX
  5
1E6
100
AcDbEntity
  8
krzyze_500
100
AcDbVertex
100
AcDb2dVertex
 10
7571350.0
 20
5715152.5
  0
SEQEND
  5
1E7
100
AcDbEntity
  8
krzyze_500
  0
POLYLINE
  5
1E8
100
AcDbEntity
  8
krzyze_500
  6
CONTINUOUS
370
18
100
AcDb2dPolyline
 66
1
 70
128
  0
VERTEX
  5
1E9
100
AcDbEntity
  8
krzyze_500
100
AcDbVertex
100
AcDb2dVertex
 10
7571347.5
 20
5715150.0
  0
VERTEX
  5
1EA
100
AcDbEntity
  8
krzyze_500
100
AcDbVertex
100
AcDb2dVertex
 10
7571352.5
 20
5715150.0
  0
SEQEND
  5
1EB
100
AcDbEntity
  8
krzyze_500
  0
POLYLINE
  5
1EC
100
AcDbEntity
  8
krzyze_500
  6
CONTINUOUS
370
18
100
AcDb2dPolyline
 66
1
 70
128
  0
VERTEX
  5
1ED
100
AcDbEntity
  8
krzyze_500
100
AcDbVertex
100
AcDb2dVertex
 10
7571400.0
 20
5715147.5
  0
VERTEX
  5
1EE
100
AcDbEntity
  8
krzyze_500
100
AcDbVertex
100
AcDb2dVertex
 10
7571400.0
 20
5715152.5
  0
SEQEND
  5
1EF
100
AcDbEntity
  8
krzyze_500
  0
POLYLINE
  5
1F0
100
AcDbEntity
  8
krzyze_500
  6
CONTINUOUS
370
18
100
AcDb2dPolyline
 66
1
 70
128
  0
VERTEX
  5
1F1
100
AcDbEntity
  8
krzyze_500
100
AcDbVertex
100
AcDb2dVertex
 10
7571397.5
 20
5715150.0
  0
VERTEX
  5
1F2
100
AcDbEntity
  8
krzyze_500
100
AcDbVertex
100
AcDb2dVertex
 10
7571402.5
 20
5715150.0
  0
SEQEND
  5
1F3
100
AcDbEntity
  8
krzyze_500
  0
POLYLINE
  5
1F4
100
AcDbEntity
  8
krzyze_500
  6
CONTINUOUS
370
18
100
AcDb2dPolyline
 66
1
 70
128
  0
VERTEX
  5
1F5
100
AcDbEntity
  8
krzyze_500
100
AcDbVertex
100
AcDb2dVertex
 10
7571450.0
 20
5715147.5
  0
VERTEX
  5
1F6
100
AcDbEntity
  8
krzyze_500
100
AcDbVertex
100
AcDb2dVertex
 10
7571450.0
 20
5715152.5
  0
SEQEND
  5
1F7
100
AcDbEntity
  8
krzyze_500
  0
POLYLINE
  5
1F8
100
AcDbEntity
  8
krzyze_500
  6
CONTINUOUS
370
18
100
AcDb2dPolyline
 66
1
 70
128
  0
VERTEX
  5
1F9
100
AcDbEntity
  8
krzyze_500
100
AcDbVertex
100
AcDb2dVertex
 10
7571447.5
 20
5715150.0
  0
VERTEX
  5
1FA
100
AcDbEntity
  8
krzyze_500
100
AcDbVertex
100
AcDb2dVertex
 10
7571452.5
 20
5715150.0
  0
SEQEND
  5
1FB
100
AcDbEntity
  8
krzyze_500
  0
POLYLINE
  5
1FC
100
AcDbEntity
  8
krzyze_500
  6
CONTINUOUS
370
18
100
AcDb2dPolyline
 66
1
 70
128
  0
VERTEX
  5
1FD
100
AcDbEntity
  8
krzyze_500
100
AcDbVertex
100
AcDb2dVertex
 10
7571500.0
 20
5715147.5
  0
VERTEX
  5
1FE
100
AcDbEntity
  8
krzyze_500
100
AcDbVertex
100
AcDb2dVertex
 10
7571500.0
 20
5715152.5
  0
SEQEND
  5
1FF
100
AcDbEntity
  8
krzyze_500
  0
POLYLINE
  5
200
100
AcDbEntity
  8
krzyze_500
  6
CONTINUOUS
370
18
100
AcDb2dPolyline
 66
1
 70
128
  0
VERTEX
  5
201
100
AcDbEntity
  8
krzyze_500
100
AcDbVertex
100
AcDb2dVertex
 10
7571497.5
 20
5715150.0
  0
VERTEX
  5
202
100
AcDbEntity
  8
krzyze_500
100
AcDbVertex
100
AcDb2dVertex
 10
7571502.5
 20
5715150.0
  0
SEQEND
  5
203
100
AcDbEntity
  8
krzyze_500
  0
POLYLINE
  5
204
100
AcDbEntity
  8
krzyze_500
  6
CONTINUOUS
370
18
100
AcDb2dPolyline
 66
1
 70
128
  0
VERTEX
  5
205
100
AcDbEntity
  8
krzyze_500
100
AcDbVertex
100
AcDb2dVertex
 10
7571250.0
 20
5715197.5
  0
VERTEX
  5
206
100
AcDbEntity
  8
krzyze_500
100
AcDbVertex
100
AcDb2dVertex
 10
7571250.0
 20
5715202.5
  0
SEQEND
  5
207
100
AcDbEntity
  8
krzyze_500
  0
POLYLINE
  5
208
100
AcDbEntity
  8
krzyze_500
  6
CONTINUOUS
370
18
100
AcDb2dPolyline
 66
1
 70
128
  0
VERTEX
  5
209
100
AcDbEntity
  8
krzyze_500
100
AcDbVertex
100
AcDb2dVertex
 10
7571247.5
 20
5715200.0
  0
VERTEX
  5
20A
100
AcDbEntity
  8
krzyze_500
100
AcDbVertex
100
AcDb2dVertex
 10
7571252.5
 20
5715200.0
  0
SEQEND
  5
20B
100
AcDbEntity
  8
krzyze_500
  0
POLYLINE
  5
20C
100
AcDbEntity
  8
krzyze_500
  6
CONTINUOUS
370
18
100
AcDb2dPolyline
 66
1
 70
128
  0
VERTEX
  5
20D
100
AcDbEntity
  8
krzyze_500
100
AcDbVertex
100
AcDb2dVertex
 10
7571300.0
 20
5715197.5
  0
VERTEX
  5
20E
100
AcDbEntity
  8
krzyze_500
100
AcDbVertex
100
AcDb2dVertex
 10
7571300.0
 20
5715202.5
  0
SEQEND
  5
20F
100
AcDbEntity
  8
krzyze_500
  0
POLYLINE
  5
210
100
AcDbEntity
  8
krzyze_500
  6
CONTINUOUS
370
18
100
AcDb2dPolyline
 66
1
 70
128
  0
VERTEX
  5
211
100
AcDbEntity
  8
krzyze_500
100
AcDbVertex
100
AcDb2dVertex
 10
7571297.5
 20
5715200.0
  0
VERTEX
  5
212
100
AcDbEntity
  8
krzyze_500
100
AcDbVertex
100
AcDb2dVertex
 10
7571302.5
 20
5715200.0
  0
SEQEND
  5
213
100
AcDbEntity
  8
krzyze_500
  0
POLYLINE
  5
214
100
AcDbEntity
  8
krzyze_500
  6
CONTINUOUS
370
18
100
AcDb2dPolyline
 66
1
 70
128
  0
VERTEX
  5
215
100
AcDbEntity
  8
krzyze_500
100
AcDbVertex
100
AcDb2dVertex
 10
7571350.0
 20
5715197.5
  0
VERTEX
  5
216
100
AcDbEntity
  8
krzyze_500
100
AcDbVertex
100
AcDb2dVertex
 10
7571350.0
 20
5715202.5
  0
SEQEND
  5
217
100
AcDbEntity
  8
krzyze_500
  0
POLYLINE
  5
218
100
AcDbEntity
  8
krzyze_500
  6
CONTINUOUS
370
18
100
AcDb2dPolyline
 66
1
 70
128
  0
VERTEX
  5
219
100
AcDbEntity
  8
krzyze_500
100
AcDbVertex
100
AcDb2dVertex
 10
7571347.5
 20
5715200.0
  0
VERTEX
  5
21A
100
AcDbEntity
  8
krzyze_500
100
AcDbVertex
100
AcDb2dVertex
 10
7571352.5
 20
5715200.0
  0
SEQEND
  5
21B
100
AcDbEntity
  8
krzyze_500
  0
POLYLINE
  5
21C
100
AcDbEntity
  8
krzyze_500
  6
CONTINUOUS
370
18
100
AcDb2dPolyline
 66
1
 70
128
  0
VERTEX
  5
21D
100
AcDbEntity
  8
krzyze_500
100
AcDbVertex
100
AcDb2dVertex
 10
7571400.0
 20
5715197.5
  0
VERTEX
  5
21E
100
AcDbEntity
  8
krzyze_500
100
AcDbVertex
100
AcDb2dVertex
 10
7571400.0
 20
5715202.5
  0
SEQEND
  5
21F
100
AcDbEntity
  8
krzyze_500
  0
POLYLINE
  5
220
100
AcDbEntity
  8
krzyze_500
  6
CONTINUOUS
370
18
100
AcDb2dPolyline
 66
1
 70
128
  0
VERTEX
  5
221
100
AcDbEntity
  8
krzyze_500
100
AcDbVertex
100
AcDb2dVertex
 10
7571397.5
 20
5715200.0
  0
VERTEX
  5
222
100
AcDbEntity
  8
krzyze_500
100
AcDbVertex
100
AcDb2dVertex
 10
7571402.5
 20
5715200.0
  0
SEQEND
  5
223
100
AcDbEntity
  8
krzyze_500
  0
POLYLINE
  5
224
100
AcDbEntity
  8
krzyze_500
  6
CONTINUOUS
370
18
100
AcDb2dPolyline
 66
1
 70
128
  0
VERTEX
  5
225
100
AcDbEntity
  8
krzyze_500
100
AcDbVertex
100
AcDb2dVertex
 10
7571450.0
 20
5715197.5
  0
VERTEX
  5
226
100
AcDbEntity
  8
krzyze_500
100
AcDbVertex
100
AcDb2dVertex
 10
7571450.0
 20
5715202.5
  0
SEQEND
  5
227
100
AcDbEntity
  8
krzyze_500
  0
POLYLINE
  5
228
100
AcDbEntity
  8
krzyze_500
  6
CONTINUOUS
370
18
100
AcDb2dPolyline
 66
1
 70
128
  0
VERTEX
  5
229
100
AcDbEntity
  8
krzyze_500
100
AcDbVertex
100
AcDb2dVertex
 10
7571447.5
 20
5715200.0
  0
VERTEX
  5
22A
100
AcDbEntity
  8
krzyze_500
100
AcDbVertex
100
AcDb2dVertex
 10
7571452.5
 20
5715200.0
  0
SEQEND
  5
22B
100
AcDbEntity
  8
krzyze_500
  0
POLYLINE
  5
22C
100
AcDbEntity
  8
krzyze_500
  6
CONTINUOUS
370
18
100
AcDb2dPolyline
 66
1
 70
128
  0
VERTEX
  5
22D
100
AcDbEntity
  8
krzyze_500
100
AcDbVertex
100
AcDb2dVertex
 10
7571500.0
 20
5715197.5
  0
VERTEX
  5
22E
100
AcDbEntity
  8
krzyze_500
100
AcDbVertex
100
AcDb2dVertex
 10
7571500.0
 20
5715202.5
  0
SEQEND
  5
22F
100
AcDbEntity
  8
krzyze_500
  0
POLYLINE
  5
230
100
AcDbEntity
  8
krzyze_500
  6
CONTINUOUS
370
18
100
AcDb2dPolyline
 66
1
 70
128
  0
VERTEX
  5
231
100
AcDbEntity
  8
krzyze_500
100
AcDbVertex
100
AcDb2dVertex
 10
7571497.5
 20
5715200.0
  0
VERTEX
  5
232
100
AcDbEntity
  8
krzyze_500
100
AcDbVertex
100
AcDb2dVertex
 10
7571502.5
 20
5715200.0
  0
SEQEND
  5
233
100
AcDbEntity
  8
krzyze_500
  0
TEXT
  5
234
100
AcDbEntity
  8
krzyze_500
370
18
100
AcDbText
 39
0.18
 10
7571350.28770904616
 20
5715004.0878919391
 40
0.90
  1
-10.12-
 50
-18.00
 41
0.66
  7
STANDARD
 72
1
 11
7571351.69291796163
 21
5715003.31587321777
100
AcDbText
 73
1
  0
TEXT
  5
235
100
AcDbEntity
  8
krzyze_500
370
18
100
AcDbText
 39
0.18
 10
7571336.77270904556
 20
5715008.49789193925
 40
0.90
  1
-18.31-
 50
-18.00
 41
0.66
  7
STANDARD
 72
1
 11
7571338.17791796103
 21
5715007.72587321792
100
AcDbText
 73
1
  0
TEXT
  5
236
100
AcDbEntity
  8
krzyze_500
370
18
100
AcDbText
 39
0.18
 10
7571320.84770904575
 20
5715013.69289193954
 40
0.90
  1
-15.19-
 50
-18.00
 41
0.66
  7
STANDARD
 72
1
 11
7571322.25291796122
 21
5715012.92087321822
100
AcDbText
 73
1
  0
TEXT
  5
237
100
AcDbEntity
  8
krzyze_500
370
18
100
AcDbText
 39
0.18
 10
7571304.90270904638
 20
5715018.8928919388
 40
0.90
  1
-18.35-
 50
-18.00
 41
0.66
  7
STANDARD
 72
1
 11
7571306.30791796185
 21
5715018.12087321747
100
AcDbText
 73
1
  0
TEXT
  5
238
100
AcDbEntity
  8
krzyze_500
370
18
100
AcDbText
 39
0.18
 10
7571320.63668138348
 20
5715077.18658533972
 40
0.90
  1
-13.02-
 50
-5.00
 41
0.66
  7
STANDARD
 72
1
 11
7571322.1795413103
 21
5715076.75045663491
100
AcDbText
 73
1
  0
TEXT
  5
239
100
AcDbEntity
  8
krzyze_500
370
18
100
AcDbText
 39
0.18
 10
7571330.5483470438
 20
5715076.40353333298
 40
0.90
  1
-6.45-
 50
-1.00
 41
0.66
  7
STANDARD
 72
1
 11
7571331.89290571026
 21
5715076.08001827635
100
AcDbText
 73
1
  0
TEXT
  5
23A
100
AcDbEntity
  8
krzyze_500
370
18
100
AcDbText
 39
0.18
 10
7571341.02338131424
 20
5715076.17746012472
 40
0.90
  1
-14.95-
 50
-1.00
 41
0.66
  7
STANDARD
 72
1
 11
7571342.59290571138
 21
5715075.85001827683
100
AcDbText
 73
1
  0
TEXT
  5
23B
100
AcDbEntity
  8
krzyze_500
370
18
100
AcDbText
 39
0.18
 10
7571359.34467753861
 20
5715076.25492364075
 40
0.90
  1
-21.72-
 50
-358.00
 41
0.66
  7
STANDARD
 72
1
 11
7571360.92918794043
 21
5715076.01007310022
100
AcDbText
 73
1
  0
TEXT
  5
23C
100
AcDbEntity
  8
krzyze_500
370
18
100
AcDbText
 39
0.18
 10
7571375.97838131432
 20
5715076.55246012565
 40
0.90
  1
-11.54-
 50
-1.00
 41
0.66
  7
STANDARD
 72
1
 11
7571377.54790571146
 21
5715076.22501827776
100
AcDbText
 73
1
  0
TEXT
  5
23D
100
AcDbEntity
  8
krzyze_500
370
18
100
AcDbText
 39
0.18
 10
7571313.79770904593
 20
5715011.78289193939
 40
0.90
  1
-46.39-
 50
-18.00
 41
0.66
  7
STANDARD
 72
1
 11
7571315.2029179614
 21
5715011.01087321807
100
AcDbText
 73
1
  0
TEXT
  5
23E
100
AcDbEntity
  8
krzyze_500
370
18
100
AcDbText
 39
0.18
 10
7571291.12663688418
 20
5715012.64669676218
 40
0.90
  1
-9.37-
 50
-288.00
 41
0.66
  7
STANDARD
 72
1
 11
7571291.82912678178
 21
5715013.83791796118
100
AcDbText
 73
1
  0
TEXT
  5
23F
100
AcDbEntity
  8
krzyze_500
370
18
100
AcDbText
 39
0.18
 10
7571299.31367629301
 20
5715008.44060252327
 40
0.90
  1
-21.40-
 50
-7.00
 41
0.66
  7
STANDARD
 72
1
 11
7571300.84037567954
 21
5715007.95089446194
100
AcDbText
 73
1
  0
TEXT
  5
240
100
AcDbEntity
  8
krzyze_500
370
18
100
AcDbText
 39
0.18
 10
7571311.76121056452
 20
5715006.85512736719
 40
0.90
  1
-3.25-
 50
-6.00
 41
0.66
  7
STANDARD
 72
1
 11
7571313.07245658431
 21
5715006.41565737315
100
AcDbText
 73
1
  0
TEXT
  5
241
100
AcDbEntity
  8
krzyze_500
370
18
100
AcDbText
 39
0.18
 10
7571324.44744313881
 20
5715005.48864627071
 40
0.90
  1
-22.72-
 50
-6.00
 41
0.66
  7
STANDARD
 72
1
 11
7571325.98245658446
 21
5715005.02565737255
100
AcDbText
 73
1
  0
TEXT
  5
242
100
AcDbEntity
  8
krzyze_500
370
18
100
AcDbText
 39
0.18
 10
7571287.55770904571
 20
5715024.54789193999
 40
0.90
  1
-18.13-
 50
-18.00
 41
0.66
  7
STANDARD
 72
1
 11
7571288.96291796118
 21
5715023.77587321866
100
AcDbText
 73
1
  0
TEXT
  5
243
100
AcDbEntity
  8
krzyze_500
370
18
100
AcDbText
 39
0.18
 10
7571305.55025425181
 20
5715080.34150664508
 40
0.90
  1
-17.96-
 50
-15.00
 41
0.66
  7
STANDARD
 72
1
 11
7571306.99394171499
 21
5715079.64408890065
100
AcDbText
 73
1
  0
TEXT
  5
244
100
AcDbEntity
  8
krzyze_500
370
18
100
AcDbText
 39
0.18
 10
7571288.70210806001
 20
5715052.93270904571
 40
0.90
  1
-58.19-
 50
-288.00
 41
0.66
  7
STANDARD
 72
1
 11
7571289.47412678134
 21
5715054.33791796118
100
AcDbText
 73
1
  0
TEXT
  5
245
100
AcDbEntity
  8
krzyze_500
370
18
100
AcDbText
 39
0.18
 10
7571306.00710806064
 20
5715047.83270904608
 40
0.90
  1
-59.22-
 50
-288.00
 41
0.66
  7
STANDARD
 72
1
 11
7571306.77912678197
 21
5715049.23791796155
100
AcDbText
 73
1
  0
TEXT
  5
246
100
AcDbEntity
  8
krzyze_500
370
18
100
AcDbText
 39
0.18
 10
7571324.43710806128
 20
5715044.31770904548
 40
0.90
  1
-63.96-
 50
-288.00
 41
0.66
  7
STANDARD
 72
1
 11
7571325.2091267826
 21
5715045.72291796096
100
AcDbText
 73
1
  0
TEXT
  5
247
100
AcDbEntity
  8
krzyze_500
370
18
100
AcDbText
 39
0.18
 10
7571339.13210806064
 20
5715041.80270904489
 40
0.90
  1
-68.30-
 50
-288.00
 41
0.66
  7
STANDARD
 72
1
 11
7571339.90412678197
 21
5715043.20791796036
100
AcDbText
 73
1
  0
TEXT
  5
248
100
AcDbEntity
  8
krzyze_500
370
18
100
AcDbText
 39
0.18
 10
7571358.66703681275
 20
5715039.29441051092
 40
0.90
  1
-75.65-
 50
-289.00
 41
0.66
  7
STANDARD
 72
1
 11
7571359.46346222889
 21
5715040.68593182135
100
AcDbText
 73
1
  0
TEXT
  5
249
100
AcDbEntity
  8
krzyze_500
370
18
100
AcDbText
 39
0.18
 10
7571369.74203681387
 20
5715037.56941051129
 40
0.90
  1
-78.82-
 50
-289.00
 41
0.66
  7
STANDARD
 72
1
 11
7571370.53846223
 21
5715038.96093182173
100
AcDbText
 73
1
  0
TEXT
  5
24A
100
AcDbEntity
  8
NR_DZIALKI_T_0
370
25
100
AcDbText
 39
0.25
 10
7571326.52507518884
 20
5714995.1889687432
 40
1.25
  1
8-96/4
 50
0.00
 41
0.66
  7
STANDARD
 72
0
 11
7571326.52507518884
 21
5714996.4389687432
100
AcDbText
 73
3
  0
TEXT
  5
24B
100
AcDbEntity
  8
NR_DZIALKI_T_0
370
25
100
AcDbText
 39
0.25
 10
7571333.19999999646
 20
5714994.42999999691
 40
1.25
  1
8-96/3
 50
0.00
 41
0.66
  7
STANDARD
 72
0
 11
7571333.19999999646
 21
5714995.67999999691
100
AcDbText
 73
3
  0
TEXT
  5
24C
100
AcDbEntity
  8
NR_DZIALKI_T_0
370
25
100
AcDbText
 39
0.25
 10
7571339.52399793267
 20
5714992.54614583123
 40
1.25
  1
8-96/2
 50
0.00
 41
0.66
  7
STANDARD
 72
0
 11
7571339.52399793267
 21
5714993.79614583123
100
AcDbText
 73
3
  0
TEXT
  5
24D
100
AcDbEntity
  8
NR_DZIALKI_T_0
370
25
100
AcDbText
 39
0.25
 10
7571354.27691203728
 20
5714992.4201848153
 40
1.25
  1
8-97
 50
0.00
 41
0.66
  7
STANDARD
 72
0
 11
7571354.27691203728
 21
5714993.6701848153
100
AcDbText
 73
3
  0
TEXT
  5
24E
100
AcDbEntity
  8
NR_DZIALKI_T_0
370
25
100
AcDbText
 39
0.25
 10
7571321.28994618356
 20
5715010.0166284712
 40
1.25
  1
8-242/1
 50
0.00
 41
0.66
  7
STANDARD
 72
0
 11
7571321.28994618356
 21
5715011.2666284712
100
AcDbText
 73
3
  0
TEXT
  5
24F
100
AcDbEntity
  8
NR_DZIALKI_T_0
370
25
100
AcDbText
 39
0.25
 10
7571351.36922006868
 20
5715050.51361228153
 40
1.25
  1
8-85
 50
0.00
 41
0.66
  7
STANDARD
 72
0
 11
7571351.36922006868
 21
5715051.76361228153
100
AcDbText
 73
3
  0
TEXT
  5
250
100
AcDbEntity
  8
NR_DZIALKI_T_0
370
25
100
AcDbText
 39
0.25
 10
7571372.26999999583
 20
5715083.41999999713
 40
1.25
  1
8-240
 50
0.00
 41
0.66
  7
STANDARD
 72
0
 11
7571372.26999999583
 21
5715084.66999999713
100
AcDbText
 73
3
  0
TEXT
  5
251
100
AcDbEntity
  8
NR_DZIALKI_T_0
370
25
100
AcDbText
 39
0.25
 10
7571345.79731827695
 20
5714991.03534607403
 40
1.25
  1
8-96/1
 50
0.00
 41
0.66
  7
STANDARD
 72
0
 11
7571345.79731827695
 21
5714992.28534607403
100
AcDbText
 73
3
  0
TEXT
  5
252
100
AcDbEntity
  8
NR_DZIALKI_T_0
370
25
100
AcDbText
 39
0.25
 10
7571365.447457253
 20
5715048.10295522958
 40
1.25
  1
8-86/1
 50
0.00
 41
0.66
  7
STANDARD
 72
0
 11
7571365.447457253
 21
5715049.35295522958
100
AcDbText
 73
3
  0
TEXT
  5
253
100
AcDbEntity
  8
NR_DZIALKI_T_0
370
25
100
AcDbText
 39
0.25
 10
7571330.78776170779
 20
5715000.60184603464
 40
1.25
  1
8-244
 50
0.00
 41
0.66
  7
STANDARD
 72
0
 11
7571330.78776170779
 21
5715001.85184603464
100
AcDbText
 73
3
  0
TEXT
  5
254
100
AcDbEntity
  8
NR_DZIALKI_T_0
370
25
100
AcDbText
 39
0.25
 10
7571314.58999999613
 20
5714993.11999999732
 40
1.25
  1
8-96/10
 50
0.00
 41
0.66
  7
STANDARD
 72
0
 11
7571314.58999999613
 21
5714994.36999999732
100
AcDbText
 73
3
  0
TEXT
  5
255
100
AcDbEntity
  8
NR_DZIALKI_T_0
370
25
100
AcDbText
 39
0.25
 10
7571375.37936431076
 20
5715045.78872446064
 40
1.25
  1
8-86/2
 50
0.00
 41
0.66
  7
STANDARD
 72
0
 11
7571375.37936431076
 21
5715047.03872446064
100
AcDbText
 73
3
  0
TEXT
  5
256
100
AcDbEntity
  8
NR_DZIALKI_T_0
370
25
100
AcDbText
 39
0.25
 10
7571299.70000000019
 20
5715011.80999999959
 40
1.25
  1
8-95/1
 50
0.00
 41
0.66
  7
STANDARD
 72
0
 11
7571299.70000000019
 21
5715013.05999999959
100
AcDbText
 73
3
  0
TEXT
  5
257
100
AcDbEntity
  8
NR_DZIALKI_T_0
370
25
100
AcDbText
 39
0.25
 10
7571333.53035787866
 20
5715052.92426933534
 40
1.25
  1
8-84
 50
0.00
 41
0.66
  7
STANDARD
 72
0
 11
7571333.53035787866
 21
5715054.17426933534
100
AcDbText
 73
3
  0
TEXT
  5
258
100
AcDbEntity
  8
NR_DZIALKI_T_0
370
25
100
AcDbText
 39
0.25
 10
7571318.87356299628
 20
5715055.04564754106
 40
1.25
  1
8-83
 50
0.00
 41
0.66
  7
STANDARD
 72
0
 11
7571318.87356299628
 21
5715056.29564754106
100
AcDbText
 73
3
  0
TEXT
  5
259
100
AcDbEntity
  8
NR_DZIALKI_T_0
370
25
100
AcDbText
 39
0.25
 10
7571298.00999999605
 20
5715054.84999999683
 40
1.25
  1
8-82/1
 50
0.00
 41
0.66
  7
STANDARD
 72
0
 11
7571298.00999999605
 21
5715056.09999999683
100
AcDbText
 73
3
  0
ENDSEC
  0
SECTION
  2
OBJECTS
  0
DICTIONARY
  5
25A
330
0
100
AcDbDictionary
280
0
281
1
  3
ACAD_GROUP
350
25B
  3
ACAD_LAYOUT
350
25C
  3
ACAD_MLINESTYLE
350
25D
  3
ACAD_PLOTSETTINGS
350
25E
  3
ACAD_PLOTSTYLENAME
350
25F
  3
ACAD_WIPEOUT_VARS
350
260
  0
DICTIONARY
  5
25B
102
{ACAD_REACTORS
330
25A
102
}
330
25A
100
AcDbDictionary
280
0
281
1
  0
DICTIONARY
  5
25C
102
{ACAD_REACTORS
330
25A
102
}
330
25A
100
AcDbDictionary
280
0
281
1
  3
Layout
350
1E
  3
Model
350
1C
  0
DICTIONARY
  5
25D
102
{ACAD_REACTORS
330
25A
102
}
330
25A
100
AcDbDictionary
280
0
281
1
  3
Standard
350
261
  0
DICTIONARY
  5
25E
102
{ACAD_REACTORS
330
25A
102
}
330
25A
100
AcDbDictionary
280
0
281
1
  0
ACDBDICTIONARYWDFLT
  5
25F
102
{ACAD_REACTORS
330
25A
102
}
330
25A
100
AcDbDictionary
281
1
  3
Normal
350
D
100
AcDbDictionaryWithDefault
340
D
  0
WIPEOUTVARIABLES
  5
260
102
{ACAD_REACTORS
330
25A
102
}
330
25A
100
AcDbWipeoutVariables
 70
0
  0
LAYOUT
  5
1E
100
AcDbPlotSettings
  1

  2

  4

  6

 40
0.0
 41
0.0
 42
0.0
 43
0.0
 44
0.0
 45
0.0
 46
0.0
 47
0.0
 48
0.0
 49
0.0
140
0.0
141
0.0
142
1.0
143
1.0
 70
688
 72
1
 73
0
 74
5
  7

 75
0
147
1.0
148
0.0
149
0.0
100
AcDbLayout
  1
Layout
 70
1
 71
1
 10
0.0
 20
0.0
 11
420.0
 21
297.0
 12
0.0
 22
0.0
 32
0.0
 14
100000000000000000000.0
 24
100000000000000000000.0
 34
100000000000000000000.0
 15
-100000000000000000000.0
 25
-100000000000000000000.0
 35
-100000000000000000000.0
146
0.0
 13
0.0
 23
0.0
 33
0.0
 16
1.0
 26
0.0
 36
0.0
 17
0.0
 27
1.0
 37
0.0
 76
0
330
1D
  0
LAYOUT
  5
1C
100
AcDbPlotSettings
  1

  2

  4

  6

 40
0.0
 41
0.0
 42
0.0
 43
0.0
 44
0.0
 45
0.0
 46
0.0
 47
0.0
 48
0.0
 49
0.0
140
0.0
141
0.0
142
1.0
143
1.0
 70
1712
 72
1
 73
0
 74
0
  7

 75
0
147
1.0
148
0.0
149
0.0
100
AcDbLayout
  1
Model
 70
1
 71
0
 10
0.0
 20
0.0
 11
12.0
 21
9.0
 12
0.0
 22
0.0
 32
0.0
 14
0.0
 24
0.0
 34
0.0
 15
0.0
 25
0.0
 35
0.0
146
0.0
 13
0.0
 23
0.0
 33
0.0
 16
1.0
 26
0.0
 36
0.0
 17
0.0
 27
1.0
 37
0.0
 76
0
330
1B
  0
MLINESTYLE
  5
261
102
{ACAD_REACTORS
330
25D
102
}
330
25D
100
AcDbMlineStyle
  2
Standard
 70
0
  3

 62
256
 51
90.0
 52
90.0
  2
Standard
 71
2
 49
0.5
 62
256
  6
ByLayer
 49
-0.5
 62
256
  6
ByLayer
  0
ACDBPLACEHOLDER
  5
D
  0
ENDSEC
  0
EOF
