  0
SECTION
  2
HEADER
  9
$ACADVER
  1
AC1018
  9
$ACADMAINTVER
 70
   104
  9
$DWGCODEPAGE
  3
ANSI_1250
  9
$LASTSAVEDBY
  1
Dell
  9
$INSBASE
 10
0.0
 20
0.0
 30
0.0
  9
$EXTMIN
 10
7571111.889999998
 20
5714557.9
 30
0.0
  9
$EXTMAX
 10
7571556.11
 20
5715272.599999999
 30
0.25
  9
$LIMMIN
 10
7571111.889999998
 20
5714557.9
  9
$LIMMAX
 10
7571556.11
 20
5715272.599999999
  9
$ORTHOMODE
 70
     0
  9
$REGENMODE
 70
     1
  9
$FILLMODE
 70
     1
  9
$QTEXTMODE
 70
     0
  9
$MIRRTEXT
 70
     0
  9
$LTSCALE
 40
1.0
  9
$ATTMODE
 70
     1
  9
$TEXTSIZE
 40
0.2
  9
$TRACEWID
 40
0.05
  9
$TEXTSTYLE
  7
STANDARD
  9
$CLAYER
  8
0
  9
$CELTYPE
  6
CONTINUOUS
  9
$CECOLOR
 62
   256
  9
$CELTSCALE
 40
1.0
  9
$DISPSILH
 70
     0
  9
$DIMSCALE
 40
1.0
  9
$DIMASZ
 40
2.5
  9
$DIMEXO
 40
0.625
  9
$DIMDLI
 40
0.38
  9
$DIMRND
 40
0.0
  9
$DIMDLE
 40
0.0
  9
$DIMEXE
 40
1.25
  9
$DIMTP
 40
0.0
  9
$DIMTM
 40
0.0
  9
$DIMTXT
 40
2.5
  9
$DIMCEN
 40
0.09
  9
$DIMTSZ
 40
0.0
  9
$DIMTOL
 70
     0
  9
$DIMLIM
 70
     0
  9
$DIMTIH
 70
     1
  9
$DIMTOH
 70
     1
  9
$DIMSE1
 70
     0
  9
$DIMSE2
 70
     0
  9
$DIMTAD
 70
     0
  9
$DIMZIN
 70
     0
  9
$DIMBLK
  1

  9
$DIMASO
 70
     1
  9
$DIMSHO
 70
     1
  9
$DIMPOST
  1

  9
$DIMAPOST
  1

  9
$DIMALT
 70
     0
  9
$DIMALTD
 70
     2
  9
$DIMALTF
 40
25.4
  9
$DIMLFAC
 40
1.0
  9
$DIMTOFL
 70
     0
  9
$DIMTVP
 40
0.0
  9
$DIMTIX
 70
     0
  9
$DIMSOXD
 70
     0
  9
$DIMSAH
 70
     0
  9
$DIMBLK1
  1

  9
$DIMBLK2
  1

  9
$DIMSTYLE
  2
Standard
  9
$DIMCLRD
 70
     0
  9
$DIMCLRE
 70
     0
  9
$DIMCLRT
 70
     0
  9
$DIMTFAC
 40
1.0
  9
$DIMGAP
 40
0.625
  9
$DIMJUST
 70
     0
  9
$DIMSD1
 70
     0
  9
$DIMSD2
 70
     0
  9
$DIMTOLJ
 70
     1
  9
$DIMTZIN
 70
     0
  9
$DIMALTZ
 70
     0
  9
$DIMALTTZ
 70
     0
  9
$DIMUPT
 70
     0
  9
$DIMDEC
 70
     4
  9
$DIMTDEC
 70
     4
  9
$DIMALTU
 70
     2
  9
$DIMALTTD
 70
     2
  9
$DIMTXSTY
  7
STANDARD
  9
$DIMAUNIT
 70
     0
  9
$DIMADEC
 70
     0
  9
$DIMALTRND
 40
0.0
  9
$DIMAZIN
 70
     0
  9
$DIMDSEP
 70
    46
  9
$DIMATFIT
 70
     3
  9
$DIMFRAC
 70
     0
  9
$DIMLDRBLK
  1

  9
$DIMLUNIT
 70
     2
  9
$DIMLWD
 70
    -2
  9
$DIMLWE
 70
    -2
  9
$DIMTMOVE
 70
     0
  9
$LUNITS
 70
     2
  9
$LUPREC
 70
     4
  9
$SKETCHINC
 40
0.1
  9
$FILLETRAD
 40
0.0
  9
$AUNITS
 70
     0
  9
$AUPREC
 70
     0
  9
$MENU
  1
.
  9
$ELEVATION
 40
0.0
  9
$PELEVATION
 40
0.0
  9
$THICKNESS
 40
0.0
  9
$LIMCHECK
 70
     0
  9
$CHAMFERA
 40
0.0
  9
$CHAMFERB
 40
0.0
  9
$CHAMFERC
 40
0.0
  9
$CHAMFERD
 40
0.0
  9
$SKPOLY
 70
     0
  9
$TDCREATE
 40
2305824.216092743
  9
$TDUCREATE
 40
44877.3711758681
  9
$TDUPDATE
 40
2459896.413252500
  9
$TDUUPDATE
 40
2459896.371585834
  9
$TDINDWG
 40
0.0002940162
  9
$TDUSRTIMER
 40
0.0002937731
  9
$USRTIMER
 70
     1
  9
$ANGBASE
 50
0.0
  9
$ANGDIR
 70
     0
  9
$PDMODE
 70
     0
  9
$PDSIZE
 40
0.0
  9
$PLINEWID
 40
0.0
  9
$SPLFRAME
 70
     0
  9
$SPLINETYPE
 70
     6
  9
$SPLINESEGS
 70
     8
  9
$HANDSEED
  5
10002E1
  9
$SURFTAB1
 70
     6
  9
$SURFTAB2
 70
     6
  9
$SURFTYPE
 70
     6
  9
$SURFU
 70
     6
  9
$SURFV
 70
     6
  9
$UCSBASE
  2

  9
$UCSNAME
  2

  9
$UCSORG
 10
0.0
 20
0.0
 30
0.0
  9
$UCSXDIR
 10
1.0
 20
0.0
 30
0.0
  9
$UCSYDIR
 10
0.0
 20
1.0
 30
0.0
  9
$UCSORTHOREF
  2

  9
$UCSORTHOVIEW
 70
     0
  9
$UCSORGTOP
 10
0.0
 20
0.0
 30
0.0
  9
$UCSORGBOTTOM
 10
0.0
 20
0.0
 30
0.0
  9
$UCSORGLEFT
 10
0.0
 20
0.0
 30
0.0
  9
$UCSORGRIGHT
 10
0.0
 20
0.0
 30
0.0
  9
$UCSORGFRONT
 10
0.0
 20
0.0
 30
0.0
  9
$UCSORGBACK
 10
0.0
 20
0.0
 30
0.0
  9
$PUCSBASE
  2

  9
$PUCSNAME
  2

  9
$PUCSORG
 10
0.0
 20
0.0
 30
0.0
  9
$PUCSXDIR
 10
1.0
 20
0.0
 30
0.0
  9
$PUCSYDIR
 10
0.0
 20
1.0
 30
0.0
  9
$PUCSORTHOREF
  2

  9
$PUCSORTHOVIEW
 70
     0
  9
$PUCSORGTOP
 10
0.0
 20
0.0
 30
0.0
  9
$PUCSORGBOTTOM
 10
0.0
 20
0.0
 30
0.0
  9
$PUCSORGLEFT
 10
0.0
 20
0.0
 30
0.0
  9
$PUCSORGRIGHT
 10
0.0
 20
0.0
 30
0.0
  9
$PUCSORGFRONT
 10
0.0
 20
0.0
 30
0.0
  9
$PUCSORGBACK
 10
0.0
 20
0.0
 30
0.0
  9
$USERI1
 70
     0
  9
$USERI2
 70
     0
  9
$USERI3
 70
     0
  9
$USERI4
 70
     0
  9
$USERI5
 70
     0
  9
$USERR1
 40
0.0
  9
$USERR2
 40
0.0
  9
$USERR3
 40
0.0
  9
$USERR4
 40
0.0
  9
$USERR5
 40
0.0
  9
$WORLDVIEW
 70
     1
  9
$SHADEDGE
 70
     3
  9
$SHADEDIF
 70
    70
  9
$TILEMODE
 70
     1
  9
$MAXACTVP
 70
    64
  9
$PINSBASE
 10
0.0
 20
0.0
 30
0.0
  9
$PLIMCHECK
 70
     0
  9
$PEXTMIN
 10
1.000000000000000E+20
 20
1.000000000000000E+20
 30
1.000000000000000E+20
  9
$PEXTMAX
 10
-1.000000000000000E+20
 20
-1.000000000000000E+20
 30
-1.000000000000000E+20
  9
$PLIMMIN
 10
0.0
 20
0.0
  9
$PLIMMAX
 10
210.0
 20
297.0
  9
$UNITMODE
 70
     0
  9
$VISRETAIN
 70
     1
  9
$PLINEGEN
 70
     0
  9
$PSLTSCALE
 70
     1
  9
$TREEDEPTH
 70
  3020
  9
$CMLSTYLE
  2
Standard
  9
$CMLJUST
 70
     0
  9
$CMLSCALE
 40
1.0
  9
$PROXYGRAPHICS
 70
     1
  9
$MEASUREMENT
 70
     0
  9
$CELWEIGHT
370
    -1
  9
$ENDCAPS
280
     0
  9
$JOINSTYLE
280
     0
  9
$LWDISPLAY
290
     1
  9
$INSUNITS
 70
     6
  9
$HYPERLINKBASE
  1

  9
$STYLESHEET
  1

  9
$XEDIT
290
     1
  9
$CEPSNTYPE
380
     0
  9
$PSTYLEMODE
290
     1
  9
$FINGERPRINTGUID
  2
{EFBA1DE0-8289-4D5E-98F9-5C35ACBCF019}
  9
$VERSIONGUID
  2
{8F338E99-7671-4BC2-AD64-ADC91CAADA1F}
  9
$EXTNAMES
290
     1
  9
$PSVPSCALE
 40
0.0
  9
$OLESTARTUP
290
     0
  9
$SORTENTS
280
   127
  9
$INDEXCTL
280
     0
  9
$HIDETEXT
280
     1
  9
$XCLIPFRAME
290
     0
  9
$HALOGAP
280
     0
  9
$OBSCOLOR
 70
   257
  9
$OBSLTYPE
280
     0
  9
$INTERSECTIONDISPLAY
280
     0
  9
$INTERSECTIONCOLOR
 70
   257
  9
$DIMASSOC
280
     2
  9
$PROJECTNAME
  1

  0
ENDSEC
  0
SECTION
  2
CLASSES
  0
CLASS
  1
WIPEOUT
  2
AcDbWipeout
  3
WipeOut|Product Desc: Object Enabler for WipeOut entity | Company: Autodesk, Inc. | WEB Address: www.autodesk.com
 90
     2175
 91
        0
280
     0
281
     1
  0
CLASS
  1
WIPEOUTVARIABLES
  2
AcDbWipeoutVariables
  3
"WipeOut|Product Desc:     WipeOut Dbx Application|Company:          Autodesk, Inc.|WEB Address:      www.autodesk.com"
 90
        0
 91
        1
280
     0
281
     0
  0
CLASS
  1
ACDBDICTIONARYWDFLT
  2
AcDbDictionaryWithDefault
  3
ObjectDBX Classes
 90
        0
 91
        1
280
     0
281
     0
  0
CLASS
  1
DICTIONARYVAR
  2
AcDbDictionaryVar
  3
ObjectDBX Classes
 90
        0
 91
        7
280
     0
281
     0
  0
CLASS
  1
MATERIAL
  2
AcDbMaterial
  3
ObjectDBX Classes
 90
     1153
 91
        3
280
     0
281
     0
  0
CLASS
  1
VISUALSTYLE
  2
AcDbVisualStyle
  3
ObjectDBX Classes
 90
     4095
 91
       24
280
     0
281
     0
  0
CLASS
  1
TABLESTYLE
  2
AcDbTableStyle
  3
ObjectDBX Classes
 90
     4095
 91
        1
280
     0
281
     0
  0
CLASS
  1
SCALE
  2
AcDbScale
  3
ObjectDBX Classes
 90
     1153
 91
       17
280
     0
281
     0
  0
CLASS
  1
MLEADERSTYLE
  2
AcDbMLeaderStyle
  3
ACDB_MLEADERSTYLE_CLASS
 90
     4095
 91
        1
280
     0
281
     0
  0
CLASS
  1
ACDBSECTIONVIEWSTYLE
  2
AcDbSectionViewStyle
  3
ObjectDBX Classes
 90
     1025
 91
        1
280
     0
281
     0
  0
CLASS
  1
ACDBDETAILVIEWSTYLE
  2
AcDbDetailViewStyle
  3
ObjectDBX Classes
 90
     1025
 91
        1
280
     0
281
     0
  0
CLASS
  1
SORTENTSTABLE
  2
AcDbSortentsTable
  3
ObjectDBX Classes
 90
        0
 91
        1
280
     0
281
     0
  0
CLASS
  1
CELLSTYLEMAP
  2
AcDbCellStyleMap
  3
ObjectDBX Classes
 90
     1152
 91
        1
280
     0
281
     0
  0
ENDSEC
  0
SECTION
  2
TABLES
  0
TABLE
  2
VPORT
  5
1
330
0
100
AcDbSymbolTable
 70
     1
  0
VPORT
  5
2
330
1
100
AcDbSymbolTableRecord
100
AcDbViewportTableRecord
  2
*ACTIVE
 70
     0
 10
0.0
 20
0.0
 11
1.0
 21
1.0
 12
7571771.444330145
 22
5714834.35152094
 13
0.0
 23
0.0
 14
1.0
 24
1.0
 15
0.0
 25
0.0
 16
0.0
 26
0.0
 36
1.0
 17
0.0
 27
0.0
 37
0.0
 40
2294.679351990825
 41
1.557106598984771
 42
50.0
 43
0.0
 44
0.0
 50
0.0
 51
0.0
 71
     0
 72
   100
 73
     1
 74
     1
 75
     0
 76
     0
 77
     0
 78
     0
281
     0
 65
     1
110
0.0
120
0.0
130
0.0
111
1.0
121
0.0
131
0.0
112
0.0
122
1.0
132
0.0
 79
     0
146
0.0
1001
ACAD_NAV_VCDISPLAY
1070
     3
  0
ENDTAB
  0
TABLE
  2
LTYPE
  5
3
330
0
100
AcDbSymbolTable
 70
     4
  0
LTYPE
  5
4
330
3
100
AcDbSymbolTableRecord
100
AcDbLinetypeTableRecord
  2
ByBlock
 70
     0
  3

 72
    65
 73
     0
 40
0.0
  0
LTYPE
  5
5
330
3
100
AcDbSymbolTableRecord
100
AcDbLinetypeTableRecord
  2
ByLayer
 70
     0
  3

 72
    65
 73
     0
 40
0.0
  0
LTYPE
  5
6
330
3
100
AcDbSymbolTableRecord
100
AcDbLinetypeTableRecord
  2
CONTINUOUS
 70
     0
  3
Solid line
 72
    65
 73
     0
 40
0.0
  0
LTYPE
  5
8
330
3
100
AcDbSymbolTableRecord
100
AcDbLinetypeTableRecord
  2
L_0_02
 70
     0
  3
Dzialka_ewidencyjna (MLineStyle)
 72
    65
 73
     0
 40
0.0
  0
LTYPE
  5
9
330
3
100
AcDbSymbolTableRecord
100
AcDbLinetypeTableRecord
  2
L_0_03
 70
     0
  3
Uzytek_gruntowy
 72
    65
 73
     2
 40
1.0
 49
0.5
 74
     0
 49
-0.5
 74
     0
  0
LTYPE
  5
100004E
330
3
100
AcDbSymbolTableRecord
100
AcDbLinetypeTableRecord
  2
PHANTOM2
 70
     0
  3
___ _ _ ___ _ _ ___ _ _ ___ _ _
 72
    65
 73
     6
 40
1.25
 49
0.625
 74
     0
 49
-0.125
 74
     0
 49
0.125
 74
     0
 49
-0.125
 74
     0
 49
0.125
 74
     0
 49
-0.125
 74
     0
  0
ENDTAB
  0
TABLE
  2
LAYER
  5
A
330
0
100
AcDbSymbolTable
 70
     2
  0
LAYER
  5
B
102
{ACAD_XDICTIONARY
360
100029E
102
}
330
A
100
AcDbSymbolTableRecord
100
AcDbLayerTableRecord
  2
0
 70
     0
 62
     7
  6
CONTINUOUS
370
    18
390
C
  0
LAYER
  5
D
102
{ACAD_XDICTIONARY
360
10002A0
102
}
330
A
100
AcDbSymbolTableRecord
100
AcDbLayerTableRecord
  2
odnowienie_ew
 70
     0
 62
    96
  6
L_0_02
370
    18
390
C
  0
ENDTAB
  0
TABLE
  2
STYLE
  5
E
330
0
100
AcDbSymbolTable
 70
     2
  0
STYLE
  5
F
330
E
100
AcDbSymbolTableRecord
100
AcDbTextStyleTableRecord
  2
STANDARD
 70
     0
 40
0.0
 41
1.0
 50
0.0
 71
     0
 42
0.2
  3
simplex.shx
  4

  0
STYLE
  5
10
330
E
100
AcDbSymbolTableRecord
100
AcDbTextStyleTableRecord
  2
STANDARD_ITALIC
 70
     0
 40
0.0
 41
1.0
 50
15.0
 71
     0
 42
0.2
  3
simplex.shx
  4

  0
ENDTAB
  0
TABLE
  2
VIEW
  5
11
330
0
100
AcDbSymbolTable
 70
     0
  0
ENDTAB
  0
TABLE
  2
UCS
  5
12
330
0
100
AcDbSymbolTable
 70
     0
  0
ENDTAB
  0
TABLE
  2
APPID
  5
13
330
0
100
AcDbSymbolTable
 70
     3
  0
APPID
  5
14
330
13
100
AcDbSymbolTableRecord
100
AcDbRegAppTableRecord
  2
ACAD
 70
     0
  0
APPID
  5
10002A8
330
13
100
AcDbSymbolTableRecord
100
AcDbRegAppTableRecord
  2
ACAD_NAV_VCDISPLAY
 70
     0
  0
APPID
  5
10002E0
330
13
100
AcDbSymbolTableRecord
100
AcDbRegAppTableRecord
  2
ACAD_MLEADERVER
 70
     0
  0
ENDTAB
  0
TABLE
  2
DIMSTYLE
  5
15
330
0
100
AcDbSymbolTable
 70
     1
100
AcDbDimStyleTable
 71
     0
  0
DIMSTYLE
105
16
330
15
100
AcDbSymbolTableRecord
100
AcDbDimStyleTableRecord
  2
Standard
 70
     0
340
F
  0
ENDTAB
  0
TABLE
  2
BLOCK_RECORD
  5
17
330
0
100
AcDbSymbolTable
 70
     2
  0
BLOCK_RECORD
  5
18
102
{ACAD_XDICTIONARY
360
1000058
102
}
330
17
100
AcDbSymbolTableRecord
100
AcDbBlockTableRecord
  2
*Model_Space
340
19
  0
BLOCK_RECORD
  5
1A
330
17
100
AcDbSymbolTableRecord
100
AcDbBlockTableRecord
  2
*Paper_Space
340
1B
  0
BLOCK_RECORD
  5
1C
330
17
100
AcDbSymbolTableRecord
100
AcDbBlockTableRecord
  2
L_0_02_1
340
0
  0
BLOCK_RECORD
  5
1E
330
17
100
AcDbSymbolTableRecord
100
AcDbBlockTableRecord
  2
L_0_02_2
340
0
  0
ENDTAB
  0
ENDSEC
  0
SECTION
  2
BLOCKS
  0
BLOCK
  5
20
330
18
100
AcDbEntity
  8
0
100
AcDbBlockBegin
  2
*Model_Space
 70
     0
 10
0.0
 20
0.0
 30
0.0
  3
*Model_Space
  1

  0
ENDBLK
  5
21
330
18
100
AcDbEntity
  8
0
100
AcDbBlockEnd
  0
BLOCK
  5
22
330
1A
100
AcDbEntity
 67
     1
  8
0
100
AcDbBlockBegin
  2
*Paper_Space
 70
     0
 10
0.0
 20
0.0
 30
0.0
  3
*Paper_Space
  1

  0
ENDBLK
  5
23
330
1A
100
AcDbEntity
 67
     1
  8
0
100
AcDbBlockEnd
  0
BLOCK
  5
1D
330
1C
100
AcDbEntity
  8
0
 62
     0
370
    13
100
AcDbBlockBegin
  2
L_0_02_1
 70
     0
 10
0.0
 20
0.0
 30
0.0
  3
L_0_02_1
  1

  0
POINT
  5
24
330
1C
100
AcDbEntity
  8
0
 62
     0
100
AcDbPoint
 10
0.0
 20
0.0
 30
0.0
  0
ENDBLK
  5
25
330
1C
100
AcDbEntity
  8
0
100
AcDbBlockEnd
  0
BLOCK
  5
1F
330
1E
100
AcDbEntity
  8
0
 62
     0
370
    13
100
AcDbBlockBegin
  2
L_0_02_2
 70
     0
 10
0.0
 20
0.0
 30
0.0
  3
L_0_02_2
  1

  0
POINT
  5
26
330
1E
100
AcDbEntity
  8
0
 62
     0
100
AcDbPoint
 10
0.0
 20
0.0
 30
0.0
  0
ENDBLK
  5
27
330
1E
100
AcDbEntity
  8
0
100
AcDbBlockEnd
  0
ENDSEC
  0
SECTION
  2
ENTITIES
  0
POINT
  5
1C3
330
18
100
AcDbEntity
  8
odnowienie_ew
 62
     7
100
AcDbPoint
 10
7571357.53
 20
5715001.759999999
 30
0.0
  0
TEXT
  5
1C4
330
18
100
AcDbEntity
  8
odnowienie_ew
 62
     7
370
    25
100
AcDbText
 39
0.25
 10
7571361.345357144
 20
5714673.304999999
 30
0.0
 40
1.25
  1
8-246
 41
0.6600000000000001
 72
     1
 11
7571363.29
 21
5714673.93
 31
0.0
100
AcDbText
 73
     2
  0
TEXT
  5
1C5
330
18
100
AcDbEntity
  8
odnowienie_ew
 62
     7
370
    25
100
AcDbText
 39
0.25
 10
7571252.649285716
 20
5714802.785
 30
0.0
 40
1.25
  1
8-96/10
 41
0.6600000000000001
 72
     1
 11
7571255.360000001
 21
5714803.41
 31
0.0
100
AcDbText
 73
     2
  0
TEXT
  5
1C6
330
18
100
AcDbEntity
  8
odnowienie_ew
 62
     7
370
    25
100
AcDbText
 39
0.25
 10
7571262.013928571
 20
5714800.845
 30
0.0
 40
1.25
  1
8-96/4
 41
0.6600000000000001
 72
     1
 11
7571264.429999999
 21
5714801.47
 31
0.0
100
AcDbText
 73
     2
  0
TEXT
  5
1C7
330
18
100
AcDbEntity
  8
odnowienie_ew
 62
     7
370
    25
100
AcDbText
 39
0.25
 10
7571268.433571429
 20
5714799.485000001
 30
0.0
 40
1.25
  1
8-96/3
 41
0.6600000000000001
 72
     1
 11
7571270.830000001
 21
5714800.110000001
 31
0.0
100
AcDbText
 73
     2
  0
TEXT
  5
1C8
330
18
100
AcDbEntity
  8
odnowienie_ew
 62
     7
370
    25
100
AcDbText
 39
0.25
 10
7571247.820357143
 20
5715026.535
 30
0.0
 40
1.25
  1
8-93/1
 41
0.6600000000000001
 72
     1
 11
7571250.039999999
 21
5715027.16
 31
0.0
100
AcDbText
 73
     2
  0
TEXT
  5
1C9
330
18
100
AcDbEntity
  8
odnowienie_ew
 62
     7
370
    25
100
AcDbText
 39
0.25
 10
7571276.820357143
 20
5715016.755
 30
0.0
 40
1.25
  1
8-94/1
 41
0.6600000000000001
 72
     1
 11
7571279.04
 21
5715017.38
 31
0.0
100
AcDbText
 73
     2
  0
TEXT
  5
1CA
330
18
100
AcDbEntity
  8
odnowienie_ew
 62
     7
370
    25
100
AcDbText
 39
0.25
 10
7571305.230357142
 20
5715008.825
 30
0.0
 40
1.25
  1
8-95/1
 41
0.6600000000000001
 72
     1
 11
7571307.45
 21
5715009.45
 31
0.0
100
AcDbText
 73
     2
  0
TEXT
  5
1CB
330
18
100
AcDbEntity
  8
odnowienie_ew
 62
     7
370
    25
100
AcDbText
 39
0.25
 10
7571284.107499999
 20
5715022.955000001
 30
0.0
 40
1.25
  1
8-242/1
 41
0.6600000000000001
 72
     1
 11
7571286.719999999
 21
5715023.58
 31
0.0
100
AcDbText
 73
     2
  0
TEXT
  5
1CC
330
18
100
AcDbEntity
  8
odnowienie_ew
 62
     7
370
    25
100
AcDbText
 39
0.25
 10
7571254.028571427
 20
5715062.374999998
 30
0.0
 40
1.25
  1
8-80
 41
0.6600000000000001
 72
     1
 11
7571255.599999999
 21
5715062.999999998
 31
0.0
100
AcDbText
 73
     2
  0
TEXT
  5
1CD
330
18
100
AcDbEntity
  8
odnowienie_ew
 62
     7
370
    25
100
AcDbText
 39
0.25
 10
7571277.105357142
 20
5715055.474999998
 30
0.0
 40
1.25
  1
8-81
 41
0.6600000000000001
 72
     1
 11
7571278.5
 21
5715056.099999999
 31
0.0
100
AcDbText
 73
     2
  0
TEXT
  5
1CE
330
18
100
AcDbEntity
  8
odnowienie_ew
 62
     7
370
    25
100
AcDbText
 39
0.25
 10
7571295.980357141
 20
5715045.974999999
 30
0.0
 40
1.25
  1
8-82/1
 41
0.6600000000000001
 72
     1
 11
7571298.199999999
 21
5715046.599999999
 31
0.0
100
AcDbText
 73
     2
  0
TEXT
  5
1CF
330
18
100
AcDbEntity
  8
odnowienie_ew
 62
     7
370
    25
100
AcDbText
 39
0.25
 10
7571330.00892857
 20
5715040.274999998
 30
0.0
 40
1.25
  1
8-84
 41
0.6600000000000001
 72
     1
 11
7571331.599999998
 21
5715040.899999999
 31
0.0
100
AcDbText
 73
     2
  0
TEXT
  5
1D0
330
18
100
AcDbEntity
  8
odnowienie_ew
 62
     7
370
    25
100
AcDbText
 39
0.25
 10
7571347.828571426
 20
5715037.574999999
 30
0.0
 40
1.25
  1
8-85
 41
0.6600000000000001
 72
     1
 11
7571349.399999999
 21
5715038.199999999
 31
0.0
100
AcDbText
 73
     2
  0
TEXT
  5
1D1
330
18
100
AcDbEntity
  8
odnowienie_ew
 62
     7
370
    25
100
AcDbText
 39
0.25
 10
7571314.428571428
 20
5715042.474999998
 30
0.0
 40
1.25
  1
8-83
 41
0.6600000000000001
 72
     1
 11
7571315.999999999
 21
5715043.099999999
 31
0.0
100
AcDbText
 73
     2
  0
TEXT
  5
1D2
330
18
100
AcDbEntity
  8
odnowienie_ew
 62
     7
370
    25
100
AcDbText
 39
0.25
 10
7571249.573571427
 20
5714852.304999999
 30
0.0
 40
1.25
  1
8-95/2
 41
0.6600000000000001
 72
     1
 11
7571251.969999999
 21
5714852.929999999
 31
0.0
100
AcDbText
 73
     2
  0
TEXT
  5
1D3
330
18
100
AcDbEntity
  8
odnowienie_ew
 62
     7
370
    25
100
AcDbText
 39
0.25
 10
7571199.54357143
 20
5714881.545
 30
0.0
 40
1.25
  1
8-93/2
 41
0.6600000000000001
 72
     1
 11
7571201.94
 21
5714882.17
 31
0.0
100
AcDbText
 73
     2
  0
TEXT
  5
1D4
330
18
100
AcDbEntity
  8
odnowienie_ew
 62
     7
370
    25
100
AcDbText
 39
0.25
 10
7571190.353571429
 20
5714755.145
 30
0.0
 40
1.25
  1
8-94/3
 41
0.6600000000000001
 72
     1
 11
7571192.75
 21
5714755.769999999
 31
0.0
100
AcDbText
 73
     2
  0
TEXT
  5
1D5
330
18
100
AcDbEntity
  8
odnowienie_ew
 62
     7
370
    25
100
AcDbText
 39
0.25
 10
7571253.663928571
 20
5714947.155
 30
0.0
 40
1.25
  1
8-94/4
 41
0.6600000000000001
 72
     1
 11
7571256.08
 21
5714947.780000001
 31
0.0
100
AcDbText
 73
     2
  0
TEXT
  5
1D6
330
18
100
AcDbEntity
  8
odnowienie_ew
 62
     7
370
    25
100
AcDbText
 39
0.25
 10
7571457.565714285
 20
5715165.755
 30
0.0
 40
1.25
  1
8-240
 41
0.6600000000000001
 72
     1
 11
7571459.530000001
 21
5715166.38
 31
0.0
100
AcDbText
 73
     2
  0
TEXT
  5
1D7
330
18
100
AcDbEntity
  8
odnowienie_ew
 62
     7
370
    25
100
AcDbText
 39
0.25
 10
7571321.206071429
 20
5715001.745000001
 30
0.0
 40
1.25
  1
8-244
 41
0.6600000000000001
 72
     1
 11
7571323.190000001
 21
5715002.37
 31
0.0
100
AcDbText
 73
     2
  0
LINE
  5
1000053
330
18
100
AcDbEntity
  8
odnowienie_ew
  6
Continuous
 62
     7
100
AcDbLine
 10
7571357.281265703
 20
5715001.785124676
 30
0.0
 11
7571356.788734298
 21
5715001.834875323
 31
0.0
  0
LINE
  5
1000054
330
18
100
AcDbEntity
  8
odnowienie_ew
  6
Continuous
 62
     7
100
AcDbLine
 10
7571356.302339711
 20
5715001.937573108
 30
0.0
 11
7571347.157660288
 21
5715004.922426892
 31
0.0
  0
LINE
  5
1000055
330
18
100
AcDbEntity
  8
odnowienie_ew
  6
Continuous
 62
     7
100
AcDbLine
 10
7571347.002153227
 20
5715005.236116174
 30
0.0
 11
7571371.697846773
 21
5715076.213883826
 31
0.0
  0
LINE
  5
1000056
330
18
100
AcDbEntity
  8
odnowienie_ew
  6
Continuous
 62
     7
100
AcDbLine
 10
7571372.029958617
 20
5715076.44545136
 30
0.0
 11
7571383.070041384
 21
5715076.24454864
 31
0.0
  0
LINE
  5
1000057
330
18
100
AcDbEntity
  8
odnowienie_ew
  6
Continuous
 62
     7
100
AcDbLine
 10
7571383.238198393
 20
5715076.003761779
 30
0.0
 11
7571357.611801608
 21
5715001.99623822
 31
0.0
  0
POINT
  5
100005A
330
18
100
AcDbEntity
  8
0
 62
     7
100
AcDbPoint
 10
7571357.53
 20
5715001.759999999
 30
0.0
 50
289.1
  0
POINT
  5
100005B
330
18
100
AcDbEntity
  8
0
 62
     7
100
AcDbPoint
 10
7571383.320000001
 20
5715076.240000001
 30
0.0
 50
109.0999999999999
  0
POINT
  5
100005C
330
18
100
AcDbEntity
  8
0
 62
     7
100
AcDbPoint
 10
7571383.320000001
 20
5715076.240000001
 30
0.0
 50
181.04
  0
POINT
  5
100005D
330
18
100
AcDbEntity
  8
0
 62
     7
100
AcDbPoint
 10
7571371.78
 20
5715076.45
 30
0.0
 50
1.040000000000037
  0
POINT
  5
100005E
330
18
100
AcDbEntity
  8
0
 62
     7
100
AcDbPoint
 10
7571371.78
 20
5715076.45
 30
0.0
 50
109.18
  0
POINT
  5
100005F
330
18
100
AcDbEntity
  8
0
 62
     7
100
AcDbPoint
 10
7571346.919999999
 20
5715005.0
 30
0.0
 50
289.18
  0
POINT
  5
1000060
330
18
100
AcDbEntity
  8
0
 62
     7
100
AcDbPoint
 10
7571346.919999999
 20
5715005.0
 30
0.0
 50
18.07999999999999
  0
POINT
  5
1000061
330
18
100
AcDbEntity
  8
0
 62
     7
100
AcDbPoint
 10
7571356.54
 20
5715001.86
 30
0.0
 50
198.08
  0
POINT
  5
1000062
330
18
100
AcDbEntity
  8
0
 62
     7
100
AcDbPoint
 10
7571356.54
 20
5715001.86
 30
0.0
 50
5.769999999999996
  0
POINT
  5
1000063
330
18
100
AcDbEntity
  8
0
 62
     7
100
AcDbPoint
 10
7571357.53
 20
5715001.759999999
 30
0.0
 50
185.77
  0
LINE
  5
1000064
330
18
100
AcDbEntity
  8
odnowienie_ew
  6
Continuous
 62
     7
100
AcDbLine
 10
7571358.199058298
 20
5715001.688321335
 30
0.0
 11
7571367.810941702
 21
5715000.851678665
 31
0.0
  0
LINE
  5
1000065
330
18
100
AcDbEntity
  8
odnowienie_ew
  6
Continuous
 62
     7
100
AcDbLine
 10
7571368.309147078
 20
5715000.8093667
 30
0.0
 11
7571372.64085292
 21
5715000.450633299
 31
0.0
  0
LINE
  5
1000066
330
18
100
AcDbEntity
  8
odnowienie_ew
  6
Continuous
 62
     7
100
AcDbLine
 10
7571373.139065205
 20
5715000.408400848
 30
0.0
 11
7571380.020934793
 21
5714999.81159915
 31
0.0
  0
LINE
  5
1000067
330
18
100
AcDbEntity
  8
odnowienie_ew
  6
Continuous
 62
     7
100
AcDbLine
 10
7571380.519091585
 20
5714999.768707232
 30
0.0
 11
7571387.390908413
 21
5714999.181292768
 31
0.0
  0
LINE
  5
1000068
330
18
100
AcDbEntity
  8
odnowienie_ew
  6
Continuous
 62
     7
100
AcDbLine
 10
7571387.889077834
 20
5714999.138546987
 30
0.0
 11
7571405.270922163
 21
5714997.641453013
 31
0.0
  0
LINE
  5
1000069
330
18
100
AcDbEntity
  8
odnowienie_ew
  6
Continuous
 62
     7
100
AcDbLine
 10
7571405.769074411
 20
5714997.598507288
 30
0.0
 11
7571417.670925585
 21
5714996.571492711
 31
0.0
  0
LINE
  5
100006A
330
18
100
AcDbEntity
  8
odnowienie_ew
  6
Continuous
 62
     7
100
AcDbLine
 10
7571418.169082188
 20
5714996.528597577
 30
0.0
 11
7571436.640917811
 21
5714994.941402422
 31
0.0
  0
LINE
  5
100006B
330
18
100
AcDbEntity
  8
odnowienie_ew
  6
Continuous
 62
     7
100
AcDbLine
 10
7571437.139079725
 20
5714994.898568952
 30
0.0
 11
7571453.260920272
 21
5714993.511431048
 31
0.0
  0
LINE
  5
100006C
330
18
100
AcDbEntity
  8
odnowienie_ew
  6
Continuous
 62
     7
100
AcDbLine
 10
7571453.759053522
 20
5714993.468266555
 30
0.0
 11
7571470.220946475
 21
5714992.031733443
 31
0.0
  0
LINE
  5
100006D
330
18
100
AcDbEntity
  8
odnowienie_ew
  6
Continuous
 62
     7
100
AcDbLine
 10
7571470.391364443
 20
5714991.772689128
 30
0.0
 11
7571468.308635554
 21
5714985.487310872
 31
0.0
  0
LINE
  5
100006E
330
18
100
AcDbEntity
  8
odnowienie_ew
  6
Continuous
 62
     7
100
AcDbLine
 10
7571467.980864577
 20
5714985.270773562
 30
0.0
 11
7571451.569135424
 21
5714986.639226437
 31
0.0
  0
LINE
  5
100006F
330
18
100
AcDbEntity
  8
odnowienie_ew
  6
Continuous
 62
     7
100
AcDbLine
 10
7571451.070864592
 20
5714986.680773738
 30
0.0
 11
7571434.899135409
 21
5714988.029226261
 31
0.0
  0
LINE
  5
1000070
330
18
100
AcDbEntity
  8
odnowienie_ew
  6
Continuous
 62
     7
100
AcDbLine
 10
7571434.400850042
 20
5714988.070598495
 30
0.0
 11
7571415.909149959
 21
5714989.599401504
 31
0.0
  0
LINE
  5
1000071
330
18
100
AcDbEntity
  8
odnowienie_ew
  6
Continuous
 62
     7
100
AcDbLine
 10
7571415.410924936
 20
5714989.641485166
 30
0.0
 11
7571386.579075065
 21
5714992.128514835
 31
0.0
  0
LINE
  5
1000072
330
18
100
AcDbEntity
  8
odnowienie_ew
  6
Continuous
 62
     7
100
AcDbLine
 10
7571386.081137788
 20
5714992.173824338
 30
0.0
 11
7571368.298862211
 21
5714993.876175664
 31
0.0
  0
LINE
  5
1000073
330
18
100
AcDbEntity
  8
odnowienie_ew
  6
Continuous
 62
     7
100
AcDbLine
 10
7571367.801109978
 20
5714993.923532046
 30
0.0
 11
7571353.808890021
 21
5714995.246467955
 31
0.0
  0
LINE
  5
1000074
330
18
100
AcDbEntity
  8
odnowienie_ew
  6
Continuous
 62
     7
100
AcDbLine
 10
7571353.31113052
 20
5714995.293748328
 30
0.0
 11
7571346.158869476
 21
5714995.97625167
 31
0.0
  0
LINE
  5
1000075
330
18
100
AcDbEntity
  8
odnowienie_ew
  6
Continuous
 62
     7
100
AcDbLine
 10
7571345.661111067
 20
5714996.023543547
 30
0.0
 11
7571340.238888934
 21
5714996.536456452
 31
0.0
  0
LINE
  5
1000076
330
18
100
AcDbEntity
  8
odnowienie_ew
  6
Continuous
 62
     7
100
AcDbLine
 10
7571339.741158312
 20
5714996.584037768
 30
0.0
 11
7571332.888841688
 21
5714997.245962231
 31
0.0
  0
LINE
  5
1000077
330
18
100
AcDbEntity
  8
odnowienie_ew
  6
Continuous
 62
     7
100
AcDbLine
 10
7571332.39111519
 20
5714997.293587122
 30
0.0
 11
7571326.768884808
 21
5714997.826412878
 31
0.0
  0
LINE
  5
1000078
330
18
100
AcDbEntity
  8
odnowienie_ew
  6
Continuous
 62
     7
100
AcDbLine
 10
7571326.271631615
 20
5714997.878515718
 30
0.0
 11
7571312.658368383
 21
5714999.441484281
 31
0.0
  0
LINE
  5
1000079
330
18
100
AcDbEntity
  8
odnowienie_ew
  6
Continuous
 62
     7
100
AcDbLine
 10
7571312.162134007
 20
5714999.50259524
 30
0.0
 11
7571288.247865993
 21
5715002.647404758
 31
0.0
  0
LINE
  5
100007A
330
18
100
AcDbEntity
  8
odnowienie_ew
  6
Continuous
 62
     7
100
AcDbLine
 10
7571287.752124836
 20
5715002.712525417
 30
0.0
 11
7571269.347875165
 21
5715005.127474581
 31
0.0
  0
LINE
  5
100007B
330
18
100
AcDbEntity
  8
odnowienie_ew
  6
Continuous
 62
     7
100
AcDbLine
 10
7571268.855573427
 20
5715005.212494297
 30
0.0
 11
7571263.384426571
 21
5715006.387505703
 31
0.0
  0
LINE
  5
100007C
330
18
100
AcDbEntity
  8
odnowienie_ew
  6
Continuous
 62
     7
100
AcDbLine
 10
7571262.89551194
 20
5715006.492207175
 30
0.0
 11
7571252.894488058
 21
5715008.627792826
 31
0.0
  0
LINE
  5
100007D
330
18
100
AcDbEntity
  8
odnowienie_ew
  6
Continuous
 62
     7
100
AcDbLine
 10
7571252.41504155
 20
5715008.765408001
 30
0.0
 11
7571239.294958449
 21
5715013.534591998
 31
0.0
  0
LINE
  5
100007E
330
18
100
AcDbEntity
  8
odnowienie_ew
  6
Continuous
 62
     7
100
AcDbLine
 10
7571238.841783111
 20
5715013.741989302
 30
0.0
 11
7571227.758216886
 21
5715019.938010697
 31
0.0
  0
LINE
  5
100007F
330
18
100
AcDbEntity
  8
odnowienie_ew
  6
Continuous
 62
     7
100
AcDbLine
 10
7571227.324214172
 20
5715020.186239759
 30
0.0
 11
7571214.935785827
 21
5715027.433760241
 31
0.0
  0
LINE
  5
1000080
330
18
100
AcDbEntity
  8
odnowienie_ew
  6
Continuous
 62
     7
100
AcDbLine
 10
7571214.764037311
 20
5715027.806090867
 30
0.0
 11
7571216.375962686
 21
5715036.813909132
 31
0.0
  0
LINE
  5
1000081
330
18
100
AcDbEntity
  8
odnowienie_ew
  6
Continuous
 62
     7
100
AcDbLine
 10
7571216.632365528
 20
5715036.928087596
 30
0.0
 11
7571238.327634472
 21
5715023.451912404
 31
0.0
  0
LINE
  5
1000082
330
18
100
AcDbEntity
  8
odnowienie_ew
  6
Continuous
 62
     7
100
AcDbLine
 10
7571238.771783487
 20
5715023.226317477
 30
0.0
 11
7571258.398216513
 21
5715015.293682524
 31
0.0
  0
LINE
  5
1000083
330
18
100
AcDbEntity
  8
odnowienie_ew
  6
Continuous
 62
     7
100
AcDbLine
 10
7571258.875008643
 20
5715015.15029321
 30
0.0
 11
7571265.334991358
 21
5715013.839706789
 31
0.0
  0
LINE
  5
1000084
330
18
100
AcDbEntity
  8
odnowienie_ew
  6
Continuous
 62
     7
100
AcDbLine
 10
7571265.825028131
 20
5715013.740389365
 30
0.0
 11
7571281.53497187
 21
5715010.559610634
 31
0.0
  0
LINE
  5
1000085
330
18
100
AcDbEntity
  8
odnowienie_ew
  6
Continuous
 62
     7
100
AcDbLine
 10
7571282.027987445
 20
5715010.478342028
 30
0.0
 11
7571289.992012556
 21
5715009.461657971
 31
0.0
  0
LINE
  5
1000086
330
18
100
AcDbEntity
  8
odnowienie_ew
  6
Continuous
 62
     7
100
AcDbLine
 10
7571290.48797306
 20
5715009.398229547
 30
0.0
 11
7571311.222026941
 21
5715006.741770452
 31
0.0
  0
LINE
  5
1000087
330
18
100
AcDbEntity
  8
odnowienie_ew
  6
Continuous
 62
     7
100
AcDbLine
 10
7571311.718545086
 20
5715006.68306787
 30
0.0
 11
7571314.451454912
 21
5715006.38693213
 31
0.0
  0
LINE
  5
1000088
330
18
100
AcDbEntity
  8
odnowienie_ew
  6
Continuous
 62
     7
100
AcDbLine
 10
7571314.948566027
 20
5715006.333261823
 30
0.0
 11
7571337.041433974
 21
5715003.956738178
 31
0.0
  0
LINE
  5
1000089
330
18
100
AcDbEntity
  8
odnowienie_ew
  6
Continuous
 62
     7
100
AcDbLine
 10
7571337.538567011
 20
5715003.903270976
 30
0.0
 11
7571356.291432989
 21
5715001.886729025
 31
0.0
  0
LINE
  5
100008A
330
18
100
AcDbEntity
  8
odnowienie_ew
  6
Continuous
 62
     7
100
AcDbLine
 10
7571356.788597228
 20
5715001.833553486
 30
0.0
 11
7571357.701402773
 21
5715001.736446514
 31
0.0
  0
POINT
  5
100008B
330
18
100
AcDbEntity
  8
0
 62
     7
100
AcDbPoint
 10
7571357.95
 20
5715001.71
 30
0.0
 50
186.07
  0
POINT
  5
100008C
330
18
100
AcDbEntity
  8
0
 62
     7
100
AcDbPoint
 10
7571356.54
 20
5715001.86
 30
0.0
 50
6.069999999999978
  0
POINT
  5
100008D
330
18
100
AcDbEntity
  8
0
 62
     7
100
AcDbPoint
 10
7571356.54
 20
5715001.86
 30
0.0
 50
186.14
  0
POINT
  5
100008E
330
18
100
AcDbEntity
  8
0
 62
     7
100
AcDbPoint
 10
7571337.29
 20
5715003.93
 30
0.0
 50
6.139999999999973
  0
POINT
  5
100008F
330
18
100
AcDbEntity
  8
0
 62
     7
100
AcDbPoint
 10
7571337.29
 20
5715003.93
 30
0.0
 50
186.14
  0
POINT
  5
1000090
330
18
100
AcDbEntity
  8
0
 62
     7
100
AcDbPoint
 10
7571314.7
 20
5715006.360000001
 30
0.0
 50
6.139999999999973
  0
POINT
  5
1000091
330
18
100
AcDbEntity
  8
0
 62
     7
100
AcDbPoint
 10
7571314.7
 20
5715006.360000001
 30
0.0
 50
186.18
  0
POINT
  5
1000092
330
18
100
AcDbEntity
  8
0
 62
     7
100
AcDbPoint
 10
7571311.469999999
 20
5715006.709999999
 30
0.0
 50
6.180000000000022
  0
POINT
  5
1000093
330
18
100
AcDbEntity
  8
0
 62
     7
100
AcDbPoint
 10
7571311.469999999
 20
5715006.709999999
 30
0.0
 50
187.3
  0
POINT
  5
1000094
330
18
100
AcDbEntity
  8
0
 62
     7
100
AcDbPoint
 10
7571290.24
 20
5715009.43
 30
0.0
 50
7.300000000000004
  0
POINT
  5
1000095
330
18
100
AcDbEntity
  8
0
 62
     7
100
AcDbPoint
 10
7571290.24
 20
5715009.43
 30
0.0
 50
187.28
  0
POINT
  5
1000096
330
18
100
AcDbEntity
  8
0
 62
     7
100
AcDbPoint
 10
7571281.78
 20
5715010.509999999
 30
0.0
 50
7.279999999999954
  0
POINT
  5
1000097
330
18
100
AcDbEntity
  8
0
 62
     7
100
AcDbPoint
 10
7571281.78
 20
5715010.509999999
 30
0.0
 50
191.45
  0
POINT
  5
1000098
330
18
100
AcDbEntity
  8
0
 62
     7
100
AcDbPoint
 10
7571265.58
 20
5715013.79
 30
0.0
 50
11.45
  0
POINT
  5
1000099
330
18
100
AcDbEntity
  8
0
 62
     7
100
AcDbPoint
 10
7571265.58
 20
5715013.79
 30
0.0
 50
191.47
  0
POINT
  5
100009A
330
18
100
AcDbEntity
  8
0
 62
     7
100
AcDbPoint
 10
7571258.629999999
 20
5715015.2
 30
0.0
 50
11.47000000000005
  0
POINT
  5
100009B
330
18
100
AcDbEntity
  8
0
 62
     7
100
AcDbPoint
 10
7571258.629999999
 20
5715015.2
 30
0.0
 50
202.01
  0
POINT
  5
100009C
330
18
100
AcDbEntity
  8
0
 62
     7
100
AcDbPoint
 10
7571238.54
 20
5715023.32
 30
0.0
 50
22.01
  0
POINT
  5
100009D
330
18
100
AcDbEntity
  8
0
 62
     7
100
AcDbPoint
 10
7571238.54
 20
5715023.32
 30
0.0
 50
211.85
  0
POINT
  5
100009E
330
18
100
AcDbEntity
  8
0
 62
     7
100
AcDbPoint
 10
7571216.42
 20
5715037.059999999
 30
0.0
 50
31.85
  0
POINT
  5
100009F
330
18
100
AcDbEntity
  8
0
 62
     7
100
AcDbPoint
 10
7571216.42
 20
5715037.059999999
 30
0.0
 50
100.15
  0
POINT
  5
10000A0
330
18
100
AcDbEntity
  8
0
 62
     7
100
AcDbPoint
 10
7571214.719999999
 20
5715027.56
 30
0.0
 50
280.15
  0
POINT
  5
10000A1
330
18
100
AcDbEntity
  8
0
 62
     7
100
AcDbPoint
 10
7571214.719999999
 20
5715027.56
 30
0.0
 50
30.32999999999999
  0
POINT
  5
10000A2
330
18
100
AcDbEntity
  8
0
 62
     7
100
AcDbPoint
 10
7571227.539999999
 20
5715020.059999999
 30
0.0
 50
210.33
  0
POINT
  5
10000A3
330
18
100
AcDbEntity
  8
0
 62
     7
100
AcDbPoint
 10
7571227.539999999
 20
5715020.059999999
 30
0.0
 50
29.20999999999997
  0
POINT
  5
10000A4
330
18
100
AcDbEntity
  8
0
 62
     7
100
AcDbPoint
 10
7571239.059999999
 20
5715013.62
 30
0.0
 50
209.21
  0
POINT
  5
10000A5
330
18
100
AcDbEntity
  8
0
 62
     7
100
AcDbPoint
 10
7571239.059999999
 20
5715013.62
 30
0.0
 50
19.98000000000003
  0
POINT
  5
10000A6
330
18
100
AcDbEntity
  8
0
 62
     7
100
AcDbPoint
 10
7571252.650000001
 20
5715008.679999999
 30
0.0
 50
199.98
  0
POINT
  5
10000A7
330
18
100
AcDbEntity
  8
0
 62
     7
100
AcDbPoint
 10
7571252.650000001
 20
5715008.679999999
 30
0.0
 50
12.05000000000001
  0
POINT
  5
10000A8
330
18
100
AcDbEntity
  8
0
 62
     7
100
AcDbPoint
 10
7571263.139999999
 20
5715006.44
 30
0.0
 50
192.05
  0
POINT
  5
10000A9
330
18
100
AcDbEntity
  8
0
 62
     7
100
AcDbPoint
 10
7571263.139999999
 20
5715006.44
 30
0.0
 50
12.12000000000001
  0
POINT
  5
10000AA
330
18
100
AcDbEntity
  8
0
 62
     7
100
AcDbPoint
 10
7571269.099999999
 20
5715005.16
 30
0.0
 50
192.12
  0
POINT
  5
10000AB
330
18
100
AcDbEntity
  8
0
 62
     7
100
AcDbPoint
 10
7571269.099999999
 20
5715005.16
 30
0.0
 50
7.479999999999992
  0
POINT
  5
10000AC
330
18
100
AcDbEntity
  8
0
 62
     7
100
AcDbPoint
 10
7571288.0
 20
5715002.68
 30
0.0
 50
187.48
  0
POINT
  5
10000AD
330
18
100
AcDbEntity
  8
0
 62
     7
100
AcDbPoint
 10
7571288.0
 20
5715002.68
 30
0.0
 50
7.489999999999992
  0
POINT
  5
10000AE
330
18
100
AcDbEntity
  8
0
 62
     7
100
AcDbPoint
 10
7571312.41
 20
5714999.47
 30
0.0
 50
187.49
  0
POINT
  5
10000AF
330
18
100
AcDbEntity
  8
0
 62
     7
100
AcDbPoint
 10
7571312.41
 20
5714999.47
 30
0.0
 50
6.549999999999999
  0
POINT
  5
10000B0
330
18
100
AcDbEntity
  8
0
 62
     7
100
AcDbPoint
 10
7571326.519999999
 20
5714997.849999999
 30
0.0
 50
186.55
  0
POINT
  5
10000B1
330
18
100
AcDbEntity
  8
0
 62
     7
100
AcDbPoint
 10
7571326.519999999
 20
5714997.849999999
 30
0.0
 50
5.410000000000019
  0
POINT
  5
10000B2
330
18
100
AcDbEntity
  8
0
 62
     7
100
AcDbPoint
 10
7571332.639999999
 20
5714997.27
 30
0.0
 50
185.41
  0
POINT
  5
10000B3
330
18
100
AcDbEntity
  8
0
 62
     7
100
AcDbPoint
 10
7571332.639999999
 20
5714997.27
 30
0.0
 50
5.519999999999962
  0
POINT
  5
10000B4
330
18
100
AcDbEntity
  8
0
 62
     7
100
AcDbPoint
 10
7571339.99
 20
5714996.559999999
 30
0.0
 50
185.52
  0
POINT
  5
10000B5
330
18
100
AcDbEntity
  8
0
 62
     7
100
AcDbPoint
 10
7571339.99
 20
5714996.559999999
 30
0.0
 50
5.399999999999969
  0
POINT
  5
10000B6
330
18
100
AcDbEntity
  8
0
 62
     7
100
AcDbPoint
 10
7571345.909999999
 20
5714996.0
 30
0.0
 50
185.4
  0
POINT
  5
10000B7
330
18
100
AcDbEntity
  8
0
 62
     7
100
AcDbPoint
 10
7571345.909999999
 20
5714996.0
 30
0.0
 50
5.449999999999966
  0
POINT
  5
10000B8
330
18
100
AcDbEntity
  8
0
 62
     7
100
AcDbPoint
 10
7571353.559999998
 20
5714995.269999999
 30
0.0
 50
185.4499999999999
  0
POINT
  5
10000B9
330
18
100
AcDbEntity
  8
0
 62
     7
100
AcDbPoint
 10
7571353.559999998
 20
5714995.269999999
 30
0.0
 50
5.399999999999969
  0
POINT
  5
10000BA
330
18
100
AcDbEntity
  8
0
 62
     7
100
AcDbPoint
 10
7571368.05
 20
5714993.9
 30
0.0
 50
185.4
  0
POINT
  5
10000BB
330
18
100
AcDbEntity
  8
0
 62
     7
100
AcDbPoint
 10
7571368.05
 20
5714993.9
 30
0.0
 50
5.470000000000015
  0
POINT
  5
10000BC
330
18
100
AcDbEntity
  8
0
 62
     7
100
AcDbPoint
 10
7571386.33
 20
5714992.15
 30
0.0
 50
185.47
  0
POINT
  5
10000BD
330
18
100
AcDbEntity
  8
0
 62
     7
100
AcDbPoint
 10
7571386.33
 20
5714992.15
 30
0.0
 50
4.929999999999998
  0
POINT
  5
10000BE
330
18
100
AcDbEntity
  8
0
 62
     7
100
AcDbPoint
 10
7571415.66
 20
5714989.619999999
 30
0.0
 50
184.93
  0
POINT
  5
10000BF
330
18
100
AcDbEntity
  8
0
 62
     7
100
AcDbPoint
 10
7571415.66
 20
5714989.619999999
 30
0.0
 50
4.730000000000011
  0
POINT
  5
10000C0
330
18
100
AcDbEntity
  8
0
 62
     7
100
AcDbPoint
 10
7571434.650000001
 20
5714988.05
 30
0.0
 50
184.73
  0
POINT
  5
10000C1
330
18
100
AcDbEntity
  8
0
 62
     7
100
AcDbPoint
 10
7571434.650000001
 20
5714988.05
 30
0.0
 50
4.769999999999957
  0
POINT
  5
10000C2
330
18
100
AcDbEntity
  8
0
 62
     7
100
AcDbPoint
 10
7571451.320000001
 20
5714986.66
 30
0.0
 50
184.77
  0
POINT
  5
10000C3
330
18
100
AcDbEntity
  8
0
 62
     7
100
AcDbPoint
 10
7571451.320000001
 20
5714986.66
 30
0.0
 50
4.769999999999957
  0
POINT
  5
10000C4
330
18
100
AcDbEntity
  8
0
 62
     7
100
AcDbPoint
 10
7571468.23
 20
5714985.249999999
 30
0.0
 50
184.77
  0
POINT
  5
10000C5
330
18
100
AcDbEntity
  8
0
 62
     7
100
AcDbPoint
 10
7571468.23
 20
5714985.249999999
 30
0.0
 50
288.33
  0
POINT
  5
10000C6
330
18
100
AcDbEntity
  8
0
 62
     7
100
AcDbPoint
 10
7571470.469999999
 20
5714992.009999999
 30
0.0
 50
108.33
  0
POINT
  5
10000C7
330
18
100
AcDbEntity
  8
0
 62
     7
100
AcDbPoint
 10
7571470.469999999
 20
5714992.009999999
 30
0.0
 50
184.99
  0
POINT
  5
10000C8
330
18
100
AcDbEntity
  8
0
 62
     7
100
AcDbPoint
 10
7571453.509999998
 20
5714993.49
 30
0.0
 50
4.989999999999994
  0
POINT
  5
10000C9
330
18
100
AcDbEntity
  8
0
 62
     7
100
AcDbPoint
 10
7571453.509999998
 20
5714993.49
 30
0.0
 50
184.92
  0
POINT
  5
10000CA
330
18
100
AcDbEntity
  8
0
 62
     7
100
AcDbPoint
 10
7571436.889999999
 20
5714994.92
 30
0.0
 50
4.919999999999999
  0
POINT
  5
10000CB
330
18
100
AcDbEntity
  8
0
 62
     7
100
AcDbPoint
 10
7571436.889999999
 20
5714994.92
 30
0.0
 50
184.91
  0
POINT
  5
10000CC
330
18
100
AcDbEntity
  8
0
 62
     7
100
AcDbPoint
 10
7571417.92
 20
5714996.549999999
 30
0.0
 50
4.91
  0
POINT
  5
10000CD
330
18
100
AcDbEntity
  8
0
 62
     7
100
AcDbPoint
 10
7571417.92
 20
5714996.549999999
 30
0.0
 50
184.93
  0
POINT
  5
10000CE
330
18
100
AcDbEntity
  8
0
 62
     7
100
AcDbPoint
 10
7571405.519999999
 20
5714997.62
 30
0.0
 50
4.929999999999998
  0
POINT
  5
10000CF
330
18
100
AcDbEntity
  8
0
 62
     7
100
AcDbPoint
 10
7571405.519999999
 20
5714997.62
 30
0.0
 50
184.92
  0
POINT
  5
10000D0
330
18
100
AcDbEntity
  8
0
 62
     7
100
AcDbPoint
 10
7571387.639999999
 20
5714999.160000001
 30
0.0
 50
4.919999999999999
  0
POINT
  5
10000D1
330
18
100
AcDbEntity
  8
0
 62
     7
100
AcDbPoint
 10
7571387.639999999
 20
5714999.160000001
 30
0.0
 50
184.89
  0
POINT
  5
10000D2
330
18
100
AcDbEntity
  8
0
 62
     7
100
AcDbPoint
 10
7571380.269999998
 20
5714999.79
 30
0.0
 50
4.890000000000001
  0
POINT
  5
10000D3
330
18
100
AcDbEntity
  8
0
 62
     7
100
AcDbPoint
 10
7571380.269999998
 20
5714999.79
 30
0.0
 50
184.96
  0
POINT
  5
10000D4
330
18
100
AcDbEntity
  8
0
 62
     7
100
AcDbPoint
 10
7571372.889999999
 20
5715000.429999999
 30
0.0
 50
4.959999999999996
  0
POINT
  5
10000D5
330
18
100
AcDbEntity
  8
0
 62
     7
100
AcDbPoint
 10
7571372.889999999
 20
5715000.429999999
 30
0.0
 50
184.73
  0
POINT
  5
10000D6
330
18
100
AcDbEntity
  8
0
 62
     7
100
AcDbPoint
 10
7571368.059999998
 20
5715000.83
 30
0.0
 50
4.730000000000011
  0
POINT
  5
10000D7
330
18
100
AcDbEntity
  8
0
 62
     7
100
AcDbPoint
 10
7571368.059999998
 20
5715000.83
 30
0.0
 50
184.97
  0
POINT
  5
10000D8
330
18
100
AcDbEntity
  8
0
 62
     7
100
AcDbPoint
 10
7571357.95
 20
5715001.71
 30
0.0
 50
4.970000000000046
  0
LINE
  5
10000D9
330
18
100
AcDbEntity
  8
odnowienie_ew
  6
Continuous
 62
     7
100
AcDbLine
 10
7571515.262711839
 20
5715127.583736254
 30
0.0
 11
7571487.927288161
 21
5715100.406263745
 31
0.0
  0
LINE
  5
10000DA
330
18
100
AcDbEntity
  8
odnowienie_ew
  6
Continuous
 62
     7
100
AcDbLine
 10
7571487.536458407
 20
5715100.100000045
 30
0.0
 11
7571467.463541592
 21
5715087.879999955
 31
0.0
  0
LINE
  5
10000DB
330
18
100
AcDbEntity
  8
odnowienie_ew
  6
Continuous
 62
     7
100
AcDbLine
 10
7571467.017039715
 20
5715087.659283378
 30
0.0
 11
7571445.012960285
 21
5715079.090716622
 31
0.0
  0
LINE
  5
10000DC
330
18
100
AcDbEntity
  8
odnowienie_ew
  6
Continuous
 62
     7
100
AcDbLine
 10
7571444.530635325
 20
5715078.982188238
 30
0.0
 11
7571431.729364676
 21
5715078.067811762
 31
0.0
  0
LINE
  5
10000DD
330
18
100
AcDbEntity
  8
odnowienie_ew
  6
Continuous
 62
     7
100
AcDbLine
 10
7571431.231920112
 20
5715078.019074787
 30
0.0
 11
7571413.438079889
 21
5715075.800925212
 31
0.0
  0
LINE
  5
10000DE
330
18
100
AcDbEntity
  8
odnowienie_ew
  6
Continuous
 62
     7
100
AcDbLine
 10
7571412.940014608
 20
5715075.772702544
 30
0.0
 11
7571406.039985393
 21
5715075.847297454
 31
0.0
  0
LINE
  5
10000DF
330
18
100
AcDbEntity
  8
odnowienie_ew
  6
Continuous
 62
     7
100
AcDbLine
 10
7571405.540014767
 20
5715075.85271723
 30
0.0
 11
7571403.279985234
 21
5715075.877282769
 31
0.0
  0
LINE
  5
10000E0
330
18
100
AcDbEntity
  8
odnowienie_ew
  6
Continuous
 62
     7
100
AcDbLine
 10
7571402.780047016
 20
5715075.884848225
 30
0.0
 11
7571398.639952985
 21
5715075.965151774
 31
0.0
  0
LINE
  5
10000E1
330
18
100
AcDbEntity
  8
odnowienie_ew
  6
Continuous
 62
     7
100
AcDbLine
 10
7571398.140034331
 20
5715075.974143076
 30
0.0
 11
7571393.209965667
 21
5715076.055856923
 31
0.0
  0
LINE
  5
10000E2
330
18
100
AcDbEntity
  8
odnowienie_ew
  6
Continuous
 62
     7
100
AcDbLine
 10
7571392.71004357
 20
5715076.064667235
 30
0.0
 11
7571383.569956431
 21
5715076.235332763
 31
0.0
  0
LINE
  5
10000E3
330
18
100
AcDbEntity
  8
odnowienie_ew
  6
Continuous
 62
     7
100
AcDbLine
 10
7571383.070041384
 20
5715076.24454864
 30
0.0
 11
7571372.029958617
 21
5715076.44545136
 31
0.0
  0
LINE
  5
10000E4
330
18
100
AcDbEntity
  8
odnowienie_ew
  6
Continuous
 62
     7
100
AcDbLine
 10
7571371.530108559
 20
5715076.442633325
 30
0.0
 11
7571350.319891441
 21
5715075.817366674
 31
0.0
  0
LINE
  5
10000E5
330
18
100
AcDbEntity
  8
odnowienie_ew
  6
Continuous
 62
     7
100
AcDbLine
 10
7571349.820057251
 20
5715075.815349945
 30
0.0
 11
7571335.36994275
 21
5715076.124650055
 31
0.0
  0
LINE
  5
10000E6
330
18
100
AcDbEntity
  8
odnowienie_ew
  6
Continuous
 62
     7
100
AcDbLine
 10
7571334.870058869
 20
5715076.135425078
 30
0.0
 11
7571328.91994113
 21
5715076.26457492
 31
0.0
  0
LINE
  5
10000E7
330
18
100
AcDbEntity
  8
odnowienie_ew
  6
Continuous
 62
     7
100
AcDbLine
 10
7571328.421064832
 20
5715076.293049552
 30
0.0
 11
7571315.958935168
 21
5715077.446950447
 31
0.0
  0
LINE
  5
10000E8
330
18
100
AcDbEntity
  8
odnowienie_ew
  6
Continuous
 62
     7
100
AcDbLine
 10
7571315.46826204
 20
5715077.533739772
 30
0.0
 11
7571298.58173796
 21
5715081.986260226
 31
0.0
  0
LINE
  5
10000E9
330
18
100
AcDbEntity
  8
odnowienie_ew
  6
Continuous
 62
     7
100
AcDbLine
 10
7571298.101835196
 20
5715082.126010043
 30
0.0
 11
7571274.138164803
 21
5715089.773989956
 31
0.0
  0
LINE
  5
10000EA
330
18
100
AcDbEntity
  8
odnowienie_ew
  6
Continuous
 62
     7
100
AcDbLine
 10
7571273.670135266
 20
5715089.948296511
 30
0.0
 11
7571257.479864734
 21
5715096.871703488
 31
0.0
  0
LINE
  5
10000EB
330
18
100
AcDbEntity
  8
odnowienie_ew
  6
Continuous
 62
     7
100
AcDbLine
 10
7571257.020138034
 20
5715097.068302982
 30
0.0
 11
7571241.789861966
 21
5715103.581697016
 31
0.0
  0
LINE
  5
10000EC
330
18
100
AcDbEntity
  8
odnowienie_ew
  6
Continuous
 62
     7
100
AcDbLine
 10
7571241.332557947
 20
5715103.783779157
 30
0.0
 11
7571228.74744205
 21
5715109.526220843
 31
0.0
  0
LINE
  5
10000ED
330
18
100
AcDbEntity
  8
odnowienie_ew
  6
Continuous
 62
     7
100
AcDbLine
 10
7571228.292668607
 20
5715109.734021334
 30
0.0
 11
7571225.447331392
 21
5715111.035978666
 31
0.0
  0
LINE
  5
10000EE
330
18
100
AcDbEntity
  8
odnowienie_ew
  6
Continuous
 62
     7
100
AcDbLine
 10
7571225.265824674
 20
5715111.385764315
 30
0.0
 11
7571228.864175324
 21
5715130.684235683
 31
0.0
  0
LINE
  5
10000EF
330
18
100
AcDbEntity
  8
odnowienie_ew
  6
Continuous
 62
     7
100
AcDbLine
 10
7571228.955732362
 20
5715131.17578151
 30
0.0
 11
7571232.68426764
 21
5715151.214218488
 31
0.0
  0
LINE
  5
10000F0
330
18
100
AcDbEntity
  8
odnowienie_ew
  6
Continuous
 62
     7
100
AcDbLine
 10
7571232.775857247
 20
5715151.70575824
 30
0.0
 11
7571237.194142753
 21
5715175.384241758
 31
0.0
  0
LINE
  5
10000F1
330
18
100
AcDbEntity
  8
odnowienie_ew
  6
Continuous
 62
     7
100
AcDbLine
 10
7571237.488614449
 20
5715175.603715864
 30
0.0
 11
7571317.201385551
 21
5715167.176284136
 31
0.0
  0
LINE
  5
10000F2
330
18
100
AcDbEntity
  8
odnowienie_ew
  6
Continuous
 62
     7
100
AcDbLine
 10
7571317.698815889
 20
5715167.125696633
 30
0.0
 11
7571372.281184112
 21
5715161.794303367
 31
0.0
  0
LINE
  5
10000F3
330
18
100
AcDbEntity
  8
odnowienie_ew
  6
Continuous
 62
     7
100
AcDbLine
 10
7571372.773086898
 20
5715161.828384589
 30
0.0
 11
7571405.636913103
 21
5715169.721615411
 31
0.0
  0
LINE
  5
10000F4
330
18
100
AcDbEntity
  8
odnowienie_ew
  6
Continuous
 62
     7
100
AcDbLine
 10
7571406.083827477
 20
5715169.924756207
 30
0.0
 11
7571431.486172522
 21
5715187.965243794
 31
0.0
  0
LINE
  5
10000F5
330
18
100
AcDbEntity
  8
odnowienie_ew
  6
Continuous
 62
     7
100
AcDbLine
 10
7571431.863612514
 20
5715188.289885227
 30
0.0
 11
7571457.256387486
 21
5715214.600114773
 31
0.0
  0
LINE
  5
10000F6
330
18
100
AcDbEntity
  8
odnowienie_ew
  6
Continuous
 62
     7
100
AcDbLine
 10
7571457.558500333
 20
5715214.994447347
 30
0.0
 11
7571474.121499664
 21
5715242.635552653
 31
0.0
  0
LINE
  5
10000F7
330
18
100
AcDbEntity
  8
odnowienie_ew
  6
Continuous
 62
     7
100
AcDbLine
 10
7571474.298474031
 20
5715243.095255515
 30
0.0
 11
7571480.081525968
 21
5715272.354744484
 31
0.0
  0
LINE
  5
10000F8
330
18
100
AcDbEntity
  8
odnowienie_ew
  6
Continuous
 62
     7
100
AcDbLine
 10
7571480.369910782
 20
5715272.529694833
 30
0.0
 11
7571522.750089218
 21
5715260.110305166
 31
0.0
  0
LINE
  5
10000F9
330
18
100
AcDbEntity
  8
odnowienie_ew
  6
Continuous
 62
     7
100
AcDbLine
 10
7571523.23030967
 20
5715259.971070596
 30
0.0
 11
7571555.869690331
 21
5715250.608929404
 31
0.0
  0
LINE
  5
10000FA
330
18
100
AcDbEntity
  8
odnowienie_ew
  6
Continuous
 62
     7
100
AcDbLine
 10
7571556.031389694
 20
5715250.302680764
 30
0.0
 11
7571515.518610306
 21
5715127.997319235
 31
0.0
  0
POINT
  5
10000FB
330
18
100
AcDbEntity
  8
0
 62
     7
100
AcDbPoint
 10
7571515.44
 20
5715127.76
 30
0.0
 50
288.33
  0
POINT
  5
10000FC
330
18
100
AcDbEntity
  8
0
 62
     7
100
AcDbPoint
 10
7571556.11
 20
5715250.54
 30
0.0
 50
108.33
  0
POINT
  5
10000FD
330
18
100
AcDbEntity
  8
0
 62
     7
100
AcDbPoint
 10
7571556.11
 20
5715250.54
 30
0.0
 50
196.0
  0
POINT
  5
10000FE
330
18
100
AcDbEntity
  8
0
 62
     7
100
AcDbPoint
 10
7571522.99
 20
5715260.04
 30
0.0
 50
16.00000000000002
  0
POINT
  5
10000FF
330
18
100
AcDbEntity
  8
0
 62
     7
100
AcDbPoint
 10
7571522.99
 20
5715260.04
 30
0.0
 50
196.33
  0
POINT
  5
1000100
330
18
100
AcDbEntity
  8
0
 62
     7
100
AcDbPoint
 10
7571480.13
 20
5715272.599999999
 30
0.0
 50
16.33
  0
POINT
  5
1000101
330
18
100
AcDbEntity
  8
0
 62
     7
100
AcDbPoint
 10
7571480.13
 20
5715272.599999999
 30
0.0
 50
101.18
  0
POINT
  5
1000102
330
18
100
AcDbEntity
  8
0
 62
     7
100
AcDbPoint
 10
7571474.25
 20
5715242.85
 30
0.0
 50
281.18
  0
POINT
  5
1000103
330
18
100
AcDbEntity
  8
0
 62
     7
100
AcDbPoint
 10
7571474.25
 20
5715242.85
 30
0.0
 50
120.93
  0
POINT
  5
1000104
330
18
100
AcDbEntity
  8
0
 62
     7
100
AcDbPoint
 10
7571457.429999999
 20
5715214.78
 30
0.0
 50
300.93
  0
POINT
  5
1000105
330
18
100
AcDbEntity
  8
0
 62
     7
100
AcDbPoint
 10
7571457.429999999
 20
5715214.78
 30
0.0
 50
133.98
  0
POINT
  5
1000106
330
18
100
AcDbEntity
  8
0
 62
     7
100
AcDbPoint
 10
7571431.69
 20
5715188.11
 30
0.0
 50
313.98
  0
POINT
  5
1000107
330
18
100
AcDbEntity
  8
0
 62
     7
100
AcDbPoint
 10
7571431.69
 20
5715188.11
 30
0.0
 50
144.6199999999999
  0
POINT
  5
1000108
330
18
100
AcDbEntity
  8
0
 62
     7
100
AcDbPoint
 10
7571405.88
 20
5715169.78
 30
0.0
 50
324.62
  0
POINT
  5
1000109
330
18
100
AcDbEntity
  8
0
 62
     7
100
AcDbPoint
 10
7571405.88
 20
5715169.78
 30
0.0
 50
166.49
  0
POINT
  5
100010A
330
18
100
AcDbEntity
  8
0
 62
     7
100
AcDbPoint
 10
7571372.530000001
 20
5715161.769999999
 30
0.0
 50
346.49
  0
POINT
  5
100010B
330
18
100
AcDbEntity
  8
0
 62
     7
100
AcDbPoint
 10
7571372.530000001
 20
5715161.769999999
 30
0.0
 50
185.58
  0
POINT
  5
100010C
330
18
100
AcDbEntity
  8
0
 62
     7
100
AcDbPoint
 10
7571317.45
 20
5715167.15
 30
0.0
 50
5.579999999999958
  0
POINT
  5
100010D
330
18
100
AcDbEntity
  8
0
 62
     7
100
AcDbPoint
 10
7571317.45
 20
5715167.15
 30
0.0
 50
186.04
  0
POINT
  5
100010E
330
18
100
AcDbEntity
  8
0
 62
     7
100
AcDbPoint
 10
7571237.24
 20
5715175.63
 30
0.0
 50
6.040000000000031
  0
POINT
  5
100010F
330
18
100
AcDbEntity
  8
0
 62
     7
100
AcDbPoint
 10
7571237.24
 20
5715175.63
 30
0.0
 50
100.57
  0
POINT
  5
1000110
330
18
100
AcDbEntity
  8
0
 62
     7
100
AcDbPoint
 10
7571232.73
 20
5715151.46
 30
0.0
 50
280.57
  0
POINT
  5
1000111
330
18
100
AcDbEntity
  8
0
 62
     7
100
AcDbPoint
 10
7571232.73
 20
5715151.46
 30
0.0
 50
100.54
  0
POINT
  5
1000112
330
18
100
AcDbEntity
  8
0
 62
     7
100
AcDbPoint
 10
7571228.910000001
 20
5715130.929999999
 30
0.0
 50
280.54
  0
POINT
  5
1000113
330
18
100
AcDbEntity
  8
0
 62
     7
100
AcDbPoint
 10
7571228.910000001
 20
5715130.929999999
 30
0.0
 50
100.56
  0
POINT
  5
1000114
330
18
100
AcDbEntity
  8
0
 62
     7
100
AcDbPoint
 10
7571225.219999998
 20
5715111.14
 30
0.0
 50
280.56
  0
POINT
  5
1000115
330
18
100
AcDbEntity
  8
0
 62
     7
100
AcDbPoint
 10
7571225.219999998
 20
5715111.14
 30
0.0
 50
24.59
  0
POINT
  5
1000116
330
18
100
AcDbEntity
  8
0
 62
     7
100
AcDbPoint
 10
7571228.519999998
 20
5715109.63
 30
0.0
 50
204.59
  0
POINT
  5
1000117
330
18
100
AcDbEntity
  8
0
 62
     7
100
AcDbPoint
 10
7571228.519999998
 20
5715109.63
 30
0.0
 50
24.52999999999995
  0
POINT
  5
1000118
330
18
100
AcDbEntity
  8
0
 62
     7
100
AcDbPoint
 10
7571241.559999998
 20
5715103.679999999
 30
0.0
 50
204.53
  0
POINT
  5
1000119
330
18
100
AcDbEntity
  8
0
 62
     7
100
AcDbPoint
 10
7571241.559999998
 20
5715103.679999999
 30
0.0
 50
23.14999999999999
  0
POINT
  5
100011A
330
18
100
AcDbEntity
  8
0
 62
     7
100
AcDbPoint
 10
7571257.25
 20
5715096.969999999
 30
0.0
 50
203.15
  0
POINT
  5
100011B
330
18
100
AcDbEntity
  8
0
 62
     7
100
AcDbPoint
 10
7571257.25
 20
5715096.969999999
 30
0.0
 50
23.14999999999999
  0
POINT
  5
100011C
330
18
100
AcDbEntity
  8
0
 62
     7
100
AcDbPoint
 10
7571273.900000001
 20
5715089.849999999
 30
0.0
 50
203.15
  0
POINT
  5
100011D
330
18
100
AcDbEntity
  8
0
 62
     7
100
AcDbPoint
 10
7571273.900000001
 20
5715089.849999999
 30
0.0
 50
17.69999999999997
  0
POINT
  5
100011E
330
18
100
AcDbEntity
  8
0
 62
     7
100
AcDbPoint
 10
7571298.340000001
 20
5715082.049999999
 30
0.0
 50
197.7
  0
POINT
  5
100011F
330
18
100
AcDbEntity
  8
0
 62
     7
100
AcDbPoint
 10
7571298.340000001
 20
5715082.049999999
 30
0.0
 50
14.77
  0
POINT
  5
1000120
330
18
100
AcDbEntity
  8
0
 62
     7
100
AcDbPoint
 10
7571315.71
 20
5715077.469999999
 30
0.0
 50
194.77
  0
POINT
  5
1000121
330
18
100
AcDbEntity
  8
0
 62
     7
100
AcDbPoint
 10
7571315.71
 20
5715077.469999999
 30
0.0
 50
5.290000000000027
  0
POINT
  5
1000122
330
18
100
AcDbEntity
  8
0
 62
     7
100
AcDbPoint
 10
7571328.67
 20
5715076.269999999
 30
0.0
 50
185.29
  0
POINT
  5
1000123
330
18
100
AcDbEntity
  8
0
 62
     7
100
AcDbPoint
 10
7571328.67
 20
5715076.269999999
 30
0.0
 50
1.240000000000024
  0
POINT
  5
1000124
330
18
100
AcDbEntity
  8
0
 62
     7
100
AcDbPoint
 10
7571335.12
 20
5715076.129999999
 30
0.0
 50
181.24
  0
POINT
  5
1000125
330
18
100
AcDbEntity
  8
0
 62
     7
100
AcDbPoint
 10
7571335.12
 20
5715076.129999999
 30
0.0
 50
1.230000000000025
  0
POINT
  5
1000126
330
18
100
AcDbEntity
  8
0
 62
     7
100
AcDbPoint
 10
7571350.070000001
 20
5715075.81
 30
0.0
 50
181.23
  0
POINT
  5
1000127
330
18
100
AcDbEntity
  8
0
 62
     7
100
AcDbPoint
 10
7571350.070000001
 20
5715075.81
 30
0.0
 50
358.31
  0
POINT
  5
1000128
330
18
100
AcDbEntity
  8
0
 62
     7
100
AcDbPoint
 10
7571371.78
 20
5715076.45
 30
0.0
 50
178.31
  0
POINT
  5
1000129
330
18
100
AcDbEntity
  8
0
 62
     7
100
AcDbPoint
 10
7571371.78
 20
5715076.45
 30
0.0
 50
1.040000000000037
  0
POINT
  5
100012A
330
18
100
AcDbEntity
  8
0
 62
     7
100
AcDbPoint
 10
7571383.320000001
 20
5715076.240000001
 30
0.0
 50
181.04
  0
POINT
  5
100012B
330
18
100
AcDbEntity
  8
0
 62
     7
100
AcDbPoint
 10
7571383.320000001
 20
5715076.240000001
 30
0.0
 50
1.069999999999984
  0
POINT
  5
100012C
330
18
100
AcDbEntity
  8
0
 62
     7
100
AcDbPoint
 10
7571392.96
 20
5715076.06
 30
0.0
 50
181.07
  0
POINT
  5
100012D
330
18
100
AcDbEntity
  8
0
 62
     7
100
AcDbPoint
 10
7571392.96
 20
5715076.06
 30
0.0
 50
0.9499999999999918
  0
POINT
  5
100012E
330
18
100
AcDbEntity
  8
0
 62
     7
100
AcDbPoint
 10
7571398.389999999
 20
5715075.97
 30
0.0
 50
180.95
  0
POINT
  5
100012F
330
18
100
AcDbEntity
  8
0
 62
     7
100
AcDbPoint
 10
7571398.389999999
 20
5715075.97
 30
0.0
 50
1.110000000000032
  0
POINT
  5
1000130
330
18
100
AcDbEntity
  8
0
 62
     7
100
AcDbPoint
 10
7571403.029999999
 20
5715075.88
 30
0.0
 50
181.11
  0
POINT
  5
1000131
330
18
100
AcDbEntity
  8
0
 62
     7
100
AcDbPoint
 10
7571403.029999999
 20
5715075.88
 30
0.0
 50
0.6200000000000124
  0
POINT
  5
1000132
330
18
100
AcDbEntity
  8
0
 62
     7
100
AcDbPoint
 10
7571405.79
 20
5715075.849999999
 30
0.0
 50
180.62
  0
POINT
  5
1000133
330
18
100
AcDbEntity
  8
0
 62
     7
100
AcDbPoint
 10
7571405.79
 20
5715075.849999999
 30
0.0
 50
0.6200000000000124
  0
POINT
  5
1000134
330
18
100
AcDbEntity
  8
0
 62
     7
100
AcDbPoint
 10
7571413.190000001
 20
5715075.769999999
 30
0.0
 50
180.62
  0
POINT
  5
1000135
330
18
100
AcDbEntity
  8
0
 62
     7
100
AcDbPoint
 10
7571413.190000001
 20
5715075.769999999
 30
0.0
 50
352.89
  0
POINT
  5
1000136
330
18
100
AcDbEntity
  8
0
 62
     7
100
AcDbPoint
 10
7571431.480000001
 20
5715078.049999999
 30
0.0
 50
172.89
  0
POINT
  5
1000137
330
18
100
AcDbEntity
  8
0
 62
     7
100
AcDbPoint
 10
7571431.480000001
 20
5715078.049999999
 30
0.0
 50
355.91
  0
POINT
  5
1000138
330
18
100
AcDbEntity
  8
0
 62
     7
100
AcDbPoint
 10
7571444.78
 20
5715079.0
 30
0.0
 50
175.9099999999999
  0
POINT
  5
1000139
330
18
100
AcDbEntity
  8
0
 62
     7
100
AcDbPoint
 10
7571444.78
 20
5715079.0
 30
0.0
 50
338.72
  0
POINT
  5
100013A
330
18
100
AcDbEntity
  8
0
 62
     7
100
AcDbPoint
 10
7571467.25
 20
5715087.75
 30
0.0
 50
158.72
  0
POINT
  5
100013B
330
18
100
AcDbEntity
  8
0
 62
     7
100
AcDbPoint
 10
7571467.25
 20
5715087.75
 30
0.0
 50
328.67
  0
POINT
  5
100013C
330
18
100
AcDbEntity
  8
0
 62
     7
100
AcDbPoint
 10
7571487.75
 20
5715100.23
 30
0.0
 50
148.67
  0
POINT
  5
100013D
330
18
100
AcDbEntity
  8
0
 62
     7
100
AcDbPoint
 10
7571487.75
 20
5715100.23
 30
0.0
 50
315.17
  0
POINT
  5
100013E
330
18
100
AcDbEntity
  8
0
 62
     7
100
AcDbPoint
 10
7571515.44
 20
5715127.76
 30
0.0
 50
135.17
  0
LINE
  5
100013F
330
18
100
AcDbEntity
  8
odnowienie_ew
  6
Continuous
 62
     7
100
AcDbLine
 10
7571224.408728241
 20
5714889.707280138
 30
0.0
 11
7571263.06127176
 21
5715006.202719862
 31
0.0
  0
LINE
  5
1000140
330
18
100
AcDbEntity
  8
odnowienie_ew
  6
Continuous
 62
     7
100
AcDbLine
 10
7571263.384426571
 20
5715006.387505703
 30
0.0
 11
7571268.855573427
 21
5715005.212494297
 31
0.0
  0
LINE
  5
1000141
330
18
100
AcDbEntity
  8
odnowienie_ew
  6
Continuous
 62
     7
100
AcDbLine
 10
7571269.347875163
 20
5715005.127474581
 30
0.0
 11
7571287.752124836
 21
5715002.712525417
 31
0.0
  0
LINE
  5
1000142
330
18
100
AcDbEntity
  8
odnowienie_ew
  6
Continuous
 62
     7
100
AcDbLine
 10
7571287.921286747
 20
5715002.442714888
 30
0.0
 11
7571248.218713253
 21
5714882.757285111
 31
0.0
  0
LINE
  5
1000143
330
18
100
AcDbEntity
  8
odnowienie_ew
  6
Continuous
 62
     7
100
AcDbLine
 10
7571247.900014679
 20
5714882.590050314
 30
0.0
 11
7571224.569985319
 21
5714889.399949686
 31
0.0
  0
POINT
  5
1000144
330
18
100
AcDbEntity
  8
0
 62
     7
100
AcDbPoint
 10
7571224.329999999
 20
5714889.470000001
 30
0.0
 50
16.26999999999995
  0
POINT
  5
1000145
330
18
100
AcDbEntity
  8
0
 62
     7
100
AcDbPoint
 10
7571248.139999998
 20
5714882.519999999
 30
0.0
 50
196.27
  0
POINT
  5
1000146
330
18
100
AcDbEntity
  8
0
 62
     7
100
AcDbPoint
 10
7571248.139999998
 20
5714882.519999999
 30
0.0
 50
288.35
  0
POINT
  5
1000147
330
18
100
AcDbEntity
  8
0
 62
     7
100
AcDbPoint
 10
7571288.0
 20
5715002.68
 30
0.0
 50
108.35
  0
POINT
  5
1000148
330
18
100
AcDbEntity
  8
0
 62
     7
100
AcDbPoint
 10
7571288.0
 20
5715002.68
 30
0.0
 50
187.48
  0
POINT
  5
1000149
330
18
100
AcDbEntity
  8
0
 62
     7
100
AcDbPoint
 10
7571269.099999999
 20
5715005.16
 30
0.0
 50
7.479999999999992
  0
POINT
  5
100014A
330
18
100
AcDbEntity
  8
0
 62
     7
100
AcDbPoint
 10
7571269.099999999
 20
5715005.16
 30
0.0
 50
192.12
  0
POINT
  5
100014B
330
18
100
AcDbEntity
  8
0
 62
     7
100
AcDbPoint
 10
7571263.139999999
 20
5715006.44
 30
0.0
 50
12.12000000000001
  0
POINT
  5
100014C
330
18
100
AcDbEntity
  8
0
 62
     7
100
AcDbPoint
 10
7571263.139999999
 20
5715006.44
 30
0.0
 50
108.36
  0
POINT
  5
100014D
330
18
100
AcDbEntity
  8
0
 62
     7
100
AcDbPoint
 10
7571224.329999999
 20
5714889.470000001
 30
0.0
 50
288.3599999999999
  0
LINE
  5
100014E
330
18
100
AcDbEntity
  8
odnowienie_ew
  6
Continuous
 62
     7
100
AcDbLine
 10
7571224.56998532
 20
5714889.399949686
 30
0.0
 11
7571247.90001468
 21
5714882.590050314
 31
0.0
  0
LINE
  5
100014F
330
18
100
AcDbEntity
  8
odnowienie_ew
  6
Continuous
 62
     7
100
AcDbLine
 10
7571248.061274639
 20
5714882.282718905
 30
0.0
 11
7571160.588725359
 21
5714618.637281095
 31
0.0
  0
LINE
  5
1000150
330
18
100
AcDbEntity
  8
odnowienie_ew
  6
Continuous
 62
     7
100
AcDbLine
 10
7571160.272359565
 20
5714618.477633914
 30
0.0
 11
7571137.177640432
 21
5714626.022366086
 31
0.0
  0
LINE
  5
1000151
330
18
100
AcDbEntity
  8
odnowienie_ew
  6
Continuous
 62
     7
100
AcDbLine
 10
7571137.018732533
 20
5714626.337278714
 30
0.0
 11
7571224.251267469
 21
5714889.232721285
 31
0.0
  0
POINT
  5
1000152
330
18
100
AcDbEntity
  8
0
 62
     7
100
AcDbPoint
 10
7571224.329999999
 20
5714889.470000001
 30
0.0
 50
108.36
  0
POINT
  5
1000153
330
18
100
AcDbEntity
  8
0
 62
     7
100
AcDbPoint
 10
7571136.940000001
 20
5714626.1
 30
0.0
 50
288.3599999999999
  0
POINT
  5
1000154
330
18
100
AcDbEntity
  8
0
 62
     7
100
AcDbPoint
 10
7571136.940000001
 20
5714626.1
 30
0.0
 50
18.08999999999999
  0
POINT
  5
1000155
330
18
100
AcDbEntity
  8
0
 62
     7
100
AcDbPoint
 10
7571160.509999999
 20
5714618.4
 30
0.0
 50
198.09
  0
POINT
  5
1000156
330
18
100
AcDbEntity
  8
0
 62
     7
100
AcDbPoint
 10
7571160.509999999
 20
5714618.4
 30
0.0
 50
288.35
  0
POINT
  5
1000157
330
18
100
AcDbEntity
  8
0
 62
     7
100
AcDbPoint
 10
7571248.139999998
 20
5714882.519999999
 30
0.0
 50
108.35
  0
POINT
  5
1000158
330
18
100
AcDbEntity
  8
0
 62
     7
100
AcDbPoint
 10
7571248.139999998
 20
5714882.519999999
 30
0.0
 50
196.27
  0
POINT
  5
1000159
330
18
100
AcDbEntity
  8
0
 62
     7
100
AcDbPoint
 10
7571224.329999999
 20
5714889.470000001
 30
0.0
 50
16.26999999999995
  0
LINE
  5
100015A
330
18
100
AcDbEntity
  8
odnowienie_ew
  6
Continuous
 62
     7
100
AcDbLine
 10
7571136.702327284
 20
5714626.177535023
 30
0.0
 11
7571113.727672717
 21
5714633.672464977
 31
0.0
  0
LINE
  5
100015B
330
18
100
AcDbEntity
  8
odnowienie_ew
  6
Continuous
 62
     7
100
AcDbLine
 10
7571113.556636629
 20
5714633.990955514
 30
0.0
 11
7571153.393363372
 21
5714778.039044487
 31
0.0
  0
LINE
  5
100015C
330
18
100
AcDbEntity
  8
odnowienie_ew
  6
Continuous
 62
     7
100
AcDbLine
 10
7571153.52852036
 20
5714778.520426622
 30
0.0
 11
7571198.10147964
 21
5714934.919573379
 31
0.0
  0
LINE
  5
100015D
330
18
100
AcDbEntity
  8
odnowienie_ew
  6
Continuous
 62
     7
100
AcDbLine
 10
7571198.214076701
 20
5714935.406083816
 30
0.0
 11
7571214.675923299
 21
5715027.313916184
 31
0.0
  0
LINE
  5
100015E
330
18
100
AcDbEntity
  8
odnowienie_ew
  6
Continuous
 62
     7
100
AcDbLine
 10
7571214.935785826
 20
5715027.433760241
 30
0.0
 11
7571227.324214172
 21
5715020.186239759
 31
0.0
  0
LINE
  5
100015F
330
18
100
AcDbEntity
  8
odnowienie_ew
  6
Continuous
 62
     7
100
AcDbLine
 10
7571227.758216888
 20
5715019.938010697
 30
0.0
 11
7571238.841783111
 21
5715013.741989302
 31
0.0
  0
LINE
  5
1000160
330
18
100
AcDbEntity
  8
odnowienie_ew
  6
Continuous
 62
     7
100
AcDbLine
 10
7571239.294958449
 20
5715013.534591998
 30
0.0
 11
7571252.415041548
 21
5715008.765408001
 31
0.0
  0
LINE
  5
1000161
330
18
100
AcDbEntity
  8
odnowienie_ew
  6
Continuous
 62
     7
100
AcDbLine
 10
7571252.894488059
 20
5715008.627792826
 30
0.0
 11
7571262.895511941
 21
5715006.492207175
 31
0.0
  0
LINE
  5
1000162
330
18
100
AcDbEntity
  8
odnowienie_ew
  6
Continuous
 62
     7
100
AcDbLine
 10
7571263.061271759
 20
5715006.202719862
 30
0.0
 11
7571224.408728239
 21
5714889.707280138
 31
0.0
  0
LINE
  5
1000163
330
18
100
AcDbEntity
  8
odnowienie_ew
  6
Continuous
 62
     7
100
AcDbLine
 10
7571224.251267469
 20
5714889.232721285
 30
0.0
 11
7571137.018732533
 21
5714626.337278714
 31
0.0
  0
POINT
  5
1000164
330
18
100
AcDbEntity
  8
0
 62
     7
100
AcDbPoint
 10
7571136.940000001
 20
5714626.1
 30
0.0
 50
288.3599999999999
  0
POINT
  5
1000165
330
18
100
AcDbEntity
  8
0
 62
     7
100
AcDbPoint
 10
7571224.329999999
 20
5714889.470000001
 30
0.0
 50
108.36
  0
POINT
  5
1000166
330
18
100
AcDbEntity
  8
0
 62
     7
100
AcDbPoint
 10
7571224.329999999
 20
5714889.470000001
 30
0.0
 50
288.3599999999999
  0
POINT
  5
1000167
330
18
100
AcDbEntity
  8
0
 62
     7
100
AcDbPoint
 10
7571263.139999999
 20
5715006.44
 30
0.0
 50
108.36
  0
POINT
  5
1000168
330
18
100
AcDbEntity
  8
0
 62
     7
100
AcDbPoint
 10
7571263.139999999
 20
5715006.44
 30
0.0
 50
192.05
  0
POINT
  5
1000169
330
18
100
AcDbEntity
  8
0
 62
     7
100
AcDbPoint
 10
7571252.650000001
 20
5715008.679999999
 30
0.0
 50
12.05000000000001
  0
POINT
  5
100016A
330
18
100
AcDbEntity
  8
0
 62
     7
100
AcDbPoint
 10
7571252.650000001
 20
5715008.679999999
 30
0.0
 50
199.98
  0
POINT
  5
100016B
330
18
100
AcDbEntity
  8
0
 62
     7
100
AcDbPoint
 10
7571239.059999999
 20
5715013.62
 30
0.0
 50
19.98000000000003
  0
POINT
  5
100016C
330
18
100
AcDbEntity
  8
0
 62
     7
100
AcDbPoint
 10
7571239.059999999
 20
5715013.62
 30
0.0
 50
209.21
  0
POINT
  5
100016D
330
18
100
AcDbEntity
  8
0
 62
     7
100
AcDbPoint
 10
7571227.539999999
 20
5715020.059999999
 30
0.0
 50
29.20999999999997
  0
POINT
  5
100016E
330
18
100
AcDbEntity
  8
0
 62
     7
100
AcDbPoint
 10
7571227.539999999
 20
5715020.059999999
 30
0.0
 50
210.33
  0
POINT
  5
100016F
330
18
100
AcDbEntity
  8
0
 62
     7
100
AcDbPoint
 10
7571214.719999999
 20
5715027.56
 30
0.0
 50
30.32999999999999
  0
POINT
  5
1000170
330
18
100
AcDbEntity
  8
0
 62
     7
100
AcDbPoint
 10
7571214.719999999
 20
5715027.56
 30
0.0
 50
100.15
  0
POINT
  5
1000171
330
18
100
AcDbEntity
  8
0
 62
     7
100
AcDbPoint
 10
7571198.17
 20
5714935.16
 30
0.0
 50
280.15
  0
POINT
  5
1000172
330
18
100
AcDbEntity
  8
0
 62
     7
100
AcDbPoint
 10
7571198.17
 20
5714935.16
 30
0.0
 50
105.91
  0
POINT
  5
1000173
330
18
100
AcDbEntity
  8
0
 62
     7
100
AcDbPoint
 10
7571153.46
 20
5714778.28
 30
0.0
 50
285.91
  0
POINT
  5
1000174
330
18
100
AcDbEntity
  8
0
 62
     7
100
AcDbPoint
 10
7571153.46
 20
5714778.28
 30
0.0
 50
105.46
  0
POINT
  5
1000175
330
18
100
AcDbEntity
  8
0
 62
     7
100
AcDbPoint
 10
7571113.49
 20
5714633.75
 30
0.0
 50
285.46
  0
POINT
  5
1000176
330
18
100
AcDbEntity
  8
0
 62
     7
100
AcDbPoint
 10
7571113.49
 20
5714633.75
 30
0.0
 50
18.07
  0
POINT
  5
1000177
330
18
100
AcDbEntity
  8
0
 62
     7
100
AcDbPoint
 10
7571136.940000001
 20
5714626.1
 30
0.0
 50
198.07
  0
LINE
  5
1000178
330
18
100
AcDbEntity
  8
odnowienie_ew
  6
Continuous
 62
     7
100
AcDbLine
 10
7571183.272348013
 20
5714610.96759854
 30
0.0
 11
7571160.747651985
 21
5714618.322401459
 31
0.0
  0
LINE
  5
1000179
330
18
100
AcDbEntity
  8
odnowienie_ew
  6
Continuous
 62
     7
100
AcDbLine
 10
7571160.588725359
 20
5714618.637281095
 30
0.0
 11
7571248.061274639
 21
5714882.282718905
 31
0.0
  0
LINE
  5
100017A
330
18
100
AcDbEntity
  8
odnowienie_ew
  6
Continuous
 62
     7
100
AcDbLine
 10
7571248.218713252
 20
5714882.757285111
 30
0.0
 11
7571287.921286746
 21
5715002.442714888
 31
0.0
  0
LINE
  5
100017B
330
18
100
AcDbEntity
  8
odnowienie_ew
  6
Continuous
 62
     7
100
AcDbLine
 10
7571288.247865993
 20
5715002.647404758
 30
0.0
 11
7571312.162134007
 21
5714999.50259524
 31
0.0
  0
LINE
  5
100017C
330
18
100
AcDbEntity
  8
odnowienie_ew
  6
Continuous
 62
     7
100
AcDbLine
 10
7571312.331287547
 20
5714999.232714623
 30
0.0
 11
7571183.588712452
 21
5714611.127285376
 31
0.0
  0
POINT
  5
100017D
330
18
100
AcDbEntity
  8
0
 62
     7
100
AcDbPoint
 10
7571183.51
 20
5714610.89
 30
0.0
 50
288.35
  0
POINT
  5
100017E
330
18
100
AcDbEntity
  8
0
 62
     7
100
AcDbPoint
 10
7571312.41
 20
5714999.47
 30
0.0
 50
108.35
  0
POINT
  5
100017F
330
18
100
AcDbEntity
  8
0
 62
     7
100
AcDbPoint
 10
7571312.41
 20
5714999.47
 30
0.0
 50
187.49
  0
POINT
  5
1000180
330
18
100
AcDbEntity
  8
0
 62
     7
100
AcDbPoint
 10
7571288.0
 20
5715002.68
 30
0.0
 50
7.489999999999992
  0
POINT
  5
1000181
330
18
100
AcDbEntity
  8
0
 62
     7
100
AcDbPoint
 10
7571288.0
 20
5715002.68
 30
0.0
 50
108.35
  0
POINT
  5
1000182
330
18
100
AcDbEntity
  8
0
 62
     7
100
AcDbPoint
 10
7571248.139999998
 20
5714882.519999999
 30
0.0
 50
288.35
  0
POINT
  5
1000183
330
18
100
AcDbEntity
  8
0
 62
     7
100
AcDbPoint
 10
7571248.139999998
 20
5714882.519999999
 30
0.0
 50
108.35
  0
POINT
  5
1000184
330
18
100
AcDbEntity
  8
0
 62
     7
100
AcDbPoint
 10
7571160.509999999
 20
5714618.4
 30
0.0
 50
288.35
  0
POINT
  5
1000185
330
18
100
AcDbEntity
  8
0
 62
     7
100
AcDbPoint
 10
7571160.509999999
 20
5714618.4
 30
0.0
 50
18.07999999999999
  0
POINT
  5
1000186
330
18
100
AcDbEntity
  8
0
 62
     7
100
AcDbPoint
 10
7571183.51
 20
5714610.89
 30
0.0
 50
198.08
  0
LINE
  5
1000187
330
18
100
AcDbEntity
  8
odnowienie_ew
  6
Continuous
 62
     7
100
AcDbLine
 10
7571314.832316668
 20
5715015.467502474
 30
0.0
 11
7571297.857683332
 21
5715021.002497527
 31
0.0
  0
LINE
  5
1000188
330
18
100
AcDbEntity
  8
odnowienie_ew
  6
Continuous
 62
     7
100
AcDbLine
 10
7571297.696367
 20
5715021.318050586
 30
0.0
 11
7571315.633633
 21
5715077.231949415
 31
0.0
  0
LINE
  5
1000189
330
18
100
AcDbEntity
  8
odnowienie_ew
  6
Continuous
 62
     7
100
AcDbLine
 10
7571315.958935168
 20
5715077.446950447
 30
0.0
 11
7571328.421064832
 21
5715076.293049552
 31
0.0
  0
LINE
  5
100018A
330
18
100
AcDbEntity
  8
odnowienie_ew
  6
Continuous
 62
     7
100
AcDbLine
 10
7571328.91994113
 20
5715076.26457492
 30
0.0
 11
7571334.870058869
 21
5715076.135425078
 31
0.0
  0
LINE
  5
100018B
330
18
100
AcDbEntity
  8
odnowienie_ew
  6
Continuous
 62
     7
100
AcDbLine
 10
7571335.041635194
 20
5715075.892599585
 30
0.0
 11
7571315.148364807
 21
5715015.627400415
 31
0.0
  0
POINT
  5
100018C
330
18
100
AcDbEntity
  8
0
 62
     7
100
AcDbPoint
 10
7571315.07
 20
5715015.389999999
 30
0.0
 50
288.27
  0
POINT
  5
100018D
330
18
100
AcDbEntity
  8
0
 62
     7
100
AcDbPoint
 10
7571335.12
 20
5715076.129999999
 30
0.0
 50
108.27
  0
POINT
  5
100018E
330
18
100
AcDbEntity
  8
0
 62
     7
100
AcDbPoint
 10
7571335.12
 20
5715076.129999999
 30
0.0
 50
181.24
  0
POINT
  5
100018F
330
18
100
AcDbEntity
  8
0
 62
     7
100
AcDbPoint
 10
7571328.67
 20
5715076.269999999
 30
0.0
 50
1.240000000000024
  0
POINT
  5
1000190
330
18
100
AcDbEntity
  8
0
 62
     7
100
AcDbPoint
 10
7571328.67
 20
5715076.269999999
 30
0.0
 50
185.29
  0
POINT
  5
1000191
330
18
100
AcDbEntity
  8
0
 62
     7
100
AcDbPoint
 10
7571315.71
 20
5715077.469999999
 30
0.0
 50
5.290000000000027
  0
POINT
  5
1000192
330
18
100
AcDbEntity
  8
0
 62
     7
100
AcDbPoint
 10
7571315.71
 20
5715077.469999999
 30
0.0
 50
107.79
  0
POINT
  5
1000193
330
18
100
AcDbEntity
  8
0
 62
     7
100
AcDbPoint
 10
7571297.62
 20
5715021.08
 30
0.0
 50
287.79
  0
POINT
  5
1000194
330
18
100
AcDbEntity
  8
0
 62
     7
100
AcDbPoint
 10
7571297.62
 20
5715021.08
 30
0.0
 50
18.05999999999999
  0
POINT
  5
1000195
330
18
100
AcDbEntity
  8
0
 62
     7
100
AcDbPoint
 10
7571315.07
 20
5715015.389999999
 30
0.0
 50
198.06
  0
LINE
  5
1000196
330
18
100
AcDbEntity
  8
odnowienie_ew
  6
Continuous
 62
     7
100
AcDbLine
 10
7571350.319891441
 20
5715075.817366674
 30
0.0
 11
7571371.530108559
 21
5715076.442633325
 31
0.0
  0
LINE
  5
1000197
330
18
100
AcDbEntity
  8
odnowienie_ew
  6
Continuous
 62
     7
100
AcDbLine
 10
7571371.697846773
 20
5715076.213883826
 30
0.0
 11
7571347.002153227
 21
5715005.236116174
 31
0.0
  0
LINE
  5
1000198
330
18
100
AcDbEntity
  8
odnowienie_ew
  6
Continuous
 62
     7
100
AcDbLine
 10
7571346.682328915
 20
5715005.077540021
 30
0.0
 11
7571329.747671085
 21
5715010.602459979
 31
0.0
  0
LINE
  5
1000199
330
18
100
AcDbEntity
  8
odnowienie_ew
  6
Continuous
 62
     7
100
AcDbLine
 10
7571329.585258314
 20
5715010.91840341
 30
0.0
 11
7571349.994741685
 21
5715075.57159659
 31
0.0
  0
POINT
  5
100019A
330
18
100
AcDbEntity
  8
0
 62
     7
100
AcDbPoint
 10
7571350.070000001
 20
5715075.81
 30
0.0
 50
107.52
  0
POINT
  5
100019B
330
18
100
AcDbEntity
  8
0
 62
     7
100
AcDbPoint
 10
7571329.509999999
 20
5715010.68
 30
0.0
 50
287.52
  0
POINT
  5
100019C
330
18
100
AcDbEntity
  8
0
 62
     7
100
AcDbPoint
 10
7571329.509999999
 20
5715010.68
 30
0.0
 50
18.07
  0
POINT
  5
100019D
330
18
100
AcDbEntity
  8
0
 62
     7
100
AcDbPoint
 10
7571346.919999999
 20
5715005.0
 30
0.0
 50
198.07
  0
POINT
  5
100019E
330
18
100
AcDbEntity
  8
0
 62
     7
100
AcDbPoint
 10
7571346.919999999
 20
5715005.0
 30
0.0
 50
289.18
  0
POINT
  5
100019F
330
18
100
AcDbEntity
  8
0
 62
     7
100
AcDbPoint
 10
7571371.78
 20
5715076.45
 30
0.0
 50
109.18
  0
POINT
  5
10001A0
330
18
100
AcDbEntity
  8
0
 62
     7
100
AcDbPoint
 10
7571371.78
 20
5715076.45
 30
0.0
 50
178.31
  0
POINT
  5
10001A1
330
18
100
AcDbEntity
  8
0
 62
     7
100
AcDbPoint
 10
7571350.070000001
 20
5715075.81
 30
0.0
 50
358.31
  0
LINE
  5
10001A2
330
18
100
AcDbEntity
  8
odnowienie_ew
  6
Continuous
 62
     7
100
AcDbLine
 10
7571335.36994275
 20
5715076.124650055
 30
0.0
 11
7571349.820057251
 21
5715075.815349945
 31
0.0
  0
LINE
  5
10001A3
330
18
100
AcDbEntity
  8
odnowienie_ew
  6
Continuous
 62
     7
100
AcDbLine
 10
7571349.994741685
 20
5715075.57159659
 30
0.0
 11
7571329.585258316
 21
5715010.91840341
 31
0.0
  0
LINE
  5
10001A4
330
18
100
AcDbEntity
  8
odnowienie_ew
  6
Continuous
 62
     7
100
AcDbLine
 10
7571329.272323867
 20
5715010.757524554
 30
0.0
 11
7571315.307676131
 21
5715015.312475444
 31
0.0
  0
LINE
  5
10001A5
330
18
100
AcDbEntity
  8
odnowienie_ew
  6
Continuous
 62
     7
100
AcDbLine
 10
7571315.148364807
 20
5715015.627400415
 30
0.0
 11
7571335.041635194
 21
5715075.892599585
 31
0.0
  0
POINT
  5
10001A6
330
18
100
AcDbEntity
  8
0
 62
     7
100
AcDbPoint
 10
7571335.12
 20
5715076.129999999
 30
0.0
 50
108.27
  0
POINT
  5
10001A7
330
18
100
AcDbEntity
  8
0
 62
     7
100
AcDbPoint
 10
7571315.07
 20
5715015.389999999
 30
0.0
 50
288.27
  0
POINT
  5
10001A8
330
18
100
AcDbEntity
  8
0
 62
     7
100
AcDbPoint
 10
7571315.07
 20
5715015.389999999
 30
0.0
 50
18.07
  0
POINT
  5
10001A9
330
18
100
AcDbEntity
  8
0
 62
     7
100
AcDbPoint
 10
7571329.509999999
 20
5715010.68
 30
0.0
 50
198.07
  0
POINT
  5
10001AA
330
18
100
AcDbEntity
  8
0
 62
     7
100
AcDbPoint
 10
7571329.509999999
 20
5715010.68
 30
0.0
 50
287.52
  0
POINT
  5
10001AB
330
18
100
AcDbEntity
  8
0
 62
     7
100
AcDbPoint
 10
7571350.070000001
 20
5715075.81
 30
0.0
 50
107.52
  0
POINT
  5
10001AC
330
18
100
AcDbEntity
  8
0
 62
     7
100
AcDbPoint
 10
7571350.070000001
 20
5715075.81
 30
0.0
 50
181.23
  0
POINT
  5
10001AD
330
18
100
AcDbEntity
  8
0
 62
     7
100
AcDbPoint
 10
7571335.12
 20
5715076.129999999
 30
0.0
 50
1.230000000000025
  0
LINE
  5
10001AE
330
18
100
AcDbEntity
  8
odnowienie_ew
  6
Continuous
 62
     7
100
AcDbLine
 10
7571298.58173796
 20
5715081.986260226
 30
0.0
 11
7571315.46826204
 21
5715077.533739772
 31
0.0
  0
LINE
  5
10001AF
330
18
100
AcDbEntity
  8
odnowienie_ew
  6
Continuous
 62
     7
100
AcDbLine
 10
7571315.633633
 20
5715077.231949415
 30
0.0
 11
7571297.696367
 21
5715021.318050586
 31
0.0
  0
LINE
  5
10001B0
330
18
100
AcDbEntity
  8
odnowienie_ew
  6
Continuous
 62
     7
100
AcDbLine
 10
7571297.382310474
 20
5715021.157483477
 30
0.0
 11
7571280.617689526
 21
5715026.622516524
 31
0.0
  0
LINE
  5
10001B1
330
18
100
AcDbEntity
  8
odnowienie_ew
  6
Continuous
 62
     7
100
AcDbLine
 10
7571280.457159794
 20
5715026.937794799
 30
0.0
 11
7571298.262840206
 21
5715081.812205201
 31
0.0
  0
POINT
  5
10001B2
330
18
100
AcDbEntity
  8
0
 62
     7
100
AcDbPoint
 10
7571298.340000001
 20
5715082.049999999
 30
0.0
 50
107.98
  0
POINT
  5
10001B3
330
18
100
AcDbEntity
  8
0
 62
     7
100
AcDbPoint
 10
7571280.380000001
 20
5715026.700000001
 30
0.0
 50
287.98
  0
POINT
  5
10001B4
330
18
100
AcDbEntity
  8
0
 62
     7
100
AcDbPoint
 10
7571280.380000001
 20
5715026.700000001
 30
0.0
 50
18.05999999999999
  0
POINT
  5
10001B5
330
18
100
AcDbEntity
  8
0
 62
     7
100
AcDbPoint
 10
7571297.62
 20
5715021.08
 30
0.0
 50
198.06
  0
POINT
  5
10001B6
330
18
100
AcDbEntity
  8
0
 62
     7
100
AcDbPoint
 10
7571297.62
 20
5715021.08
 30
0.0
 50
287.79
  0
POINT
  5
10001B7
330
18
100
AcDbEntity
  8
0
 62
     7
100
AcDbPoint
 10
7571315.71
 20
5715077.469999999
 30
0.0
 50
107.79
  0
POINT
  5
10001B8
330
18
100
AcDbEntity
  8
0
 62
     7
100
AcDbPoint
 10
7571315.71
 20
5715077.469999999
 30
0.0
 50
194.77
  0
POINT
  5
10001B9
330
18
100
AcDbEntity
  8
0
 62
     7
100
AcDbPoint
 10
7571298.340000001
 20
5715082.049999999
 30
0.0
 50
14.77
  0
LINE
  5
10001BA
330
18
100
AcDbEntity
  8
odnowienie_ew
  6
Continuous
 62
     7
100
AcDbLine
 10
7571274.138164803
 20
5715089.773989956
 30
0.0
 11
7571298.101835196
 21
5715082.126010043
 31
0.0
  0
LINE
  5
10001BB
330
18
100
AcDbEntity
  8
odnowienie_ew
  6
Continuous
 62
     7
100
AcDbLine
 10
7571298.262840206
 20
5715081.812205201
 30
0.0
 11
7571280.457159794
 21
5715026.937794799
 31
0.0
  0
LINE
  5
10001BC
330
18
100
AcDbEntity
  8
odnowienie_ew
  6
Continuous
 62
     7
100
AcDbLine
 10
7571280.142339295
 20
5715026.777571834
 30
0.0
 11
7571256.107660705
 21
5715034.622428166
 31
0.0
  0
LINE
  5
10001BD
330
18
100
AcDbEntity
  8
odnowienie_ew
  6
Continuous
 62
     7
100
AcDbLine
 10
7571255.947685463
 20
5715034.937623586
 30
0.0
 11
7571273.822314537
 21
5715089.612376413
 31
0.0
  0
POINT
  5
10001BE
330
18
100
AcDbEntity
  8
0
 62
     7
100
AcDbPoint
 10
7571273.900000001
 20
5715089.849999999
 30
0.0
 50
108.1
  0
POINT
  5
10001BF
330
18
100
AcDbEntity
  8
0
 62
     7
100
AcDbPoint
 10
7571255.869999999
 20
5715034.7
 30
0.0
 50
288.1
  0
POINT
  5
10001C0
330
18
100
AcDbEntity
  8
0
 62
     7
100
AcDbPoint
 10
7571255.869999999
 20
5715034.7
 30
0.0
 50
18.07999999999999
  0
POINT
  5
10001C1
330
18
100
AcDbEntity
  8
0
 62
     7
100
AcDbPoint
 10
7571280.380000001
 20
5715026.700000001
 30
0.0
 50
198.08
  0
POINT
  5
10001C2
330
18
100
AcDbEntity
  8
0
 62
     7
100
AcDbPoint
 10
7571280.380000001
 20
5715026.700000001
 30
0.0
 50
287.98
  0
POINT
  5
10001C3
330
18
100
AcDbEntity
  8
0
 62
     7
100
AcDbPoint
 10
7571298.340000001
 20
5715082.049999999
 30
0.0
 50
107.98
  0
POINT
  5
10001C4
330
18
100
AcDbEntity
  8
0
 62
     7
100
AcDbPoint
 10
7571298.340000001
 20
5715082.049999999
 30
0.0
 50
197.7
  0
POINT
  5
10001C5
330
18
100
AcDbEntity
  8
0
 62
     7
100
AcDbPoint
 10
7571273.900000001
 20
5715089.849999999
 30
0.0
 50
17.69999999999997
  0
LINE
  5
10001C6
330
18
100
AcDbEntity
  8
odnowienie_ew
  6
Continuous
 62
     7
100
AcDbLine
 10
7571257.479864734
 20
5715096.871703488
 30
0.0
 11
7571273.670135266
 21
5715089.948296511
 31
0.0
  0
LINE
  5
10001C7
330
18
100
AcDbEntity
  8
odnowienie_ew
  6
Continuous
 62
     7
100
AcDbLine
 10
7571273.822314537
 20
5715089.612376413
 30
0.0
 11
7571255.947685463
 21
5715034.937623586
 31
0.0
  0
LINE
  5
10001C8
330
18
100
AcDbEntity
  8
odnowienie_ew
  6
Continuous
 62
     7
100
AcDbLine
 10
7571255.632325469
 20
5715034.777529459
 30
0.0
 11
7571238.817674532
 21
5715040.26247054
 31
0.0
  0
LINE
  5
10001C9
330
18
100
AcDbEntity
  8
odnowienie_ew
  6
Continuous
 62
     7
100
AcDbLine
 10
7571238.658276682
 20
5715040.577429487
 30
0.0
 11
7571257.171723318
 21
5715096.732570513
 31
0.0
  0
POINT
  5
10001CA
330
18
100
AcDbEntity
  8
0
 62
     7
100
AcDbPoint
 10
7571257.25
 20
5715096.969999999
 30
0.0
 50
108.25
  0
POINT
  5
10001CB
330
18
100
AcDbEntity
  8
0
 62
     7
100
AcDbPoint
 10
7571238.58
 20
5715040.34
 30
0.0
 50
288.25
  0
POINT
  5
10001CC
330
18
100
AcDbEntity
  8
0
 62
     7
100
AcDbPoint
 10
7571238.58
 20
5715040.34
 30
0.0
 50
18.07
  0
POINT
  5
10001CD
330
18
100
AcDbEntity
  8
0
 62
     7
100
AcDbPoint
 10
7571255.869999999
 20
5715034.7
 30
0.0
 50
198.07
  0
POINT
  5
10001CE
330
18
100
AcDbEntity
  8
0
 62
     7
100
AcDbPoint
 10
7571255.869999999
 20
5715034.7
 30
0.0
 50
288.1
  0
POINT
  5
10001CF
330
18
100
AcDbEntity
  8
0
 62
     7
100
AcDbPoint
 10
7571273.900000001
 20
5715089.849999999
 30
0.0
 50
108.1
  0
POINT
  5
10001D0
330
18
100
AcDbEntity
  8
0
 62
     7
100
AcDbPoint
 10
7571273.900000001
 20
5715089.849999999
 30
0.0
 50
203.15
  0
POINT
  5
10001D1
330
18
100
AcDbEntity
  8
0
 62
     7
100
AcDbPoint
 10
7571257.25
 20
5715096.969999999
 30
0.0
 50
23.14999999999999
  0
LINE
  5
10001D2
330
18
100
AcDbEntity
  8
odnowienie_ew
  6
Continuous
 62
     7
100
AcDbLine
 10
7571297.857683332
 20
5715021.002497527
 30
0.0
 11
7571314.832316668
 21
5715015.467502474
 31
0.0
  0
LINE
  5
10001D3
330
18
100
AcDbEntity
  8
odnowienie_ew
  6
Continuous
 62
     7
100
AcDbLine
 10
7571315.307676131
 20
5715015.312475444
 30
0.0
 11
7571329.272323867
 21
5715010.757524554
 31
0.0
  0
LINE
  5
10001D4
330
18
100
AcDbEntity
  8
odnowienie_ew
  6
Continuous
 62
     7
100
AcDbLine
 10
7571329.747671085
 20
5715010.602459979
 30
0.0
 11
7571346.682328914
 21
5715005.077540021
 31
0.0
  0
LINE
  5
10001D5
330
18
100
AcDbEntity
  8
odnowienie_ew
  6
Continuous
 62
     7
100
AcDbLine
 10
7571347.157660288
 20
5715004.922426892
 30
0.0
 11
7571356.302339711
 21
5715001.937573108
 31
0.0
  0
LINE
  5
10001D6
330
18
100
AcDbEntity
  8
odnowienie_ew
  6
Continuous
 62
     7
100
AcDbLine
 10
7571356.291432989
 20
5715001.886729025
 30
0.0
 11
7571337.538567011
 21
5715003.903270976
 31
0.0
  0
LINE
  5
10001D7
330
18
100
AcDbEntity
  8
odnowienie_ew
  6
Continuous
 62
     7
100
AcDbLine
 10
7571337.052332738
 20
5715004.007551743
 30
0.0
 11
7571293.427667263
 21
5715018.242448256
 31
0.0
  0
LINE
  5
10001D8
330
18
100
AcDbEntity
  8
odnowienie_ew
  6
Continuous
 62
     7
100
AcDbLine
 10
7571292.952339526
 20
5715018.39757254
 30
0.0
 11
7571269.867660475
 21
5715025.93242746
 31
0.0
  0
LINE
  5
10001D9
330
18
100
AcDbEntity
  8
odnowienie_ew
  6
Continuous
 62
     7
100
AcDbLine
 10
7571269.392314619
 20
5715026.087496193
 30
0.0
 11
7571217.727685381
 21
5715042.932503807
 31
0.0
  0
LINE
  5
10001DA
330
18
100
AcDbEntity
  8
odnowienie_ew
  6
Continuous
 62
     7
100
AcDbLine
 10
7571217.530798986
 20
5715043.25664842
 30
0.0
 11
7571218.109201014
 21
5715046.75335158
 31
0.0
  0
LINE
  5
10001DB
330
18
100
AcDbEntity
  8
odnowienie_ew
  6
Continuous
 62
     7
100
AcDbLine
 10
7571218.387651364
 20
5715046.922399555
 30
0.0
 11
7571226.732348637
 21
5715044.197600446
 31
0.0
  0
LINE
  5
10001DC
330
18
100
AcDbEntity
  8
odnowienie_ew
  6
Continuous
 62
     7
100
AcDbLine
 10
7571227.207717856
 20
5715044.042603487
 30
0.0
 11
7571238.342282141
 21
5715040.417396513
 31
0.0
  0
LINE
  5
10001DD
330
18
100
AcDbEntity
  8
odnowienie_ew
  6
Continuous
 62
     7
100
AcDbLine
 10
7571238.817674532
 20
5715040.26247054
 30
0.0
 11
7571255.632325469
 21
5715034.777529459
 31
0.0
  0
LINE
  5
10001DE
330
18
100
AcDbEntity
  8
odnowienie_ew
  6
Continuous
 62
     7
100
AcDbLine
 10
7571256.107660705
 20
5715034.622428166
 30
0.0
 11
7571280.142339295
 21
5715026.777571834
 31
0.0
  0
LINE
  5
10001DF
330
18
100
AcDbEntity
  8
odnowienie_ew
  6
Continuous
 62
     7
100
AcDbLine
 10
7571280.617689526
 20
5715026.622516524
 30
0.0
 11
7571297.382310474
 21
5715021.157483477
 31
0.0
  0
POINT
  5
10001E0
330
18
100
AcDbEntity
  8
0
 62
     7
100
AcDbPoint
 10
7571297.62
 20
5715021.08
 30
0.0
 50
198.06
  0
POINT
  5
10001E1
330
18
100
AcDbEntity
  8
0
 62
     7
100
AcDbPoint
 10
7571280.380000001
 20
5715026.700000001
 30
0.0
 50
18.05999999999999
  0
POINT
  5
10001E2
330
18
100
AcDbEntity
  8
0
 62
     7
100
AcDbPoint
 10
7571280.380000001
 20
5715026.700000001
 30
0.0
 50
198.08
  0
POINT
  5
10001E3
330
18
100
AcDbEntity
  8
0
 62
     7
100
AcDbPoint
 10
7571255.869999999
 20
5715034.7
 30
0.0
 50
18.07999999999999
  0
POINT
  5
10001E4
330
18
100
AcDbEntity
  8
0
 62
     7
100
AcDbPoint
 10
7571255.869999999
 20
5715034.7
 30
0.0
 50
198.07
  0
POINT
  5
10001E5
330
18
100
AcDbEntity
  8
0
 62
     7
100
AcDbPoint
 10
7571238.58
 20
5715040.34
 30
0.0
 50
18.07
  0
POINT
  5
10001E6
330
18
100
AcDbEntity
  8
0
 62
     7
100
AcDbPoint
 10
7571238.58
 20
5715040.34
 30
0.0
 50
198.03
  0
POINT
  5
10001E7
330
18
100
AcDbEntity
  8
0
 62
     7
100
AcDbPoint
 10
7571226.969999998
 20
5715044.119999999
 30
0.0
 50
18.02999999999995
  0
POINT
  5
10001E8
330
18
100
AcDbEntity
  8
0
 62
     7
100
AcDbPoint
 10
7571226.969999998
 20
5715044.119999999
 30
0.0
 50
198.08
  0
POINT
  5
10001E9
330
18
100
AcDbEntity
  8
0
 62
     7
100
AcDbPoint
 10
7571218.15
 20
5715047.0
 30
0.0
 50
18.07999999999999
  0
POINT
  5
10001EA
330
18
100
AcDbEntity
  8
0
 62
     7
100
AcDbPoint
 10
7571218.15
 20
5715047.0
 30
0.0
 50
99.38999999999998
  0
POINT
  5
10001EB
330
18
100
AcDbEntity
  8
0
 62
     7
100
AcDbPoint
 10
7571217.49
 20
5715043.01
 30
0.0
 50
279.39
  0
POINT
  5
10001EC
330
18
100
AcDbEntity
  8
0
 62
     7
100
AcDbPoint
 10
7571217.49
 20
5715043.01
 30
0.0
 50
18.05999999999999
  0
POINT
  5
10001ED
330
18
100
AcDbEntity
  8
0
 62
     7
100
AcDbPoint
 10
7571269.63
 20
5715026.01
 30
0.0
 50
198.06
  0
POINT
  5
10001EE
330
18
100
AcDbEntity
  8
0
 62
     7
100
AcDbPoint
 10
7571269.63
 20
5715026.01
 30
0.0
 50
18.07999999999999
  0
POINT
  5
10001EF
330
18
100
AcDbEntity
  8
0
 62
     7
100
AcDbPoint
 10
7571293.190000001
 20
5715018.32
 30
0.0
 50
198.08
  0
POINT
  5
10001F0
330
18
100
AcDbEntity
  8
0
 62
     7
100
AcDbPoint
 10
7571293.190000001
 20
5715018.32
 30
0.0
 50
18.07
  0
POINT
  5
10001F1
330
18
100
AcDbEntity
  8
0
 62
     7
100
AcDbPoint
 10
7571337.29
 20
5715003.93
 30
0.0
 50
198.07
  0
POINT
  5
10001F2
330
18
100
AcDbEntity
  8
0
 62
     7
100
AcDbPoint
 10
7571337.29
 20
5715003.93
 30
0.0
 50
6.139999999999973
  0
POINT
  5
10001F3
330
18
100
AcDbEntity
  8
0
 62
     7
100
AcDbPoint
 10
7571356.54
 20
5715001.86
 30
0.0
 50
186.14
  0
POINT
  5
10001F4
330
18
100
AcDbEntity
  8
0
 62
     7
100
AcDbPoint
 10
7571356.54
 20
5715001.86
 30
0.0
 50
198.08
  0
POINT
  5
10001F5
330
18
100
AcDbEntity
  8
0
 62
     7
100
AcDbPoint
 10
7571346.919999999
 20
5715005.0
 30
0.0
 50
18.07999999999999
  0
POINT
  5
10001F6
330
18
100
AcDbEntity
  8
0
 62
     7
100
AcDbPoint
 10
7571346.919999999
 20
5715005.0
 30
0.0
 50
198.07
  0
POINT
  5
10001F7
330
18
100
AcDbEntity
  8
0
 62
     7
100
AcDbPoint
 10
7571329.509999999
 20
5715010.68
 30
0.0
 50
18.07
  0
POINT
  5
10001F8
330
18
100
AcDbEntity
  8
0
 62
     7
100
AcDbPoint
 10
7571329.509999999
 20
5715010.68
 30
0.0
 50
198.07
  0
POINT
  5
10001F9
330
18
100
AcDbEntity
  8
0
 62
     7
100
AcDbPoint
 10
7571315.07
 20
5715015.389999999
 30
0.0
 50
18.07
  0
POINT
  5
10001FA
330
18
100
AcDbEntity
  8
0
 62
     7
100
AcDbPoint
 10
7571315.07
 20
5715015.389999999
 30
0.0
 50
198.06
  0
POINT
  5
10001FB
330
18
100
AcDbEntity
  8
0
 62
     7
100
AcDbPoint
 10
7571297.62
 20
5715021.08
 30
0.0
 50
18.05999999999999
  0
LINE
  5
10001FC
330
18
100
AcDbEntity
  8
odnowienie_ew
  6
Continuous
 62
     7
100
AcDbLine
 10
7571314.451454914
 20
5715006.38693213
 30
0.0
 11
7571311.718545087
 21
5715006.68306787
 31
0.0
  0
LINE
  5
10001FD
330
18
100
AcDbEntity
  8
odnowienie_ew
  6
Continuous
 62
     7
100
AcDbLine
 10
7571311.222026939
 20
5715006.741770452
 30
0.0
 11
7571290.487973059
 21
5715009.398229547
 31
0.0
  0
LINE
  5
10001FE
330
18
100
AcDbEntity
  8
odnowienie_ew
  6
Continuous
 62
     7
100
AcDbLine
 10
7571290.318736584
 20
5715009.66727737
 30
0.0
 11
7571293.111263416
 21
5715018.08272263
 31
0.0
  0
LINE
  5
10001FF
330
18
100
AcDbEntity
  8
odnowienie_ew
  6
Continuous
 62
     7
100
AcDbLine
 10
7571293.427667263
 20
5715018.242448256
 30
0.0
 11
7571337.052332738
 21
5715004.007551743
 31
0.0
  0
LINE
  5
1000200
330
18
100
AcDbEntity
  8
odnowienie_ew
  6
Continuous
 62
     7
100
AcDbLine
 10
7571337.041433974
 20
5715003.956738178
 30
0.0
 11
7571314.948566027
 21
5715006.333261823
 31
0.0
  0
POINT
  5
1000201
330
18
100
AcDbEntity
  8
0
 62
     7
100
AcDbPoint
 10
7571314.7
 20
5715006.360000001
 30
0.0
 50
6.139999999999973
  0
POINT
  5
1000202
330
18
100
AcDbEntity
  8
0
 62
     7
100
AcDbPoint
 10
7571337.29
 20
5715003.93
 30
0.0
 50
186.14
  0
POINT
  5
1000203
330
18
100
AcDbEntity
  8
0
 62
     7
100
AcDbPoint
 10
7571337.29
 20
5715003.93
 30
0.0
 50
198.07
  0
POINT
  5
1000204
330
18
100
AcDbEntity
  8
0
 62
     7
100
AcDbPoint
 10
7571293.190000001
 20
5715018.32
 30
0.0
 50
18.07
  0
POINT
  5
1000205
330
18
100
AcDbEntity
  8
0
 62
     7
100
AcDbPoint
 10
7571293.190000001
 20
5715018.32
 30
0.0
 50
108.36
  0
POINT
  5
1000206
330
18
100
AcDbEntity
  8
0
 62
     7
100
AcDbPoint
 10
7571290.24
 20
5715009.43
 30
0.0
 50
288.3599999999999
  0
POINT
  5
1000207
330
18
100
AcDbEntity
  8
0
 62
     7
100
AcDbPoint
 10
7571290.24
 20
5715009.43
 30
0.0
 50
7.300000000000004
  0
POINT
  5
1000208
330
18
100
AcDbEntity
  8
0
 62
     7
100
AcDbPoint
 10
7571311.469999999
 20
5715006.709999999
 30
0.0
 50
187.3
  0
POINT
  5
1000209
330
18
100
AcDbEntity
  8
0
 62
     7
100
AcDbPoint
 10
7571311.469999999
 20
5715006.709999999
 30
0.0
 50
6.180000000000022
  0
POINT
  5
100020A
330
18
100
AcDbEntity
  8
0
 62
     7
100
AcDbPoint
 10
7571314.7
 20
5715006.360000001
 30
0.0
 50
186.18
  0
LINE
  5
100020B
330
18
100
AcDbEntity
  8
odnowienie_ew
  6
Continuous
 62
     7
100
AcDbLine
 10
7571289.992012556
 20
5715009.461657971
 30
0.0
 11
7571282.027987445
 21
5715010.478342028
 31
0.0
  0
LINE
  5
100020C
330
18
100
AcDbEntity
  8
odnowienie_ew
  6
Continuous
 62
     7
100
AcDbLine
 10
7571281.53497187
 20
5715010.559610634
 30
0.0
 11
7571265.825028131
 21
5715013.740389365
 31
0.0
  0
LINE
  5
100020D
330
18
100
AcDbEntity
  8
odnowienie_ew
  6
Continuous
 62
     7
100
AcDbLine
 10
7571265.658649015
 20
5715014.02730641
 30
0.0
 11
7571269.551350984
 21
5715025.772693589
 31
0.0
  0
LINE
  5
100020E
330
18
100
AcDbEntity
  8
odnowienie_ew
  6
Continuous
 62
     7
100
AcDbLine
 10
7571269.867660475
 20
5715025.93242746
 30
0.0
 11
7571292.952339526
 21
5715018.39757254
 31
0.0
  0
LINE
  5
100020F
330
18
100
AcDbEntity
  8
odnowienie_ew
  6
Continuous
 62
     7
100
AcDbLine
 10
7571293.111263416
 20
5715018.08272263
 30
0.0
 11
7571290.318736584
 21
5715009.66727737
 31
0.0
  0
POINT
  5
1000210
330
18
100
AcDbEntity
  8
0
 62
     7
100
AcDbPoint
 10
7571290.24
 20
5715009.43
 30
0.0
 50
288.3599999999999
  0
POINT
  5
1000211
330
18
100
AcDbEntity
  8
0
 62
     7
100
AcDbPoint
 10
7571293.190000001
 20
5715018.32
 30
0.0
 50
108.36
  0
POINT
  5
1000212
330
18
100
AcDbEntity
  8
0
 62
     7
100
AcDbPoint
 10
7571293.190000001
 20
5715018.32
 30
0.0
 50
198.08
  0
POINT
  5
1000213
330
18
100
AcDbEntity
  8
0
 62
     7
100
AcDbPoint
 10
7571269.63
 20
5715026.01
 30
0.0
 50
18.07999999999999
  0
POINT
  5
1000214
330
18
100
AcDbEntity
  8
0
 62
     7
100
AcDbPoint
 10
7571269.63
 20
5715026.01
 30
0.0
 50
108.3399999999999
  0
POINT
  5
1000215
330
18
100
AcDbEntity
  8
0
 62
     7
100
AcDbPoint
 10
7571265.58
 20
5715013.79
 30
0.0
 50
288.34
  0
POINT
  5
1000216
330
18
100
AcDbEntity
  8
0
 62
     7
100
AcDbPoint
 10
7571265.58
 20
5715013.79
 30
0.0
 50
11.45
  0
POINT
  5
1000217
330
18
100
AcDbEntity
  8
0
 62
     7
100
AcDbPoint
 10
7571281.78
 20
5715010.509999999
 30
0.0
 50
191.45
  0
POINT
  5
1000218
330
18
100
AcDbEntity
  8
0
 62
     7
100
AcDbPoint
 10
7571281.78
 20
5715010.509999999
 30
0.0
 50
7.279999999999954
  0
POINT
  5
1000219
330
18
100
AcDbEntity
  8
0
 62
     7
100
AcDbPoint
 10
7571290.24
 20
5715009.43
 30
0.0
 50
187.28
  0
LINE
  5
100021A
330
18
100
AcDbEntity
  8
odnowienie_ew
  6
Continuous
 62
     7
100
AcDbLine
 10
7571216.464248193
 20
5715037.306053037
 30
0.0
 11
7571217.445751807
 21
5715042.763946961
 31
0.0
  0
LINE
  5
100021B
330
18
100
AcDbEntity
  8
odnowienie_ew
  6
Continuous
 62
     7
100
AcDbLine
 10
7571217.727685381
 20
5715042.932503807
 30
0.0
 11
7571269.392314619
 21
5715026.087496193
 31
0.0
  0
LINE
  5
100021C
330
18
100
AcDbEntity
  8
odnowienie_ew
  6
Continuous
 62
     7
100
AcDbLine
 10
7571269.551350984
 20
5715025.772693589
 30
0.0
 11
7571265.658649015
 21
5715014.02730641
 31
0.0
  0
LINE
  5
100021D
330
18
100
AcDbEntity
  8
odnowienie_ew
  6
Continuous
 62
     7
100
AcDbLine
 10
7571265.334991358
 20
5715013.839706789
 30
0.0
 11
7571258.875008643
 21
5715015.15029321
 31
0.0
  0
LINE
  5
100021E
330
18
100
AcDbEntity
  8
odnowienie_ew
  6
Continuous
 62
     7
100
AcDbLine
 10
7571258.398216513
 20
5715015.293682524
 30
0.0
 11
7571238.771783487
 21
5715023.226317477
 31
0.0
  0
LINE
  5
100021F
330
18
100
AcDbEntity
  8
odnowienie_ew
  6
Continuous
 62
     7
100
AcDbLine
 10
7571238.327634472
 20
5715023.451912404
 30
0.0
 11
7571216.632365528
 21
5715036.928087596
 31
0.0
  0
POINT
  5
1000220
330
18
100
AcDbEntity
  8
0
 62
     7
100
AcDbPoint
 10
7571216.42
 20
5715037.059999999
 30
0.0
 50
31.85
  0
POINT
  5
1000221
330
18
100
AcDbEntity
  8
0
 62
     7
100
AcDbPoint
 10
7571238.54
 20
5715023.32
 30
0.0
 50
211.85
  0
POINT
  5
1000222
330
18
100
AcDbEntity
  8
0
 62
     7
100
AcDbPoint
 10
7571238.54
 20
5715023.32
 30
0.0
 50
22.01
  0
POINT
  5
1000223
330
18
100
AcDbEntity
  8
0
 62
     7
100
AcDbPoint
 10
7571258.629999999
 20
5715015.2
 30
0.0
 50
202.01
  0
POINT
  5
1000224
330
18
100
AcDbEntity
  8
0
 62
     7
100
AcDbPoint
 10
7571258.629999999
 20
5715015.2
 30
0.0
 50
11.47000000000005
  0
POINT
  5
1000225
330
18
100
AcDbEntity
  8
0
 62
     7
100
AcDbPoint
 10
7571265.58
 20
5715013.79
 30
0.0
 50
191.47
  0
POINT
  5
1000226
330
18
100
AcDbEntity
  8
0
 62
     7
100
AcDbPoint
 10
7571265.58
 20
5715013.79
 30
0.0
 50
288.34
  0
POINT
  5
1000227
330
18
100
AcDbEntity
  8
0
 62
     7
100
AcDbPoint
 10
7571269.63
 20
5715026.01
 30
0.0
 50
108.3399999999999
  0
POINT
  5
1000228
330
18
100
AcDbEntity
  8
0
 62
     7
100
AcDbPoint
 10
7571269.63
 20
5715026.01
 30
0.0
 50
198.06
  0
POINT
  5
1000229
330
18
100
AcDbEntity
  8
0
 62
     7
100
AcDbPoint
 10
7571217.49
 20
5715043.01
 30
0.0
 50
18.05999999999999
  0
POINT
  5
100022A
330
18
100
AcDbEntity
  8
0
 62
     7
100
AcDbPoint
 10
7571217.49
 20
5715043.01
 30
0.0
 50
100.19
  0
POINT
  5
100022B
330
18
100
AcDbEntity
  8
0
 62
     7
100
AcDbPoint
 10
7571216.42
 20
5715037.059999999
 30
0.0
 50
280.1900000000001
  0
LINE
  5
100022C
330
18
100
AcDbEntity
  8
odnowienie_ew
  6
Continuous
 62
     7
100
AcDbLine
 10
7571332.888841687
 20
5714997.245962231
 30
0.0
 11
7571339.741158311
 21
5714996.584037768
 31
0.0
  0
LINE
  5
100022D
330
18
100
AcDbEntity
  8
odnowienie_ew
  6
Continuous
 62
     7
100
AcDbLine
 10
7571339.911344188
 20
5714996.322695842
 30
0.0
 11
7571209.438655812
 21
5714602.687304157
 31
0.0
  0
LINE
  5
100022E
330
18
100
AcDbEntity
  8
odnowienie_ew
  6
Continuous
 62
     7
100
AcDbLine
 10
7571209.122293719
 20
5714602.52743206
 30
0.0
 11
7571202.567706282
 21
5714604.66256794
 31
0.0
  0
LINE
  5
100022F
330
18
100
AcDbEntity
  8
odnowienie_ew
  6
Continuous
 62
     7
100
AcDbLine
 10
7571202.408766743
 20
5714604.97726736
 30
0.0
 11
7571332.561233256
 21
5714997.03273264
 31
0.0
  0
POINT
  5
1000230
330
18
100
AcDbEntity
  8
0
 62
     7
100
AcDbPoint
 10
7571332.639999999
 20
5714997.27
 30
0.0
 50
108.36
  0
POINT
  5
1000231
330
18
100
AcDbEntity
  8
0
 62
     7
100
AcDbPoint
 10
7571202.330000001
 20
5714604.740000001
 30
0.0
 50
288.3599999999999
  0
POINT
  5
1000232
330
18
100
AcDbEntity
  8
0
 62
     7
100
AcDbPoint
 10
7571202.330000001
 20
5714604.740000001
 30
0.0
 50
18.04
  0
POINT
  5
1000233
330
18
100
AcDbEntity
  8
0
 62
     7
100
AcDbPoint
 10
7571209.36
 20
5714602.45
 30
0.0
 50
198.04
  0
POINT
  5
1000234
330
18
100
AcDbEntity
  8
0
 62
     7
100
AcDbPoint
 10
7571209.36
 20
5714602.45
 30
0.0
 50
288.34
  0
POINT
  5
1000235
330
18
100
AcDbEntity
  8
0
 62
     7
100
AcDbPoint
 10
7571339.99
 20
5714996.559999999
 30
0.0
 50
108.3399999999999
  0
POINT
  5
1000236
330
18
100
AcDbEntity
  8
0
 62
     7
100
AcDbPoint
 10
7571339.99
 20
5714996.559999999
 30
0.0
 50
185.52
  0
POINT
  5
1000237
330
18
100
AcDbEntity
  8
0
 62
     7
100
AcDbPoint
 10
7571332.639999999
 20
5714997.27
 30
0.0
 50
5.519999999999962
  0
LINE
  5
1000238
330
18
100
AcDbEntity
  8
odnowienie_ew
  6
Continuous
 62
     7
100
AcDbLine
 10
7571326.768884808
 20
5714997.826412878
 30
0.0
 11
7571332.39111519
 21
5714997.293587122
 31
0.0
  0
LINE
  5
1000239
330
18
100
AcDbEntity
  8
odnowienie_ew
  6
Continuous
 62
     7
100
AcDbLine
 10
7571332.561233256
 20
5714997.03273264
 30
0.0
 11
7571202.408766743
 21
5714604.97726736
 31
0.0
  0
LINE
  5
100023A
330
18
100
AcDbEntity
  8
odnowienie_ew
  6
Continuous
 62
     7
100
AcDbLine
 10
7571202.092359027
 20
5714604.81763226
 30
0.0
 11
7571197.057640973
 21
5714606.462367741
 31
0.0
  0
LINE
  5
100023B
330
18
100
AcDbEntity
  8
odnowienie_ew
  6
Continuous
 62
     7
100
AcDbLine
 10
7571196.89865476
 20
5714606.777304505
 30
0.0
 11
7571326.441345239
 21
5714997.612695493
 31
0.0
  0
POINT
  5
100023C
330
18
100
AcDbEntity
  8
0
 62
     7
100
AcDbPoint
 10
7571326.519999999
 20
5714997.849999999
 30
0.0
 50
108.3399999999999
  0
POINT
  5
100023D
330
18
100
AcDbEntity
  8
0
 62
     7
100
AcDbPoint
 10
7571196.819999999
 20
5714606.54
 30
0.0
 50
288.34
  0
POINT
  5
100023E
330
18
100
AcDbEntity
  8
0
 62
     7
100
AcDbPoint
 10
7571196.819999999
 20
5714606.54
 30
0.0
 50
18.08999999999999
  0
POINT
  5
100023F
330
18
100
AcDbEntity
  8
0
 62
     7
100
AcDbPoint
 10
7571202.330000001
 20
5714604.740000001
 30
0.0
 50
198.09
  0
POINT
  5
1000240
330
18
100
AcDbEntity
  8
0
 62
     7
100
AcDbPoint
 10
7571202.330000001
 20
5714604.740000001
 30
0.0
 50
288.3599999999999
  0
POINT
  5
1000241
330
18
100
AcDbEntity
  8
0
 62
     7
100
AcDbPoint
 10
7571332.639999999
 20
5714997.27
 30
0.0
 50
108.36
  0
POINT
  5
1000242
330
18
100
AcDbEntity
  8
0
 62
     7
100
AcDbPoint
 10
7571332.639999999
 20
5714997.27
 30
0.0
 50
185.41
  0
POINT
  5
1000243
330
18
100
AcDbEntity
  8
0
 62
     7
100
AcDbPoint
 10
7571326.519999999
 20
5714997.849999999
 30
0.0
 50
5.410000000000019
  0
LINE
  5
1000244
330
18
100
AcDbEntity
  8
odnowienie_ew
  6
Continuous
 62
     7
100
AcDbLine
 10
7571312.658368383
 20
5714999.441484281
 30
0.0
 11
7571326.271631615
 21
5714997.878515718
 31
0.0
  0
LINE
  5
1000245
330
18
100
AcDbEntity
  8
odnowienie_ew
  6
Continuous
 62
     7
100
AcDbLine
 10
7571326.441345238
 20
5714997.612695493
 30
0.0
 11
7571196.89865476
 21
5714606.777304505
 31
0.0
  0
LINE
  5
1000246
330
18
100
AcDbEntity
  8
odnowienie_ew
  6
Continuous
 62
     7
100
AcDbLine
 10
7571196.582369071
 20
5714606.617663
 30
0.0
 11
7571183.747630929
 21
5714610.812336998
 31
0.0
  0
LINE
  5
1000247
330
18
100
AcDbEntity
  8
odnowienie_ew
  6
Continuous
 62
     7
100
AcDbLine
 10
7571183.588712452
 20
5714611.127285376
 30
0.0
 11
7571312.331287546
 21
5714999.232714623
 31
0.0
  0
POINT
  5
1000248
330
18
100
AcDbEntity
  8
0
 62
     7
100
AcDbPoint
 10
7571312.41
 20
5714999.47
 30
0.0
 50
108.35
  0
POINT
  5
1000249
330
18
100
AcDbEntity
  8
0
 62
     7
100
AcDbPoint
 10
7571183.51
 20
5714610.89
 30
0.0
 50
288.35
  0
POINT
  5
100024A
330
18
100
AcDbEntity
  8
0
 62
     7
100
AcDbPoint
 10
7571183.51
 20
5714610.89
 30
0.0
 50
18.10000000000004
  0
POINT
  5
100024B
330
18
100
AcDbEntity
  8
0
 62
     7
100
AcDbPoint
 10
7571196.819999999
 20
5714606.54
 30
0.0
 50
198.1
  0
POINT
  5
100024C
330
18
100
AcDbEntity
  8
0
 62
     7
100
AcDbPoint
 10
7571196.819999999
 20
5714606.54
 30
0.0
 50
288.34
  0
POINT
  5
100024D
330
18
100
AcDbEntity
  8
0
 62
     7
100
AcDbPoint
 10
7571326.519999999
 20
5714997.849999999
 30
0.0
 50
108.3399999999999
  0
POINT
  5
100024E
330
18
100
AcDbEntity
  8
0
 62
     7
100
AcDbPoint
 10
7571326.519999999
 20
5714997.849999999
 30
0.0
 50
186.55
  0
POINT
  5
100024F
330
18
100
AcDbEntity
  8
0
 62
     7
100
AcDbPoint
 10
7571312.41
 20
5714999.47
 30
0.0
 50
6.549999999999999
  0
LINE
  5
1000250
330
18
100
AcDbEntity
  8
odnowienie_ew
  6
Continuous
 62
     7
100
AcDbLine
 10
7571326.242328344
 20
5714557.977538272
 30
0.0
 11
7571314.027671657
 21
5714561.962461728
 31
0.0
  0
LINE
  5
1000251
330
18
100
AcDbEntity
  8
odnowienie_ew
  6
Continuous
 62
     7
100
AcDbLine
 10
7571313.55235724
 20
5714562.117626793
 30
0.0
 11
7571304.047642759
 21
5714565.222373208
 31
0.0
  0
LINE
  5
1000252
330
18
100
AcDbEntity
  8
odnowienie_ew
  6
Continuous
 62
     7
100
AcDbLine
 10
7571303.572374985
 20
5714565.377681095
 30
0.0
 11
7571292.637625013
 21
5714568.952318905
 31
0.0
  0
LINE
  5
1000253
330
18
100
AcDbEntity
  8
odnowienie_ew
  6
Continuous
 62
     7
100
AcDbLine
 10
7571292.162339606
 20
5714569.107572786
 30
0.0
 11
7571195.977660394
 21
5714600.502427215
 31
0.0
  0
LINE
  5
1000254
330
18
100
AcDbEntity
  8
odnowienie_ew
  6
Continuous
 62
     7
100
AcDbLine
 10
7571195.502381742
 20
5714600.65770176
 30
0.0
 11
7571159.647618259
 21
5714612.38229824
 31
0.0
  0
LINE
  5
1000255
330
18
100
AcDbEntity
  8
odnowienie_ew
  6
Continuous
 62
     7
100
AcDbLine
 10
7571159.172339397
 20
5714612.537572147
 30
0.0
 11
7571117.827660603
 21
5714626.032427852
 31
0.0
  0
LINE
  5
1000256
330
18
100
AcDbEntity
  8
odnowienie_ew
  6
Continuous
 62
     7
100
AcDbLine
 10
7571117.352333575
 20
5714626.187554308
 30
0.0
 11
7571112.127666424
 21
5714627.892445693
 31
0.0
  0
LINE
  5
1000257
330
18
100
AcDbEntity
  8
odnowienie_ew
  6
Continuous
 62
     7
100
AcDbLine
 10
7571111.956695943
 20
5714628.210939102
 30
0.0
 11
7571113.423304055
 21
5714633.509060897
 31
0.0
  0
LINE
  5
1000258
330
18
100
AcDbEntity
  8
odnowienie_ew
  6
Continuous
 62
     7
100
AcDbLine
 10
7571113.727672717
 20
5714633.672464977
 30
0.0
 11
7571136.702327284
 21
5714626.177535023
 31
0.0
  0
LINE
  5
1000259
330
18
100
AcDbEntity
  8
odnowienie_ew
  6
Continuous
 62
     7
100
AcDbLine
 10
7571137.177640434
 20
5714626.022366086
 30
0.0
 11
7571160.272359567
 21
5714618.477633914
 31
0.0
  0
LINE
  5
100025A
330
18
100
AcDbEntity
  8
odnowienie_ew
  6
Continuous
 62
     7
100
AcDbLine
 10
7571160.747651985
 20
5714618.322401459
 30
0.0
 11
7571183.272348013
 21
5714610.96759854
 31
0.0
  0
LINE
  5
100025B
330
18
100
AcDbEntity
  8
odnowienie_ew
  6
Continuous
 62
     7
100
AcDbLine
 10
7571183.747630928
 20
5714610.812336998
 30
0.0
 11
7571196.58236907
 21
5714606.617663
 31
0.0
  0
LINE
  5
100025C
330
18
100
AcDbEntity
  8
odnowienie_ew
  6
Continuous
 62
     7
100
AcDbLine
 10
7571197.057640973
 20
5714606.462367741
 30
0.0
 11
7571202.092359027
 21
5714604.81763226
 31
0.0
  0
LINE
  5
100025D
330
18
100
AcDbEntity
  8
odnowienie_ew
  6
Continuous
 62
     7
100
AcDbLine
 10
7571202.567706282
 20
5714604.66256794
 30
0.0
 11
7571209.122293719
 21
5714602.52743206
 31
0.0
  0
LINE
  5
100025E
330
18
100
AcDbEntity
  8
odnowienie_ew
  6
Continuous
 62
     7
100
AcDbLine
 10
7571209.597648723
 20
5714602.372391468
 30
0.0
 11
7571214.542351277
 21
5714600.757608531
 31
0.0
  0
LINE
  5
100025F
330
18
100
AcDbEntity
  8
odnowienie_ew
  6
Continuous
 62
     7
100
AcDbLine
 10
7571215.017633295
 20
5714600.602344238
 30
0.0
 11
7571221.672366706
 21
5714598.427655761
 31
0.0
  0
LINE
  5
1000260
330
18
100
AcDbEntity
  8
odnowienie_ew
  6
Continuous
 62
     7
100
AcDbLine
 10
7571222.147670035
 20
5714598.272456758
 30
0.0
 11
7571240.062329965
 21
5714592.427543242
 31
0.0
  0
LINE
  5
1000261
330
18
100
AcDbEntity
  8
odnowienie_ew
  6
Continuous
 62
     7
100
AcDbLine
 10
7571240.537656954
 20
5714592.272416674
 30
0.0
 11
7571257.982343046
 21
5714586.577583324
 31
0.0
  0
LINE
  5
1000262
330
18
100
AcDbEntity
  8
odnowienie_ew
  6
Continuous
 62
     7
100
AcDbLine
 10
7571258.457643835
 20
5714586.422376499
 30
0.0
 11
7571278.892356164
 21
5714579.747623501
 31
0.0
  0
LINE
  5
1000263
330
18
100
AcDbEntity
  8
odnowienie_ew
  6
Continuous
 62
     7
100
AcDbLine
 10
7571279.367654631
 20
5714579.592409561
 30
0.0
 11
7571305.172345368
 21
5714571.167590438
 31
0.0
  0
LINE
  5
1000264
330
18
100
AcDbEntity
  8
odnowienie_ew
  6
Continuous
 62
     7
100
AcDbLine
 10
7571305.647651364
 20
5714571.012399554
 30
0.0
 11
7571325.262348636
 21
5714564.607600445
 31
0.0
  0
LINE
  5
1000265
330
18
100
AcDbEntity
  8
odnowienie_ew
  6
Continuous
 62
     7
100
AcDbLine
 10
7571325.578262042
 20
5714564.767434312
 30
0.0
 11
7571364.431737959
 21
5714682.642565687
 31
0.0
  0
LINE
  5
1000266
330
18
100
AcDbEntity
  8
odnowienie_ew
  6
Continuous
 62
     7
100
AcDbLine
 10
7571364.58644176
 20
5714683.118026589
 30
0.0
 11
7571455.183558238
 21
5714965.221973411
 31
0.0
  0
LINE
  5
1000267
330
18
100
AcDbEntity
  8
odnowienie_ew
  6
Continuous
 62
     7
100
AcDbLine
 10
7571455.336421183
 20
5714965.698033197
 30
0.0
 11
7571456.403578816
 21
5714969.021966803
 31
0.0
  0
LINE
  5
1000268
330
18
100
AcDbEntity
  8
odnowienie_ew
  6
Continuous
 62
     7
100
AcDbLine
 10
7571456.717746297
 20
5714969.182690889
 30
0.0
 11
7571461.962253704
 21
5714967.477309111
 31
0.0
  0
LINE
  5
1000269
330
18
100
AcDbEntity
  8
odnowienie_ew
  6
Continuous
 62
     7
100
AcDbLine
 10
7571462.121349985
 20
5714967.162693922
 30
0.0
 11
7571326.558650016
 21
5714558.137306079
 31
0.0
  0
POINT
  5
100026A
330
18
100
AcDbEntity
  8
0
 62
     7
100
AcDbPoint
 10
7571326.480000001
 20
5714557.9
 30
0.0
 50
288.34
  0
POINT
  5
100026B
330
18
100
AcDbEntity
  8
0
 62
     7
100
AcDbPoint
 10
7571462.2
 20
5714967.4
 30
0.0
 50
108.3399999999999
  0
POINT
  5
100026C
330
18
100
AcDbEntity
  8
0
 62
     7
100
AcDbPoint
 10
7571462.2
 20
5714967.4
 30
0.0
 50
198.01
  0
POINT
  5
100026D
330
18
100
AcDbEntity
  8
0
 62
     7
100
AcDbPoint
 10
7571456.480000001
 20
5714969.26
 30
0.0
 50
18.01
  0
POINT
  5
100026E
330
18
100
AcDbEntity
  8
0
 62
     7
100
AcDbPoint
 10
7571456.480000001
 20
5714969.26
 30
0.0
 50
107.8
  0
POINT
  5
100026F
330
18
100
AcDbEntity
  8
0
 62
     7
100
AcDbPoint
 10
7571455.259999999
 20
5714965.460000001
 30
0.0
 50
287.8
  0
POINT
  5
1000270
330
18
100
AcDbEntity
  8
0
 62
     7
100
AcDbPoint
 10
7571455.259999999
 20
5714965.460000001
 30
0.0
 50
107.8
  0
POINT
  5
1000271
330
18
100
AcDbEntity
  8
0
 62
     7
100
AcDbPoint
 10
7571364.509999999
 20
5714682.88
 30
0.0
 50
287.8
  0
POINT
  5
1000272
330
18
100
AcDbEntity
  8
0
 62
     7
100
AcDbPoint
 10
7571364.509999999
 20
5714682.88
 30
0.0
 50
108.24
  0
POINT
  5
1000273
330
18
100
AcDbEntity
  8
0
 62
     7
100
AcDbPoint
 10
7571325.5
 20
5714564.53
 30
0.0
 50
288.24
  0
POINT
  5
1000274
330
18
100
AcDbEntity
  8
0
 62
     7
100
AcDbPoint
 10
7571325.5
 20
5714564.53
 30
0.0
 50
198.08
  0
POINT
  5
1000275
330
18
100
AcDbEntity
  8
0
 62
     7
100
AcDbPoint
 10
7571305.41
 20
5714571.09
 30
0.0
 50
18.07999999999999
  0
POINT
  5
1000276
330
18
100
AcDbEntity
  8
0
 62
     7
100
AcDbPoint
 10
7571305.41
 20
5714571.09
 30
0.0
 50
198.08
  0
POINT
  5
1000277
330
18
100
AcDbEntity
  8
0
 62
     7
100
AcDbPoint
 10
7571279.13
 20
5714579.67
 30
0.0
 50
18.07999999999999
  0
POINT
  5
1000278
330
18
100
AcDbEntity
  8
0
 62
     7
100
AcDbPoint
 10
7571279.13
 20
5714579.67
 30
0.0
 50
198.09
  0
POINT
  5
1000279
330
18
100
AcDbEntity
  8
0
 62
     7
100
AcDbPoint
 10
7571258.219999999
 20
5714586.5
 30
0.0
 50
18.08999999999999
  0
POINT
  5
100027A
330
18
100
AcDbEntity
  8
0
 62
     7
100
AcDbPoint
 10
7571258.219999999
 20
5714586.5
 30
0.0
 50
198.08
  0
POINT
  5
100027B
330
18
100
AcDbEntity
  8
0
 62
     7
100
AcDbPoint
 10
7571240.3
 20
5714592.35
 30
0.0
 50
18.07999999999999
  0
POINT
  5
100027C
330
18
100
AcDbEntity
  8
0
 62
     7
100
AcDbPoint
 10
7571240.3
 20
5714592.35
 30
0.0
 50
198.07
  0
POINT
  5
100027D
330
18
100
AcDbEntity
  8
0
 62
     7
100
AcDbPoint
 10
7571221.91
 20
5714598.35
 30
0.0
 50
18.07
  0
POINT
  5
100027E
330
18
100
AcDbEntity
  8
0
 62
     7
100
AcDbPoint
 10
7571221.91
 20
5714598.35
 30
0.0
 50
198.1
  0
POINT
  5
100027F
330
18
100
AcDbEntity
  8
0
 62
     7
100
AcDbPoint
 10
7571214.78
 20
5714600.68
 30
0.0
 50
18.10000000000004
  0
POINT
  5
1000280
330
18
100
AcDbEntity
  8
0
 62
     7
100
AcDbPoint
 10
7571214.78
 20
5714600.68
 30
0.0
 50
198.09
  0
POINT
  5
1000281
330
18
100
AcDbEntity
  8
0
 62
     7
100
AcDbPoint
 10
7571209.36
 20
5714602.45
 30
0.0
 50
18.08999999999999
  0
POINT
  5
1000282
330
18
100
AcDbEntity
  8
0
 62
     7
100
AcDbPoint
 10
7571209.36
 20
5714602.45
 30
0.0
 50
198.04
  0
POINT
  5
1000283
330
18
100
AcDbEntity
  8
0
 62
     7
100
AcDbPoint
 10
7571202.330000001
 20
5714604.740000001
 30
0.0
 50
18.04
  0
POINT
  5
1000284
330
18
100
AcDbEntity
  8
0
 62
     7
100
AcDbPoint
 10
7571202.330000001
 20
5714604.740000001
 30
0.0
 50
198.09
  0
POINT
  5
1000285
330
18
100
AcDbEntity
  8
0
 62
     7
100
AcDbPoint
 10
7571196.819999999
 20
5714606.54
 30
0.0
 50
18.08999999999999
  0
POINT
  5
1000286
330
18
100
AcDbEntity
  8
0
 62
     7
100
AcDbPoint
 10
7571196.819999999
 20
5714606.54
 30
0.0
 50
198.1
  0
POINT
  5
1000287
330
18
100
AcDbEntity
  8
0
 62
     7
100
AcDbPoint
 10
7571183.51
 20
5714610.89
 30
0.0
 50
18.10000000000004
  0
POINT
  5
1000288
330
18
100
AcDbEntity
  8
0
 62
     7
100
AcDbPoint
 10
7571183.51
 20
5714610.89
 30
0.0
 50
198.08
  0
POINT
  5
1000289
330
18
100
AcDbEntity
  8
0
 62
     7
100
AcDbPoint
 10
7571160.509999999
 20
5714618.4
 30
0.0
 50
18.07999999999999
  0
POINT
  5
100028A
330
18
100
AcDbEntity
  8
0
 62
     7
100
AcDbPoint
 10
7571160.509999999
 20
5714618.4
 30
0.0
 50
198.09
  0
POINT
  5
100028B
330
18
100
AcDbEntity
  8
0
 62
     7
100
AcDbPoint
 10
7571136.940000001
 20
5714626.1
 30
0.0
 50
18.08999999999999
  0
POINT
  5
100028C
330
18
100
AcDbEntity
  8
0
 62
     7
100
AcDbPoint
 10
7571136.940000001
 20
5714626.1
 30
0.0
 50
198.07
  0
POINT
  5
100028D
330
18
100
AcDbEntity
  8
0
 62
     7
100
AcDbPoint
 10
7571113.49
 20
5714633.75
 30
0.0
 50
18.07
  0
POINT
  5
100028E
330
18
100
AcDbEntity
  8
0
 62
     7
100
AcDbPoint
 10
7571113.49
 20
5714633.75
 30
0.0
 50
105.47
  0
POINT
  5
100028F
330
18
100
AcDbEntity
  8
0
 62
     7
100
AcDbPoint
 10
7571111.889999998
 20
5714627.97
 30
0.0
 50
285.47
  0
POINT
  5
1000290
330
18
100
AcDbEntity
  8
0
 62
     7
100
AcDbPoint
 10
7571111.889999998
 20
5714627.97
 30
0.0
 50
18.07
  0
POINT
  5
1000291
330
18
100
AcDbEntity
  8
0
 62
     7
100
AcDbPoint
 10
7571117.59
 20
5714626.11
 30
0.0
 50
198.07
  0
POINT
  5
1000292
330
18
100
AcDbEntity
  8
0
 62
     7
100
AcDbPoint
 10
7571117.59
 20
5714626.11
 30
0.0
 50
18.07999999999999
  0
POINT
  5
1000293
330
18
100
AcDbEntity
  8
0
 62
     7
100
AcDbPoint
 10
7571159.409999999
 20
5714612.46
 30
0.0
 50
198.08
  0
POINT
  5
1000294
330
18
100
AcDbEntity
  8
0
 62
     7
100
AcDbPoint
 10
7571159.409999999
 20
5714612.46
 30
0.0
 50
18.10999999999999
  0
POINT
  5
1000295
330
18
100
AcDbEntity
  8
0
 62
     7
100
AcDbPoint
 10
7571195.74
 20
5714600.579999999
 30
0.0
 50
198.11
  0
POINT
  5
1000296
330
18
100
AcDbEntity
  8
0
 62
     7
100
AcDbPoint
 10
7571195.74
 20
5714600.579999999
 30
0.0
 50
18.07999999999999
  0
POINT
  5
1000297
330
18
100
AcDbEntity
  8
0
 62
     7
100
AcDbPoint
 10
7571292.4
 20
5714569.029999999
 30
0.0
 50
198.08
  0
POINT
  5
1000298
330
18
100
AcDbEntity
  8
0
 62
     7
100
AcDbPoint
 10
7571292.4
 20
5714569.029999999
 30
0.0
 50
18.10000000000004
  0
POINT
  5
1000299
330
18
100
AcDbEntity
  8
0
 62
     7
100
AcDbPoint
 10
7571303.809999999
 20
5714565.3
 30
0.0
 50
198.1
  0
POINT
  5
100029A
330
18
100
AcDbEntity
  8
0
 62
     7
100
AcDbPoint
 10
7571303.809999999
 20
5714565.3
 30
0.0
 50
18.08999999999999
  0
POINT
  5
100029B
330
18
100
AcDbEntity
  8
0
 62
     7
100
AcDbPoint
 10
7571313.79
 20
5714562.04
 30
0.0
 50
198.09
  0
POINT
  5
100029C
330
18
100
AcDbEntity
  8
0
 62
     7
100
AcDbPoint
 10
7571313.79
 20
5714562.04
 30
0.0
 50
18.07
  0
POINT
  5
100029D
330
18
100
AcDbEntity
  8
0
 62
     7
100
AcDbPoint
 10
7571326.480000001
 20
5714557.9
 30
0.0
 50
198.07
  0
ENDSEC
  0
SECTION
  2
OBJECTS
  0
DICTIONARY
  5
1D8
330
0
100
AcDbDictionary
281
     1
  3
ACAD_CIP_PREVIOUS_PRODUCT_INFO
350
1000052
  3
ACAD_COLOR
350
1000036
  3
ACAD_DETAILVIEWSTYLE
350
1000050
  3
ACAD_GROUP
350
1D9
  3
ACAD_LAYOUT
350
1DA
  3
ACAD_MATERIAL
350
1000004
  3
ACAD_MLEADERSTYLE
350
100004B
  3
ACAD_MLINESTYLE
350
1DB
  3
ACAD_PLOTSETTINGS
350
1DC
  3
ACAD_PLOTSTYLENAME
350
1DD
  3
ACAD_SCALELIST
350
1000039
  3
ACAD_SECTIONVIEWSTYLE
350
100004D
  3
ACAD_TABLESTYLE
350
1000037
  3
ACAD_VISUALSTYLE
350
100001D
  3
ACAD_WIPEOUT_VARS
350
1DE
  3
ACDB_RECOMPOSE_DATA
350
10002AB
  3
AcDbVariableDictionary
350
1000002
  0
DICTIONARY
  5
100029E
330
B
100
AcDbDictionary
280
     1
281
     1
  3
ADSK_XREC_LAYER_RECONCILED
360
100029F
  0
DICTIONARY
  5
10002A0
330
D
100
AcDbDictionary
280
     1
281
     1
  3
ADSK_XREC_LAYER_RECONCILED
360
10002A1
  0
DICTIONARY
  5
1000058
330
18
100
AcDbDictionary
280
     1
281
     1
  3
ACAD_SORTENTS
360
1000059
  0
XRECORD
  5
1000052
102
{ACAD_REACTORS
330
1D8
102
}
330
1D8
100
AcDbXrecord
280
     1
300
CIV3D
300
2013
300
CIV3D_F_S
  0
DICTIONARY
  5
1000036
102
{ACAD_REACTORS
330
1D8
102
}
330
1D8
100
AcDbDictionary
281
     1
  0
DICTIONARY
  5
1000050
102
{ACAD_REACTORS
330
1D8
102
}
330
1D8
100
AcDbDictionary
281
     1
  3
Imperial24
350
1000051
  0
DICTIONARY
  5
1D9
102
{ACAD_REACTORS
330
1D8
102
}
330
1D8
100
AcDbDictionary
281
     1
  0
DICTIONARY
  5
1DA
102
{ACAD_REACTORS
330
1D8
102
}
330
1D8
100
AcDbDictionary
281
     1
  3
Layout
350
1B
  3
Model
350
19
  0
DICTIONARY
  5
1000004
102
{ACAD_REACTORS
330
1D8
102
}
330
1D8
100
AcDbDictionary
281
     1
  3
ByBlock
350
100000D
  3
ByLayer
350
1000005
  3
Global
350
1000015
  0
DICTIONARY
  5
100004B
102
{ACAD_REACTORS
330
1D8
102
}
330
1D8
100
AcDbDictionary
281
     1
  3
Standard
350
100004C
  0
DICTIONARY
  5
1DB
102
{ACAD_REACTORS
330
1D8
102
}
330
1D8
100
AcDbDictionary
281
     1
  3
L_0_02
350
7
  3
Standard
350
1DF
  0
DICTIONARY
  5
1DC
102
{ACAD_REACTORS
330
1D8
102
}
330
1D8
100
AcDbDictionary
281
     1
  0
ACDBDICTIONARYWDFLT
  5
1DD
102
{ACAD_REACTORS
330
1D8
102
}
330
1D8
100
AcDbDictionary
281
     1
  3
Normal
350
C
100
AcDbDictionaryWithDefault
340
C
  0
DICTIONARY
  5
1000039
102
{ACAD_REACTORS
330
1D8
102
}
330
1D8
100
AcDbDictionary
281
     1
  3
A0
350
100003A
  3
A1
350
100003B
  3
A2
350
100003C
  3
A3
350
100003D
  3
A4
350
100003E
  3
A5
350
100003F
  3
A6
350
1000040
  3
A7
350
1000041
  3
A8
350
1000042
  3
A9
350
1000043
  3
B0
350
1000044
  3
B1
350
1000045
  3
B2
350
1000046
  3
B3
350
1000047
  3
B4
350
1000048
  3
B5
350
1000049
  3
B6
350
100004A
  0
DICTIONARY
  5
100004D
102
{ACAD_REACTORS
330
1D8
102
}
330
1D8
100
AcDbDictionary
281
     1
  3
Imperial24
350
100004F
  0
DICTIONARY
  5
1000037
102
{ACAD_REACTORS
330
1D8
102
}
330
1D8
100
AcDbDictionary
281
     1
  3
Standard
350
1000038
  0
DICTIONARY
  5
100001D
102
{ACAD_REACTORS
330
1D8
102
}
330
1D8
100
AcDbDictionary
281
     1
  3
2dWireframe
350
1000023
  3
Basic
350
1000022
  3
Brighten
350
1000029
  3
ColorChange
350
100002D
  3
Conceptual
350
1000026
  3
Dim
350
1000028
  3
EdgeColorOff
350
1000035
  3
Facepattern
350
100002C
  3
Flat
350
100001E
  3
FlatWithEdges
350
100001F
  3
Gouraud
350
1000020
  3
GouraudWithEdges
350
1000021
  3
Hidden
350
1000025
  3
JitterOff
350
1000033
  3
Linepattern
350
100002B
  3
OverhangOff
350
1000034
  3
Realistic
350
1000027
  3
Shaded
350
1000032
  3
Shaded with edges
350
1000031
  3
Shades of Gray
350
100002E
  3
Sketchy
350
100002F
  3
Thicken
350
100002A
  3
Wireframe
350
1000024
  3
X-Ray
350
1000030
  0
WIPEOUTVARIABLES
  5
1DE
102
{ACAD_REACTORS
330
1D8
102
}
330
1D8
100
AcDbWipeoutVariables
 70
     0
  0
XRECORD
  5
10002AB
102
{ACAD_REACTORS
330
1D8
102
}
330
1D8
100
AcDbXrecord
280
     1
 90
        1
330
1000038
  0
DICTIONARY
  5
1000002
102
{ACAD_REACTORS
330
1D8
102
}
330
1D8
100
AcDbDictionary
281
     1
  3
CANNOSCALE
350
10002A6
  3
CMLEADERSTYLE
350
10002A3
  3
CTABLESTYLE
350
10002A2
  3
CVIEWDETAILSTYLE
350
10002A4
  3
CVIEWSECTIONSTYLE
350
10002A5
  3
WIPEOUTFRAME
350
1000003
  3
XCLIPFRAME
350
10002A7
  0
XRECORD
  5
100029F
102
{ACAD_REACTORS
330
100029E
102
}
330
100029E
100
AcDbXrecord
280
     1
290
     1
  0
XRECORD
  5
10002A1
102
{ACAD_REACTORS
330
10002A0
102
}
330
10002A0
100
AcDbXrecord
280
     1
290
     1
  0
SORTENTSTABLE
  5
1000059
102
{ACAD_REACTORS
330
1000058
102
}
330
1000058
100
AcDbSortentsTable
330
18
331
10000E0
  5
10001EA
331
10001C0
  5
100011D
331
10000EA
  5
10001F4
331
10001D1
  5
100010C
331
10000FB
  5
10001E2
331
100010C
  5
10001D1
331
10001DB
  5
1000107
331
100011D
  5
10001C0
331
10001EC
  5
10000F1
331
100012E
  5
10001AF
331
10001FD
  5
10000DE
331
100013F
  5
100019A
331
100020E
  5
10000D1
331
1CF
  5
1000295
331
100021F
  5
10000C3
331
1000230
  5
10000AD
331
1000062
  5
100027B
331
1000241
  5
100009C
331
100007A
  5
1000269
331
100008B
  5
1000252
331
100016B
  5
1000172
331
100017C
  5
1000165
331
100009C
  5
1000241
331
100025C
  5
1000080
331
100018D
  5
1000150
331
10000AD
  5
1000230
331
100026D
  5
1000070
331
100019E
  5
100013F
331
10000BE
  5
100021F
331
100027E
  5
100005F
331
10001AF
  5
100012D
331
10000CF
  5
100020E
331
100028F
  5
1D1
331
1000150
  5
100018E
331
10001B0
  5
100012E
331
10000D0
  5
100020D
331
1000290
  5
1D0
331
10000E1
  5
10001EB
331
10001C1
  5
100011C
331
10000EB
  5
10001F5
331
10001D2
  5
10000FE
331
10000FC
  5
10001E1
331
100010D
  5
10001D0
331
10001DC
  5
1000108
331
100011E
  5
10001BF
331
10001ED
  5
10000F0
331
100012F
  5
10001AE
331
10001FE
  5
10000DF
331
1000140
  5
100019B
331
100020F
  5
10000D2
331
1D0
  5
1000296
331
1000220
  5
10000BD
331
1000151
  5
100018F
331
1000063
  5
100027A
331
1000242
  5
100009B
331
100007B
  5
100026A
331
100008C
  5
1000251
331
100016C
  5
1000171
331
100017D
  5
1000160
331
100009D
  5
1000240
331
100025D
  5
1000081
331
100018E
  5
100014F
331
10000AE
  5
100022F
331
100026E
  5
100006F
331
100019F
  5
100013E
331
10000BF
  5
100021E
331
100027F
  5
100005E
331
1000231
  5
10000AC
331
10001A0
  5
100013D
331
10000C0
  5
100021D
331
1000280
  5
100005D
331
10001B1
  5
100012F
331
10000D1
  5
100020C
331
1000291
  5
1CF
331
10000E2
  5
10001EC
331
10001C2
  5
100011B
331
10000EC
  5
10001F6
331
10001D3
  5
10000FF
331
10000FD
  5
10001E0
331
100010E
  5
10001CF
331
10001DD
  5
1000109
331
100011F
  5
10001BE
331
10001EE
  5
10000EF
331
1000130
  5
10001AD
331
10001FF
  5
10000E0
331
1000141
  5
100019C
331
1000210
  5
10000CD
331
1D1
  5
1000297
331
1000221
  5
10000BC
331
1000152
  5
100018B
331
1000232
  5
10000AB
331
1000053
  5
1000284
331
100007C
  5
100026B
331
1000064
  5
1000253
331
100008D
  5
1000250
331
100016D
  5
1000170
331
100017E
  5
100015F
331
100009E
  5
100023F
331
100025E
  5
1000082
331
100018F
  5
100014E
331
10000AF
  5
100022E
331
100026F
  5
100006E
331
1000243
  5
100009A
331
1000190
  5
100014D
331
10000B0
  5
100022D
331
1000270
  5
100006D
331
10001A1
  5
100013C
331
10000C1
  5
100021C
331
1000281
  5
100005C
331
10001B2
  5
100012B
331
10000D2
  5
100020B
331
1000292
  5
1CE
331
10000E3
  5
10001ED
331
10001C3
  5
100011A
331
10000ED
  5
10001F7
331
10001D4
  5
1000100
331
10000FE
  5
10001DF
331
100010F
  5
10001CE
331
10001DE
  5
100010A
331
1000120
  5
10001BD
331
10001EF
  5
10000EE
331
1000131
  5
10001AC
331
1000200
  5
10000E1
331
1000142
  5
100019D
331
1000211
  5
10000CC
331
1D2
  5
1000298
331
1000222
  5
10000BB
331
1000153
  5
100018A
331
1000233
  5
10000AA
331
1000054
  5
1000285
331
1000244
  5
1000096
331
100007D
  5
100026C
331
100008E
  5
100024F
331
100016E
  5
100016F
331
100017F
  5
100015E
331
100009F
  5
100023E
331
100025F
  5
1000083
331
1000065
  5
1000254
331
1000180
  5
100015D
331
10000A0
  5
100023D
331
1000260
  5
1000084
331
1000191
  5
100014C
331
10000B1
  5
100022C
331
1000271
  5
100006C
331
10001A2
  5
1000138
331
10000C2
  5
100021B
331
1000282
  5
100005B
331
10001B3
  5
100012A
331
10000D3
  5
100020A
331
1000293
  5
1CD
331
10000E4
  5
10001EE
331
10001C4
  5
1000119
331
10000EE
  5
10001F8
331
10001D5
  5
1000101
331
10000FF
  5
10001DE
331
1000110
  5
10001CD
331
10001DF
  5
100010B
331
1000121
  5
10001BC
331
10001F0
  5
10000ED
331
1000132
  5
10001AB
331
1000201
  5
10000DC
331
1000143
  5
100019E
331
1000212
  5
10000CB
331
1D3
  5
1000299
331
1000223
  5
10000BA
331
1000154
  5
1000189
331
1000055
  5
1000286
331
1000245
  5
1000097
331
1000234
  5
10000A9
331
100007E
  5
100026D
331
1000066
  5
1000255
331
100008F
  5
100024E
331
100016F
  5
100016E
331
1000170
  5
100016D
331
1000090
  5
100024D
331
1000250
  5
1000074
331
1000181
  5
100015C
331
10000A1
  5
100023C
331
1000261
  5
1000085
331
1000192
  5
100014B
331
10000B2
  5
100022B
331
1000272
  5
100006B
331
10001A3
  5
1000139
331
10000C3
  5
100021A
331
1000283
  5
100005A
331
10001B4
  5
1000129
331
10000D4
  5
1000209
331
1000294
  5
1CC
331
10000E5
  5
10001EF
331
10001C5
  5
1000118
331
10000EF
  5
10001F9
331
10001D6
  5
1000102
331
1000100
  5
10001DD
331
1000111
  5
10001CC
331
10001E0
  5
10000FD
331
1000122
  5
10001BB
331
10001F1
  5
10000EC
331
1000133
  5
10001AA
331
1000202
  5
10000DB
331
1C3
  5
1000289
331
1000213
  5
10000CA
331
1000144
  5
1000199
331
1D4
  5
100029A
331
1000155
  5
1000188
331
1000224
  5
10000B9
331
1000235
  5
10000A8
331
1000056
  5
1000287
331
1000246
  5
1000098
331
100007F
  5
100026E
331
1000067
  5
1000256
331
1000080
  5
100026F
331
1000068
  5
1000257
331
1000160
  5
1000180
331
1000171
  5
100016C
331
1000091
  5
100024C
331
1000251
  5
1000075
331
1000182
  5
100015B
331
10000A2
  5
100023B
331
1000262
  5
1000086
331
1000193
  5
100014A
331
10000B3
  5
100022A
331
1000273
  5
100006A
331
10001A4
  5
100013A
331
10000C4
  5
1000219
331
1000284
  5
1000057
331
10001B5
  5
1000128
331
10000D5
  5
1000208
331
1000295
  5
1CB
331
10000E6
  5
10001F0
331
10001C6
  5
1000114
331
10000F0
  5
10001FA
331
10001D7
  5
1000103
331
1000101
  5
10001DC
331
1000112
  5
10001CB
331
10001E1
  5
10000FC
331
1000123
  5
10001BA
331
10001F2
  5
10000EB
331
1000134
  5
10001A9
331
1000203
  5
10000DA
331
1C4
  5
100028A
331
1000214
  5
10000C9
331
1D5
  5
100029B
331
1000225
  5
10000B8
331
1000145
  5
1000198
331
1000156
  5
1000187
331
1000236
  5
10000A7
331
1000057
  5
1000288
331
1000247
  5
1000099
331
1000070
  5
100025F
331
1000248
  5
1000095
331
1000081
  5
1000270
331
1000069
  5
1000258
331
1000161
  5
1000181
331
1000172
  5
100016B
331
1000092
  5
100024B
331
1000252
  5
1000076
331
1000183
  5
100015A
331
10000A3
  5
100023A
331
1000263
  5
1000087
331
1000194
  5
1000149
331
10000B4
  5
1000229
331
1000274
  5
1000069
331
10001A5
  5
100013B
331
10000C5
  5
1000218
331
1000285
  5
1000056
331
10001B6
  5
1000127
331
10000D6
  5
1000207
331
1000296
  5
1CA
331
10000F1
  5
10001FB
331
10000E7
  5
10001F1
331
10001C7
  5
1000115
331
1000102
  5
10001DB
331
1000113
  5
10001CA
331
10001E2
  5
10000FB
331
1000124
  5
10001B9
331
10001F3
  5
10000EA
331
1000135
  5
10001A8
331
1000204
  5
10000D9
331
1C5
  5
100028B
331
1000215
  5
10000C8
331
1D6
  5
100029C
331
1000226
  5
10000B7
331
1000146
  5
1000197
331
1000157
  5
1000186
331
1000237
  5
10000A6
331
1000158
  5
1000185
331
1000238
  5
10000A2
331
1000071
  5
1000260
331
1000249
  5
1000094
331
1000082
  5
1000271
331
100006A
  5
1000259
331
1000162
  5
1000182
331
1000173
  5
100016A
331
1000093
  5
100024A
331
1000253
  5
1000077
331
1000184
  5
1000159
331
10000A4
  5
1000239
331
1000264
  5
1000088
331
1000195
  5
1000148
331
10000B5
  5
1000228
331
1000275
  5
1000068
331
10001A6
  5
1000137
331
10000C6
  5
1000217
331
1000286
  5
1000055
331
10001B7
  5
1000126
331
10000D7
  5
1000206
331
1000297
  5
1C9
331
10000F2
  5
10001FC
331
10001C8
  5
1000116
331
1000103
  5
10001DA
331
1000114
  5
10001C9
331
10001E3
  5
10000FA
331
1000125
  5
10001B8
331
10001F4
  5
10000E9
331
1000136
  5
10001A7
331
1000205
  5
10000D8
331
1C6
  5
100028C
331
1000147
  5
1000196
331
1000216
  5
10000C7
331
1D7
  5
100029D
331
1000227
  5
10000B6
331
1000148
  5
1000195
331
1000159
  5
1000184
331
1000228
  5
10000B5
331
1000239
  5
10000A3
331
100005A
  5
1000283
331
100024A
  5
1000093
331
1000072
  5
1000261
331
1000083
  5
1000272
331
100006B
  5
100025A
331
1000163
  5
1000183
331
1000174
  5
1000169
331
1000094
  5
1000249
331
1000254
  5
1000078
331
1000185
  5
1000158
331
10000A5
  5
1000238
331
1000265
  5
1000089
331
1000196
  5
1000144
331
10000B6
  5
1000227
331
1000276
  5
1000067
331
10001A7
  5
1000136
331
10000C7
  5
1000216
331
1000287
  5
1000054
331
10001B8
  5
1000125
331
1000298
  5
1C8
331
10000D8
  5
1000205
331
10000F3
  5
10001FD
331
10001C9
  5
1000117
331
1000104
  5
10001D9
331
1000115
  5
10001C8
331
10001E4
  5
10000F9
331
1000126
  5
10001B7
331
10001F5
  5
10000E8
331
1000137
  5
10001A6
331
1000206
  5
10000D7
331
1C7
  5
100028D
331
1000217
  5
10000C6
331
1000138
  5
10001A5
331
1C8
  5
100028E
331
1000218
  5
10000C5
331
1000149
  5
1000194
331
100015A
  5
100017A
331
1000229
  5
10000B4
331
100023A
  5
10000A4
331
100005B
  5
1000282
331
100024B
  5
1000092
331
1000073
  5
1000262
331
1000084
  5
1000273
331
100006C
  5
100025B
331
1000164
  5
1000179
331
1000175
  5
1000168
331
1000095
  5
1000248
331
1000255
  5
1000079
331
1000186
  5
1000157
331
10000A6
  5
1000237
331
1000266
  5
100008A
331
1000197
  5
1000145
331
10000B7
  5
1000226
331
1000277
  5
1000066
331
10001A8
  5
1000135
331
10000C8
  5
1000215
331
1000288
  5
1000053
331
10001B9
  5
1000124
331
10000D9
  5
10001E3
331
1000299
  5
1C7
331
10000F4
  5
10001FE
331
1000105
  5
10001D8
331
1000116
  5
10001C7
331
10001E5
  5
10000F8
331
1000127
  5
10001B6
331
10001F6
  5
10000E7
331
1000207
  5
10000D6
331
10001CA
  5
1000113
331
1000128
  5
10001B5
331
1000139
  5
10001A4
331
1000208
  5
10000D5
331
1C9
  5
100028F
331
1000219
  5
10000C4
331
100014A
  5
1000193
331
100015B
  5
100017B
331
100022A
  5
10000B3
331
100023B
  5
10000A5
331
100005C
  5
1000281
331
100024C
  5
1000091
331
1000074
  5
1000263
331
1000085
  5
1000274
331
100006D
  5
100025C
331
1000165
  5
1000178
331
1000176
  5
1000167
331
1000096
  5
1000247
331
1000256
  5
100007A
331
1000187
  5
1000152
331
10000A7
  5
1000236
331
1000267
  5
100008B
331
1000198
  5
1000146
331
10000B8
  5
1000225
331
1000278
  5
1000065
331
10001A9
  5
1000134
331
10000C9
  5
1000214
331
1000289
  5
1D7
331
10001BA
  5
1000120
331
10000DA
  5
10001E4
331
100029A
  5
1C6
331
10000F5
  5
10001FF
331
10001CB
  5
1000112
331
1000117
  5
10001C6
331
10001E6
  5
10000F7
331
10001F7
  5
10000E6
331
1000106
  5
10001D7
331
1000118
  5
10001C5
331
1000129
  5
10001B4
331
10001F8
  5
10000E5
331
100013A
  5
10001A3
331
1000209
  5
10000D4
331
1CA
  5
1000290
331
100021A
  5
10000BE
331
100014B
  5
1000192
331
100015C
  5
100017C
331
100022B
  5
10000B2
331
100023C
  5
10000A1
331
100005D
  5
1000280
331
100024D
  5
1000090
331
1000075
  5
1000264
331
1000086
  5
1000275
331
100006E
  5
100025D
331
1000166
  5
1000177
331
1000177
  5
1000166
331
1000097
  5
1000246
331
1000257
  5
100007B
331
1000188
  5
1000153
331
10000A8
  5
1000235
331
1000268
  5
100008C
331
1000199
  5
1000147
331
10000B9
  5
1000224
331
1000279
  5
1000064
331
10001AA
  5
1000133
331
10000CA
  5
1000213
331
100028A
  5
1D6
331
10001BB
  5
1000121
331
10000DB
  5
10001E5
331
100029B
  5
1C5
331
10000F6
  5
1000200
331
10001CC
  5
1000111
331
1000107
  5
10001D6
331
10001E7
  5
10000F6
331
1000108
  5
10001D5
331
1000119
  5
10001C4
331
10001E8
  5
10000F5
331
100012A
  5
10001B3
331
10001F9
  5
10000E4
331
100013B
  5
10001A2
331
100020A
  5
10000D3
331
1CB
  5
1000291
331
100021B
  5
10000BF
331
100014C
  5
1000191
331
100015D
  5
100017D
331
100022C
  5
10000AE
331
100023D
  5
10000A0
331
100005E
  5
100027F
331
100024E
  5
100008F
331
1000076
  5
1000265
331
1000087
  5
1000276
331
100006F
  5
100025E
331
1000167
  5
1000176
331
1000178
  5
1000161
331
1000098
  5
1000245
331
1000258
  5
100007C
331
1000189
  5
1000154
331
10000A9
  5
1000234
331
1000269
  5
100008D
331
100019A
  5
1000143
331
10000BA
  5
1000223
331
100027A
  5
1000063
331
10001AB
  5
1000132
331
10000CB
  5
1000212
331
100028B
  5
1D5
331
10001BC
  5
1000122
331
10000DC
  5
10001E6
331
100029C
  5
1C4
331
10000F7
  5
1000201
331
10001CD
  5
1000110
331
10000F8
  5
1000202
331
1000109
  5
10001D4
331
10001D8
  5
1000104
331
100011A
  5
10001C3
331
10001E9
  5
10000F4
331
100012B
  5
10001B2
331
10001FA
  5
10000E3
331
100013C
  5
10001A1
331
100020B
  5
10000CE
331
1CC
  5
1000292
331
100021C
  5
10000C0
331
100014D
  5
1000190
331
100015E
  5
100017E
331
100022D
  5
10000AF
331
100023E
  5
100009F
331
100005F
  5
100027E
331
100024F
  5
100008E
331
1000077
  5
1000266
331
1000088
  5
1000277
331
1000168
  5
1000175
331
1000179
  5
1000162
331
1000099
  5
1000244
331
1000259
  5
100007D
331
100018A
  5
1000155
331
10000AA
  5
1000233
331
100026A
  5
1000073
331
100019B
  5
1000142
331
10000BB
  5
1000222
331
100027B
  5
1000062
331
10001AC
  5
1000131
331
10000CC
  5
1000211
331
100028C
  5
1D4
331
10001BD
  5
1000123
331
10000DD
  5
10001E7
331
10001CE
  5
100010F
331
100029D
  5
1C3
331
10000F9
  5
1000203
331
10000E8
  5
10001F2
331
100010A
  5
10001D3
331
10001D9
  5
1000105
331
100011B
  5
10001C2
331
10001EA
  5
10000F3
331
100012C
  5
10001B1
331
10001FB
  5
10000E2
331
100013D
  5
10001A0
331
100020C
  5
10000CF
331
1CD
  5
1000293
331
100021D
  5
10000C1
331
100014E
  5
100018C
331
100015F
  5
100017F
331
100022E
  5
10000B0
331
1000060
  5
100027D
331
100023F
  5
100009E
331
1000078
  5
1000267
331
1000089
  5
1000278
331
1000169
  5
1000174
331
100017A
  5
1000163
331
100009A
  5
1000243
331
100025A
  5
100007E
331
100018B
  5
1000156
331
10000AB
  5
1000232
331
100026B
  5
1000072
331
100019C
  5
1000141
331
10000BC
  5
1000221
331
100027C
  5
1000061
331
10001AD
  5
1000130
331
10000CD
  5
1000210
331
100028D
  5
1D3
331
10000DE
  5
10001E8
331
10001BE
  5
100011F
331
10001CF
  5
100010E
331
10000FA
  5
1000204
331
10000E9
  5
10001F3
331
10001D0
  5
100010D
331
100010B
  5
10001D2
331
10001DA
  5
1000106
331
100011C
  5
10001C1
331
10001EB
  5
10000F2
331
100012D
  5
10001B0
331
10001FC
  5
10000DD
331
100013E
  5
100019F
331
100020D
  5
10000D0
331
1CE
  5
1000294
331
100021E
  5
10000C2
331
100014F
  5
100018D
331
100022F
  5
10000B1
331
1000061
  5
100027C
331
1000240
  5
100009D
331
1000079
  5
1000268
331
100008A
  5
1000279
331
100016A
  5
1000173
331
100017B
  5
1000164
331
100009B
  5
1000242
331
100025B
  5
100007F
331
100018C
  5
1000151
331
10000AC
  5
1000231
331
100026C
  5
1000071
331
100019D
  5
1000140
331
10000BD
  5
1000220
331
100027D
  5
1000060
331
10001AE
  5
100012C
331
10000CE
  5
100020F
331
10000DF
  5
10001E9
331
10001BF
  5
100011E
331
100028E
  5
1D2
  0
ACDBDETAILVIEWSTYLE
  5
1000051
102
{ACAD_REACTORS
330
1000050
102
}
330
1000050
100
AcDbModelDocViewStyle
 70
     0
  3
Imperial24
290
     0
100
AcDbDetailViewStyle
 70
     0
 71
     0
 90
        3
 71
     1
340
F
 62
   256
 40
0.24
340
0
 62
   256
 40
0.24
300

 40
0.36
280
     3
 71
     2
340
6
 90
       25
 62
   256
 71
     3
340
F
 62
   256
 40
0.24
 90
        1
 40
0.75
 90
        1
300
%<\AcVar ViewType \f "%tc1">% %<\AcVar ViewDetailId>%\PSKALA %<\AcVar ViewScale \f "%sn">%
 71
     4
340
6
 90
       25
 62
   256
340
6
 90
       25
 62
   256
280
     0
  0
LAYOUT
  5
1B
330
1DA
100
AcDbPlotSettings
  1

  2

  4

  6

 40
0.0
 41
0.0
 42
0.0
 43
0.0
 44
0.0
 45
0.0
 46
0.0
 47
0.0
 48
0.0
 49
0.0
140
0.0
141
0.0
142
1.0
143
1.0
 70
   688
 72
     1
 73
     0
 74
     5
  7

 75
     0
147
1.0
 76
     0
 77
     2
 78
   300
148
0.0
149
0.0
100
AcDbLayout
  1
Layout
 70
     1
 71
     1
 10
0.0
 20
0.0
 11
210.0
 21
297.0
 12
0.0
 22
0.0
 32
0.0
 14
1.000000000000000E+20
 24
1.000000000000000E+20
 34
1.000000000000000E+20
 15
-1.000000000000000E+20
 25
-1.000000000000000E+20
 35
-1.000000000000000E+20
146
0.0
 13
0.0
 23
0.0
 33
0.0
 16
1.0
 26
0.0
 36
0.0
 17
0.0
 27
1.0
 37
0.0
 76
     0
330
1A
  0
LAYOUT
  5
19
330
1DA
100
AcDbPlotSettings
  1

  2

  4

  6

 40
0.0
 41
0.0
 42
0.0
 43
0.0
 44
0.0
 45
0.0
 46
0.0
 47
0.0
 48
0.0
 49
0.0
140
0.0
141
0.0
142
1.0
143
1.0
 70
  1712
 72
     1
 73
     0
 74
     0
  7

 75
     0
147
1.0
 76
     0
 77
     2
 78
   300
148
0.0
149
0.0
100
AcDbLayout
  1
Model
 70
     1
 71
     0
 10
0.0
 20
0.0
 11
12.0
 21
9.0
 12
0.0
 22
0.0
 32
0.0
 14
0.0
 24
0.0
 34
0.0
 15
0.0
 25
0.0
 35
0.0
146
0.0
 13
0.0
 23
0.0
 33
0.0
 16
1.0
 26
0.0
 36
0.0
 17
0.0
 27
1.0
 37
0.0
 76
     0
330
18
331
2
  0
MATERIAL
  5
100000D
102
{ACAD_XDICTIONARY
360
100000E
102
}
102
{ACAD_REACTORS
330
1000004
102
}
330
1000004
100
AcDbMaterial
  1
ByBlock
 72
     0
 43
0.820209973753281
 43
0.0
 43
0.0
 43
0.0
 43
0.0
 43
0.820209973753281
 43
0.0
 43
0.0
 43
0.0
 43
0.0
 43
1.0
 43
0.0
 43
0.0
 43
0.0
 43
0.0
 43
1.0
 77
     0
 47
0.820209973753281
 47
0.0
 47
0.0
 47
0.0
 47
0.0
 47
0.820209973753281
 47
0.0
 47
0.0
 47
0.0
 47
0.0
 47
1.0
 47
0.0
 47
0.0
 47
0.0
 47
0.0
 47
1.0
171
     0
 49
0.820209973753281
 49
0.0
 49
0.0
 49
0.0
 49
0.0
 49
0.820209973753281
 49
0.0
 49
0.0
 49
0.0
 49
0.0
 49
1.0
 49
0.0
 49
0.0
 49
0.0
 49
0.0
 49
1.0
175
     0
142
0.820209973753281
142
0.0
142
0.0
142
0.0
142
0.0
142
0.820209973753281
142
0.0
142
0.0
142
0.0
142
0.0
142
1.0
142
0.0
142
0.0
142
0.0
142
0.0
142
1.0
179
     0
144
0.820209973753281
144
0.0
144
0.0
144
0.0
144
0.0
144
0.820209973753281
144
0.0
144
0.0
144
0.0
144
0.0
144
1.0
144
0.0
144
0.0
144
0.0
144
0.0
144
1.0
147
0.820209973753281
147
0.0
147
0.0
147
0.0
147
0.0
147
0.820209973753281
147
0.0
147
0.0
147
0.0
147
0.0
147
1.0
147
0.0
147
0.0
147
0.0
147
0.0
147
1.0
  0
MATERIAL
  5
1000005
102
{ACAD_XDICTIONARY
360
1000006
102
}
102
{ACAD_REACTORS
330
1000004
102
}
330
1000004
100
AcDbMaterial
  1
ByLayer
 72
     0
 43
0.820209973753281
 43
0.0
 43
0.0
 43
0.0
 43
0.0
 43
0.820209973753281
 43
0.0
 43
0.0
 43
0.0
 43
0.0
 43
1.0
 43
0.0
 43
0.0
 43
0.0
 43
0.0
 43
1.0
 77
     0
 47
0.820209973753281
 47
0.0
 47
0.0
 47
0.0
 47
0.0
 47
0.820209973753281
 47
0.0
 47
0.0
 47
0.0
 47
0.0
 47
1.0
 47
0.0
 47
0.0
 47
0.0
 47
0.0
 47
1.0
171
     0
 49
0.820209973753281
 49
0.0
 49
0.0
 49
0.0
 49
0.0
 49
0.820209973753281
 49
0.0
 49
0.0
 49
0.0
 49
0.0
 49
1.0
 49
0.0
 49
0.0
 49
0.0
 49
0.0
 49
1.0
175
     0
142
0.820209973753281
142
0.0
142
0.0
142
0.0
142
0.0
142
0.820209973753281
142
0.0
142
0.0
142
0.0
142
0.0
142
1.0
142
0.0
142
0.0
142
0.0
142
0.0
142
1.0
179
     0
144
0.820209973753281
144
0.0
144
0.0
144
0.0
144
0.0
144
0.820209973753281
144
0.0
144
0.0
144
0.0
144
0.0
144
1.0
144
0.0
144
0.0
144
0.0
144
0.0
144
1.0
147
0.820209973753281
147
0.0
147
0.0
147
0.0
147
0.0
147
0.820209973753281
147
0.0
147
0.0
147
0.0
147
0.0
147
1.0
147
0.0
147
0.0
147
0.0
147
0.0
147
1.0
  0
MATERIAL
  5
1000015
102
{ACAD_XDICTIONARY
360
1000016
102
}
102
{ACAD_REACTORS
330
1000004
102
}
330
1000004
100
AcDbMaterial
  1
Global
 72
     0
 43
0.820209973753281
 43
0.0
 43
0.0
 43
0.0
 43
0.0
 43
0.820209973753281
 43
0.0
 43
0.0
 43
0.0
 43
0.0
 43
1.0
 43
0.0
 43
0.0
 43
0.0
 43
0.0
 43
1.0
 77
     0
 47
0.820209973753281
 47
0.0
 47
0.0
 47
0.0
 47
0.0
 47
0.820209973753281
 47
0.0
 47
0.0
 47
0.0
 47
0.0
 47
1.0
 47
0.0
 47
0.0
 47
0.0
 47
0.0
 47
1.0
171
     0
 49
0.820209973753281
 49
0.0
 49
0.0
 49
0.0
 49
0.0
 49
0.820209973753281
 49
0.0
 49
0.0
 49
0.0
 49
0.0
 49
1.0
 49
0.0
 49
0.0
 49
0.0
 49
0.0
 49
1.0
175
     0
142
0.820209973753281
142
0.0
142
0.0
142
0.0
142
0.0
142
0.820209973753281
142
0.0
142
0.0
142
0.0
142
0.0
142
1.0
142
0.0
142
0.0
142
0.0
142
0.0
142
1.0
179
     0
144
0.820209973753281
144
0.0
144
0.0
144
0.0
144
0.0
144
0.820209973753281
144
0.0
144
0.0
144
0.0
144
0.0
144
1.0
144
0.0
144
0.0
144
0.0
144
0.0
144
1.0
147
0.820209973753281
147
0.0
147
0.0
147
0.0
147
0.0
147
0.820209973753281
147
0.0
147
0.0
147
0.0
147
0.0
147
1.0
147
0.0
147
0.0
147
0.0
147
0.0
147
1.0
  0
MLEADERSTYLE
  5
100004C
102
{ACAD_REACTORS
330
100004B
102
}
330
100004B
100
AcDbMLeaderStyle
170
     2
171
     1
172
     0
 90
        2
 40
0.0
 41
0.0
173
     1
 91
-1056964608
340
4
 92
       -2
290
     1
 42
0.09
291
     1
 43
0.36
  3
Standard
 44
0.18
300

342
F
174
     1
178
     6
175
     1
176
     0
 93
-1056964608
 45
0.18
292
     0
297
     0
 46
0.18
 94
-1056964608
 47
1.0
 49
1.0
140
1.0
293
     1
141
0.0
294
     1
177
     0
142
1.0
295
     0
296
     0
143
0.125
1001
ACAD_MLEADERVER
1070
     2
  0
MLINESTYLE
  5
7
330
1DB
100
AcDbMlineStyle
  2
L_0_02
 70
     0
  3

 62
   256
 51
90.0
 52
90.0
 71
     1
 49
0.0
 62
   256
  6
CONTINUOUS
  0
MLINESTYLE
  5
1DF
102
{ACAD_REACTORS
330
1DB
102
}
330
1DB
100
AcDbMlineStyle
  2
STANDARD
 70
     0
  3

 62
   256
 51
90.0
 52
90.0
 71
     2
 49
0.5
 62
   256
  6
BYLAYER
 49
-0.5
 62
   256
  6
BYLAYER
  0
ACDBPLACEHOLDER
  5
C
330
1DD
  0
SCALE
  5
100003A
102
{ACAD_REACTORS
330
1000039
102
}
330
1000039
100
AcDbScale
 70
     0
300
1:1
140
1.0
141
1.0
290
     1
  0
SCALE
  5
100003B
102
{ACAD_REACTORS
330
1000039
102
}
330
1000039
100
AcDbScale
 70
     0
300
1/128" = 1'-0"
140
0.0078125
141
12.0
290
     0
  0
SCALE
  5
100003C
102
{ACAD_REACTORS
330
1000039
102
}
330
1000039
100
AcDbScale
 70
     0
300
1/64" = 1'-0"
140
0.015625
141
12.0
290
     0
  0
SCALE
  5
100003D
102
{ACAD_REACTORS
330
1000039
102
}
330
1000039
100
AcDbScale
 70
     0
300
1/32" = 1'-0"
140
0.03125
141
12.0
290
     0
  0
SCALE
  5
100003E
102
{ACAD_REACTORS
330
1000039
102
}
330
1000039
100
AcDbScale
 70
     0
300
1/16" = 1'-0"
140
0.0625
141
12.0
290
     0
  0
SCALE
  5
100003F
102
{ACAD_REACTORS
330
1000039
102
}
330
1000039
100
AcDbScale
 70
     0
300
3/32" = 1'-0"
140
0.09375
141
12.0
290
     0
  0
SCALE
  5
1000040
102
{ACAD_REACTORS
330
1000039
102
}
330
1000039
100
AcDbScale
 70
     0
300
1/8" = 1'-0"
140
0.125
141
12.0
290
     0
  0
SCALE
  5
1000041
102
{ACAD_REACTORS
330
1000039
102
}
330
1000039
100
AcDbScale
 70
     0
300
3/16" = 1'-0"
140
0.1875
141
12.0
290
     0
  0
SCALE
  5
1000042
102
{ACAD_REACTORS
330
1000039
102
}
330
1000039
100
AcDbScale
 70
     0
300
1/4" = 1'-0"
140
0.25
141
12.0
290
     0
  0
SCALE
  5
1000043
102
{ACAD_REACTORS
330
1000039
102
}
330
1000039
100
AcDbScale
 70
     0
300
3/8" = 1'-0"
140
0.375
141
12.0
290
     0
  0
SCALE
  5
1000044
102
{ACAD_REACTORS
330
1000039
102
}
330
1000039
100
AcDbScale
 70
     0
300
1/2" = 1'-0"
140
0.5
141
12.0
290
     0
  0
SCALE
  5
1000045
102
{ACAD_REACTORS
330
1000039
102
}
330
1000039
100
AcDbScale
 70
     0
300
3/4" = 1'-0"
140
0.75
141
12.0
290
     0
  0
SCALE
  5
1000046
102
{ACAD_REACTORS
330
1000039
102
}
330
1000039
100
AcDbScale
 70
     0
300
1" = 1'-0"
140
1.0
141
12.0
290
     0
  0
SCALE
  5
1000047
102
{ACAD_REACTORS
330
1000039
102
}
330
1000039
100
AcDbScale
 70
     0
300
1-1/2" = 1'-0"
140
1.5
141
12.0
290
     0
  0
SCALE
  5
1000048
102
{ACAD_REACTORS
330
1000039
102
}
330
1000039
100
AcDbScale
 70
     0
300
3" = 1'-0"
140
3.0
141
12.0
290
     0
  0
SCALE
  5
1000049
102
{ACAD_REACTORS
330
1000039
102
}
330
1000039
100
AcDbScale
 70
     0
300
6" = 1'-0"
140
6.0
141
12.0
290
     0
  0
SCALE
  5
100004A
102
{ACAD_REACTORS
330
1000039
102
}
330
1000039
100
AcDbScale
 70
     0
300
1'-0" = 1'-0"
140
12.0
141
12.0
290
     0
  0
ACDBSECTIONVIEWSTYLE
  5
100004F
102
{ACAD_REACTORS
330
100004D
102
}
330
100004D
100
AcDbModelDocViewStyle
 70
     0
  3
Imperial24
290
     0
100
AcDbSectionViewStyle
 70
     0
 71
     0
 90
       78
 71
     1
340
F
 62
   256
 40
0.24
340
0
340
0
 62
   256
 40
0.24
300
I, O, Q, S, X, Z
 40
0.48
 90
        3
 40
0.18
 90
        1
 71
     2
340
100004E
 90
       25
 62
   256
340
6
 90
       50
 62
   256
 40
0.24
 40
0.0
 40
0.24
 71
     3
340
F
 62
   256
 40
0.24
 90
        1
 40
0.75
 90
        1
300
%<\AcVar ViewType \f "%tc1">% %<\AcVar ViewSectionStartId>%-%<\AcVar ViewSectionEndId>%\PSKALA %<\AcVar ViewScale \f "%sn">%
 71
     4
 62
   256
 62
   257
300
ANSI31
 40
1.0
 90
        0
290
     0
290
     0
 90
        6
 40
0.0
 40
1.570796326794896
 40
0.2617993877991494
 40
1.308996938995747
 40
-0.2617993877991494
 40
1.832595714594046
  0
TABLESTYLE
  5
1000038
102
{ACAD_XDICTIONARY
360
10002A9
102
}
102
{ACAD_REACTORS
330
1000037
102
}
330
1000037
100
AcDbTableStyle
  3
Standard
 70
     0
 71
     0
 40
0.06
 41
0.06
280
     0
281
     0
  7
STANDARD
140
0.18
170
     2
 62
     0
 63
     7
283
     0
274
    -2
284
     1
 64
     0
275
    -2
285
     1
 65
     0
276
    -2
286
     1
 66
     0
277
    -2
287
     1
 67
     0
278
    -2
288
     1
 68
     0
279
    -2
289
     1
 69
     0
  7
STANDARD
140
0.25
170
     5
 62
     0
 63
     7
283
     0
274
    -2
284
     1
 64
     0
275
    -2
285
     1
 65
     0
276
    -2
286
     1
 66
     0
277
    -2
287
     1
 67
     0
278
    -2
288
     1
 68
     0
279
    -2
289
     1
 69
     0
  7
STANDARD
140
0.18
170
     5
 62
     0
 63
     7
283
     0
274
    -2
284
     1
 64
     0
275
    -2
285
     1
 65
     0
276
    -2
286
     1
 66
     0
277
    -2
287
     1
 67
     0
278
    -2
288
     1
 68
     0
279
    -2
289
     1
 69
     0
  0
VISUALSTYLE
  5
1000023
102
{ACAD_XDICTIONARY
360
10002B9
102
}
102
{ACAD_REACTORS
330
100001D
102
}
330
100001D
100
AcDbVisualStyle
  2
2dWireframe
 70
     4
 71
     0
 72
     2
 73
     0
 90
        0
 40
-0.6
 41
-30.0
 62
     5
 63
     7
421
 16777215
 74
     1
 91
        4
 64
     7
 65
   257
 75
     1
175
     1
 42
1.0
 92
        0
 66
   257
 43
1.0
 76
     1
 77
     6
 78
     2
 67
     7
 79
     5
170
     0
171
     0
290
     0
174
     0
 93
        1
 44
0.0
173
     0
291
     0
 45
0.0
1001
ACAD
1000
AcDbSavedByObjectVersion
1070
     0
  0
VISUALSTYLE
  5
1000022
102
{ACAD_XDICTIONARY
360
10002B7
102
}
102
{ACAD_REACTORS
330
100001D
102
}
330
100001D
100
AcDbVisualStyle
  2
Basic
 70
     7
 71
     1
 72
     0
 73
     1
 90
        0
 40
-0.6
 41
-30.0
 62
     5
 63
     7
421
 16777215
 74
     0
 91
        4
 64
     7
 65
   257
 75
     1
175
     1
 42
1.0
 92
        8
 66
     7
 43
1.0
 76
     1
 77
     6
 78
     2
 67
     7
 79
     5
170
     0
171
     0
290
     0
174
     0
 93
        1
 44
0.0
173
     0
291
     1
 45
0.0
1001
ACAD
1000
AcDbSavedByObjectVersion
1070
     0
  0
VISUALSTYLE
  5
1000029
102
{ACAD_XDICTIONARY
360
10002C5
102
}
102
{ACAD_REACTORS
330
100001D
102
}
330
100001D
100
AcDbVisualStyle
  2
Brighten
 70
    12
 71
     2
 72
     2
 73
     0
 90
        0
 40
-0.6
 41
-30.0
 62
     5
 63
     7
421
 16777215
 74
     1
 91
        4
 64
     7
 65
   257
 75
     1
175
     1
 42
1.0
 92
        8
 66
     7
 43
1.0
 76
     1
 77
     6
 78
     2
 67
     7
 79
     5
170
     0
171
     0
290
     0
174
     0
 93
        1
 44
50.0
173
     0
291
     1
 45
0.0
1001
ACAD
1000
AcDbSavedByObjectVersion
1070
     0
  0
VISUALSTYLE
  5
100002D
102
{ACAD_XDICTIONARY
360
10002CD
102
}
102
{ACAD_REACTORS
330
100001D
102
}
330
100001D
100
AcDbVisualStyle
  2
ColorChange
 70
    16
 71
     2
 72
     2
 73
     3
 90
        0
 40
-0.6
 41
-30.0
 62
     5
 63
     8
421
  8421504
 74
     1
 91
        4
 64
     7
 65
   257
 75
     1
175
     1
 42
1.0
 92
        8
 66
     8
424
  8421504
 43
1.0
 76
     1
 77
     6
 78
     2
 67
     7
 79
     5
170
     0
171
     0
290
     0
174
     0
 93
        1
 44
0.0
173
     0
291
     1
 45
0.0
1001
ACAD
1000
AcDbSavedByObjectVersion
1070
     0
  0
VISUALSTYLE
  5
1000026
102
{ACAD_XDICTIONARY
360
10002BF
102
}
102
{ACAD_REACTORS
330
100001D
102
}
330
100001D
100
AcDbVisualStyle
  2
Conceptual
 70
     9
 71
     3
 72
     2
 73
     0
 90
        0
 40
-0.6
 41
-30.0
 62
     5
 63
     7
421
 16777215
 74
     2
 91
        2
 64
     7
 65
   257
 75
     1
175
     1
 42
179.0
 92
        8
 66
     7
 43
1.0
 76
     1
 77
     6
 78
     2
 67
     7
 79
     3
170
     0
171
     0
290
     0
174
     0
 93
        1
 44
0.0
173
     0
291
     0
 45
0.0
1001
ACAD
1000
AcDbSavedByObjectVersion
1070
     0
  0
VISUALSTYLE
  5
1000028
102
{ACAD_XDICTIONARY
360
10002C3
102
}
102
{ACAD_REACTORS
330
100001D
102
}
330
100001D
100
AcDbVisualStyle
  2
Dim
 70
    11
 71
     2
 72
     2
 73
     0
 90
        0
 40
-0.6
 41
-30.0
 62
     5
 63
     7
421
 16777215
 74
     1
 91
        4
 64
     7
 65
   257
 75
     1
175
     1
 42
1.0
 92
        8
 66
     7
 43
1.0
 76
     1
 77
     6
 78
     2
 67
     7
 79
     5
170
     0
171
     0
290
     0
174
     0
 93
        1
 44
-50.0
173
     0
291
     1
 45
0.0
1001
ACAD
1000
AcDbSavedByObjectVersion
1070
     0
  0
VISUALSTYLE
  5
1000035
102
{ACAD_XDICTIONARY
360
10002DD
102
}
102
{ACAD_REACTORS
330
100001D
102
}
330
100001D
100
AcDbVisualStyle
  2
EdgeColorOff
 70
    22
 71
     2
 72
     2
 73
     0
 90
        0
 40
-0.6
 41
-30.0
 62
     5
 63
     7
421
 16777215
 74
     1
 91
        4
 64
     7
 65
   257
 75
     1
175
     1
 42
1.0
 92
        8
 66
     7
 43
1.0
 76
     1
 77
     6
 78
     2
 67
     7
 79
     5
170
     0
171
     0
290
     0
174
     0
 93
        1
 44
0.0
173
     0
291
     1
 45
0.0
1001
ACAD
1000
AcDbSavedByObjectVersion
1070
     0
  0
VISUALSTYLE
  5
100002C
102
{ACAD_XDICTIONARY
360
10002CB
102
}
102
{ACAD_REACTORS
330
100001D
102
}
330
100001D
100
AcDbVisualStyle
  2
Facepattern
 70
    15
 71
     2
 72
     2
 73
     0
 90
        0
 40
-0.6
 41
-30.0
 62
     5
 63
     7
421
 16777215
 74
     1
 91
        4
 64
     7
 65
   257
 75
     1
175
     1
 42
1.0
 92
        8
 66
     7
 43
1.0
 76
     1
 77
     6
 78
     2
 67
     7
 79
     5
170
     0
171
     0
290
     0
174
     0
 93
        1
 44
0.0
173
     0
291
     1
 45
0.0
1001
ACAD
1000
AcDbSavedByObjectVersion
1070
     0
  0
VISUALSTYLE
  5
100001E
102
{ACAD_XDICTIONARY
360
10002AF
102
}
102
{ACAD_REACTORS
330
100001D
102
}
330
100001D
100
AcDbVisualStyle
  2
Flat
 70
     0
 71
     2
 72
     1
 73
     1
 90
        2
 40
-0.6
 41
30.0
 62
     5
 63
     7
421
 16777215
 74
     0
 91
        0
 64
     7
 65
   257
 75
     1
175
     1
 42
1.0
 92
        8
 66
     7
 43
1.0
 76
     1
 77
     6
 78
     2
 67
     7
 79
     5
170
     0
171
     0
290
     0
174
     0
 93
       13
 44
0.0
173
     0
291
     1
 45
0.0
1001
ACAD
1000
AcDbSavedByObjectVersion
1070
     0
  0
VISUALSTYLE
  5
100001F
102
{ACAD_XDICTIONARY
360
10002B1
102
}
102
{ACAD_REACTORS
330
100001D
102
}
330
100001D
100
AcDbVisualStyle
  2
FlatWithEdges
 70
     1
 71
     2
 72
     1
 73
     1
 90
        2
 40
-0.6
 41
30.0
 62
     5
 63
     7
421
 16777215
 74
     1
 91
        0
 64
     7
 65
   257
 75
     1
175
     1
 42
1.0
 92
        0
 66
   257
 43
1.0
 76
     1
 77
     6
 78
     2
 67
     7
 79
     5
170
     0
171
     0
290
     0
174
     0
 93
       13
 44
0.0
173
     0
291
     1
 45
0.0
1001
ACAD
1000
AcDbSavedByObjectVersion
1070
     0
  0
VISUALSTYLE
  5
1000020
102
{ACAD_XDICTIONARY
360
10002B3
102
}
102
{ACAD_REACTORS
330
100001D
102
}
330
100001D
100
AcDbVisualStyle
  2
Gouraud
 70
     2
 71
     2
 72
     2
 73
     1
 90
        2
 40
-0.6
 41
30.0
 62
     5
 63
     7
421
 16777215
 74
     0
 91
        0
 64
     7
 65
   257
 75
     1
175
     1
 42
1.0
 92
        0
 66
     7
 43
1.0
 76
     1
 77
     6
 78
     2
 67
     7
 79
     5
170
     0
171
     0
290
     0
174
     0
 93
       13
 44
0.0
173
     0
291
     1
 45
0.0
1001
ACAD
1000
AcDbSavedByObjectVersion
1070
     0
  0
VISUALSTYLE
  5
1000021
102
{ACAD_XDICTIONARY
360
10002B5
102
}
102
{ACAD_REACTORS
330
100001D
102
}
330
100001D
100
AcDbVisualStyle
  2
GouraudWithEdges
 70
     3
 71
     2
 72
     2
 73
     1
 90
        2
 40
-0.6
 41
30.0
 62
     5
 63
     7
421
 16777215
 74
     1
 91
        0
 64
     7
 65
   257
 75
     1
175
     1
 42
1.0
 92
        0
 66
   257
 43
1.0
 76
     1
 77
     6
 78
     2
 67
     7
 79
     5
170
     0
171
     0
290
     0
174
     0
 93
       13
 44
0.0
173
     0
291
     1
 45
0.0
1001
ACAD
1000
AcDbSavedByObjectVersion
1070
     0
  0
VISUALSTYLE
  5
1000025
102
{ACAD_XDICTIONARY
360
10002BD
102
}
102
{ACAD_REACTORS
330
100001D
102
}
330
100001D
100
AcDbVisualStyle
  2
Hidden
 70
     6
 71
     1
 72
     2
 73
     2
 90
        0
 40
-0.6
 41
-30.0
 62
     5
 63
     7
421
 16777215
 74
     2
 91
        2
 64
     7
 65
   257
 75
     2
175
     1
 42
40.0
 92
        0
 66
   257
 43
1.0
 76
     1
 77
     6
 78
     2
 67
     7
 79
     3
170
     0
171
     0
290
     0
174
     0
 93
        1
 44
0.0
173
     0
291
     0
 45
0.0
1001
ACAD
1000
AcDbSavedByObjectVersion
1070
     0
  0
VISUALSTYLE
  5
1000033
102
{ACAD_XDICTIONARY
360
10002D9
102
}
102
{ACAD_REACTORS
330
100001D
102
}
330
100001D
100
AcDbVisualStyle
  2
JitterOff
 70
    20
 71
     2
 72
     2
 73
     0
 90
        0
 40
-0.6
 41
-30.0
 62
     5
 63
     7
421
 16777215
 74
     1
 91
        4
 64
     7
 65
   257
 75
     1
175
     1
 42
1.0
 92
       10
 66
     7
 43
1.0
 76
     1
 77
     6
 78
     2
 67
     7
 79
     5
170
     0
171
     0
290
     0
174
     0
 93
        1
 44
0.0
173
     0
291
     1
 45
0.0
1001
ACAD
1000
AcDbSavedByObjectVersion
1070
     0
  0
VISUALSTYLE
  5
100002B
102
{ACAD_XDICTIONARY
360
10002C9
102
}
102
{ACAD_REACTORS
330
100001D
102
}
330
100001D
100
AcDbVisualStyle
  2
Linepattern
 70
    14
 71
     2
 72
     2
 73
     0
 90
        0
 40
-0.6
 41
-30.0
 62
     5
 63
     7
421
 16777215
 74
     1
 91
        4
 64
     7
 65
   257
 75
     7
175
     7
 42
1.0
 92
        8
 66
     7
 43
1.0
 76
     1
 77
     6
 78
     2
 67
     7
 79
     5
170
     0
171
     0
290
     0
174
     0
 93
        1
 44
0.0
173
     0
291
     1
 45
0.0
1001
ACAD
1000
AcDbSavedByObjectVersion
1070
     0
  0
VISUALSTYLE
  5
1000034
102
{ACAD_XDICTIONARY
360
10002DB
102
}
102
{ACAD_REACTORS
330
100001D
102
}
330
100001D
100
AcDbVisualStyle
  2
OverhangOff
 70
    21
 71
     2
 72
     2
 73
     0
 90
        0
 40
-0.6
 41
-30.0
 62
     5
 63
     7
421
 16777215
 74
     1
 91
        4
 64
     7
 65
   257
 75
     1
175
     1
 42
1.0
 92
        9
 66
     7
 43
1.0
 76
     1
 77
     6
 78
     2
 67
     7
 79
     5
170
     0
171
     0
290
     0
174
     0
 93
        1
 44
0.0
173
     0
291
     1
 45
0.0
1001
ACAD
1000
AcDbSavedByObjectVersion
1070
     0
  0
VISUALSTYLE
  5
1000027
102
{ACAD_XDICTIONARY
360
10002C1
102
}
102
{ACAD_REACTORS
330
100001D
102
}
330
100001D
100
AcDbVisualStyle
  2
Realistic
 70
     8
 71
     2
 72
     3
 73
     0
 90
        2
 40
-0.6
 41
30.0
 62
     5
 63
     7
421
 16777215
 74
     0
 91
        0
 64
     7
 65
   257
 75
     1
175
     1
 42
1.0
 92
        8
 66
   257
 43
1.0
 76
     1
 77
     6
 78
     2
 67
     7
 79
     3
170
     0
171
     0
290
     0
174
     0
 93
       13
 44
0.0
173
     0
291
     0
 45
0.0
1001
ACAD
1000
AcDbSavedByObjectVersion
1070
     0
  0
VISUALSTYLE
  5
1000032
102
{ACAD_XDICTIONARY
360
10002D7
102
}
102
{ACAD_REACTORS
330
100001D
102
}
330
100001D
100
AcDbVisualStyle
  2
Shaded
 70
    27
 71
     2
 72
     2
 73
     1
 90
        2
 40
-0.6
 41
30.0
 62
     5
 63
     7
421
 16777215
 74
     0
 91
        4
 64
     7
 65
   257
 75
     1
175
     1
 42
1.0
 92
        8
 66
   257
 43
1.0
 76
     1
 77
     6
 78
     2
 67
     8
425
  7895160
 79
     3
170
     0
171
     0
290
     0
174
     0
 93
        5
 44
0.0
173
     0
291
     0
 45
0.0
1001
ACAD
1000
AcDbSavedByObjectVersion
1070
     0
  0
VISUALSTYLE
  5
1000031
102
{ACAD_XDICTIONARY
360
10002D5
102
}
102
{ACAD_REACTORS
330
100001D
102
}
330
100001D
100
AcDbVisualStyle
  2
Shaded with edges
 70
    26
 71
     2
 72
     2
 73
     1
 90
        2
 40
-0.6
 41
30.0
 62
     5
 63
     7
421
 16777215
 74
     1
 91
       10
 64
     7
 65
   257
 75
     2
175
     1
 42
1.0
 92
        8
 66
   257
 43
1.0
 76
     1
 77
     6
 78
     2
 67
     7
 79
     3
170
     0
171
     0
290
     0
174
     0
 93
        5
 44
0.0
173
     0
291
     0
 45
0.0
1001
ACAD
1000
AcDbSavedByObjectVersion
1070
     0
  0
VISUALSTYLE
  5
100002E
102
{ACAD_XDICTIONARY
360
10002CF
102
}
102
{ACAD_REACTORS
330
100001D
102
}
330
100001D
100
AcDbVisualStyle
  2
Shades of Gray
 70
    23
 71
     2
 72
     2
 73
     3
 90
        0
 40
-0.6
 41
-30.0
 62
     5
 63
     7
421
 16777215
 74
     2
 91
        2
 64
     7
 65
     7
 75
     1
175
     1
 42
40.0
 92
        8
 66
     7
 43
1.0
 76
     1
 77
     6
 78
     2
 67
     7
 79
     3
170
     0
171
     0
290
     0
174
     0
 93
        1
 44
0.0
173
     0
291
     0
 45
0.0
1001
ACAD
1000
AcDbSavedByObjectVersion
1070
     0
  0
VISUALSTYLE
  5
100002F
102
{ACAD_XDICTIONARY
360
10002D1
102
}
102
{ACAD_REACTORS
330
100001D
102
}
330
100001D
100
AcDbVisualStyle
  2
Sketchy
 70
    24
 71
     1
 72
     2
 73
     2
 90
        0
 40
-0.6
 41
-30.0
 62
     5
 63
     7
421
 16777215
 74
     2
 91
        2
 64
     7
 65
     7
 75
     1
175
     1
 42
40.0
 92
       11
 66
     7
 43
1.0
 76
     1
 77
     6
 78
     2
 67
     7
 79
     6
170
     0
171
     0
290
     0
174
     0
 93
        1
 44
0.0
173
     0
291
     0
 45
0.0
1001
ACAD
1000
AcDbSavedByObjectVersion
1070
     0
  0
VISUALSTYLE
  5
100002A
102
{ACAD_XDICTIONARY
360
10002C7
102
}
102
{ACAD_REACTORS
330
100001D
102
}
330
100001D
100
AcDbVisualStyle
  2
Thicken
 70
    13
 71
     2
 72
     2
 73
     0
 90
        0
 40
-0.6
 41
-30.0
 62
     5
 63
     7
421
 16777215
 74
     1
 91
        4
 64
     7
 65
   257
 75
     1
175
     1
 42
1.0
 92
       12
 66
     7
 43
1.0
 76
     1
 77
     6
 78
     2
 67
     7
 79
     5
170
     0
171
     0
290
     0
174
     0
 93
        1
 44
0.0
173
     0
291
     1
 45
0.0
1001
ACAD
1000
AcDbSavedByObjectVersion
1070
     0
  0
VISUALSTYLE
  5
1000024
102
{ACAD_XDICTIONARY
360
10002BB
102
}
102
{ACAD_REACTORS
330
100001D
102
}
330
100001D
100
AcDbVisualStyle
  2
Wireframe
 70
     5
 71
     0
 72
     2
 73
     0
 90
        0
 40
-0.6
 41
-30.0
 62
     5
 63
     7
421
 16777215
 74
     1
 91
        4
 64
     7
 65
   257
 75
     1
175
     1
 42
1.0
 92
        0
 66
   257
 43
1.0
 76
     1
 77
     6
 78
     2
 67
     7
 79
     3
170
     0
171
     0
290
     0
174
     0
 93
        1
 44
0.0
173
     0
291
     0
 45
0.0
1001
ACAD
1000
AcDbSavedByObjectVersion
1070
     0
  0
VISUALSTYLE
  5
1000030
102
{ACAD_XDICTIONARY
360
10002D3
102
}
102
{ACAD_REACTORS
330
100001D
102
}
330
100001D
100
AcDbVisualStyle
  2
X-Ray
 70
    25
 71
     2
 72
     2
 73
     1
 90
        1
 40
0.5
 41
-30.0
 62
     5
 63
     7
421
 16777215
 74
     1
 91
        0
 64
     7
 65
   257
 75
     1
175
     1
 42
1.0
 92
        8
 66
     7
 43
1.0
 76
     1
 77
     6
 78
     2
 67
     7
 79
     3
170
     0
171
     0
290
     0
174
     0
 93
       13
 44
0.0
173
     0
291
     0
 45
0.0
1001
ACAD
1000
AcDbSavedByObjectVersion
1070
     0
  0
DICTIONARYVAR
  5
10002A6
102
{ACAD_REACTORS
330
1000002
102
}
330
1000002
100
DictionaryVariables
280
     0
  1
1:1
  0
DICTIONARYVAR
  5
10002A3
102
{ACAD_REACTORS
330
1000002
102
}
330
1000002
100
DictionaryVariables
280
     0
  1
STANDARD
  0
DICTIONARYVAR
  5
10002A2
102
{ACAD_REACTORS
330
1000002
102
}
330
1000002
100
DictionaryVariables
280
     0
  1
STANDARD
  0
DICTIONARYVAR
  5
10002A4
102
{ACAD_REACTORS
330
1000002
102
}
330
1000002
100
DictionaryVariables
280
     0
  1
Imperial24
  0
DICTIONARYVAR
  5
10002A5
102
{ACAD_REACTORS
330
1000002
102
}
330
1000002
100
DictionaryVariables
280
     0
  1
Imperial24
  0
DICTIONARYVAR
  5
1000003
102
{ACAD_REACTORS
330
1000002
102
}
330
1000002
100
DictionaryVariables
280
     0
  1
0
  0
DICTIONARYVAR
  5
10002A7
102
{ACAD_REACTORS
330
1000002
102
}
330
1000002
100
DictionaryVariables
280
     0
  1
2
  0
DICTIONARY
  5
100000E
330
100000D
100
AcDbDictionary
280
     1
281
     1
  3
ACAD_XREC_ROUNDTRIP
360
10002AD
  3
BUMPTILE
360
1000010
  3
DIFFUSETILE
360
100000F
  3
OPACITYTILE
360
1000013
  3
REFLECTIONTILE
360
1000012
  3
REFRACTIONTILE
360
1000014
  3
SPECULARTILE
360
1000011
  0
DICTIONARY
  5
1000006
330
1000005
100
AcDbDictionary
280
     1
281
     1
  3
ACAD_XREC_ROUNDTRIP
360
10002AC
  3
BUMPTILE
360
1000008
  3
DIFFUSETILE
360
1000007
  3
OPACITYTILE
360
100000B
  3
REFLECTIONTILE
360
100000A
  3
REFRACTIONTILE
360
100000C
  3
SPECULARTILE
360
1000009
  0
DICTIONARY
  5
1000016
330
1000015
100
AcDbDictionary
280
     1
281
     1
  3
ACAD_XREC_ROUNDTRIP
360
10002AE
  3
BUMPTILE
360
1000018
  3
DIFFUSETILE
360
1000017
  3
OPACITYTILE
360
100001B
  3
REFLECTIONTILE
360
100001A
  3
REFRACTIONTILE
360
100001C
  3
SPECULARTILE
360
1000019
  0
DICTIONARY
  5
10002A9
330
1000038
100
AcDbDictionary
280
     1
281
     1
  3
ACAD_ROUNDTRIP_2008_TABLESTYLE_CELLSTYLEMAP
360
10002AA
  3
ACAD_XREC_ROUNDTRIP
360
10002DF
  0
DICTIONARY
  5
10002B9
330
1000023
100
AcDbDictionary
280
     1
281
     1
  3
ACAD_XREC_ROUNDTRIP
360
10002BA
  0
DICTIONARY
  5
10002B7
330
1000022
100
AcDbDictionary
280
     1
281
     1
  3
ACAD_XREC_ROUNDTRIP
360
10002B8
  0
DICTIONARY
  5
10002C5
330
1000029
100
AcDbDictionary
280
     1
281
     1
  3
ACAD_XREC_ROUNDTRIP
360
10002C6
  0
DICTIONARY
  5
10002CD
330
100002D
100
AcDbDictionary
280
     1
281
     1
  3
ACAD_XREC_ROUNDTRIP
360
10002CE
  0
DICTIONARY
  5
10002BF
330
1000026
100
AcDbDictionary
280
     1
281
     1
  3
ACAD_XREC_ROUNDTRIP
360
10002C0
  0
DICTIONARY
  5
10002C3
330
1000028
100
AcDbDictionary
280
     1
281
     1
  3
ACAD_XREC_ROUNDTRIP
360
10002C4
  0
DICTIONARY
  5
10002DD
330
1000035
100
AcDbDictionary
280
     1
281
     1
  3
ACAD_XREC_ROUNDTRIP
360
10002DE
  0
DICTIONARY
  5
10002CB
330
100002C
100
AcDbDictionary
280
     1
281
     1
  3
ACAD_XREC_ROUNDTRIP
360
10002CC
  0
DICTIONARY
  5
10002AF
330
100001E
100
AcDbDictionary
280
     1
281
     1
  3
ACAD_XREC_ROUNDTRIP
360
10002B0
  0
DICTIONARY
  5
10002B1
330
100001F
100
AcDbDictionary
280
     1
281
     1
  3
ACAD_XREC_ROUNDTRIP
360
10002B2
  0
DICTIONARY
  5
10002B3
330
1000020
100
AcDbDictionary
280
     1
281
     1
  3
ACAD_XREC_ROUNDTRIP
360
10002B4
  0
DICTIONARY
  5
10002B5
330
1000021
100
AcDbDictionary
280
     1
281
     1
  3
ACAD_XREC_ROUNDTRIP
360
10002B6
  0
DICTIONARY
  5
10002BD
330
1000025
100
AcDbDictionary
280
     1
281
     1
  3
ACAD_XREC_ROUNDTRIP
360
10002BE
  0
DICTIONARY
  5
10002D9
330
1000033
100
AcDbDictionary
280
     1
281
     1
  3
ACAD_XREC_ROUNDTRIP
360
10002DA
  0
DICTIONARY
  5
10002C9
330
100002B
100
AcDbDictionary
280
     1
281
     1
  3
ACAD_XREC_ROUNDTRIP
360
10002CA
  0
DICTIONARY
  5
10002DB
330
1000034
100
AcDbDictionary
280
     1
281
     1
  3
ACAD_XREC_ROUNDTRIP
360
10002DC
  0
DICTIONARY
  5
10002C1
330
1000027
100
AcDbDictionary
280
     1
281
     1
  3
ACAD_XREC_ROUNDTRIP
360
10002C2
  0
DICTIONARY
  5
10002D7
330
1000032
100
AcDbDictionary
280
     1
281
     1
  3
ACAD_XREC_ROUNDTRIP
360
10002D8
  0
DICTIONARY
  5
10002D5
330
1000031
100
AcDbDictionary
280
     1
281
     1
  3
ACAD_XREC_ROUNDTRIP
360
10002D6
  0
DICTIONARY
  5
10002CF
330
100002E
100
AcDbDictionary
280
     1
281
     1
  3
ACAD_XREC_ROUNDTRIP
360
10002D0
  0
DICTIONARY
  5
10002D1
330
100002F
100
AcDbDictionary
280
     1
281
     1
  3
ACAD_XREC_ROUNDTRIP
360
10002D2
  0
DICTIONARY
  5
10002C7
330
100002A
100
AcDbDictionary
280
     1
281
     1
  3
ACAD_XREC_ROUNDTRIP
360
10002C8
  0
DICTIONARY
  5
10002BB
330
1000024
100
AcDbDictionary
280
     1
281
     1
  3
ACAD_XREC_ROUNDTRIP
360
10002BC
  0
DICTIONARY
  5
10002D3
330
1000030
100
AcDbDictionary
280
     1
281
     1
  3
ACAD_XREC_ROUNDTRIP
360
10002D4
  0
XRECORD
  5
10002AD
102
{ACAD_REACTORS
330
100000E
102
}
330
100000E
100
AcDbXrecord
280
     1
102
MATERIAL
148
0.0
149
0.0
149
0.0
 93
        0
 94
      127
282
     0
 72
     0
 77
     0
171
     0
175
     0
179
     0
273
     0
  0
XRECORD
  5
1000010
102
{ACAD_REACTORS
330
100000E
102
}
330
100000E
100
AcDbXrecord
280
     1
270
     1
271
     1
  0
XRECORD
  5
100000F
102
{ACAD_REACTORS
330
100000E
102
}
330
100000E
100
AcDbXrecord
280
     1
270
     1
271
     1
  0
XRECORD
  5
1000013
102
{ACAD_REACTORS
330
100000E
102
}
330
100000E
100
AcDbXrecord
280
     1
270
     1
271
     1
  0
XRECORD
  5
1000012
102
{ACAD_REACTORS
330
100000E
102
}
330
100000E
100
AcDbXrecord
280
     1
270
     1
271
     1
  0
XRECORD
  5
1000014
102
{ACAD_REACTORS
330
100000E
102
}
330
100000E
100
AcDbXrecord
280
     1
270
     1
271
     1
  0
XRECORD
  5
1000011
102
{ACAD_REACTORS
330
100000E
102
}
330
100000E
100
AcDbXrecord
280
     1
270
     1
271
     1
  0
XRECORD
  5
10002AC
102
{ACAD_REACTORS
330
1000006
102
}
330
1000006
100
AcDbXrecord
280
     1
102
MATERIAL
148
0.0
149
0.0
149
0.0
 93
        0
 94
      127
282
     0
 72
     0
 77
     0
171
     0
175
     0
179
     0
273
     0
  0
XRECORD
  5
1000008
102
{ACAD_REACTORS
330
1000006
102
}
330
1000006
100
AcDbXrecord
280
     1
270
     1
271
     1
  0
XRECORD
  5
1000007
102
{ACAD_REACTORS
330
1000006
102
}
330
1000006
100
AcDbXrecord
280
     1
270
     1
271
     1
  0
XRECORD
  5
100000B
102
{ACAD_REACTORS
330
1000006
102
}
330
1000006
100
AcDbXrecord
280
     1
270
     1
271
     1
  0
XRECORD
  5
100000A
102
{ACAD_REACTORS
330
1000006
102
}
330
1000006
100
AcDbXrecord
280
     1
270
     1
271
     1
  0
XRECORD
  5
100000C
102
{ACAD_REACTORS
330
1000006
102
}
330
1000006
100
AcDbXrecord
280
     1
270
     1
271
     1
  0
XRECORD
  5
1000009
102
{ACAD_REACTORS
330
1000006
102
}
330
1000006
100
AcDbXrecord
280
     1
270
     1
271
     1
  0
XRECORD
  5
10002AE
102
{ACAD_REACTORS
330
1000016
102
}
330
1000016
100
AcDbXrecord
280
     1
102
MATERIAL
148
0.0
149
0.0
149
0.0
 93
        0
 94
      127
282
     0
 72
     0
 77
     0
171
     0
175
     0
179
     0
273
     0
  0
XRECORD
  5
1000018
102
{ACAD_REACTORS
330
1000016
102
}
330
1000016
100
AcDbXrecord
280
     1
270
     1
271
     1
  0
XRECORD
  5
1000017
102
{ACAD_REACTORS
330
1000016
102
}
330
1000016
100
AcDbXrecord
280
     1
270
     1
271
     1
  0
XRECORD
  5
100001B
102
{ACAD_REACTORS
330
1000016
102
}
330
1000016
100
AcDbXrecord
280
     1
270
     1
271
     1
  0
XRECORD
  5
100001A
102
{ACAD_REACTORS
330
1000016
102
}
330
1000016
100
AcDbXrecord
280
     1
270
     1
271
     1
  0
XRECORD
  5
100001C
102
{ACAD_REACTORS
330
1000016
102
}
330
1000016
100
AcDbXrecord
280
     1
270
     1
271
     1
  0
XRECORD
  5
1000019
102
{ACAD_REACTORS
330
1000016
102
}
330
1000016
100
AcDbXrecord
280
     1
270
     1
271
     1
  0
CELLSTYLEMAP
  5
10002AA
102
{ACAD_REACTORS
330
10002A9
102
}
330
10002A9
100
AcDbCellStyleMap
 90
        3
300
CELLSTYLE
  1
TABLEFORMAT_BEGIN
 90
        5
170
     1
 91
        0
 92
    32768
 62
   257
 93
        1
300
CONTENTFORMAT
  1
CONTENTFORMAT_BEGIN
 90
        0
 91
        0
 92
      512
 93
        0
300

 40
0.0
140
1.0
 94
        5
 62
     0
340
F
144
0.25
309
CONTENTFORMAT_END
171
     0
 94
        0
309
TABLEFORMAT_END
  1
CELLSTYLE_BEGIN
 90
        1
 91
        1
300
_TITLE
309
CELLSTYLE_END
300
CELLSTYLE
  1
TABLEFORMAT_BEGIN
 90
        5
170
     1
 91
        0
 92
        0
 62
   257
 93
        1
300
CONTENTFORMAT
  1
CONTENTFORMAT_BEGIN
 90
        0
 91
        0
 92
      512
 93
        0
300

 40
0.0
140
1.0
 94
        5
 62
     0
340
F
144
0.18
309
CONTENTFORMAT_END
171
     0
 94
        0
309
TABLEFORMAT_END
  1
CELLSTYLE_BEGIN
 90
        2
 91
        1
300
_HEADER
309
CELLSTYLE_END
300
CELLSTYLE
  1
TABLEFORMAT_BEGIN
 90
        5
170
     1
 91
        0
 92
        0
 62
   257
 93
        1
300
CONTENTFORMAT
  1
CONTENTFORMAT_BEGIN
 90
        0
 91
        0
 92
      512
 93
        0
300

 40
0.0
140
1.0
 94
        2
 62
     0
340
F
144
0.18
309
CONTENTFORMAT_END
171
     0
 94
        0
309
TABLEFORMAT_END
  1
CELLSTYLE_BEGIN
 90
        3
 91
        2
300
_DATA
309
CELLSTYLE_END
  0
XRECORD
  5
10002DF
102
{ACAD_REACTORS
330
10002A9
102
}
330
10002A9
100
AcDbXrecord
280
     1
102
ACAD_ROUNDTRIP_PRE2007_TABLESTYLE
 90
      512
 91
        0
  1

 92
      512
 93
        0
  2

 94
      512
 95
        0
  3

  0
XRECORD
  5
10002BA
102
{ACAD_REACTORS
330
10002B9
102
}
330
10002B9
100
AcDbXrecord
280
     1
102
RTVSPost2010Prop28
280
     1
102
RTVSPost2010PropOp28
 70
     1
102
RTVSPost2010Prop29
280
     1
102
RTVSPost2010PropOp29
 70
     1
102
RTVSPost2010Prop30
280
     0
102
RTVSPost2010PropOp30
 70
     1
102
RTVSPost2010Prop31
280
     0
102
RTVSPost2010PropOp31
 70
     1
102
RTVSPost2010Prop32
280
     0
102
RTVSPost2010PropOp32
 70
     1
102
RTVSPost2010Prop33
280
     0
102
RTVSPost2010PropOp33
 70
     1
102
RTVSPost2010Prop34
280
     0
102
RTVSPost2010PropOp34
 70
     1
102
RTVSPost2010Prop35
280
     0
102
RTVSPost2010PropOp35
 70
     1
102
RTVSPost2010Prop36
280
     0
102
RTVSPost2010PropOp36
 70
     1
102
RTVSPost2010Prop37
 90
       50
102
RTVSPost2010PropOp37
 70
     1
102
RTVSPost2010Prop38
140
0.0
102
RTVSPost2010PropOp38
 70
     1
102
RTVSPost2010Prop39
140
1.0
102
RTVSPost2010PropOp39
 70
     1
102
RTVSPost2010Prop40
 90
        0
102
RTVSPost2010PropOp40
 70
     1
102
RTVSPost2010Prop41ColorIndex
 90
       18
102
RTVSPost2010Prop41ColorRGB
 90
        0
102
RTVSPost2010PropOp41
 70
     1
102
RTVSPost2010Prop42
 90
       50
102
RTVSPost2010PropOp42
 70
     1
102
RTVSPost2010Prop43
 90
        3
102
RTVSPost2010PropOp43
 70
     1
102
RTVSPost2010Prop44ColorIndex
 90
        5
102
RTVSPost2010Prop44ColorRGB
 90
      255
102
RTVSPost2010PropOp44
 70
     1
102
RTVSPost2010Prop45
280
     0
102
RTVSPost2010PropOp45
 70
     1
102
RTVSPost2010Prop46
 90
       50
102
RTVSPost2010PropOp46
 70
     1
102
RTVSPost2010Prop47
 90
       50
102
RTVSPost2010PropOp47
 70
     1
102
RTVSPost2010Prop48
 90
       50
102
RTVSPost2010PropOp48
 70
     1
102
RTVSPost2010Prop49
280
     0
102
RTVSPost2010PropOp49
 70
     1
102
RTVSPost2010Prop50
 90
       50
102
RTVSPost2010PropOp50
 70
     1
102
RTVSPost2010Prop51ColorIndex
 90
      256
102
RTVSPost2010Prop51ColorRGB
 90
-16777216
102
RTVSPost2010PropOp51
 70
     0
102
RTVSPost2010Prop52
140
1.0
102
RTVSPost2010PropOp52
 70
     0
102
RTVSPost2010Prop53
 90
        2
102
RTVSPost2010PropOp53
 70
     1
102
RTVSPost2010Prop54
  1
strokes_ogs.tif
102
RTVSPost2010PropOp54
 70
     1
102
RTVSPost2010Prop55
280
     0
102
RTVSPost2010PropOp55
 70
     1
102
RTVSPost2010Prop56
140
1.0
102
RTVSPost2010PropOp56
 70
     1
102
RTVSPost2010Prop57
140
1.0
102
RTVSPost2010PropOp57
 70
     1
102
RTVSPropertyOp0
 70
     1
102
RTVSPropertyOp1
 70
     1
102
RTVSPropertyOp2
 70
     1
102
RTVSPropertyOp3
 70
     1
102
RTVSPropertyOp4
 70
     1
102
RTVSPropertyOp5
 70
     1
102
RTVSPropertyOp6
 70
     1
102
RTVSPropertyOp7
 70
     1
102
RTVSPropertyOp8
 70
     1
102
RTVSPropertyOp9
 70
     1
102
RTVSPropertyOp10
 70
     1
102
RTVSPropertyOp11
 70
     1
102
RTVSPropertyOp12
 70
     1
102
RTVSPropertyOp13
 70
     1
102
RTVSPropertyOp14
 70
     1
102
RTVSPropertyOp15
 70
     1
102
RTVSPropertyOp16
 70
     1
102
RTVSPropertyOp17
 70
     1
102
RTVSPropertyOp18
 70
     1
102
RTVSPropertyOp19
 70
     1
102
RTVSPropertyOp20
 70
     1
102
RTVSPropertyOp21
 70
     1
102
RTVSPropertyOp22
 70
     1
102
RTVSPropertyOp23
 70
     1
102
RTVSPropertyOp24
 70
     1
102
RTVSPropertyOp25
 70
     1
102
RTVSPropertyOp26
 70
     1
102
RTVSPropertyOp27
 70
     1
102
RTVSPropertyOp28
 70
     1
102
RTVSPropertyOp29
 70
     1
102
RTVSPropertyOp30
 70
     1
102
RTVSPropertyOp31
 70
     1
102
RTVSPropertyOp32
 70
     1
102
RTVSPropertyOp33
 70
     1
102
RTVSPropertyOp34
 70
     1
102
RTVSPropertyOp35
 70
     1
102
RTVSPropertyOp36
 70
     1
102
RTVSPropertyOp37
 70
     1
102
RTVSPropertyOp38
 70
     1
102
RTVSPropertyOp39
 70
     1
102
RTVSPropertyOp40
 70
     1
102
RTVSPropertyOp41
 70
     1
102
RTVSPropertyOp42
 70
     1
102
RTVSPropertyOp43
 70
     1
102
RTVSPropertyOp44
 70
     1
102
RTVSPropertyOp45
 70
     1
102
RTVSPropertyOp46
 70
     1
102
RTVSPropertyOp47
 70
     1
102
RTVSPropertyOp48
 70
     1
102
RTVSPropertyOp49
 70
     1
102
RTVSPropertyOp50
 70
     1
102
RTVSPropertyOp51
 70
     0
102
RTVSPropertyOp52
 70
     0
102
RTVSPropertyOp53
 70
     1
102
RTVSPropertyOp54
 70
     1
102
RTVSPropertyOp55
 70
     1
102
RTVSPropertyOp56
 70
     1
102
RTVSPropertyOp57
 70
     1
102
RTVSPropertyOp58
 70
     1
102
RTVSPropertyOp59
 70
     1
102
RTVSPropertyOp60
 70
     1
102
RTVSPropertyOp61
 70
     1
102
RTVSPropertyOp62
 70
     1
  0
XRECORD
  5
10002B8
102
{ACAD_REACTORS
330
10002B7
102
}
330
10002B7
100
AcDbXrecord
280
     1
102
RTVSPost2010Prop28
280
     0
102
RTVSPost2010PropOp28
 70
     1
102
RTVSPost2010Prop29
280
     1
102
RTVSPost2010PropOp29
 70
     1
102
RTVSPost2010Prop30
280
     1
102
RTVSPost2010PropOp30
 70
     1
102
RTVSPost2010Prop31
280
     0
102
RTVSPost2010PropOp31
 70
     1
102
RTVSPost2010Prop32
280
     0
102
RTVSPost2010PropOp32
 70
     1
102
RTVSPost2010Prop33
280
     0
102
RTVSPost2010PropOp33
 70
     1
102
RTVSPost2010Prop34
280
     0
102
RTVSPost2010PropOp34
 70
     1
102
RTVSPost2010Prop35
280
     0
102
RTVSPost2010PropOp35
 70
     1
102
RTVSPost2010Prop36
280
     0
102
RTVSPost2010PropOp36
 70
     1
102
RTVSPost2010Prop37
 90
       50
102
RTVSPost2010PropOp37
 70
     1
102
RTVSPost2010Prop38
140
0.0
102
RTVSPost2010PropOp38
 70
     1
102
RTVSPost2010Prop39
140
1.0
102
RTVSPost2010PropOp39
 70
     1
102
RTVSPost2010Prop40
 90
        0
102
RTVSPost2010PropOp40
 70
     1
102
RTVSPost2010Prop41ColorIndex
 90
       18
102
RTVSPost2010Prop41ColorRGB
 90
        0
102
RTVSPost2010PropOp41
 70
     1
102
RTVSPost2010Prop42
 90
       50
102
RTVSPost2010PropOp42
 70
     1
102
RTVSPost2010Prop43
 90
        3
102
RTVSPost2010PropOp43
 70
     1
102
RTVSPost2010Prop44ColorIndex
 90
        5
102
RTVSPost2010Prop44ColorRGB
 90
      255
102
RTVSPost2010PropOp44
 70
     1
102
RTVSPost2010Prop45
280
     0
102
RTVSPost2010PropOp45
 70
     1
102
RTVSPost2010Prop46
 90
       50
102
RTVSPost2010PropOp46
 70
     1
102
RTVSPost2010Prop47
 90
       50
102
RTVSPost2010PropOp47
 70
     1
102
RTVSPost2010Prop48
 90
       50
102
RTVSPost2010PropOp48
 70
     1
102
RTVSPost2010Prop49
280
     0
102
RTVSPost2010PropOp49
 70
     1
102
RTVSPost2010Prop50
 90
       50
102
RTVSPost2010PropOp50
 70
     1
102
RTVSPost2010Prop51ColorIndex
 90
      256
102
RTVSPost2010Prop51ColorRGB
 90
-16777216
102
RTVSPost2010PropOp51
 70
     0
102
RTVSPost2010Prop52
140
1.0
102
RTVSPost2010PropOp52
 70
     0
102
RTVSPost2010Prop53
 90
        2
102
RTVSPost2010PropOp53
 70
     1
102
RTVSPost2010Prop54
  1
strokes_ogs.tif
102
RTVSPost2010PropOp54
 70
     1
102
RTVSPost2010Prop55
280
     0
102
RTVSPost2010PropOp55
 70
     1
102
RTVSPost2010Prop56
140
1.0
102
RTVSPost2010PropOp56
 70
     1
102
RTVSPost2010Prop57
140
1.0
102
RTVSPost2010PropOp57
 70
     1
102
RTVSPropertyOp0
 70
     1
102
RTVSPropertyOp1
 70
     1
102
RTVSPropertyOp2
 70
     1
102
RTVSPropertyOp3
 70
     1
102
RTVSPropertyOp4
 70
     1
102
RTVSPropertyOp5
 70
     1
102
RTVSPropertyOp6
 70
     1
102
RTVSPropertyOp7
 70
     1
102
RTVSPropertyOp8
 70
     1
102
RTVSPropertyOp9
 70
     1
102
RTVSPropertyOp10
 70
     1
102
RTVSPropertyOp11
 70
     1
102
RTVSPropertyOp12
 70
     1
102
RTVSPropertyOp13
 70
     1
102
RTVSPropertyOp14
 70
     1
102
RTVSPropertyOp15
 70
     1
102
RTVSPropertyOp16
 70
     1
102
RTVSPropertyOp17
 70
     1
102
RTVSPropertyOp18
 70
     1
102
RTVSPropertyOp19
 70
     1
102
RTVSPropertyOp20
 70
     1
102
RTVSPropertyOp21
 70
     1
102
RTVSPropertyOp22
 70
     1
102
RTVSPropertyOp23
 70
     1
102
RTVSPropertyOp24
 70
     1
102
RTVSPropertyOp25
 70
     1
102
RTVSPropertyOp26
 70
     1
102
RTVSPropertyOp27
 70
     1
102
RTVSPropertyOp28
 70
     1
102
RTVSPropertyOp29
 70
     1
102
RTVSPropertyOp30
 70
     1
102
RTVSPropertyOp31
 70
     1
102
RTVSPropertyOp32
 70
     1
102
RTVSPropertyOp33
 70
     1
102
RTVSPropertyOp34
 70
     1
102
RTVSPropertyOp35
 70
     1
102
RTVSPropertyOp36
 70
     1
102
RTVSPropertyOp37
 70
     1
102
RTVSPropertyOp38
 70
     1
102
RTVSPropertyOp39
 70
     1
102
RTVSPropertyOp40
 70
     1
102
RTVSPropertyOp41
 70
     1
102
RTVSPropertyOp42
 70
     1
102
RTVSPropertyOp43
 70
     1
102
RTVSPropertyOp44
 70
     1
102
RTVSPropertyOp45
 70
     1
102
RTVSPropertyOp46
 70
     1
102
RTVSPropertyOp47
 70
     1
102
RTVSPropertyOp48
 70
     1
102
RTVSPropertyOp49
 70
     1
102
RTVSPropertyOp50
 70
     1
102
RTVSPropertyOp51
 70
     0
102
RTVSPropertyOp52
 70
     0
102
RTVSPropertyOp53
 70
     1
102
RTVSPropertyOp54
 70
     1
102
RTVSPropertyOp55
 70
     1
102
RTVSPropertyOp56
 70
     1
102
RTVSPropertyOp57
 70
     1
102
RTVSPropertyOp58
 70
     1
102
RTVSPropertyOp59
 70
     1
102
RTVSPropertyOp60
 70
     1
102
RTVSPropertyOp61
 70
     1
102
RTVSPropertyOp62
 70
     1
  0
XRECORD
  5
10002C6
102
{ACAD_REACTORS
330
10002C5
102
}
330
10002C5
100
AcDbXrecord
280
     1
102
RTVSPost2010Prop28
280
     0
102
RTVSPost2010PropOp28
 70
     1
102
RTVSPost2010Prop29
280
     1
102
RTVSPost2010PropOp29
 70
     1
102
RTVSPost2010Prop30
280
     1
102
RTVSPost2010PropOp30
 70
     1
102
RTVSPost2010Prop31
280
     0
102
RTVSPost2010PropOp31
 70
     1
102
RTVSPost2010Prop32
280
     0
102
RTVSPost2010PropOp32
 70
     1
102
RTVSPost2010Prop33
280
     0
102
RTVSPost2010PropOp33
 70
     1
102
RTVSPost2010Prop34
280
     0
102
RTVSPost2010PropOp34
 70
     1
102
RTVSPost2010Prop35
280
     0
102
RTVSPost2010PropOp35
 70
     1
102
RTVSPost2010Prop36
280
     0
102
RTVSPost2010PropOp36
 70
     1
102
RTVSPost2010Prop37
 90
       50
102
RTVSPost2010PropOp37
 70
     1
102
RTVSPost2010Prop38
140
0.0
102
RTVSPost2010PropOp38
 70
     1
102
RTVSPost2010Prop39
140
1.0
102
RTVSPost2010PropOp39
 70
     1
102
RTVSPost2010Prop40
 90
        0
102
RTVSPost2010PropOp40
 70
     1
102
RTVSPost2010Prop41ColorIndex
 90
       18
102
RTVSPost2010Prop41ColorRGB
 90
        0
102
RTVSPost2010PropOp41
 70
     1
102
RTVSPost2010Prop42
 90
       50
102
RTVSPost2010PropOp42
 70
     1
102
RTVSPost2010Prop43
 90
        3
102
RTVSPost2010PropOp43
 70
     1
102
RTVSPost2010Prop44ColorIndex
 90
        5
102
RTVSPost2010Prop44ColorRGB
 90
      255
102
RTVSPost2010PropOp44
 70
     1
102
RTVSPost2010Prop45
280
     0
102
RTVSPost2010PropOp45
 70
     1
102
RTVSPost2010Prop46
 90
       50
102
RTVSPost2010PropOp46
 70
     1
102
RTVSPost2010Prop47
 90
       50
102
RTVSPost2010PropOp47
 70
     1
102
RTVSPost2010Prop48
 90
       50
102
RTVSPost2010PropOp48
 70
     1
102
RTVSPost2010Prop49
280
     0
102
RTVSPost2010PropOp49
 70
     1
102
RTVSPost2010Prop50
 90
       50
102
RTVSPost2010PropOp50
 70
     1
102
RTVSPost2010Prop51ColorIndex
 90
      256
102
RTVSPost2010Prop51ColorRGB
 90
-16777216
102
RTVSPost2010PropOp51
 70
     0
102
RTVSPost2010Prop52
140
1.0
102
RTVSPost2010PropOp52
 70
     0
102
RTVSPost2010Prop53
 90
        2
102
RTVSPost2010PropOp53
 70
     1
102
RTVSPost2010Prop54
  1
strokes_ogs.tif
102
RTVSPost2010PropOp54
 70
     1
102
RTVSPost2010Prop55
280
     0
102
RTVSPost2010PropOp55
 70
     1
102
RTVSPost2010Prop56
140
1.0
102
RTVSPost2010PropOp56
 70
     1
102
RTVSPost2010Prop57
140
1.0
102
RTVSPost2010PropOp57
 70
     1
102
RTVSPropertyOp0
 70
     1
102
RTVSPropertyOp1
 70
     1
102
RTVSPropertyOp2
 70
     1
102
RTVSPropertyOp3
 70
     1
102
RTVSPropertyOp4
 70
     1
102
RTVSPropertyOp5
 70
     1
102
RTVSPropertyOp6
 70
     1
102
RTVSPropertyOp7
 70
     1
102
RTVSPropertyOp8
 70
     1
102
RTVSPropertyOp9
 70
     1
102
RTVSPropertyOp10
 70
     1
102
RTVSPropertyOp11
 70
     1
102
RTVSPropertyOp12
 70
     1
102
RTVSPropertyOp13
 70
     1
102
RTVSPropertyOp14
 70
     1
102
RTVSPropertyOp15
 70
     1
102
RTVSPropertyOp16
 70
     1
102
RTVSPropertyOp17
 70
     1
102
RTVSPropertyOp18
 70
     1
102
RTVSPropertyOp19
 70
     1
102
RTVSPropertyOp20
 70
     1
102
RTVSPropertyOp21
 70
     1
102
RTVSPropertyOp22
 70
     1
102
RTVSPropertyOp23
 70
     1
102
RTVSPropertyOp24
 70
     1
102
RTVSPropertyOp25
 70
     1
102
RTVSPropertyOp26
 70
     1
102
RTVSPropertyOp27
 70
     1
102
RTVSPropertyOp28
 70
     1
102
RTVSPropertyOp29
 70
     1
102
RTVSPropertyOp30
 70
     1
102
RTVSPropertyOp31
 70
     1
102
RTVSPropertyOp32
 70
     1
102
RTVSPropertyOp33
 70
     1
102
RTVSPropertyOp34
 70
     1
102
RTVSPropertyOp35
 70
     1
102
RTVSPropertyOp36
 70
     1
102
RTVSPropertyOp37
 70
     1
102
RTVSPropertyOp38
 70
     1
102
RTVSPropertyOp39
 70
     1
102
RTVSPropertyOp40
 70
     1
102
RTVSPropertyOp41
 70
     1
102
RTVSPropertyOp42
 70
     1
102
RTVSPropertyOp43
 70
     1
102
RTVSPropertyOp44
 70
     1
102
RTVSPropertyOp45
 70
     1
102
RTVSPropertyOp46
 70
     1
102
RTVSPropertyOp47
 70
     1
102
RTVSPropertyOp48
 70
     1
102
RTVSPropertyOp49
 70
     1
102
RTVSPropertyOp50
 70
     1
102
RTVSPropertyOp51
 70
     0
102
RTVSPropertyOp52
 70
     0
102
RTVSPropertyOp53
 70
     1
102
RTVSPropertyOp54
 70
     1
102
RTVSPropertyOp55
 70
     1
102
RTVSPropertyOp56
 70
     1
102
RTVSPropertyOp57
 70
     1
102
RTVSPropertyOp58
 70
     1
102
RTVSPropertyOp59
 70
     1
102
RTVSPropertyOp60
 70
     1
102
RTVSPropertyOp61
 70
     1
102
RTVSPropertyOp62
 70
     1
  0
XRECORD
  5
10002CE
102
{ACAD_REACTORS
330
10002CD
102
}
330
10002CD
100
AcDbXrecord
280
     1
102
RTVSPost2010Prop28
280
     0
102
RTVSPost2010PropOp28
 70
     1
102
RTVSPost2010Prop29
280
     1
102
RTVSPost2010PropOp29
 70
     1
102
RTVSPost2010Prop30
280
     1
102
RTVSPost2010PropOp30
 70
     1
102
RTVSPost2010Prop31
280
     0
102
RTVSPost2010PropOp31
 70
     1
102
RTVSPost2010Prop32
280
     0
102
RTVSPost2010PropOp32
 70
     1
102
RTVSPost2010Prop33
280
     0
102
RTVSPost2010PropOp33
 70
     1
102
RTVSPost2010Prop34
280
     0
102
RTVSPost2010PropOp34
 70
     1
102
RTVSPost2010Prop35
280
     0
102
RTVSPost2010PropOp35
 70
     1
102
RTVSPost2010Prop36
280
     0
102
RTVSPost2010PropOp36
 70
     1
102
RTVSPost2010Prop37
 90
       50
102
RTVSPost2010PropOp37
 70
     1
102
RTVSPost2010Prop38
140
0.0
102
RTVSPost2010PropOp38
 70
     1
102
RTVSPost2010Prop39
140
1.0
102
RTVSPost2010PropOp39
 70
     1
102
RTVSPost2010Prop40
 90
        0
102
RTVSPost2010PropOp40
 70
     1
102
RTVSPost2010Prop41ColorIndex
 90
       18
102
RTVSPost2010Prop41ColorRGB
 90
        0
102
RTVSPost2010PropOp41
 70
     1
102
RTVSPost2010Prop42
 90
       50
102
RTVSPost2010PropOp42
 70
     1
102
RTVSPost2010Prop43
 90
        3
102
RTVSPost2010PropOp43
 70
     1
102
RTVSPost2010Prop44ColorIndex
 90
        5
102
RTVSPost2010Prop44ColorRGB
 90
      255
102
RTVSPost2010PropOp44
 70
     1
102
RTVSPost2010Prop45
280
     0
102
RTVSPost2010PropOp45
 70
     1
102
RTVSPost2010Prop46
 90
       50
102
RTVSPost2010PropOp46
 70
     1
102
RTVSPost2010Prop47
 90
       50
102
RTVSPost2010PropOp47
 70
     1
102
RTVSPost2010Prop48
 90
       50
102
RTVSPost2010PropOp48
 70
     1
102
RTVSPost2010Prop49
280
     0
102
RTVSPost2010PropOp49
 70
     1
102
RTVSPost2010Prop50
 90
       50
102
RTVSPost2010PropOp50
 70
     1
102
RTVSPost2010Prop51ColorIndex
 90
      256
102
RTVSPost2010Prop51ColorRGB
 90
-16777216
102
RTVSPost2010PropOp51
 70
     0
102
RTVSPost2010Prop52
140
1.0
102
RTVSPost2010PropOp52
 70
     0
102
RTVSPost2010Prop53
 90
        2
102
RTVSPost2010PropOp53
 70
     1
102
RTVSPost2010Prop54
  1
strokes_ogs.tif
102
RTVSPost2010PropOp54
 70
     1
102
RTVSPost2010Prop55
280
     0
102
RTVSPost2010PropOp55
 70
     1
102
RTVSPost2010Prop56
140
1.0
102
RTVSPost2010PropOp56
 70
     1
102
RTVSPost2010Prop57
140
1.0
102
RTVSPost2010PropOp57
 70
     1
102
RTVSPropertyOp0
 70
     1
102
RTVSPropertyOp1
 70
     1
102
RTVSPropertyOp2
 70
     1
102
RTVSPropertyOp3
 70
     1
102
RTVSPropertyOp4
 70
     1
102
RTVSPropertyOp5
 70
     1
102
RTVSPropertyOp6
 70
     1
102
RTVSPropertyOp7
 70
     1
102
RTVSPropertyOp8
 70
     1
102
RTVSPropertyOp9
 70
     1
102
RTVSPropertyOp10
 70
     1
102
RTVSPropertyOp11
 70
     1
102
RTVSPropertyOp12
 70
     1
102
RTVSPropertyOp13
 70
     1
102
RTVSPropertyOp14
 70
     1
102
RTVSPropertyOp15
 70
     1
102
RTVSPropertyOp16
 70
     1
102
RTVSPropertyOp17
 70
     1
102
RTVSPropertyOp18
 70
     1
102
RTVSPropertyOp19
 70
     1
102
RTVSPropertyOp20
 70
     1
102
RTVSPropertyOp21
 70
     1
102
RTVSPropertyOp22
 70
     1
102
RTVSPropertyOp23
 70
     1
102
RTVSPropertyOp24
 70
     1
102
RTVSPropertyOp25
 70
     1
102
RTVSPropertyOp26
 70
     1
102
RTVSPropertyOp27
 70
     1
102
RTVSPropertyOp28
 70
     1
102
RTVSPropertyOp29
 70
     1
102
RTVSPropertyOp30
 70
     1
102
RTVSPropertyOp31
 70
     1
102
RTVSPropertyOp32
 70
     1
102
RTVSPropertyOp33
 70
     1
102
RTVSPropertyOp34
 70
     1
102
RTVSPropertyOp35
 70
     1
102
RTVSPropertyOp36
 70
     1
102
RTVSPropertyOp37
 70
     1
102
RTVSPropertyOp38
 70
     1
102
RTVSPropertyOp39
 70
     1
102
RTVSPropertyOp40
 70
     1
102
RTVSPropertyOp41
 70
     1
102
RTVSPropertyOp42
 70
     1
102
RTVSPropertyOp43
 70
     1
102
RTVSPropertyOp44
 70
     1
102
RTVSPropertyOp45
 70
     1
102
RTVSPropertyOp46
 70
     1
102
RTVSPropertyOp47
 70
     1
102
RTVSPropertyOp48
 70
     1
102
RTVSPropertyOp49
 70
     1
102
RTVSPropertyOp50
 70
     1
102
RTVSPropertyOp51
 70
     0
102
RTVSPropertyOp52
 70
     0
102
RTVSPropertyOp53
 70
     1
102
RTVSPropertyOp54
 70
     1
102
RTVSPropertyOp55
 70
     1
102
RTVSPropertyOp56
 70
     1
102
RTVSPropertyOp57
 70
     1
102
RTVSPropertyOp58
 70
     1
102
RTVSPropertyOp59
 70
     1
102
RTVSPropertyOp60
 70
     1
102
RTVSPropertyOp61
 70
     1
102
RTVSPropertyOp62
 70
     1
  0
XRECORD
  5
10002C0
102
{ACAD_REACTORS
330
10002BF
102
}
330
10002BF
100
AcDbXrecord
280
     1
102
RTVSPost2010Prop28
280
     0
102
RTVSPost2010PropOp28
 70
     1
102
RTVSPost2010Prop29
280
     1
102
RTVSPost2010PropOp29
 70
     1
102
RTVSPost2010Prop30
280
     1
102
RTVSPost2010PropOp30
 70
     1
102
RTVSPost2010Prop31
280
     0
102
RTVSPost2010PropOp31
 70
     1
102
RTVSPost2010Prop32
280
     0
102
RTVSPost2010PropOp32
 70
     1
102
RTVSPost2010Prop33
280
     0
102
RTVSPost2010PropOp33
 70
     1
102
RTVSPost2010Prop34
280
     0
102
RTVSPost2010PropOp34
 70
     1
102
RTVSPost2010Prop35
280
     0
102
RTVSPost2010PropOp35
 70
     1
102
RTVSPost2010Prop36
280
     0
102
RTVSPost2010PropOp36
 70
     1
102
RTVSPost2010Prop37
 90
       50
102
RTVSPost2010PropOp37
 70
     1
102
RTVSPost2010Prop38
140
0.0
102
RTVSPost2010PropOp38
 70
     1
102
RTVSPost2010Prop39
140
1.0
102
RTVSPost2010PropOp39
 70
     1
102
RTVSPost2010Prop40
 90
        0
102
RTVSPost2010PropOp40
 70
     1
102
RTVSPost2010Prop41ColorIndex
 90
       18
102
RTVSPost2010Prop41ColorRGB
 90
        0
102
RTVSPost2010PropOp41
 70
     1
102
RTVSPost2010Prop42
 90
       50
102
RTVSPost2010PropOp42
 70
     1
102
RTVSPost2010Prop43
 90
        3
102
RTVSPost2010PropOp43
 70
     1
102
RTVSPost2010Prop44ColorIndex
 90
        5
102
RTVSPost2010Prop44ColorRGB
 90
      255
102
RTVSPost2010PropOp44
 70
     1
102
RTVSPost2010Prop45
280
     0
102
RTVSPost2010PropOp45
 70
     1
102
RTVSPost2010Prop46
 90
       50
102
RTVSPost2010PropOp46
 70
     1
102
RTVSPost2010Prop47
 90
       50
102
RTVSPost2010PropOp47
 70
     1
102
RTVSPost2010Prop48
 90
       50
102
RTVSPost2010PropOp48
 70
     1
102
RTVSPost2010Prop49
280
     0
102
RTVSPost2010PropOp49
 70
     1
102
RTVSPost2010Prop50
 90
       50
102
RTVSPost2010PropOp50
 70
     1
102
RTVSPost2010Prop51ColorIndex
 90
      256
102
RTVSPost2010Prop51ColorRGB
 90
-16777216
102
RTVSPost2010PropOp51
 70
     0
102
RTVSPost2010Prop52
140
1.0
102
RTVSPost2010PropOp52
 70
     0
102
RTVSPost2010Prop53
 90
        2
102
RTVSPost2010PropOp53
 70
     1
102
RTVSPost2010Prop54
  1
strokes_ogs.tif
102
RTVSPost2010PropOp54
 70
     1
102
RTVSPost2010Prop55
280
     0
102
RTVSPost2010PropOp55
 70
     1
102
RTVSPost2010Prop56
140
1.0
102
RTVSPost2010PropOp56
 70
     1
102
RTVSPost2010Prop57
140
1.0
102
RTVSPost2010PropOp57
 70
     1
102
RTVSPropertyOp0
 70
     1
102
RTVSPropertyOp1
 70
     1
102
RTVSPropertyOp2
 70
     1
102
RTVSPropertyOp3
 70
     1
102
RTVSPropertyOp4
 70
     1
102
RTVSPropertyOp5
 70
     1
102
RTVSPropertyOp6
 70
     1
102
RTVSPropertyOp7
 70
     1
102
RTVSPropertyOp8
 70
     1
102
RTVSPropertyOp9
 70
     1
102
RTVSPropertyOp10
 70
     1
102
RTVSPropertyOp11
 70
     1
102
RTVSPropertyOp12
 70
     1
102
RTVSPropertyOp13
 70
     1
102
RTVSPropertyOp14
 70
     1
102
RTVSPropertyOp15
 70
     1
102
RTVSPropertyOp16
 70
     1
102
RTVSPropertyOp17
 70
     1
102
RTVSPropertyOp18
 70
     1
102
RTVSPropertyOp19
 70
     1
102
RTVSPropertyOp20
 70
     1
102
RTVSPropertyOp21
 70
     1
102
RTVSPropertyOp22
 70
     1
102
RTVSPropertyOp23
 70
     1
102
RTVSPropertyOp24
 70
     1
102
RTVSPropertyOp25
 70
     1
102
RTVSPropertyOp26
 70
     1
102
RTVSPropertyOp27
 70
     1
102
RTVSPropertyOp28
 70
     1
102
RTVSPropertyOp29
 70
     1
102
RTVSPropertyOp30
 70
     1
102
RTVSPropertyOp31
 70
     1
102
RTVSPropertyOp32
 70
     1
102
RTVSPropertyOp33
 70
     1
102
RTVSPropertyOp34
 70
     1
102
RTVSPropertyOp35
 70
     1
102
RTVSPropertyOp36
 70
     1
102
RTVSPropertyOp37
 70
     1
102
RTVSPropertyOp38
 70
     1
102
RTVSPropertyOp39
 70
     1
102
RTVSPropertyOp40
 70
     1
102
RTVSPropertyOp41
 70
     1
102
RTVSPropertyOp42
 70
     1
102
RTVSPropertyOp43
 70
     1
102
RTVSPropertyOp44
 70
     1
102
RTVSPropertyOp45
 70
     1
102
RTVSPropertyOp46
 70
     1
102
RTVSPropertyOp47
 70
     1
102
RTVSPropertyOp48
 70
     1
102
RTVSPropertyOp49
 70
     1
102
RTVSPropertyOp50
 70
     1
102
RTVSPropertyOp51
 70
     0
102
RTVSPropertyOp52
 70
     0
102
RTVSPropertyOp53
 70
     1
102
RTVSPropertyOp54
 70
     1
102
RTVSPropertyOp55
 70
     1
102
RTVSPropertyOp56
 70
     1
102
RTVSPropertyOp57
 70
     1
102
RTVSPropertyOp58
 70
     1
102
RTVSPropertyOp59
 70
     1
102
RTVSPropertyOp60
 70
     1
102
RTVSPropertyOp61
 70
     1
102
RTVSPropertyOp62
 70
     1
  0
XRECORD
  5
10002C4
102
{ACAD_REACTORS
330
10002C3
102
}
330
10002C3
100
AcDbXrecord
280
     1
102
RTVSPost2010Prop28
280
     0
102
RTVSPost2010PropOp28
 70
     1
102
RTVSPost2010Prop29
280
     1
102
RTVSPost2010PropOp29
 70
     1
102
RTVSPost2010Prop30
280
     1
102
RTVSPost2010PropOp30
 70
     1
102
RTVSPost2010Prop31
280
     0
102
RTVSPost2010PropOp31
 70
     1
102
RTVSPost2010Prop32
280
     0
102
RTVSPost2010PropOp32
 70
     1
102
RTVSPost2010Prop33
280
     0
102
RTVSPost2010PropOp33
 70
     1
102
RTVSPost2010Prop34
280
     0
102
RTVSPost2010PropOp34
 70
     1
102
RTVSPost2010Prop35
280
     0
102
RTVSPost2010PropOp35
 70
     1
102
RTVSPost2010Prop36
280
     0
102
RTVSPost2010PropOp36
 70
     1
102
RTVSPost2010Prop37
 90
       50
102
RTVSPost2010PropOp37
 70
     1
102
RTVSPost2010Prop38
140
0.0
102
RTVSPost2010PropOp38
 70
     1
102
RTVSPost2010Prop39
140
1.0
102
RTVSPost2010PropOp39
 70
     1
102
RTVSPost2010Prop40
 90
        0
102
RTVSPost2010PropOp40
 70
     1
102
RTVSPost2010Prop41ColorIndex
 90
       18
102
RTVSPost2010Prop41ColorRGB
 90
        0
102
RTVSPost2010PropOp41
 70
     1
102
RTVSPost2010Prop42
 90
       50
102
RTVSPost2010PropOp42
 70
     1
102
RTVSPost2010Prop43
 90
        3
102
RTVSPost2010PropOp43
 70
     1
102
RTVSPost2010Prop44ColorIndex
 90
        5
102
RTVSPost2010Prop44ColorRGB
 90
      255
102
RTVSPost2010PropOp44
 70
     1
102
RTVSPost2010Prop45
280
     0
102
RTVSPost2010PropOp45
 70
     1
102
RTVSPost2010Prop46
 90
       50
102
RTVSPost2010PropOp46
 70
     1
102
RTVSPost2010Prop47
 90
       50
102
RTVSPost2010PropOp47
 70
     1
102
RTVSPost2010Prop48
 90
       50
102
RTVSPost2010PropOp48
 70
     1
102
RTVSPost2010Prop49
280
     0
102
RTVSPost2010PropOp49
 70
     1
102
RTVSPost2010Prop50
 90
       50
102
RTVSPost2010PropOp50
 70
     1
102
RTVSPost2010Prop51ColorIndex
 90
      256
102
RTVSPost2010Prop51ColorRGB
 90
-16777216
102
RTVSPost2010PropOp51
 70
     0
102
RTVSPost2010Prop52
140
1.0
102
RTVSPost2010PropOp52
 70
     0
102
RTVSPost2010Prop53
 90
        2
102
RTVSPost2010PropOp53
 70
     1
102
RTVSPost2010Prop54
  1
strokes_ogs.tif
102
RTVSPost2010PropOp54
 70
     1
102
RTVSPost2010Prop55
280
     0
102
RTVSPost2010PropOp55
 70
     1
102
RTVSPost2010Prop56
140
1.0
102
RTVSPost2010PropOp56
 70
     1
102
RTVSPost2010Prop57
140
1.0
102
RTVSPost2010PropOp57
 70
     1
102
RTVSPropertyOp0
 70
     1
102
RTVSPropertyOp1
 70
     1
102
RTVSPropertyOp2
 70
     1
102
RTVSPropertyOp3
 70
     1
102
RTVSPropertyOp4
 70
     1
102
RTVSPropertyOp5
 70
     1
102
RTVSPropertyOp6
 70
     1
102
RTVSPropertyOp7
 70
     1
102
RTVSPropertyOp8
 70
     1
102
RTVSPropertyOp9
 70
     1
102
RTVSPropertyOp10
 70
     1
102
RTVSPropertyOp11
 70
     1
102
RTVSPropertyOp12
 70
     1
102
RTVSPropertyOp13
 70
     1
102
RTVSPropertyOp14
 70
     1
102
RTVSPropertyOp15
 70
     1
102
RTVSPropertyOp16
 70
     1
102
RTVSPropertyOp17
 70
     1
102
RTVSPropertyOp18
 70
     1
102
RTVSPropertyOp19
 70
     1
102
RTVSPropertyOp20
 70
     1
102
RTVSPropertyOp21
 70
     1
102
RTVSPropertyOp22
 70
     1
102
RTVSPropertyOp23
 70
     1
102
RTVSPropertyOp24
 70
     1
102
RTVSPropertyOp25
 70
     1
102
RTVSPropertyOp26
 70
     1
102
RTVSPropertyOp27
 70
     1
102
RTVSPropertyOp28
 70
     1
102
RTVSPropertyOp29
 70
     1
102
RTVSPropertyOp30
 70
     1
102
RTVSPropertyOp31
 70
     1
102
RTVSPropertyOp32
 70
     1
102
RTVSPropertyOp33
 70
     1
102
RTVSPropertyOp34
 70
     1
102
RTVSPropertyOp35
 70
     1
102
RTVSPropertyOp36
 70
     1
102
RTVSPropertyOp37
 70
     1
102
RTVSPropertyOp38
 70
     1
102
RTVSPropertyOp39
 70
     1
102
RTVSPropertyOp40
 70
     1
102
RTVSPropertyOp41
 70
     1
102
RTVSPropertyOp42
 70
     1
102
RTVSPropertyOp43
 70
     1
102
RTVSPropertyOp44
 70
     1
102
RTVSPropertyOp45
 70
     1
102
RTVSPropertyOp46
 70
     1
102
RTVSPropertyOp47
 70
     1
102
RTVSPropertyOp48
 70
     1
102
RTVSPropertyOp49
 70
     1
102
RTVSPropertyOp50
 70
     1
102
RTVSPropertyOp51
 70
     0
102
RTVSPropertyOp52
 70
     0
102
RTVSPropertyOp53
 70
     1
102
RTVSPropertyOp54
 70
     1
102
RTVSPropertyOp55
 70
     1
102
RTVSPropertyOp56
 70
     1
102
RTVSPropertyOp57
 70
     1
102
RTVSPropertyOp58
 70
     1
102
RTVSPropertyOp59
 70
     1
102
RTVSPropertyOp60
 70
     1
102
RTVSPropertyOp61
 70
     1
102
RTVSPropertyOp62
 70
     1
  0
XRECORD
  5
10002DE
102
{ACAD_REACTORS
330
10002DD
102
}
330
10002DD
100
AcDbXrecord
280
     1
102
RTVSPost2010Prop28
280
     0
102
RTVSPost2010PropOp28
 70
     1
102
RTVSPost2010Prop29
280
     1
102
RTVSPost2010PropOp29
 70
     1
102
RTVSPost2010Prop30
280
     1
102
RTVSPost2010PropOp30
 70
     1
102
RTVSPost2010Prop31
280
     0
102
RTVSPost2010PropOp31
 70
     1
102
RTVSPost2010Prop32
280
     0
102
RTVSPost2010PropOp32
 70
     1
102
RTVSPost2010Prop33
280
     0
102
RTVSPost2010PropOp33
 70
     1
102
RTVSPost2010Prop34
280
     0
102
RTVSPost2010PropOp34
 70
     1
102
RTVSPost2010Prop35
280
     0
102
RTVSPost2010PropOp35
 70
     1
102
RTVSPost2010Prop36
280
     0
102
RTVSPost2010PropOp36
 70
     1
102
RTVSPost2010Prop37
 90
       50
102
RTVSPost2010PropOp37
 70
     0
102
RTVSPost2010Prop38
140
0.0
102
RTVSPost2010PropOp38
 70
     0
102
RTVSPost2010Prop39
140
1.0
102
RTVSPost2010PropOp39
 70
     0
102
RTVSPost2010Prop40
 90
        0
102
RTVSPost2010PropOp40
 70
     0
102
RTVSPost2010Prop41ColorIndex
 90
       18
102
RTVSPost2010Prop41ColorRGB
 90
        0
102
RTVSPost2010PropOp41
 70
     0
102
RTVSPost2010Prop42
 90
       50
102
RTVSPost2010PropOp42
 70
     0
102
RTVSPost2010Prop43
 90
        3
102
RTVSPost2010PropOp43
 70
     0
102
RTVSPost2010Prop44ColorIndex
 90
        5
102
RTVSPost2010Prop44ColorRGB
 90
      255
102
RTVSPost2010PropOp44
 70
     0
102
RTVSPost2010Prop45
280
     0
102
RTVSPost2010PropOp45
 70
     1
102
RTVSPost2010Prop46
 90
       50
102
RTVSPost2010PropOp46
 70
     0
102
RTVSPost2010Prop47
 90
       50
102
RTVSPost2010PropOp47
 70
     0
102
RTVSPost2010Prop48
 90
       50
102
RTVSPost2010PropOp48
 70
     0
102
RTVSPost2010Prop49
280
     0
102
RTVSPost2010PropOp49
 70
     1
102
RTVSPost2010Prop50
 90
       50
102
RTVSPost2010PropOp50
 70
     0
102
RTVSPost2010Prop51ColorIndex
 90
      256
102
RTVSPost2010Prop51ColorRGB
 90
-16777216
102
RTVSPost2010PropOp51
 70
     0
102
RTVSPost2010Prop52
140
1.0
102
RTVSPost2010PropOp52
 70
     0
102
RTVSPost2010Prop53
 90
        2
102
RTVSPost2010PropOp53
 70
     0
102
RTVSPost2010Prop54
  1
strokes_ogs.tif
102
RTVSPost2010PropOp54
 70
     0
102
RTVSPost2010Prop55
280
     0
102
RTVSPost2010PropOp55
 70
     1
102
RTVSPost2010Prop56
140
1.0
102
RTVSPost2010PropOp56
 70
     0
102
RTVSPost2010Prop57
140
1.0
102
RTVSPost2010PropOp57
 70
     0
102
RTVSPropertyOp0
 70
     0
102
RTVSPropertyOp1
 70
     0
102
RTVSPropertyOp2
 70
     0
102
RTVSPropertyOp3
 70
     0
102
RTVSPropertyOp4
 70
     0
102
RTVSPropertyOp5
 70
     0
102
RTVSPropertyOp6
 70
     0
102
RTVSPropertyOp7
 70
     0
102
RTVSPropertyOp8
 70
     0
102
RTVSPropertyOp9
 70
     0
102
RTVSPropertyOp10
 70
     0
102
RTVSPropertyOp11
 70
     0
102
RTVSPropertyOp12
 70
     0
102
RTVSPropertyOp13
 70
     0
102
RTVSPropertyOp14
 70
     2
102
RTVSPropertyOp15
 70
     0
102
RTVSPropertyOp16
 70
     0
102
RTVSPropertyOp17
 70
     0
102
RTVSPropertyOp18
 70
     0
102
RTVSPropertyOp19
 70
     0
102
RTVSPropertyOp20
 70
     0
102
RTVSPropertyOp21
 70
     0
102
RTVSPropertyOp22
 70
     0
102
RTVSPropertyOp23
 70
     0
102
RTVSPropertyOp24
 70
     0
102
RTVSPropertyOp25
 70
     0
102
RTVSPropertyOp26
 70
     0
102
RTVSPropertyOp27
 70
     0
102
RTVSPropertyOp28
 70
     1
102
RTVSPropertyOp29
 70
     1
102
RTVSPropertyOp30
 70
     1
102
RTVSPropertyOp31
 70
     1
102
RTVSPropertyOp32
 70
     1
102
RTVSPropertyOp33
 70
     1
102
RTVSPropertyOp34
 70
     1
102
RTVSPropertyOp35
 70
     1
102
RTVSPropertyOp36
 70
     1
102
RTVSPropertyOp37
 70
     0
102
RTVSPropertyOp38
 70
     0
102
RTVSPropertyOp39
 70
     0
102
RTVSPropertyOp40
 70
     0
102
RTVSPropertyOp41
 70
     0
102
RTVSPropertyOp42
 70
     0
102
RTVSPropertyOp43
 70
     0
102
RTVSPropertyOp44
 70
     0
102
RTVSPropertyOp45
 70
     1
102
RTVSPropertyOp46
 70
     0
102
RTVSPropertyOp47
 70
     0
102
RTVSPropertyOp48
 70
     0
102
RTVSPropertyOp49
 70
     1
102
RTVSPropertyOp50
 70
     0
102
RTVSPropertyOp51
 70
     0
102
RTVSPropertyOp52
 70
     0
102
RTVSPropertyOp53
 70
     0
102
RTVSPropertyOp54
 70
     0
102
RTVSPropertyOp55
 70
     1
102
RTVSPropertyOp56
 70
     0
102
RTVSPropertyOp57
 70
     0
102
RTVSPropertyOp58
 70
     0
102
RTVSPropertyOp59
 70
     0
102
RTVSPropertyOp60
 70
     0
102
RTVSPropertyOp61
 70
     0
102
RTVSPropertyOp62
 70
     0
  0
XRECORD
  5
10002CC
102
{ACAD_REACTORS
330
10002CB
102
}
330
10002CB
100
AcDbXrecord
280
     1
102
RTVSPost2010Prop28
280
     0
102
RTVSPost2010PropOp28
 70
     1
102
RTVSPost2010Prop29
280
     1
102
RTVSPost2010PropOp29
 70
     1
102
RTVSPost2010Prop30
280
     1
102
RTVSPost2010PropOp30
 70
     1
102
RTVSPost2010Prop31
280
     0
102
RTVSPost2010PropOp31
 70
     1
102
RTVSPost2010Prop32
280
     0
102
RTVSPost2010PropOp32
 70
     1
102
RTVSPost2010Prop33
280
     0
102
RTVSPost2010PropOp33
 70
     1
102
RTVSPost2010Prop34
280
     0
102
RTVSPost2010PropOp34
 70
     1
102
RTVSPost2010Prop35
280
     0
102
RTVSPost2010PropOp35
 70
     1
102
RTVSPost2010Prop36
280
     0
102
RTVSPost2010PropOp36
 70
     1
102
RTVSPost2010Prop37
 90
       50
102
RTVSPost2010PropOp37
 70
     1
102
RTVSPost2010Prop38
140
0.0
102
RTVSPost2010PropOp38
 70
     1
102
RTVSPost2010Prop39
140
1.0
102
RTVSPost2010PropOp39
 70
     1
102
RTVSPost2010Prop40
 90
        0
102
RTVSPost2010PropOp40
 70
     1
102
RTVSPost2010Prop41ColorIndex
 90
       18
102
RTVSPost2010Prop41ColorRGB
 90
        0
102
RTVSPost2010PropOp41
 70
     1
102
RTVSPost2010Prop42
 90
       50
102
RTVSPost2010PropOp42
 70
     1
102
RTVSPost2010Prop43
 90
        3
102
RTVSPost2010PropOp43
 70
     1
102
RTVSPost2010Prop44ColorIndex
 90
        5
102
RTVSPost2010Prop44ColorRGB
 90
      255
102
RTVSPost2010PropOp44
 70
     1
102
RTVSPost2010Prop45
280
     0
102
RTVSPost2010PropOp45
 70
     1
102
RTVSPost2010Prop46
 90
       50
102
RTVSPost2010PropOp46
 70
     1
102
RTVSPost2010Prop47
 90
       50
102
RTVSPost2010PropOp47
 70
     1
102
RTVSPost2010Prop48
 90
       50
102
RTVSPost2010PropOp48
 70
     1
102
RTVSPost2010Prop49
280
     0
102
RTVSPost2010PropOp49
 70
     1
102
RTVSPost2010Prop50
 90
       50
102
RTVSPost2010PropOp50
 70
     1
102
RTVSPost2010Prop51ColorIndex
 90
      256
102
RTVSPost2010Prop51ColorRGB
 90
-16777216
102
RTVSPost2010PropOp51
 70
     0
102
RTVSPost2010Prop52
140
1.0
102
RTVSPost2010PropOp52
 70
     0
102
RTVSPost2010Prop53
 90
        2
102
RTVSPost2010PropOp53
 70
     1
102
RTVSPost2010Prop54
  1
strokes_ogs.tif
102
RTVSPost2010PropOp54
 70
     1
102
RTVSPost2010Prop55
280
     0
102
RTVSPost2010PropOp55
 70
     1
102
RTVSPost2010Prop56
140
1.0
102
RTVSPost2010PropOp56
 70
     1
102
RTVSPost2010Prop57
140
1.0
102
RTVSPost2010PropOp57
 70
     1
102
RTVSPropertyOp0
 70
     1
102
RTVSPropertyOp1
 70
     1
102
RTVSPropertyOp2
 70
     1
102
RTVSPropertyOp3
 70
     1
102
RTVSPropertyOp4
 70
     1
102
RTVSPropertyOp5
 70
     1
102
RTVSPropertyOp6
 70
     1
102
RTVSPropertyOp7
 70
     1
102
RTVSPropertyOp8
 70
     1
102
RTVSPropertyOp9
 70
     1
102
RTVSPropertyOp10
 70
     1
102
RTVSPropertyOp11
 70
     1
102
RTVSPropertyOp12
 70
     1
102
RTVSPropertyOp13
 70
     1
102
RTVSPropertyOp14
 70
     1
102
RTVSPropertyOp15
 70
     1
102
RTVSPropertyOp16
 70
     1
102
RTVSPropertyOp17
 70
     1
102
RTVSPropertyOp18
 70
     1
102
RTVSPropertyOp19
 70
     1
102
RTVSPropertyOp20
 70
     1
102
RTVSPropertyOp21
 70
     1
102
RTVSPropertyOp22
 70
     1
102
RTVSPropertyOp23
 70
     1
102
RTVSPropertyOp24
 70
     1
102
RTVSPropertyOp25
 70
     1
102
RTVSPropertyOp26
 70
     1
102
RTVSPropertyOp27
 70
     1
102
RTVSPropertyOp28
 70
     1
102
RTVSPropertyOp29
 70
     1
102
RTVSPropertyOp30
 70
     1
102
RTVSPropertyOp31
 70
     1
102
RTVSPropertyOp32
 70
     1
102
RTVSPropertyOp33
 70
     1
102
RTVSPropertyOp34
 70
     1
102
RTVSPropertyOp35
 70
     1
102
RTVSPropertyOp36
 70
     1
102
RTVSPropertyOp37
 70
     1
102
RTVSPropertyOp38
 70
     1
102
RTVSPropertyOp39
 70
     1
102
RTVSPropertyOp40
 70
     1
102
RTVSPropertyOp41
 70
     1
102
RTVSPropertyOp42
 70
     1
102
RTVSPropertyOp43
 70
     1
102
RTVSPropertyOp44
 70
     1
102
RTVSPropertyOp45
 70
     1
102
RTVSPropertyOp46
 70
     1
102
RTVSPropertyOp47
 70
     1
102
RTVSPropertyOp48
 70
     1
102
RTVSPropertyOp49
 70
     1
102
RTVSPropertyOp50
 70
     1
102
RTVSPropertyOp51
 70
     0
102
RTVSPropertyOp52
 70
     0
102
RTVSPropertyOp53
 70
     1
102
RTVSPropertyOp54
 70
     1
102
RTVSPropertyOp55
 70
     1
102
RTVSPropertyOp56
 70
     1
102
RTVSPropertyOp57
 70
     1
102
RTVSPropertyOp58
 70
     1
102
RTVSPropertyOp59
 70
     1
102
RTVSPropertyOp60
 70
     1
102
RTVSPropertyOp61
 70
     1
102
RTVSPropertyOp62
 70
     1
  0
XRECORD
  5
10002B0
102
{ACAD_REACTORS
330
10002AF
102
}
330
10002AF
100
AcDbXrecord
280
     1
102
RTVSPost2010Prop28
280
     0
102
RTVSPost2010PropOp28
 70
     1
102
RTVSPost2010Prop29
280
     1
102
RTVSPost2010PropOp29
 70
     1
102
RTVSPost2010Prop30
280
     1
102
RTVSPost2010PropOp30
 70
     1
102
RTVSPost2010Prop31
280
     0
102
RTVSPost2010PropOp31
 70
     1
102
RTVSPost2010Prop32
280
     0
102
RTVSPost2010PropOp32
 70
     1
102
RTVSPost2010Prop33
280
     0
102
RTVSPost2010PropOp33
 70
     1
102
RTVSPost2010Prop34
280
     0
102
RTVSPost2010PropOp34
 70
     1
102
RTVSPost2010Prop35
280
     0
102
RTVSPost2010PropOp35
 70
     1
102
RTVSPost2010Prop36
280
     0
102
RTVSPost2010PropOp36
 70
     1
102
RTVSPost2010Prop37
 90
       50
102
RTVSPost2010PropOp37
 70
     1
102
RTVSPost2010Prop38
140
0.0
102
RTVSPost2010PropOp38
 70
     1
102
RTVSPost2010Prop39
140
1.0
102
RTVSPost2010PropOp39
 70
     1
102
RTVSPost2010Prop40
 90
        0
102
RTVSPost2010PropOp40
 70
     1
102
RTVSPost2010Prop41ColorIndex
 90
       18
102
RTVSPost2010Prop41ColorRGB
 90
        0
102
RTVSPost2010PropOp41
 70
     1
102
RTVSPost2010Prop42
 90
       50
102
RTVSPost2010PropOp42
 70
     1
102
RTVSPost2010Prop43
 90
        3
102
RTVSPost2010PropOp43
 70
     1
102
RTVSPost2010Prop44ColorIndex
 90
        5
102
RTVSPost2010Prop44ColorRGB
 90
      255
102
RTVSPost2010PropOp44
 70
     1
102
RTVSPost2010Prop45
280
     0
102
RTVSPost2010PropOp45
 70
     1
102
RTVSPost2010Prop46
 90
       50
102
RTVSPost2010PropOp46
 70
     1
102
RTVSPost2010Prop47
 90
       50
102
RTVSPost2010PropOp47
 70
     1
102
RTVSPost2010Prop48
 90
       50
102
RTVSPost2010PropOp48
 70
     1
102
RTVSPost2010Prop49
280
     0
102
RTVSPost2010PropOp49
 70
     1
102
RTVSPost2010Prop50
 90
       50
102
RTVSPost2010PropOp50
 70
     1
102
RTVSPost2010Prop51ColorIndex
 90
      256
102
RTVSPost2010Prop51ColorRGB
 90
-16777216
102
RTVSPost2010PropOp51
 70
     0
102
RTVSPost2010Prop52
140
1.0
102
RTVSPost2010PropOp52
 70
     0
102
RTVSPost2010Prop53
 90
        2
102
RTVSPost2010PropOp53
 70
     1
102
RTVSPost2010Prop54
  1
strokes_ogs.tif
102
RTVSPost2010PropOp54
 70
     1
102
RTVSPost2010Prop55
280
     0
102
RTVSPost2010PropOp55
 70
     1
102
RTVSPost2010Prop56
140
1.0
102
RTVSPost2010PropOp56
 70
     1
102
RTVSPost2010Prop57
140
1.0
102
RTVSPost2010PropOp57
 70
     1
102
RTVSPropertyOp0
 70
     1
102
RTVSPropertyOp1
 70
     1
102
RTVSPropertyOp2
 70
     1
102
RTVSPropertyOp3
 70
     1
102
RTVSPropertyOp4
 70
     1
102
RTVSPropertyOp5
 70
     1
102
RTVSPropertyOp6
 70
     1
102
RTVSPropertyOp7
 70
     1
102
RTVSPropertyOp8
 70
     1
102
RTVSPropertyOp9
 70
     1
102
RTVSPropertyOp10
 70
     1
102
RTVSPropertyOp11
 70
     1
102
RTVSPropertyOp12
 70
     1
102
RTVSPropertyOp13
 70
     1
102
RTVSPropertyOp14
 70
     1
102
RTVSPropertyOp15
 70
     1
102
RTVSPropertyOp16
 70
     1
102
RTVSPropertyOp17
 70
     1
102
RTVSPropertyOp18
 70
     1
102
RTVSPropertyOp19
 70
     1
102
RTVSPropertyOp20
 70
     1
102
RTVSPropertyOp21
 70
     1
102
RTVSPropertyOp22
 70
     1
102
RTVSPropertyOp23
 70
     1
102
RTVSPropertyOp24
 70
     1
102
RTVSPropertyOp25
 70
     1
102
RTVSPropertyOp26
 70
     1
102
RTVSPropertyOp27
 70
     1
102
RTVSPropertyOp28
 70
     1
102
RTVSPropertyOp29
 70
     1
102
RTVSPropertyOp30
 70
     1
102
RTVSPropertyOp31
 70
     1
102
RTVSPropertyOp32
 70
     1
102
RTVSPropertyOp33
 70
     1
102
RTVSPropertyOp34
 70
     1
102
RTVSPropertyOp35
 70
     1
102
RTVSPropertyOp36
 70
     1
102
RTVSPropertyOp37
 70
     1
102
RTVSPropertyOp38
 70
     1
102
RTVSPropertyOp39
 70
     1
102
RTVSPropertyOp40
 70
     1
102
RTVSPropertyOp41
 70
     1
102
RTVSPropertyOp42
 70
     1
102
RTVSPropertyOp43
 70
     1
102
RTVSPropertyOp44
 70
     1
102
RTVSPropertyOp45
 70
     1
102
RTVSPropertyOp46
 70
     1
102
RTVSPropertyOp47
 70
     1
102
RTVSPropertyOp48
 70
     1
102
RTVSPropertyOp49
 70
     1
102
RTVSPropertyOp50
 70
     1
102
RTVSPropertyOp51
 70
     0
102
RTVSPropertyOp52
 70
     0
102
RTVSPropertyOp53
 70
     1
102
RTVSPropertyOp54
 70
     1
102
RTVSPropertyOp55
 70
     1
102
RTVSPropertyOp56
 70
     1
102
RTVSPropertyOp57
 70
     1
102
RTVSPropertyOp58
 70
     1
102
RTVSPropertyOp59
 70
     1
102
RTVSPropertyOp60
 70
     1
102
RTVSPropertyOp61
 70
     1
102
RTVSPropertyOp62
 70
     1
  0
XRECORD
  5
10002B2
102
{ACAD_REACTORS
330
10002B1
102
}
330
10002B1
100
AcDbXrecord
280
     1
102
RTVSPost2010Prop28
280
     0
102
RTVSPost2010PropOp28
 70
     1
102
RTVSPost2010Prop29
280
     1
102
RTVSPost2010PropOp29
 70
     1
102
RTVSPost2010Prop30
280
     1
102
RTVSPost2010PropOp30
 70
     1
102
RTVSPost2010Prop31
280
     0
102
RTVSPost2010PropOp31
 70
     1
102
RTVSPost2010Prop32
280
     0
102
RTVSPost2010PropOp32
 70
     1
102
RTVSPost2010Prop33
280
     0
102
RTVSPost2010PropOp33
 70
     1
102
RTVSPost2010Prop34
280
     0
102
RTVSPost2010PropOp34
 70
     1
102
RTVSPost2010Prop35
280
     0
102
RTVSPost2010PropOp35
 70
     1
102
RTVSPost2010Prop36
280
     0
102
RTVSPost2010PropOp36
 70
     1
102
RTVSPost2010Prop37
 90
       50
102
RTVSPost2010PropOp37
 70
     1
102
RTVSPost2010Prop38
140
0.0
102
RTVSPost2010PropOp38
 70
     1
102
RTVSPost2010Prop39
140
1.0
102
RTVSPost2010PropOp39
 70
     1
102
RTVSPost2010Prop40
 90
        0
102
RTVSPost2010PropOp40
 70
     1
102
RTVSPost2010Prop41ColorIndex
 90
       18
102
RTVSPost2010Prop41ColorRGB
 90
        0
102
RTVSPost2010PropOp41
 70
     1
102
RTVSPost2010Prop42
 90
       50
102
RTVSPost2010PropOp42
 70
     1
102
RTVSPost2010Prop43
 90
        3
102
RTVSPost2010PropOp43
 70
     1
102
RTVSPost2010Prop44ColorIndex
 90
        5
102
RTVSPost2010Prop44ColorRGB
 90
      255
102
RTVSPost2010PropOp44
 70
     1
102
RTVSPost2010Prop45
280
     0
102
RTVSPost2010PropOp45
 70
     1
102
RTVSPost2010Prop46
 90
       50
102
RTVSPost2010PropOp46
 70
     1
102
RTVSPost2010Prop47
 90
       50
102
RTVSPost2010PropOp47
 70
     1
102
RTVSPost2010Prop48
 90
       50
102
RTVSPost2010PropOp48
 70
     1
102
RTVSPost2010Prop49
280
     0
102
RTVSPost2010PropOp49
 70
     1
102
RTVSPost2010Prop50
 90
       50
102
RTVSPost2010PropOp50
 70
     1
102
RTVSPost2010Prop51ColorIndex
 90
      256
102
RTVSPost2010Prop51ColorRGB
 90
-16777216
102
RTVSPost2010PropOp51
 70
     0
102
RTVSPost2010Prop52
140
1.0
102
RTVSPost2010PropOp52
 70
     0
102
RTVSPost2010Prop53
 90
        2
102
RTVSPost2010PropOp53
 70
     1
102
RTVSPost2010Prop54
  1
strokes_ogs.tif
102
RTVSPost2010PropOp54
 70
     1
102
RTVSPost2010Prop55
280
     0
102
RTVSPost2010PropOp55
 70
     1
102
RTVSPost2010Prop56
140
1.0
102
RTVSPost2010PropOp56
 70
     1
102
RTVSPost2010Prop57
140
1.0
102
RTVSPost2010PropOp57
 70
     1
102
RTVSPropertyOp0
 70
     1
102
RTVSPropertyOp1
 70
     1
102
RTVSPropertyOp2
 70
     1
102
RTVSPropertyOp3
 70
     1
102
RTVSPropertyOp4
 70
     1
102
RTVSPropertyOp5
 70
     1
102
RTVSPropertyOp6
 70
     1
102
RTVSPropertyOp7
 70
     1
102
RTVSPropertyOp8
 70
     1
102
RTVSPropertyOp9
 70
     1
102
RTVSPropertyOp10
 70
     1
102
RTVSPropertyOp11
 70
     1
102
RTVSPropertyOp12
 70
     1
102
RTVSPropertyOp13
 70
     1
102
RTVSPropertyOp14
 70
     1
102
RTVSPropertyOp15
 70
     1
102
RTVSPropertyOp16
 70
     1
102
RTVSPropertyOp17
 70
     1
102
RTVSPropertyOp18
 70
     1
102
RTVSPropertyOp19
 70
     1
102
RTVSPropertyOp20
 70
     1
102
RTVSPropertyOp21
 70
     1
102
RTVSPropertyOp22
 70
     1
102
RTVSPropertyOp23
 70
     1
102
RTVSPropertyOp24
 70
     1
102
RTVSPropertyOp25
 70
     1
102
RTVSPropertyOp26
 70
     1
102
RTVSPropertyOp27
 70
     1
102
RTVSPropertyOp28
 70
     1
102
RTVSPropertyOp29
 70
     1
102
RTVSPropertyOp30
 70
     1
102
RTVSPropertyOp31
 70
     1
102
RTVSPropertyOp32
 70
     1
102
RTVSPropertyOp33
 70
     1
102
RTVSPropertyOp34
 70
     1
102
RTVSPropertyOp35
 70
     1
102
RTVSPropertyOp36
 70
     1
102
RTVSPropertyOp37
 70
     1
102
RTVSPropertyOp38
 70
     1
102
RTVSPropertyOp39
 70
     1
102
RTVSPropertyOp40
 70
     1
102
RTVSPropertyOp41
 70
     1
102
RTVSPropertyOp42
 70
     1
102
RTVSPropertyOp43
 70
     1
102
RTVSPropertyOp44
 70
     1
102
RTVSPropertyOp45
 70
     1
102
RTVSPropertyOp46
 70
     1
102
RTVSPropertyOp47
 70
     1
102
RTVSPropertyOp48
 70
     1
102
RTVSPropertyOp49
 70
     1
102
RTVSPropertyOp50
 70
     1
102
RTVSPropertyOp51
 70
     0
102
RTVSPropertyOp52
 70
     0
102
RTVSPropertyOp53
 70
     1
102
RTVSPropertyOp54
 70
     1
102
RTVSPropertyOp55
 70
     1
102
RTVSPropertyOp56
 70
     1
102
RTVSPropertyOp57
 70
     1
102
RTVSPropertyOp58
 70
     1
102
RTVSPropertyOp59
 70
     1
102
RTVSPropertyOp60
 70
     1
102
RTVSPropertyOp61
 70
     1
102
RTVSPropertyOp62
 70
     1
  0
XRECORD
  5
10002B4
102
{ACAD_REACTORS
330
10002B3
102
}
330
10002B3
100
AcDbXrecord
280
     1
102
RTVSPost2010Prop28
280
     0
102
RTVSPost2010PropOp28
 70
     1
102
RTVSPost2010Prop29
280
     1
102
RTVSPost2010PropOp29
 70
     1
102
RTVSPost2010Prop30
280
     1
102
RTVSPost2010PropOp30
 70
     1
102
RTVSPost2010Prop31
280
     0
102
RTVSPost2010PropOp31
 70
     1
102
RTVSPost2010Prop32
280
     0
102
RTVSPost2010PropOp32
 70
     1
102
RTVSPost2010Prop33
280
     0
102
RTVSPost2010PropOp33
 70
     1
102
RTVSPost2010Prop34
280
     0
102
RTVSPost2010PropOp34
 70
     1
102
RTVSPost2010Prop35
280
     0
102
RTVSPost2010PropOp35
 70
     1
102
RTVSPost2010Prop36
280
     0
102
RTVSPost2010PropOp36
 70
     1
102
RTVSPost2010Prop37
 90
       50
102
RTVSPost2010PropOp37
 70
     1
102
RTVSPost2010Prop38
140
0.0
102
RTVSPost2010PropOp38
 70
     1
102
RTVSPost2010Prop39
140
1.0
102
RTVSPost2010PropOp39
 70
     1
102
RTVSPost2010Prop40
 90
        0
102
RTVSPost2010PropOp40
 70
     1
102
RTVSPost2010Prop41ColorIndex
 90
       18
102
RTVSPost2010Prop41ColorRGB
 90
        0
102
RTVSPost2010PropOp41
 70
     1
102
RTVSPost2010Prop42
 90
       50
102
RTVSPost2010PropOp42
 70
     1
102
RTVSPost2010Prop43
 90
        3
102
RTVSPost2010PropOp43
 70
     1
102
RTVSPost2010Prop44ColorIndex
 90
        5
102
RTVSPost2010Prop44ColorRGB
 90
      255
102
RTVSPost2010PropOp44
 70
     1
102
RTVSPost2010Prop45
280
     0
102
RTVSPost2010PropOp45
 70
     1
102
RTVSPost2010Prop46
 90
       50
102
RTVSPost2010PropOp46
 70
     1
102
RTVSPost2010Prop47
 90
       50
102
RTVSPost2010PropOp47
 70
     1
102
RTVSPost2010Prop48
 90
       50
102
RTVSPost2010PropOp48
 70
     1
102
RTVSPost2010Prop49
280
     0
102
RTVSPost2010PropOp49
 70
     1
102
RTVSPost2010Prop50
 90
       50
102
RTVSPost2010PropOp50
 70
     1
102
RTVSPost2010Prop51ColorIndex
 90
      256
102
RTVSPost2010Prop51ColorRGB
 90
-16777216
102
RTVSPost2010PropOp51
 70
     0
102
RTVSPost2010Prop52
140
1.0
102
RTVSPost2010PropOp52
 70
     0
102
RTVSPost2010Prop53
 90
        2
102
RTVSPost2010PropOp53
 70
     1
102
RTVSPost2010Prop54
  1
strokes_ogs.tif
102
RTVSPost2010PropOp54
 70
     1
102
RTVSPost2010Prop55
280
     0
102
RTVSPost2010PropOp55
 70
     1
102
RTVSPost2010Prop56
140
1.0
102
RTVSPost2010PropOp56
 70
     1
102
RTVSPost2010Prop57
140
1.0
102
RTVSPost2010PropOp57
 70
     1
102
RTVSPropertyOp0
 70
     1
102
RTVSPropertyOp1
 70
     1
102
RTVSPropertyOp2
 70
     1
102
RTVSPropertyOp3
 70
     1
102
RTVSPropertyOp4
 70
     1
102
RTVSPropertyOp5
 70
     1
102
RTVSPropertyOp6
 70
     1
102
RTVSPropertyOp7
 70
     1
102
RTVSPropertyOp8
 70
     1
102
RTVSPropertyOp9
 70
     1
102
RTVSPropertyOp10
 70
     1
102
RTVSPropertyOp11
 70
     1
102
RTVSPropertyOp12
 70
     1
102
RTVSPropertyOp13
 70
     1
102
RTVSPropertyOp14
 70
     1
102
RTVSPropertyOp15
 70
     1
102
RTVSPropertyOp16
 70
     1
102
RTVSPropertyOp17
 70
     1
102
RTVSPropertyOp18
 70
     1
102
RTVSPropertyOp19
 70
     1
102
RTVSPropertyOp20
 70
     1
102
RTVSPropertyOp21
 70
     1
102
RTVSPropertyOp22
 70
     1
102
RTVSPropertyOp23
 70
     1
102
RTVSPropertyOp24
 70
     1
102
RTVSPropertyOp25
 70
     1
102
RTVSPropertyOp26
 70
     1
102
RTVSPropertyOp27
 70
     1
102
RTVSPropertyOp28
 70
     1
102
RTVSPropertyOp29
 70
     1
102
RTVSPropertyOp30
 70
     1
102
RTVSPropertyOp31
 70
     1
102
RTVSPropertyOp32
 70
     1
102
RTVSPropertyOp33
 70
     1
102
RTVSPropertyOp34
 70
     1
102
RTVSPropertyOp35
 70
     1
102
RTVSPropertyOp36
 70
     1
102
RTVSPropertyOp37
 70
     1
102
RTVSPropertyOp38
 70
     1
102
RTVSPropertyOp39
 70
     1
102
RTVSPropertyOp40
 70
     1
102
RTVSPropertyOp41
 70
     1
102
RTVSPropertyOp42
 70
     1
102
RTVSPropertyOp43
 70
     1
102
RTVSPropertyOp44
 70
     1
102
RTVSPropertyOp45
 70
     1
102
RTVSPropertyOp46
 70
     1
102
RTVSPropertyOp47
 70
     1
102
RTVSPropertyOp48
 70
     1
102
RTVSPropertyOp49
 70
     1
102
RTVSPropertyOp50
 70
     1
102
RTVSPropertyOp51
 70
     0
102
RTVSPropertyOp52
 70
     0
102
RTVSPropertyOp53
 70
     1
102
RTVSPropertyOp54
 70
     1
102
RTVSPropertyOp55
 70
     1
102
RTVSPropertyOp56
 70
     1
102
RTVSPropertyOp57
 70
     1
102
RTVSPropertyOp58
 70
     1
102
RTVSPropertyOp59
 70
     1
102
RTVSPropertyOp60
 70
     1
102
RTVSPropertyOp61
 70
     1
102
RTVSPropertyOp62
 70
     1
  0
XRECORD
  5
10002B6
102
{ACAD_REACTORS
330
10002B5
102
}
330
10002B5
100
AcDbXrecord
280
     1
102
RTVSPost2010Prop28
280
     0
102
RTVSPost2010PropOp28
 70
     1
102
RTVSPost2010Prop29
280
     1
102
RTVSPost2010PropOp29
 70
     1
102
RTVSPost2010Prop30
280
     1
102
RTVSPost2010PropOp30
 70
     1
102
RTVSPost2010Prop31
280
     0
102
RTVSPost2010PropOp31
 70
     1
102
RTVSPost2010Prop32
280
     0
102
RTVSPost2010PropOp32
 70
     1
102
RTVSPost2010Prop33
280
     0
102
RTVSPost2010PropOp33
 70
     1
102
RTVSPost2010Prop34
280
     0
102
RTVSPost2010PropOp34
 70
     1
102
RTVSPost2010Prop35
280
     0
102
RTVSPost2010PropOp35
 70
     1
102
RTVSPost2010Prop36
280
     0
102
RTVSPost2010PropOp36
 70
     1
102
RTVSPost2010Prop37
 90
       50
102
RTVSPost2010PropOp37
 70
     1
102
RTVSPost2010Prop38
140
0.0
102
RTVSPost2010PropOp38
 70
     1
102
RTVSPost2010Prop39
140
1.0
102
RTVSPost2010PropOp39
 70
     1
102
RTVSPost2010Prop40
 90
        0
102
RTVSPost2010PropOp40
 70
     1
102
RTVSPost2010Prop41ColorIndex
 90
       18
102
RTVSPost2010Prop41ColorRGB
 90
        0
102
RTVSPost2010PropOp41
 70
     1
102
RTVSPost2010Prop42
 90
       50
102
RTVSPost2010PropOp42
 70
     1
102
RTVSPost2010Prop43
 90
        3
102
RTVSPost2010PropOp43
 70
     1
102
RTVSPost2010Prop44ColorIndex
 90
        5
102
RTVSPost2010Prop44ColorRGB
 90
      255
102
RTVSPost2010PropOp44
 70
     1
102
RTVSPost2010Prop45
280
     0
102
RTVSPost2010PropOp45
 70
     1
102
RTVSPost2010Prop46
 90
       50
102
RTVSPost2010PropOp46
 70
     1
102
RTVSPost2010Prop47
 90
       50
102
RTVSPost2010PropOp47
 70
     1
102
RTVSPost2010Prop48
 90
       50
102
RTVSPost2010PropOp48
 70
     1
102
RTVSPost2010Prop49
280
     0
102
RTVSPost2010PropOp49
 70
     1
102
RTVSPost2010Prop50
 90
       50
102
RTVSPost2010PropOp50
 70
     1
102
RTVSPost2010Prop51ColorIndex
 90
      256
102
RTVSPost2010Prop51ColorRGB
 90
-16777216
102
RTVSPost2010PropOp51
 70
     0
102
RTVSPost2010Prop52
140
1.0
102
RTVSPost2010PropOp52
 70
     0
102
RTVSPost2010Prop53
 90
        2
102
RTVSPost2010PropOp53
 70
     1
102
RTVSPost2010Prop54
  1
strokes_ogs.tif
102
RTVSPost2010PropOp54
 70
     1
102
RTVSPost2010Prop55
280
     0
102
RTVSPost2010PropOp55
 70
     1
102
RTVSPost2010Prop56
140
1.0
102
RTVSPost2010PropOp56
 70
     1
102
RTVSPost2010Prop57
140
1.0
102
RTVSPost2010PropOp57
 70
     1
102
RTVSPropertyOp0
 70
     1
102
RTVSPropertyOp1
 70
     1
102
RTVSPropertyOp2
 70
     1
102
RTVSPropertyOp3
 70
     1
102
RTVSPropertyOp4
 70
     1
102
RTVSPropertyOp5
 70
     1
102
RTVSPropertyOp6
 70
     1
102
RTVSPropertyOp7
 70
     1
102
RTVSPropertyOp8
 70
     1
102
RTVSPropertyOp9
 70
     1
102
RTVSPropertyOp10
 70
     1
102
RTVSPropertyOp11
 70
     1
102
RTVSPropertyOp12
 70
     1
102
RTVSPropertyOp13
 70
     1
102
RTVSPropertyOp14
 70
     1
102
RTVSPropertyOp15
 70
     1
102
RTVSPropertyOp16
 70
     1
102
RTVSPropertyOp17
 70
     1
102
RTVSPropertyOp18
 70
     1
102
RTVSPropertyOp19
 70
     1
102
RTVSPropertyOp20
 70
     1
102
RTVSPropertyOp21
 70
     1
102
RTVSPropertyOp22
 70
     1
102
RTVSPropertyOp23
 70
     1
102
RTVSPropertyOp24
 70
     1
102
RTVSPropertyOp25
 70
     1
102
RTVSPropertyOp26
 70
     1
102
RTVSPropertyOp27
 70
     1
102
RTVSPropertyOp28
 70
     1
102
RTVSPropertyOp29
 70
     1
102
RTVSPropertyOp30
 70
     1
102
RTVSPropertyOp31
 70
     1
102
RTVSPropertyOp32
 70
     1
102
RTVSPropertyOp33
 70
     1
102
RTVSPropertyOp34
 70
     1
102
RTVSPropertyOp35
 70
     1
102
RTVSPropertyOp36
 70
     1
102
RTVSPropertyOp37
 70
     1
102
RTVSPropertyOp38
 70
     1
102
RTVSPropertyOp39
 70
     1
102
RTVSPropertyOp40
 70
     1
102
RTVSPropertyOp41
 70
     1
102
RTVSPropertyOp42
 70
     1
102
RTVSPropertyOp43
 70
     1
102
RTVSPropertyOp44
 70
     1
102
RTVSPropertyOp45
 70
     1
102
RTVSPropertyOp46
 70
     1
102
RTVSPropertyOp47
 70
     1
102
RTVSPropertyOp48
 70
     1
102
RTVSPropertyOp49
 70
     1
102
RTVSPropertyOp50
 70
     1
102
RTVSPropertyOp51
 70
     0
102
RTVSPropertyOp52
 70
     0
102
RTVSPropertyOp53
 70
     1
102
RTVSPropertyOp54
 70
     1
102
RTVSPropertyOp55
 70
     1
102
RTVSPropertyOp56
 70
     1
102
RTVSPropertyOp57
 70
     1
102
RTVSPropertyOp58
 70
     1
102
RTVSPropertyOp59
 70
     1
102
RTVSPropertyOp60
 70
     1
102
RTVSPropertyOp61
 70
     1
102
RTVSPropertyOp62
 70
     1
  0
XRECORD
  5
10002BE
102
{ACAD_REACTORS
330
10002BD
102
}
330
10002BD
100
AcDbXrecord
280
     1
102
RTVSPost2010Prop28
280
     0
102
RTVSPost2010PropOp28
 70
     1
102
RTVSPost2010Prop29
280
     1
102
RTVSPost2010PropOp29
 70
     1
102
RTVSPost2010Prop30
280
     1
102
RTVSPost2010PropOp30
 70
     1
102
RTVSPost2010Prop31
280
     0
102
RTVSPost2010PropOp31
 70
     1
102
RTVSPost2010Prop32
280
     0
102
RTVSPost2010PropOp32
 70
     1
102
RTVSPost2010Prop33
280
     0
102
RTVSPost2010PropOp33
 70
     1
102
RTVSPost2010Prop34
280
     0
102
RTVSPost2010PropOp34
 70
     1
102
RTVSPost2010Prop35
280
     0
102
RTVSPost2010PropOp35
 70
     1
102
RTVSPost2010Prop36
280
     0
102
RTVSPost2010PropOp36
 70
     1
102
RTVSPost2010Prop37
 90
       50
102
RTVSPost2010PropOp37
 70
     1
102
RTVSPost2010Prop38
140
0.0
102
RTVSPost2010PropOp38
 70
     1
102
RTVSPost2010Prop39
140
1.0
102
RTVSPost2010PropOp39
 70
     1
102
RTVSPost2010Prop40
 90
        0
102
RTVSPost2010PropOp40
 70
     1
102
RTVSPost2010Prop41ColorIndex
 90
       18
102
RTVSPost2010Prop41ColorRGB
 90
        0
102
RTVSPost2010PropOp41
 70
     1
102
RTVSPost2010Prop42
 90
       50
102
RTVSPost2010PropOp42
 70
     1
102
RTVSPost2010Prop43
 90
        3
102
RTVSPost2010PropOp43
 70
     1
102
RTVSPost2010Prop44ColorIndex
 90
        5
102
RTVSPost2010Prop44ColorRGB
 90
      255
102
RTVSPost2010PropOp44
 70
     1
102
RTVSPost2010Prop45
280
     0
102
RTVSPost2010PropOp45
 70
     1
102
RTVSPost2010Prop46
 90
       50
102
RTVSPost2010PropOp46
 70
     1
102
RTVSPost2010Prop47
 90
       50
102
RTVSPost2010PropOp47
 70
     1
102
RTVSPost2010Prop48
 90
       50
102
RTVSPost2010PropOp48
 70
     1
102
RTVSPost2010Prop49
280
     0
102
RTVSPost2010PropOp49
 70
     1
102
RTVSPost2010Prop50
 90
       50
102
RTVSPost2010PropOp50
 70
     1
102
RTVSPost2010Prop51ColorIndex
 90
      256
102
RTVSPost2010Prop51ColorRGB
 90
-16777216
102
RTVSPost2010PropOp51
 70
     0
102
RTVSPost2010Prop52
140
1.0
102
RTVSPost2010PropOp52
 70
     0
102
RTVSPost2010Prop53
 90
        2
102
RTVSPost2010PropOp53
 70
     1
102
RTVSPost2010Prop54
  1
strokes_ogs.tif
102
RTVSPost2010PropOp54
 70
     1
102
RTVSPost2010Prop55
280
     0
102
RTVSPost2010PropOp55
 70
     1
102
RTVSPost2010Prop56
140
1.0
102
RTVSPost2010PropOp56
 70
     1
102
RTVSPost2010Prop57
140
1.0
102
RTVSPost2010PropOp57
 70
     1
102
RTVSPropertyOp0
 70
     1
102
RTVSPropertyOp1
 70
     1
102
RTVSPropertyOp2
 70
     1
102
RTVSPropertyOp3
 70
     1
102
RTVSPropertyOp4
 70
     1
102
RTVSPropertyOp5
 70
     1
102
RTVSPropertyOp6
 70
     1
102
RTVSPropertyOp7
 70
     1
102
RTVSPropertyOp8
 70
     1
102
RTVSPropertyOp9
 70
     1
102
RTVSPropertyOp10
 70
     1
102
RTVSPropertyOp11
 70
     1
102
RTVSPropertyOp12
 70
     1
102
RTVSPropertyOp13
 70
     1
102
RTVSPropertyOp14
 70
     1
102
RTVSPropertyOp15
 70
     1
102
RTVSPropertyOp16
 70
     1
102
RTVSPropertyOp17
 70
     1
102
RTVSPropertyOp18
 70
     1
102
RTVSPropertyOp19
 70
     1
102
RTVSPropertyOp20
 70
     1
102
RTVSPropertyOp21
 70
     1
102
RTVSPropertyOp22
 70
     1
102
RTVSPropertyOp23
 70
     1
102
RTVSPropertyOp24
 70
     1
102
RTVSPropertyOp25
 70
     1
102
RTVSPropertyOp26
 70
     1
102
RTVSPropertyOp27
 70
     1
102
RTVSPropertyOp28
 70
     1
102
RTVSPropertyOp29
 70
     1
102
RTVSPropertyOp30
 70
     1
102
RTVSPropertyOp31
 70
     1
102
RTVSPropertyOp32
 70
     1
102
RTVSPropertyOp33
 70
     1
102
RTVSPropertyOp34
 70
     1
102
RTVSPropertyOp35
 70
     1
102
RTVSPropertyOp36
 70
     1
102
RTVSPropertyOp37
 70
     1
102
RTVSPropertyOp38
 70
     1
102
RTVSPropertyOp39
 70
     1
102
RTVSPropertyOp40
 70
     1
102
RTVSPropertyOp41
 70
     1
102
RTVSPropertyOp42
 70
     1
102
RTVSPropertyOp43
 70
     1
102
RTVSPropertyOp44
 70
     1
102
RTVSPropertyOp45
 70
     1
102
RTVSPropertyOp46
 70
     1
102
RTVSPropertyOp47
 70
     1
102
RTVSPropertyOp48
 70
     1
102
RTVSPropertyOp49
 70
     1
102
RTVSPropertyOp50
 70
     1
102
RTVSPropertyOp51
 70
     0
102
RTVSPropertyOp52
 70
     0
102
RTVSPropertyOp53
 70
     1
102
RTVSPropertyOp54
 70
     1
102
RTVSPropertyOp55
 70
     1
102
RTVSPropertyOp56
 70
     1
102
RTVSPropertyOp57
 70
     1
102
RTVSPropertyOp58
 70
     1
102
RTVSPropertyOp59
 70
     1
102
RTVSPropertyOp60
 70
     1
102
RTVSPropertyOp61
 70
     1
102
RTVSPropertyOp62
 70
     1
  0
XRECORD
  5
10002DA
102
{ACAD_REACTORS
330
10002D9
102
}
330
10002D9
100
AcDbXrecord
280
     1
102
RTVSPost2010Prop28
280
     0
102
RTVSPost2010PropOp28
 70
     1
102
RTVSPost2010Prop29
280
     1
102
RTVSPost2010PropOp29
 70
     1
102
RTVSPost2010Prop30
280
     1
102
RTVSPost2010PropOp30
 70
     1
102
RTVSPost2010Prop31
280
     0
102
RTVSPost2010PropOp31
 70
     1
102
RTVSPost2010Prop32
280
     0
102
RTVSPost2010PropOp32
 70
     1
102
RTVSPost2010Prop33
280
     0
102
RTVSPost2010PropOp33
 70
     1
102
RTVSPost2010Prop34
280
     0
102
RTVSPost2010PropOp34
 70
     1
102
RTVSPost2010Prop35
280
     0
102
RTVSPost2010PropOp35
 70
     1
102
RTVSPost2010Prop36
280
     0
102
RTVSPost2010PropOp36
 70
     1
102
RTVSPost2010Prop37
 90
       50
102
RTVSPost2010PropOp37
 70
     0
102
RTVSPost2010Prop38
140
0.0
102
RTVSPost2010PropOp38
 70
     0
102
RTVSPost2010Prop39
140
1.0
102
RTVSPost2010PropOp39
 70
     0
102
RTVSPost2010Prop40
 90
        0
102
RTVSPost2010PropOp40
 70
     0
102
RTVSPost2010Prop41ColorIndex
 90
       18
102
RTVSPost2010Prop41ColorRGB
 90
        0
102
RTVSPost2010PropOp41
 70
     0
102
RTVSPost2010Prop42
 90
       50
102
RTVSPost2010PropOp42
 70
     0
102
RTVSPost2010Prop43
 90
        3
102
RTVSPost2010PropOp43
 70
     0
102
RTVSPost2010Prop44ColorIndex
 90
        5
102
RTVSPost2010Prop44ColorRGB
 90
      255
102
RTVSPost2010PropOp44
 70
     0
102
RTVSPost2010Prop45
280
     0
102
RTVSPost2010PropOp45
 70
     1
102
RTVSPost2010Prop46
 90
       50
102
RTVSPost2010PropOp46
 70
     0
102
RTVSPost2010Prop47
 90
       50
102
RTVSPost2010PropOp47
 70
     0
102
RTVSPost2010Prop48
 90
       50
102
RTVSPost2010PropOp48
 70
     0
102
RTVSPost2010Prop49
280
     0
102
RTVSPost2010PropOp49
 70
     1
102
RTVSPost2010Prop50
 90
       50
102
RTVSPost2010PropOp50
 70
     0
102
RTVSPost2010Prop51ColorIndex
 90
      256
102
RTVSPost2010Prop51ColorRGB
 90
-16777216
102
RTVSPost2010PropOp51
 70
     0
102
RTVSPost2010Prop52
140
1.0
102
RTVSPost2010PropOp52
 70
     0
102
RTVSPost2010Prop53
 90
        2
102
RTVSPost2010PropOp53
 70
     0
102
RTVSPost2010Prop54
  1
strokes_ogs.tif
102
RTVSPost2010PropOp54
 70
     0
102
RTVSPost2010Prop55
280
     0
102
RTVSPost2010PropOp55
 70
     1
102
RTVSPost2010Prop56
140
1.0
102
RTVSPost2010PropOp56
 70
     0
102
RTVSPost2010Prop57
140
1.0
102
RTVSPost2010PropOp57
 70
     0
102
RTVSPropertyOp0
 70
     0
102
RTVSPropertyOp1
 70
     0
102
RTVSPropertyOp2
 70
     0
102
RTVSPropertyOp3
 70
     0
102
RTVSPropertyOp4
 70
     0
102
RTVSPropertyOp5
 70
     0
102
RTVSPropertyOp6
 70
     0
102
RTVSPropertyOp7
 70
     0
102
RTVSPropertyOp8
 70
     0
102
RTVSPropertyOp9
 70
     0
102
RTVSPropertyOp10
 70
     0
102
RTVSPropertyOp11
 70
     0
102
RTVSPropertyOp12
 70
     0
102
RTVSPropertyOp13
 70
     0
102
RTVSPropertyOp14
 70
     2
102
RTVSPropertyOp15
 70
     0
102
RTVSPropertyOp16
 70
     0
102
RTVSPropertyOp17
 70
     0
102
RTVSPropertyOp18
 70
     0
102
RTVSPropertyOp19
 70
     0
102
RTVSPropertyOp20
 70
     0
102
RTVSPropertyOp21
 70
     0
102
RTVSPropertyOp22
 70
     0
102
RTVSPropertyOp23
 70
     0
102
RTVSPropertyOp24
 70
     0
102
RTVSPropertyOp25
 70
     0
102
RTVSPropertyOp26
 70
     0
102
RTVSPropertyOp27
 70
     0
102
RTVSPropertyOp28
 70
     1
102
RTVSPropertyOp29
 70
     1
102
RTVSPropertyOp30
 70
     1
102
RTVSPropertyOp31
 70
     1
102
RTVSPropertyOp32
 70
     1
102
RTVSPropertyOp33
 70
     1
102
RTVSPropertyOp34
 70
     1
102
RTVSPropertyOp35
 70
     1
102
RTVSPropertyOp36
 70
     1
102
RTVSPropertyOp37
 70
     0
102
RTVSPropertyOp38
 70
     0
102
RTVSPropertyOp39
 70
     0
102
RTVSPropertyOp40
 70
     0
102
RTVSPropertyOp41
 70
     0
102
RTVSPropertyOp42
 70
     0
102
RTVSPropertyOp43
 70
     0
102
RTVSPropertyOp44
 70
     0
102
RTVSPropertyOp45
 70
     1
102
RTVSPropertyOp46
 70
     0
102
RTVSPropertyOp47
 70
     0
102
RTVSPropertyOp48
 70
     0
102
RTVSPropertyOp49
 70
     1
102
RTVSPropertyOp50
 70
     0
102
RTVSPropertyOp51
 70
     0
102
RTVSPropertyOp52
 70
     0
102
RTVSPropertyOp53
 70
     0
102
RTVSPropertyOp54
 70
     0
102
RTVSPropertyOp55
 70
     1
102
RTVSPropertyOp56
 70
     0
102
RTVSPropertyOp57
 70
     0
102
RTVSPropertyOp58
 70
     0
102
RTVSPropertyOp59
 70
     0
102
RTVSPropertyOp60
 70
     0
102
RTVSPropertyOp61
 70
     0
102
RTVSPropertyOp62
 70
     0
  0
XRECORD
  5
10002CA
102
{ACAD_REACTORS
330
10002C9
102
}
330
10002C9
100
AcDbXrecord
280
     1
102
RTVSPost2010Prop28
280
     0
102
RTVSPost2010PropOp28
 70
     1
102
RTVSPost2010Prop29
280
     1
102
RTVSPost2010PropOp29
 70
     1
102
RTVSPost2010Prop30
280
     1
102
RTVSPost2010PropOp30
 70
     1
102
RTVSPost2010Prop31
280
     0
102
RTVSPost2010PropOp31
 70
     1
102
RTVSPost2010Prop32
280
     0
102
RTVSPost2010PropOp32
 70
     1
102
RTVSPost2010Prop33
280
     0
102
RTVSPost2010PropOp33
 70
     1
102
RTVSPost2010Prop34
280
     0
102
RTVSPost2010PropOp34
 70
     1
102
RTVSPost2010Prop35
280
     0
102
RTVSPost2010PropOp35
 70
     1
102
RTVSPost2010Prop36
280
     0
102
RTVSPost2010PropOp36
 70
     1
102
RTVSPost2010Prop37
 90
       50
102
RTVSPost2010PropOp37
 70
     1
102
RTVSPost2010Prop38
140
0.0
102
RTVSPost2010PropOp38
 70
     1
102
RTVSPost2010Prop39
140
1.0
102
RTVSPost2010PropOp39
 70
     1
102
RTVSPost2010Prop40
 90
        0
102
RTVSPost2010PropOp40
 70
     1
102
RTVSPost2010Prop41ColorIndex
 90
       18
102
RTVSPost2010Prop41ColorRGB
 90
        0
102
RTVSPost2010PropOp41
 70
     1
102
RTVSPost2010Prop42
 90
       50
102
RTVSPost2010PropOp42
 70
     1
102
RTVSPost2010Prop43
 90
        3
102
RTVSPost2010PropOp43
 70
     1
102
RTVSPost2010Prop44ColorIndex
 90
        5
102
RTVSPost2010Prop44ColorRGB
 90
      255
102
RTVSPost2010PropOp44
 70
     1
102
RTVSPost2010Prop45
280
     0
102
RTVSPost2010PropOp45
 70
     1
102
RTVSPost2010Prop46
 90
       50
102
RTVSPost2010PropOp46
 70
     1
102
RTVSPost2010Prop47
 90
       50
102
RTVSPost2010PropOp47
 70
     1
102
RTVSPost2010Prop48
 90
       50
102
RTVSPost2010PropOp48
 70
     1
102
RTVSPost2010Prop49
280
     0
102
RTVSPost2010PropOp49
 70
     1
102
RTVSPost2010Prop50
 90
       50
102
RTVSPost2010PropOp50
 70
     1
102
RTVSPost2010Prop51ColorIndex
 90
      256
102
RTVSPost2010Prop51ColorRGB
 90
-16777216
102
RTVSPost2010PropOp51
 70
     0
102
RTVSPost2010Prop52
140
1.0
102
RTVSPost2010PropOp52
 70
     0
102
RTVSPost2010Prop53
 90
        2
102
RTVSPost2010PropOp53
 70
     1
102
RTVSPost2010Prop54
  1
strokes_ogs.tif
102
RTVSPost2010PropOp54
 70
     1
102
RTVSPost2010Prop55
280
     0
102
RTVSPost2010PropOp55
 70
     1
102
RTVSPost2010Prop56
140
1.0
102
RTVSPost2010PropOp56
 70
     1
102
RTVSPost2010Prop57
140
1.0
102
RTVSPost2010PropOp57
 70
     1
102
RTVSPropertyOp0
 70
     1
102
RTVSPropertyOp1
 70
     1
102
RTVSPropertyOp2
 70
     1
102
RTVSPropertyOp3
 70
     1
102
RTVSPropertyOp4
 70
     1
102
RTVSPropertyOp5
 70
     1
102
RTVSPropertyOp6
 70
     1
102
RTVSPropertyOp7
 70
     1
102
RTVSPropertyOp8
 70
     1
102
RTVSPropertyOp9
 70
     1
102
RTVSPropertyOp10
 70
     1
102
RTVSPropertyOp11
 70
     1
102
RTVSPropertyOp12
 70
     1
102
RTVSPropertyOp13
 70
     1
102
RTVSPropertyOp14
 70
     1
102
RTVSPropertyOp15
 70
     1
102
RTVSPropertyOp16
 70
     1
102
RTVSPropertyOp17
 70
     1
102
RTVSPropertyOp18
 70
     1
102
RTVSPropertyOp19
 70
     1
102
RTVSPropertyOp20
 70
     1
102
RTVSPropertyOp21
 70
     1
102
RTVSPropertyOp22
 70
     1
102
RTVSPropertyOp23
 70
     1
102
RTVSPropertyOp24
 70
     1
102
RTVSPropertyOp25
 70
     1
102
RTVSPropertyOp26
 70
     1
102
RTVSPropertyOp27
 70
     1
102
RTVSPropertyOp28
 70
     1
102
RTVSPropertyOp29
 70
     1
102
RTVSPropertyOp30
 70
     1
102
RTVSPropertyOp31
 70
     1
102
RTVSPropertyOp32
 70
     1
102
RTVSPropertyOp33
 70
     1
102
RTVSPropertyOp34
 70
     1
102
RTVSPropertyOp35
 70
     1
102
RTVSPropertyOp36
 70
     1
102
RTVSPropertyOp37
 70
     1
102
RTVSPropertyOp38
 70
     1
102
RTVSPropertyOp39
 70
     1
102
RTVSPropertyOp40
 70
     1
102
RTVSPropertyOp41
 70
     1
102
RTVSPropertyOp42
 70
     1
102
RTVSPropertyOp43
 70
     1
102
RTVSPropertyOp44
 70
     1
102
RTVSPropertyOp45
 70
     1
102
RTVSPropertyOp46
 70
     1
102
RTVSPropertyOp47
 70
     1
102
RTVSPropertyOp48
 70
     1
102
RTVSPropertyOp49
 70
     1
102
RTVSPropertyOp50
 70
     1
102
RTVSPropertyOp51
 70
     0
102
RTVSPropertyOp52
 70
     0
102
RTVSPropertyOp53
 70
     1
102
RTVSPropertyOp54
 70
     1
102
RTVSPropertyOp55
 70
     1
102
RTVSPropertyOp56
 70
     1
102
RTVSPropertyOp57
 70
     1
102
RTVSPropertyOp58
 70
     1
102
RTVSPropertyOp59
 70
     1
102
RTVSPropertyOp60
 70
     1
102
RTVSPropertyOp61
 70
     1
102
RTVSPropertyOp62
 70
     1
  0
XRECORD
  5
10002DC
102
{ACAD_REACTORS
330
10002DB
102
}
330
10002DB
100
AcDbXrecord
280
     1
102
RTVSPost2010Prop28
280
     0
102
RTVSPost2010PropOp28
 70
     1
102
RTVSPost2010Prop29
280
     1
102
RTVSPost2010PropOp29
 70
     1
102
RTVSPost2010Prop30
280
     1
102
RTVSPost2010PropOp30
 70
     1
102
RTVSPost2010Prop31
280
     0
102
RTVSPost2010PropOp31
 70
     1
102
RTVSPost2010Prop32
280
     0
102
RTVSPost2010PropOp32
 70
     1
102
RTVSPost2010Prop33
280
     0
102
RTVSPost2010PropOp33
 70
     1
102
RTVSPost2010Prop34
280
     0
102
RTVSPost2010PropOp34
 70
     1
102
RTVSPost2010Prop35
280
     0
102
RTVSPost2010PropOp35
 70
     1
102
RTVSPost2010Prop36
280
     0
102
RTVSPost2010PropOp36
 70
     1
102
RTVSPost2010Prop37
 90
       50
102
RTVSPost2010PropOp37
 70
     0
102
RTVSPost2010Prop38
140
0.0
102
RTVSPost2010PropOp38
 70
     0
102
RTVSPost2010Prop39
140
1.0
102
RTVSPost2010PropOp39
 70
     0
102
RTVSPost2010Prop40
 90
        0
102
RTVSPost2010PropOp40
 70
     0
102
RTVSPost2010Prop41ColorIndex
 90
       18
102
RTVSPost2010Prop41ColorRGB
 90
        0
102
RTVSPost2010PropOp41
 70
     0
102
RTVSPost2010Prop42
 90
       50
102
RTVSPost2010PropOp42
 70
     0
102
RTVSPost2010Prop43
 90
        3
102
RTVSPost2010PropOp43
 70
     0
102
RTVSPost2010Prop44ColorIndex
 90
        5
102
RTVSPost2010Prop44ColorRGB
 90
      255
102
RTVSPost2010PropOp44
 70
     0
102
RTVSPost2010Prop45
280
     0
102
RTVSPost2010PropOp45
 70
     1
102
RTVSPost2010Prop46
 90
       50
102
RTVSPost2010PropOp46
 70
     0
102
RTVSPost2010Prop47
 90
       50
102
RTVSPost2010PropOp47
 70
     0
102
RTVSPost2010Prop48
 90
       50
102
RTVSPost2010PropOp48
 70
     0
102
RTVSPost2010Prop49
280
     0
102
RTVSPost2010PropOp49
 70
     1
102
RTVSPost2010Prop50
 90
       50
102
RTVSPost2010PropOp50
 70
     0
102
RTVSPost2010Prop51ColorIndex
 90
      256
102
RTVSPost2010Prop51ColorRGB
 90
-16777216
102
RTVSPost2010PropOp51
 70
     0
102
RTVSPost2010Prop52
140
1.0
102
RTVSPost2010PropOp52
 70
     0
102
RTVSPost2010Prop53
 90
        2
102
RTVSPost2010PropOp53
 70
     0
102
RTVSPost2010Prop54
  1
strokes_ogs.tif
102
RTVSPost2010PropOp54
 70
     0
102
RTVSPost2010Prop55
280
     0
102
RTVSPost2010PropOp55
 70
     1
102
RTVSPost2010Prop56
140
1.0
102
RTVSPost2010PropOp56
 70
     0
102
RTVSPost2010Prop57
140
1.0
102
RTVSPost2010PropOp57
 70
     0
102
RTVSPropertyOp0
 70
     0
102
RTVSPropertyOp1
 70
     0
102
RTVSPropertyOp2
 70
     0
102
RTVSPropertyOp3
 70
     0
102
RTVSPropertyOp4
 70
     0
102
RTVSPropertyOp5
 70
     0
102
RTVSPropertyOp6
 70
     0
102
RTVSPropertyOp7
 70
     0
102
RTVSPropertyOp8
 70
     0
102
RTVSPropertyOp9
 70
     0
102
RTVSPropertyOp10
 70
     0
102
RTVSPropertyOp11
 70
     0
102
RTVSPropertyOp12
 70
     0
102
RTVSPropertyOp13
 70
     0
102
RTVSPropertyOp14
 70
     2
102
RTVSPropertyOp15
 70
     0
102
RTVSPropertyOp16
 70
     0
102
RTVSPropertyOp17
 70
     0
102
RTVSPropertyOp18
 70
     0
102
RTVSPropertyOp19
 70
     0
102
RTVSPropertyOp20
 70
     0
102
RTVSPropertyOp21
 70
     0
102
RTVSPropertyOp22
 70
     0
102
RTVSPropertyOp23
 70
     0
102
RTVSPropertyOp24
 70
     0
102
RTVSPropertyOp25
 70
     0
102
RTVSPropertyOp26
 70
     0
102
RTVSPropertyOp27
 70
     0
102
RTVSPropertyOp28
 70
     1
102
RTVSPropertyOp29
 70
     1
102
RTVSPropertyOp30
 70
     1
102
RTVSPropertyOp31
 70
     1
102
RTVSPropertyOp32
 70
     1
102
RTVSPropertyOp33
 70
     1
102
RTVSPropertyOp34
 70
     1
102
RTVSPropertyOp35
 70
     1
102
RTVSPropertyOp36
 70
     1
102
RTVSPropertyOp37
 70
     0
102
RTVSPropertyOp38
 70
     0
102
RTVSPropertyOp39
 70
     0
102
RTVSPropertyOp40
 70
     0
102
RTVSPropertyOp41
 70
     0
102
RTVSPropertyOp42
 70
     0
102
RTVSPropertyOp43
 70
     0
102
RTVSPropertyOp44
 70
     0
102
RTVSPropertyOp45
 70
     1
102
RTVSPropertyOp46
 70
     0
102
RTVSPropertyOp47
 70
     0
102
RTVSPropertyOp48
 70
     0
102
RTVSPropertyOp49
 70
     1
102
RTVSPropertyOp50
 70
     0
102
RTVSPropertyOp51
 70
     0
102
RTVSPropertyOp52
 70
     0
102
RTVSPropertyOp53
 70
     0
102
RTVSPropertyOp54
 70
     0
102
RTVSPropertyOp55
 70
     1
102
RTVSPropertyOp56
 70
     0
102
RTVSPropertyOp57
 70
     0
102
RTVSPropertyOp58
 70
     0
102
RTVSPropertyOp59
 70
     0
102
RTVSPropertyOp60
 70
     0
102
RTVSPropertyOp61
 70
     0
102
RTVSPropertyOp62
 70
     0
  0
XRECORD
  5
10002C2
102
{ACAD_REACTORS
330
10002C1
102
}
330
10002C1
100
AcDbXrecord
280
     1
102
RTVSPost2010Prop28
280
     0
102
RTVSPost2010PropOp28
 70
     1
102
RTVSPost2010Prop29
280
     1
102
RTVSPost2010PropOp29
 70
     1
102
RTVSPost2010Prop30
280
     1
102
RTVSPost2010PropOp30
 70
     1
102
RTVSPost2010Prop31
280
     0
102
RTVSPost2010PropOp31
 70
     1
102
RTVSPost2010Prop32
280
     0
102
RTVSPost2010PropOp32
 70
     1
102
RTVSPost2010Prop33
280
     0
102
RTVSPost2010PropOp33
 70
     1
102
RTVSPost2010Prop34
280
     0
102
RTVSPost2010PropOp34
 70
     1
102
RTVSPost2010Prop35
280
     0
102
RTVSPost2010PropOp35
 70
     1
102
RTVSPost2010Prop36
280
     0
102
RTVSPost2010PropOp36
 70
     1
102
RTVSPost2010Prop37
 90
       50
102
RTVSPost2010PropOp37
 70
     1
102
RTVSPost2010Prop38
140
0.0
102
RTVSPost2010PropOp38
 70
     1
102
RTVSPost2010Prop39
140
1.0
102
RTVSPost2010PropOp39
 70
     1
102
RTVSPost2010Prop40
 90
        0
102
RTVSPost2010PropOp40
 70
     1
102
RTVSPost2010Prop41ColorIndex
 90
       18
102
RTVSPost2010Prop41ColorRGB
 90
        0
102
RTVSPost2010PropOp41
 70
     1
102
RTVSPost2010Prop42
 90
       50
102
RTVSPost2010PropOp42
 70
     1
102
RTVSPost2010Prop43
 90
        3
102
RTVSPost2010PropOp43
 70
     1
102
RTVSPost2010Prop44ColorIndex
 90
        5
102
RTVSPost2010Prop44ColorRGB
 90
      255
102
RTVSPost2010PropOp44
 70
     1
102
RTVSPost2010Prop45
280
     0
102
RTVSPost2010PropOp45
 70
     1
102
RTVSPost2010Prop46
 90
       50
102
RTVSPost2010PropOp46
 70
     1
102
RTVSPost2010Prop47
 90
       50
102
RTVSPost2010PropOp47
 70
     1
102
RTVSPost2010Prop48
 90
       50
102
RTVSPost2010PropOp48
 70
     1
102
RTVSPost2010Prop49
280
     0
102
RTVSPost2010PropOp49
 70
     1
102
RTVSPost2010Prop50
 90
       50
102
RTVSPost2010PropOp50
 70
     1
102
RTVSPost2010Prop51ColorIndex
 90
      256
102
RTVSPost2010Prop51ColorRGB
 90
-16777216
102
RTVSPost2010PropOp51
 70
     0
102
RTVSPost2010Prop52
140
1.0
102
RTVSPost2010PropOp52
 70
     0
102
RTVSPost2010Prop53
 90
        2
102
RTVSPost2010PropOp53
 70
     1
102
RTVSPost2010Prop54
  1
strokes_ogs.tif
102
RTVSPost2010PropOp54
 70
     1
102
RTVSPost2010Prop55
280
     0
102
RTVSPost2010PropOp55
 70
     1
102
RTVSPost2010Prop56
140
1.0
102
RTVSPost2010PropOp56
 70
     1
102
RTVSPost2010Prop57
140
1.0
102
RTVSPost2010PropOp57
 70
     1
102
RTVSPropertyOp0
 70
     1
102
RTVSPropertyOp1
 70
     1
102
RTVSPropertyOp2
 70
     1
102
RTVSPropertyOp3
 70
     1
102
RTVSPropertyOp4
 70
     1
102
RTVSPropertyOp5
 70
     1
102
RTVSPropertyOp6
 70
     1
102
RTVSPropertyOp7
 70
     1
102
RTVSPropertyOp8
 70
     1
102
RTVSPropertyOp9
 70
     1
102
RTVSPropertyOp10
 70
     1
102
RTVSPropertyOp11
 70
     1
102
RTVSPropertyOp12
 70
     1
102
RTVSPropertyOp13
 70
     1
102
RTVSPropertyOp14
 70
     1
102
RTVSPropertyOp15
 70
     1
102
RTVSPropertyOp16
 70
     1
102
RTVSPropertyOp17
 70
     1
102
RTVSPropertyOp18
 70
     1
102
RTVSPropertyOp19
 70
     1
102
RTVSPropertyOp20
 70
     1
102
RTVSPropertyOp21
 70
     1
102
RTVSPropertyOp22
 70
     1
102
RTVSPropertyOp23
 70
     1
102
RTVSPropertyOp24
 70
     1
102
RTVSPropertyOp25
 70
     1
102
RTVSPropertyOp26
 70
     1
102
RTVSPropertyOp27
 70
     1
102
RTVSPropertyOp28
 70
     1
102
RTVSPropertyOp29
 70
     1
102
RTVSPropertyOp30
 70
     1
102
RTVSPropertyOp31
 70
     1
102
RTVSPropertyOp32
 70
     1
102
RTVSPropertyOp33
 70
     1
102
RTVSPropertyOp34
 70
     1
102
RTVSPropertyOp35
 70
     1
102
RTVSPropertyOp36
 70
     1
102
RTVSPropertyOp37
 70
     1
102
RTVSPropertyOp38
 70
     1
102
RTVSPropertyOp39
 70
     1
102
RTVSPropertyOp40
 70
     1
102
RTVSPropertyOp41
 70
     1
102
RTVSPropertyOp42
 70
     1
102
RTVSPropertyOp43
 70
     1
102
RTVSPropertyOp44
 70
     1
102
RTVSPropertyOp45
 70
     1
102
RTVSPropertyOp46
 70
     1
102
RTVSPropertyOp47
 70
     1
102
RTVSPropertyOp48
 70
     1
102
RTVSPropertyOp49
 70
     1
102
RTVSPropertyOp50
 70
     1
102
RTVSPropertyOp51
 70
     0
102
RTVSPropertyOp52
 70
     0
102
RTVSPropertyOp53
 70
     1
102
RTVSPropertyOp54
 70
     1
102
RTVSPropertyOp55
 70
     1
102
RTVSPropertyOp56
 70
     1
102
RTVSPropertyOp57
 70
     1
102
RTVSPropertyOp58
 70
     1
102
RTVSPropertyOp59
 70
     1
102
RTVSPropertyOp60
 70
     1
102
RTVSPropertyOp61
 70
     1
102
RTVSPropertyOp62
 70
     1
  0
XRECORD
  5
10002D8
102
{ACAD_REACTORS
330
10002D7
102
}
330
10002D7
100
AcDbXrecord
280
     1
102
RTVSPost2010Prop28
280
     0
102
RTVSPost2010PropOp28
 70
     1
102
RTVSPost2010Prop29
280
     1
102
RTVSPost2010PropOp29
 70
     1
102
RTVSPost2010Prop30
280
     1
102
RTVSPost2010PropOp30
 70
     1
102
RTVSPost2010Prop31
280
     0
102
RTVSPost2010PropOp31
 70
     1
102
RTVSPost2010Prop32
280
     0
102
RTVSPost2010PropOp32
 70
     1
102
RTVSPost2010Prop33
280
     0
102
RTVSPost2010PropOp33
 70
     1
102
RTVSPost2010Prop34
280
     0
102
RTVSPost2010PropOp34
 70
     1
102
RTVSPost2010Prop35
280
     0
102
RTVSPost2010PropOp35
 70
     1
102
RTVSPost2010Prop36
280
     0
102
RTVSPost2010PropOp36
 70
     1
102
RTVSPost2010Prop37
 90
       50
102
RTVSPost2010PropOp37
 70
     1
102
RTVSPost2010Prop38
140
0.0
102
RTVSPost2010PropOp38
 70
     1
102
RTVSPost2010Prop39
140
1.0
102
RTVSPost2010PropOp39
 70
     1
102
RTVSPost2010Prop40
 90
        0
102
RTVSPost2010PropOp40
 70
     1
102
RTVSPost2010Prop41ColorIndex
 90
       18
102
RTVSPost2010Prop41ColorRGB
 90
        0
102
RTVSPost2010PropOp41
 70
     1
102
RTVSPost2010Prop42
 90
       50
102
RTVSPost2010PropOp42
 70
     1
102
RTVSPost2010Prop43
 90
        3
102
RTVSPost2010PropOp43
 70
     1
102
RTVSPost2010Prop44ColorIndex
 90
        5
102
RTVSPost2010Prop44ColorRGB
 90
      255
102
RTVSPost2010PropOp44
 70
     1
102
RTVSPost2010Prop45
280
     0
102
RTVSPost2010PropOp45
 70
     1
102
RTVSPost2010Prop46
 90
       50
102
RTVSPost2010PropOp46
 70
     1
102
RTVSPost2010Prop47
 90
       50
102
RTVSPost2010PropOp47
 70
     1
102
RTVSPost2010Prop48
 90
       50
102
RTVSPost2010PropOp48
 70
     1
102
RTVSPost2010Prop49
280
     0
102
RTVSPost2010PropOp49
 70
     1
102
RTVSPost2010Prop50
 90
       50
102
RTVSPost2010PropOp50
 70
     1
102
RTVSPost2010Prop51ColorIndex
 90
      256
102
RTVSPost2010Prop51ColorRGB
 90
-16777216
102
RTVSPost2010PropOp51
 70
     0
102
RTVSPost2010Prop52
140
1.0
102
RTVSPost2010PropOp52
 70
     0
102
RTVSPost2010Prop53
 90
        2
102
RTVSPost2010PropOp53
 70
     1
102
RTVSPost2010Prop54
  1
strokes_ogs.tif
102
RTVSPost2010PropOp54
 70
     1
102
RTVSPost2010Prop55
280
     0
102
RTVSPost2010PropOp55
 70
     1
102
RTVSPost2010Prop56
140
1.0
102
RTVSPost2010PropOp56
 70
     1
102
RTVSPost2010Prop57
140
1.0
102
RTVSPost2010PropOp57
 70
     1
102
RTVSPropertyOp0
 70
     1
102
RTVSPropertyOp1
 70
     1
102
RTVSPropertyOp2
 70
     1
102
RTVSPropertyOp3
 70
     1
102
RTVSPropertyOp4
 70
     1
102
RTVSPropertyOp5
 70
     1
102
RTVSPropertyOp6
 70
     1
102
RTVSPropertyOp7
 70
     1
102
RTVSPropertyOp8
 70
     1
102
RTVSPropertyOp9
 70
     1
102
RTVSPropertyOp10
 70
     1
102
RTVSPropertyOp11
 70
     1
102
RTVSPropertyOp12
 70
     1
102
RTVSPropertyOp13
 70
     1
102
RTVSPropertyOp14
 70
     1
102
RTVSPropertyOp15
 70
     1
102
RTVSPropertyOp16
 70
     1
102
RTVSPropertyOp17
 70
     1
102
RTVSPropertyOp18
 70
     1
102
RTVSPropertyOp19
 70
     1
102
RTVSPropertyOp20
 70
     1
102
RTVSPropertyOp21
 70
     1
102
RTVSPropertyOp22
 70
     1
102
RTVSPropertyOp23
 70
     1
102
RTVSPropertyOp24
 70
     1
102
RTVSPropertyOp25
 70
     1
102
RTVSPropertyOp26
 70
     1
102
RTVSPropertyOp27
 70
     1
102
RTVSPropertyOp28
 70
     1
102
RTVSPropertyOp29
 70
     1
102
RTVSPropertyOp30
 70
     1
102
RTVSPropertyOp31
 70
     1
102
RTVSPropertyOp32
 70
     1
102
RTVSPropertyOp33
 70
     1
102
RTVSPropertyOp34
 70
     1
102
RTVSPropertyOp35
 70
     1
102
RTVSPropertyOp36
 70
     1
102
RTVSPropertyOp37
 70
     1
102
RTVSPropertyOp38
 70
     1
102
RTVSPropertyOp39
 70
     1
102
RTVSPropertyOp40
 70
     1
102
RTVSPropertyOp41
 70
     1
102
RTVSPropertyOp42
 70
     1
102
RTVSPropertyOp43
 70
     1
102
RTVSPropertyOp44
 70
     1
102
RTVSPropertyOp45
 70
     1
102
RTVSPropertyOp46
 70
     1
102
RTVSPropertyOp47
 70
     1
102
RTVSPropertyOp48
 70
     1
102
RTVSPropertyOp49
 70
     1
102
RTVSPropertyOp50
 70
     1
102
RTVSPropertyOp51
 70
     0
102
RTVSPropertyOp52
 70
     0
102
RTVSPropertyOp53
 70
     1
102
RTVSPropertyOp54
 70
     1
102
RTVSPropertyOp55
 70
     1
102
RTVSPropertyOp56
 70
     1
102
RTVSPropertyOp57
 70
     1
102
RTVSPropertyOp58
 70
     1
102
RTVSPropertyOp59
 70
     1
102
RTVSPropertyOp60
 70
     1
102
RTVSPropertyOp61
 70
     1
102
RTVSPropertyOp62
 70
     1
  0
XRECORD
  5
10002D6
102
{ACAD_REACTORS
330
10002D5
102
}
330
10002D5
100
AcDbXrecord
280
     1
102
RTVSPost2010Prop28
280
     0
102
RTVSPost2010PropOp28
 70
     1
102
RTVSPost2010Prop29
280
     1
102
RTVSPost2010PropOp29
 70
     1
102
RTVSPost2010Prop30
280
     1
102
RTVSPost2010PropOp30
 70
     1
102
RTVSPost2010Prop31
280
     0
102
RTVSPost2010PropOp31
 70
     1
102
RTVSPost2010Prop32
280
     0
102
RTVSPost2010PropOp32
 70
     1
102
RTVSPost2010Prop33
280
     0
102
RTVSPost2010PropOp33
 70
     1
102
RTVSPost2010Prop34
280
     0
102
RTVSPost2010PropOp34
 70
     1
102
RTVSPost2010Prop35
280
     0
102
RTVSPost2010PropOp35
 70
     1
102
RTVSPost2010Prop36
280
     0
102
RTVSPost2010PropOp36
 70
     1
102
RTVSPost2010Prop37
 90
       50
102
RTVSPost2010PropOp37
 70
     1
102
RTVSPost2010Prop38
140
0.0
102
RTVSPost2010PropOp38
 70
     1
102
RTVSPost2010Prop39
140
1.0
102
RTVSPost2010PropOp39
 70
     1
102
RTVSPost2010Prop40
 90
        0
102
RTVSPost2010PropOp40
 70
     1
102
RTVSPost2010Prop41ColorIndex
 90
       18
102
RTVSPost2010Prop41ColorRGB
 90
        0
102
RTVSPost2010PropOp41
 70
     1
102
RTVSPost2010Prop42
 90
       50
102
RTVSPost2010PropOp42
 70
     1
102
RTVSPost2010Prop43
 90
        3
102
RTVSPost2010PropOp43
 70
     1
102
RTVSPost2010Prop44ColorIndex
 90
        5
102
RTVSPost2010Prop44ColorRGB
 90
      255
102
RTVSPost2010PropOp44
 70
     1
102
RTVSPost2010Prop45
280
     0
102
RTVSPost2010PropOp45
 70
     1
102
RTVSPost2010Prop46
 90
       50
102
RTVSPost2010PropOp46
 70
     1
102
RTVSPost2010Prop47
 90
       50
102
RTVSPost2010PropOp47
 70
     1
102
RTVSPost2010Prop48
 90
       50
102
RTVSPost2010PropOp48
 70
     1
102
RTVSPost2010Prop49
280
     0
102
RTVSPost2010PropOp49
 70
     1
102
RTVSPost2010Prop50
 90
       50
102
RTVSPost2010PropOp50
 70
     1
102
RTVSPost2010Prop51ColorIndex
 90
      256
102
RTVSPost2010Prop51ColorRGB
 90
-16777216
102
RTVSPost2010PropOp51
 70
     0
102
RTVSPost2010Prop52
140
1.0
102
RTVSPost2010PropOp52
 70
     0
102
RTVSPost2010Prop53
 90
        2
102
RTVSPost2010PropOp53
 70
     1
102
RTVSPost2010Prop54
  1
strokes_ogs.tif
102
RTVSPost2010PropOp54
 70
     1
102
RTVSPost2010Prop55
280
     0
102
RTVSPost2010PropOp55
 70
     1
102
RTVSPost2010Prop56
140
1.0
102
RTVSPost2010PropOp56
 70
     1
102
RTVSPost2010Prop57
140
1.0
102
RTVSPost2010PropOp57
 70
     1
102
RTVSPropertyOp0
 70
     1
102
RTVSPropertyOp1
 70
     1
102
RTVSPropertyOp2
 70
     1
102
RTVSPropertyOp3
 70
     1
102
RTVSPropertyOp4
 70
     1
102
RTVSPropertyOp5
 70
     1
102
RTVSPropertyOp6
 70
     1
102
RTVSPropertyOp7
 70
     1
102
RTVSPropertyOp8
 70
     1
102
RTVSPropertyOp9
 70
     1
102
RTVSPropertyOp10
 70
     1
102
RTVSPropertyOp11
 70
     1
102
RTVSPropertyOp12
 70
     1
102
RTVSPropertyOp13
 70
     1
102
RTVSPropertyOp14
 70
     1
102
RTVSPropertyOp15
 70
     1
102
RTVSPropertyOp16
 70
     1
102
RTVSPropertyOp17
 70
     1
102
RTVSPropertyOp18
 70
     1
102
RTVSPropertyOp19
 70
     1
102
RTVSPropertyOp20
 70
     1
102
RTVSPropertyOp21
 70
     1
102
RTVSPropertyOp22
 70
     1
102
RTVSPropertyOp23
 70
     1
102
RTVSPropertyOp24
 70
     1
102
RTVSPropertyOp25
 70
     1
102
RTVSPropertyOp26
 70
     1
102
RTVSPropertyOp27
 70
     1
102
RTVSPropertyOp28
 70
     1
102
RTVSPropertyOp29
 70
     1
102
RTVSPropertyOp30
 70
     1
102
RTVSPropertyOp31
 70
     1
102
RTVSPropertyOp32
 70
     1
102
RTVSPropertyOp33
 70
     1
102
RTVSPropertyOp34
 70
     1
102
RTVSPropertyOp35
 70
     1
102
RTVSPropertyOp36
 70
     1
102
RTVSPropertyOp37
 70
     1
102
RTVSPropertyOp38
 70
     1
102
RTVSPropertyOp39
 70
     1
102
RTVSPropertyOp40
 70
     1
102
RTVSPropertyOp41
 70
     1
102
RTVSPropertyOp42
 70
     1
102
RTVSPropertyOp43
 70
     1
102
RTVSPropertyOp44
 70
     1
102
RTVSPropertyOp45
 70
     1
102
RTVSPropertyOp46
 70
     1
102
RTVSPropertyOp47
 70
     1
102
RTVSPropertyOp48
 70
     1
102
RTVSPropertyOp49
 70
     1
102
RTVSPropertyOp50
 70
     1
102
RTVSPropertyOp51
 70
     0
102
RTVSPropertyOp52
 70
     0
102
RTVSPropertyOp53
 70
     1
102
RTVSPropertyOp54
 70
     1
102
RTVSPropertyOp55
 70
     1
102
RTVSPropertyOp56
 70
     1
102
RTVSPropertyOp57
 70
     1
102
RTVSPropertyOp58
 70
     1
102
RTVSPropertyOp59
 70
     1
102
RTVSPropertyOp60
 70
     1
102
RTVSPropertyOp61
 70
     1
102
RTVSPropertyOp62
 70
     1
  0
XRECORD
  5
10002D0
102
{ACAD_REACTORS
330
10002CF
102
}
330
10002CF
100
AcDbXrecord
280
     1
102
RTVSPost2010Prop28
280
     0
102
RTVSPost2010PropOp28
 70
     1
102
RTVSPost2010Prop29
280
     1
102
RTVSPost2010PropOp29
 70
     1
102
RTVSPost2010Prop30
280
     1
102
RTVSPost2010PropOp30
 70
     1
102
RTVSPost2010Prop31
280
     0
102
RTVSPost2010PropOp31
 70
     1
102
RTVSPost2010Prop32
280
     0
102
RTVSPost2010PropOp32
 70
     1
102
RTVSPost2010Prop33
280
     0
102
RTVSPost2010PropOp33
 70
     1
102
RTVSPost2010Prop34
280
     0
102
RTVSPost2010PropOp34
 70
     1
102
RTVSPost2010Prop35
280
     0
102
RTVSPost2010PropOp35
 70
     1
102
RTVSPost2010Prop36
280
     0
102
RTVSPost2010PropOp36
 70
     1
102
RTVSPost2010Prop37
 90
       50
102
RTVSPost2010PropOp37
 70
     1
102
RTVSPost2010Prop38
140
0.0
102
RTVSPost2010PropOp38
 70
     1
102
RTVSPost2010Prop39
140
1.0
102
RTVSPost2010PropOp39
 70
     1
102
RTVSPost2010Prop40
 90
        0
102
RTVSPost2010PropOp40
 70
     1
102
RTVSPost2010Prop41ColorIndex
 90
       18
102
RTVSPost2010Prop41ColorRGB
 90
        0
102
RTVSPost2010PropOp41
 70
     1
102
RTVSPost2010Prop42
 90
       50
102
RTVSPost2010PropOp42
 70
     1
102
RTVSPost2010Prop43
 90
        3
102
RTVSPost2010PropOp43
 70
     1
102
RTVSPost2010Prop44ColorIndex
 90
        5
102
RTVSPost2010Prop44ColorRGB
 90
      255
102
RTVSPost2010PropOp44
 70
     1
102
RTVSPost2010Prop45
280
     0
102
RTVSPost2010PropOp45
 70
     1
102
RTVSPost2010Prop46
 90
       50
102
RTVSPost2010PropOp46
 70
     1
102
RTVSPost2010Prop47
 90
       50
102
RTVSPost2010PropOp47
 70
     1
102
RTVSPost2010Prop48
 90
       50
102
RTVSPost2010PropOp48
 70
     1
102
RTVSPost2010Prop49
280
     0
102
RTVSPost2010PropOp49
 70
     1
102
RTVSPost2010Prop50
 90
       50
102
RTVSPost2010PropOp50
 70
     1
102
RTVSPost2010Prop51ColorIndex
 90
      256
102
RTVSPost2010Prop51ColorRGB
 90
-16777216
102
RTVSPost2010PropOp51
 70
     0
102
RTVSPost2010Prop52
140
1.0
102
RTVSPost2010PropOp52
 70
     0
102
RTVSPost2010Prop53
 90
        2
102
RTVSPost2010PropOp53
 70
     1
102
RTVSPost2010Prop54
  1
strokes_ogs.tif
102
RTVSPost2010PropOp54
 70
     1
102
RTVSPost2010Prop55
280
     0
102
RTVSPost2010PropOp55
 70
     1
102
RTVSPost2010Prop56
140
1.0
102
RTVSPost2010PropOp56
 70
     1
102
RTVSPost2010Prop57
140
1.0
102
RTVSPost2010PropOp57
 70
     1
102
RTVSPropertyOp0
 70
     1
102
RTVSPropertyOp1
 70
     1
102
RTVSPropertyOp2
 70
     1
102
RTVSPropertyOp3
 70
     1
102
RTVSPropertyOp4
 70
     1
102
RTVSPropertyOp5
 70
     1
102
RTVSPropertyOp6
 70
     1
102
RTVSPropertyOp7
 70
     1
102
RTVSPropertyOp8
 70
     1
102
RTVSPropertyOp9
 70
     1
102
RTVSPropertyOp10
 70
     1
102
RTVSPropertyOp11
 70
     1
102
RTVSPropertyOp12
 70
     1
102
RTVSPropertyOp13
 70
     1
102
RTVSPropertyOp14
 70
     1
102
RTVSPropertyOp15
 70
     1
102
RTVSPropertyOp16
 70
     1
102
RTVSPropertyOp17
 70
     1
102
RTVSPropertyOp18
 70
     1
102
RTVSPropertyOp19
 70
     1
102
RTVSPropertyOp20
 70
     1
102
RTVSPropertyOp21
 70
     1
102
RTVSPropertyOp22
 70
     1
102
RTVSPropertyOp23
 70
     1
102
RTVSPropertyOp24
 70
     1
102
RTVSPropertyOp25
 70
     1
102
RTVSPropertyOp26
 70
     1
102
RTVSPropertyOp27
 70
     1
102
RTVSPropertyOp28
 70
     1
102
RTVSPropertyOp29
 70
     1
102
RTVSPropertyOp30
 70
     1
102
RTVSPropertyOp31
 70
     1
102
RTVSPropertyOp32
 70
     1
102
RTVSPropertyOp33
 70
     1
102
RTVSPropertyOp34
 70
     1
102
RTVSPropertyOp35
 70
     1
102
RTVSPropertyOp36
 70
     1
102
RTVSPropertyOp37
 70
     1
102
RTVSPropertyOp38
 70
     1
102
RTVSPropertyOp39
 70
     1
102
RTVSPropertyOp40
 70
     1
102
RTVSPropertyOp41
 70
     1
102
RTVSPropertyOp42
 70
     1
102
RTVSPropertyOp43
 70
     1
102
RTVSPropertyOp44
 70
     1
102
RTVSPropertyOp45
 70
     1
102
RTVSPropertyOp46
 70
     1
102
RTVSPropertyOp47
 70
     1
102
RTVSPropertyOp48
 70
     1
102
RTVSPropertyOp49
 70
     1
102
RTVSPropertyOp50
 70
     1
102
RTVSPropertyOp51
 70
     0
102
RTVSPropertyOp52
 70
     0
102
RTVSPropertyOp53
 70
     1
102
RTVSPropertyOp54
 70
     1
102
RTVSPropertyOp55
 70
     1
102
RTVSPropertyOp56
 70
     1
102
RTVSPropertyOp57
 70
     1
102
RTVSPropertyOp58
 70
     1
102
RTVSPropertyOp59
 70
     1
102
RTVSPropertyOp60
 70
     1
102
RTVSPropertyOp61
 70
     1
102
RTVSPropertyOp62
 70
     1
  0
XRECORD
  5
10002D2
102
{ACAD_REACTORS
330
10002D1
102
}
330
10002D1
100
AcDbXrecord
280
     1
102
RTVSPost2010Prop28
280
     0
102
RTVSPost2010PropOp28
 70
     1
102
RTVSPost2010Prop29
280
     1
102
RTVSPost2010PropOp29
 70
     1
102
RTVSPost2010Prop30
280
     1
102
RTVSPost2010PropOp30
 70
     1
102
RTVSPost2010Prop31
280
     0
102
RTVSPost2010PropOp31
 70
     1
102
RTVSPost2010Prop32
280
     0
102
RTVSPost2010PropOp32
 70
     1
102
RTVSPost2010Prop33
280
     0
102
RTVSPost2010PropOp33
 70
     1
102
RTVSPost2010Prop34
280
     0
102
RTVSPost2010PropOp34
 70
     1
102
RTVSPost2010Prop35
280
     0
102
RTVSPost2010PropOp35
 70
     1
102
RTVSPost2010Prop36
280
     0
102
RTVSPost2010PropOp36
 70
     1
102
RTVSPost2010Prop37
 90
       50
102
RTVSPost2010PropOp37
 70
     1
102
RTVSPost2010Prop38
140
0.0
102
RTVSPost2010PropOp38
 70
     1
102
RTVSPost2010Prop39
140
1.0
102
RTVSPost2010PropOp39
 70
     1
102
RTVSPost2010Prop40
 90
        0
102
RTVSPost2010PropOp40
 70
     1
102
RTVSPost2010Prop41ColorIndex
 90
       18
102
RTVSPost2010Prop41ColorRGB
 90
        0
102
RTVSPost2010PropOp41
 70
     1
102
RTVSPost2010Prop42
 90
       50
102
RTVSPost2010PropOp42
 70
     1
102
RTVSPost2010Prop43
 90
        3
102
RTVSPost2010PropOp43
 70
     1
102
RTVSPost2010Prop44ColorIndex
 90
        5
102
RTVSPost2010Prop44ColorRGB
 90
      255
102
RTVSPost2010PropOp44
 70
     1
102
RTVSPost2010Prop45
280
     0
102
RTVSPost2010PropOp45
 70
     1
102
RTVSPost2010Prop46
 90
       50
102
RTVSPost2010PropOp46
 70
     1
102
RTVSPost2010Prop47
 90
       50
102
RTVSPost2010PropOp47
 70
     1
102
RTVSPost2010Prop48
 90
       50
102
RTVSPost2010PropOp48
 70
     1
102
RTVSPost2010Prop49
280
     0
102
RTVSPost2010PropOp49
 70
     1
102
RTVSPost2010Prop50
 90
       50
102
RTVSPost2010PropOp50
 70
     1
102
RTVSPost2010Prop51ColorIndex
 90
      256
102
RTVSPost2010Prop51ColorRGB
 90
-16777216
102
RTVSPost2010PropOp51
 70
     0
102
RTVSPost2010Prop52
140
1.0
102
RTVSPost2010PropOp52
 70
     0
102
RTVSPost2010Prop53
 90
        2
102
RTVSPost2010PropOp53
 70
     1
102
RTVSPost2010Prop54
  1
strokes_ogs.tif
102
RTVSPost2010PropOp54
 70
     1
102
RTVSPost2010Prop55
280
     0
102
RTVSPost2010PropOp55
 70
     1
102
RTVSPost2010Prop56
140
1.0
102
RTVSPost2010PropOp56
 70
     1
102
RTVSPost2010Prop57
140
1.0
102
RTVSPost2010PropOp57
 70
     1
102
RTVSPropertyOp0
 70
     1
102
RTVSPropertyOp1
 70
     1
102
RTVSPropertyOp2
 70
     1
102
RTVSPropertyOp3
 70
     1
102
RTVSPropertyOp4
 70
     1
102
RTVSPropertyOp5
 70
     1
102
RTVSPropertyOp6
 70
     1
102
RTVSPropertyOp7
 70
     1
102
RTVSPropertyOp8
 70
     1
102
RTVSPropertyOp9
 70
     1
102
RTVSPropertyOp10
 70
     1
102
RTVSPropertyOp11
 70
     1
102
RTVSPropertyOp12
 70
     1
102
RTVSPropertyOp13
 70
     1
102
RTVSPropertyOp14
 70
     1
102
RTVSPropertyOp15
 70
     1
102
RTVSPropertyOp16
 70
     1
102
RTVSPropertyOp17
 70
     1
102
RTVSPropertyOp18
 70
     1
102
RTVSPropertyOp19
 70
     1
102
RTVSPropertyOp20
 70
     1
102
RTVSPropertyOp21
 70
     1
102
RTVSPropertyOp22
 70
     1
102
RTVSPropertyOp23
 70
     1
102
RTVSPropertyOp24
 70
     1
102
RTVSPropertyOp25
 70
     1
102
RTVSPropertyOp26
 70
     1
102
RTVSPropertyOp27
 70
     1
102
RTVSPropertyOp28
 70
     1
102
RTVSPropertyOp29
 70
     1
102
RTVSPropertyOp30
 70
     1
102
RTVSPropertyOp31
 70
     1
102
RTVSPropertyOp32
 70
     1
102
RTVSPropertyOp33
 70
     1
102
RTVSPropertyOp34
 70
     1
102
RTVSPropertyOp35
 70
     1
102
RTVSPropertyOp36
 70
     1
102
RTVSPropertyOp37
 70
     1
102
RTVSPropertyOp38
 70
     1
102
RTVSPropertyOp39
 70
     1
102
RTVSPropertyOp40
 70
     1
102
RTVSPropertyOp41
 70
     1
102
RTVSPropertyOp42
 70
     1
102
RTVSPropertyOp43
 70
     1
102
RTVSPropertyOp44
 70
     1
102
RTVSPropertyOp45
 70
     1
102
RTVSPropertyOp46
 70
     1
102
RTVSPropertyOp47
 70
     1
102
RTVSPropertyOp48
 70
     1
102
RTVSPropertyOp49
 70
     1
102
RTVSPropertyOp50
 70
     1
102
RTVSPropertyOp51
 70
     0
102
RTVSPropertyOp52
 70
     0
102
RTVSPropertyOp53
 70
     1
102
RTVSPropertyOp54
 70
     1
102
RTVSPropertyOp55
 70
     1
102
RTVSPropertyOp56
 70
     1
102
RTVSPropertyOp57
 70
     1
102
RTVSPropertyOp58
 70
     1
102
RTVSPropertyOp59
 70
     1
102
RTVSPropertyOp60
 70
     1
102
RTVSPropertyOp61
 70
     1
102
RTVSPropertyOp62
 70
     1
  0
XRECORD
  5
10002C8
102
{ACAD_REACTORS
330
10002C7
102
}
330
10002C7
100
AcDbXrecord
280
     1
102
RTVSPost2010Prop28
280
     0
102
RTVSPost2010PropOp28
 70
     1
102
RTVSPost2010Prop29
280
     1
102
RTVSPost2010PropOp29
 70
     1
102
RTVSPost2010Prop30
280
     1
102
RTVSPost2010PropOp30
 70
     1
102
RTVSPost2010Prop31
280
     0
102
RTVSPost2010PropOp31
 70
     1
102
RTVSPost2010Prop32
280
     0
102
RTVSPost2010PropOp32
 70
     1
102
RTVSPost2010Prop33
280
     0
102
RTVSPost2010PropOp33
 70
     1
102
RTVSPost2010Prop34
280
     0
102
RTVSPost2010PropOp34
 70
     1
102
RTVSPost2010Prop35
280
     0
102
RTVSPost2010PropOp35
 70
     1
102
RTVSPost2010Prop36
280
     0
102
RTVSPost2010PropOp36
 70
     1
102
RTVSPost2010Prop37
 90
       50
102
RTVSPost2010PropOp37
 70
     1
102
RTVSPost2010Prop38
140
0.0
102
RTVSPost2010PropOp38
 70
     1
102
RTVSPost2010Prop39
140
1.0
102
RTVSPost2010PropOp39
 70
     1
102
RTVSPost2010Prop40
 90
        0
102
RTVSPost2010PropOp40
 70
     1
102
RTVSPost2010Prop41ColorIndex
 90
       18
102
RTVSPost2010Prop41ColorRGB
 90
        0
102
RTVSPost2010PropOp41
 70
     1
102
RTVSPost2010Prop42
 90
       50
102
RTVSPost2010PropOp42
 70
     1
102
RTVSPost2010Prop43
 90
        3
102
RTVSPost2010PropOp43
 70
     1
102
RTVSPost2010Prop44ColorIndex
 90
        5
102
RTVSPost2010Prop44ColorRGB
 90
      255
102
RTVSPost2010PropOp44
 70
     1
102
RTVSPost2010Prop45
280
     0
102
RTVSPost2010PropOp45
 70
     1
102
RTVSPost2010Prop46
 90
       50
102
RTVSPost2010PropOp46
 70
     1
102
RTVSPost2010Prop47
 90
       50
102
RTVSPost2010PropOp47
 70
     1
102
RTVSPost2010Prop48
 90
       50
102
RTVSPost2010PropOp48
 70
     1
102
RTVSPost2010Prop49
280
     0
102
RTVSPost2010PropOp49
 70
     1
102
RTVSPost2010Prop50
 90
       50
102
RTVSPost2010PropOp50
 70
     1
102
RTVSPost2010Prop51ColorIndex
 90
      256
102
RTVSPost2010Prop51ColorRGB
 90
-16777216
102
RTVSPost2010PropOp51
 70
     0
102
RTVSPost2010Prop52
140
1.0
102
RTVSPost2010PropOp52
 70
     0
102
RTVSPost2010Prop53
 90
        2
102
RTVSPost2010PropOp53
 70
     1
102
RTVSPost2010Prop54
  1
strokes_ogs.tif
102
RTVSPost2010PropOp54
 70
     1
102
RTVSPost2010Prop55
280
     0
102
RTVSPost2010PropOp55
 70
     1
102
RTVSPost2010Prop56
140
1.0
102
RTVSPost2010PropOp56
 70
     1
102
RTVSPost2010Prop57
140
1.0
102
RTVSPost2010PropOp57
 70
     1
102
RTVSPropertyOp0
 70
     1
102
RTVSPropertyOp1
 70
     1
102
RTVSPropertyOp2
 70
     1
102
RTVSPropertyOp3
 70
     1
102
RTVSPropertyOp4
 70
     1
102
RTVSPropertyOp5
 70
     1
102
RTVSPropertyOp6
 70
     1
102
RTVSPropertyOp7
 70
     1
102
RTVSPropertyOp8
 70
     1
102
RTVSPropertyOp9
 70
     1
102
RTVSPropertyOp10
 70
     1
102
RTVSPropertyOp11
 70
     1
102
RTVSPropertyOp12
 70
     1
102
RTVSPropertyOp13
 70
     1
102
RTVSPropertyOp14
 70
     1
102
RTVSPropertyOp15
 70
     1
102
RTVSPropertyOp16
 70
     1
102
RTVSPropertyOp17
 70
     1
102
RTVSPropertyOp18
 70
     1
102
RTVSPropertyOp19
 70
     1
102
RTVSPropertyOp20
 70
     1
102
RTVSPropertyOp21
 70
     1
102
RTVSPropertyOp22
 70
     1
102
RTVSPropertyOp23
 70
     1
102
RTVSPropertyOp24
 70
     1
102
RTVSPropertyOp25
 70
     1
102
RTVSPropertyOp26
 70
     1
102
RTVSPropertyOp27
 70
     1
102
RTVSPropertyOp28
 70
     1
102
RTVSPropertyOp29
 70
     1
102
RTVSPropertyOp30
 70
     1
102
RTVSPropertyOp31
 70
     1
102
RTVSPropertyOp32
 70
     1
102
RTVSPropertyOp33
 70
     1
102
RTVSPropertyOp34
 70
     1
102
RTVSPropertyOp35
 70
     1
102
RTVSPropertyOp36
 70
     1
102
RTVSPropertyOp37
 70
     1
102
RTVSPropertyOp38
 70
     1
102
RTVSPropertyOp39
 70
     1
102
RTVSPropertyOp40
 70
     1
102
RTVSPropertyOp41
 70
     1
102
RTVSPropertyOp42
 70
     1
102
RTVSPropertyOp43
 70
     1
102
RTVSPropertyOp44
 70
     1
102
RTVSPropertyOp45
 70
     1
102
RTVSPropertyOp46
 70
     1
102
RTVSPropertyOp47
 70
     1
102
RTVSPropertyOp48
 70
     1
102
RTVSPropertyOp49
 70
     1
102
RTVSPropertyOp50
 70
     1
102
RTVSPropertyOp51
 70
     0
102
RTVSPropertyOp52
 70
     0
102
RTVSPropertyOp53
 70
     1
102
RTVSPropertyOp54
 70
     1
102
RTVSPropertyOp55
 70
     1
102
RTVSPropertyOp56
 70
     1
102
RTVSPropertyOp57
 70
     1
102
RTVSPropertyOp58
 70
     1
102
RTVSPropertyOp59
 70
     1
102
RTVSPropertyOp60
 70
     1
102
RTVSPropertyOp61
 70
     1
102
RTVSPropertyOp62
 70
     1
  0
XRECORD
  5
10002BC
102
{ACAD_REACTORS
330
10002BB
102
}
330
10002BB
100
AcDbXrecord
280
     1
102
RTVSPost2010Prop28
280
     0
102
RTVSPost2010PropOp28
 70
     1
102
RTVSPost2010Prop29
280
     1
102
RTVSPost2010PropOp29
 70
     1
102
RTVSPost2010Prop30
280
     1
102
RTVSPost2010PropOp30
 70
     1
102
RTVSPost2010Prop31
280
     0
102
RTVSPost2010PropOp31
 70
     1
102
RTVSPost2010Prop32
280
     0
102
RTVSPost2010PropOp32
 70
     1
102
RTVSPost2010Prop33
280
     0
102
RTVSPost2010PropOp33
 70
     1
102
RTVSPost2010Prop34
280
     0
102
RTVSPost2010PropOp34
 70
     1
102
RTVSPost2010Prop35
280
     0
102
RTVSPost2010PropOp35
 70
     1
102
RTVSPost2010Prop36
280
     0
102
RTVSPost2010PropOp36
 70
     1
102
RTVSPost2010Prop37
 90
       50
102
RTVSPost2010PropOp37
 70
     1
102
RTVSPost2010Prop38
140
0.0
102
RTVSPost2010PropOp38
 70
     1
102
RTVSPost2010Prop39
140
1.0
102
RTVSPost2010PropOp39
 70
     1
102
RTVSPost2010Prop40
 90
        0
102
RTVSPost2010PropOp40
 70
     1
102
RTVSPost2010Prop41ColorIndex
 90
       18
102
RTVSPost2010Prop41ColorRGB
 90
        0
102
RTVSPost2010PropOp41
 70
     1
102
RTVSPost2010Prop42
 90
       50
102
RTVSPost2010PropOp42
 70
     1
102
RTVSPost2010Prop43
 90
        3
102
RTVSPost2010PropOp43
 70
     1
102
RTVSPost2010Prop44ColorIndex
 90
        5
102
RTVSPost2010Prop44ColorRGB
 90
      255
102
RTVSPost2010PropOp44
 70
     1
102
RTVSPost2010Prop45
280
     0
102
RTVSPost2010PropOp45
 70
     1
102
RTVSPost2010Prop46
 90
       50
102
RTVSPost2010PropOp46
 70
     1
102
RTVSPost2010Prop47
 90
       50
102
RTVSPost2010PropOp47
 70
     1
102
RTVSPost2010Prop48
 90
       50
102
RTVSPost2010PropOp48
 70
     1
102
RTVSPost2010Prop49
280
     0
102
RTVSPost2010PropOp49
 70
     1
102
RTVSPost2010Prop50
 90
       50
102
RTVSPost2010PropOp50
 70
     1
102
RTVSPost2010Prop51ColorIndex
 90
      256
102
RTVSPost2010Prop51ColorRGB
 90
-16777216
102
RTVSPost2010PropOp51
 70
     0
102
RTVSPost2010Prop52
140
1.0
102
RTVSPost2010PropOp52
 70
     0
102
RTVSPost2010Prop53
 90
        2
102
RTVSPost2010PropOp53
 70
     1
102
RTVSPost2010Prop54
  1
strokes_ogs.tif
102
RTVSPost2010PropOp54
 70
     1
102
RTVSPost2010Prop55
280
     0
102
RTVSPost2010PropOp55
 70
     1
102
RTVSPost2010Prop56
140
1.0
102
RTVSPost2010PropOp56
 70
     1
102
RTVSPost2010Prop57
140
1.0
102
RTVSPost2010PropOp57
 70
     1
102
RTVSPropertyOp0
 70
     1
102
RTVSPropertyOp1
 70
     1
102
RTVSPropertyOp2
 70
     1
102
RTVSPropertyOp3
 70
     1
102
RTVSPropertyOp4
 70
     1
102
RTVSPropertyOp5
 70
     1
102
RTVSPropertyOp6
 70
     1
102
RTVSPropertyOp7
 70
     1
102
RTVSPropertyOp8
 70
     1
102
RTVSPropertyOp9
 70
     1
102
RTVSPropertyOp10
 70
     1
102
RTVSPropertyOp11
 70
     1
102
RTVSPropertyOp12
 70
     1
102
RTVSPropertyOp13
 70
     1
102
RTVSPropertyOp14
 70
     1
102
RTVSPropertyOp15
 70
     1
102
RTVSPropertyOp16
 70
     1
102
RTVSPropertyOp17
 70
     1
102
RTVSPropertyOp18
 70
     1
102
RTVSPropertyOp19
 70
     1
102
RTVSPropertyOp20
 70
     1
102
RTVSPropertyOp21
 70
     1
102
RTVSPropertyOp22
 70
     1
102
RTVSPropertyOp23
 70
     1
102
RTVSPropertyOp24
 70
     1
102
RTVSPropertyOp25
 70
     1
102
RTVSPropertyOp26
 70
     1
102
RTVSPropertyOp27
 70
     1
102
RTVSPropertyOp28
 70
     1
102
RTVSPropertyOp29
 70
     1
102
RTVSPropertyOp30
 70
     1
102
RTVSPropertyOp31
 70
     1
102
RTVSPropertyOp32
 70
     1
102
RTVSPropertyOp33
 70
     1
102
RTVSPropertyOp34
 70
     1
102
RTVSPropertyOp35
 70
     1
102
RTVSPropertyOp36
 70
     1
102
RTVSPropertyOp37
 70
     1
102
RTVSPropertyOp38
 70
     1
102
RTVSPropertyOp39
 70
     1
102
RTVSPropertyOp40
 70
     1
102
RTVSPropertyOp41
 70
     1
102
RTVSPropertyOp42
 70
     1
102
RTVSPropertyOp43
 70
     1
102
RTVSPropertyOp44
 70
     1
102
RTVSPropertyOp45
 70
     1
102
RTVSPropertyOp46
 70
     1
102
RTVSPropertyOp47
 70
     1
102
RTVSPropertyOp48
 70
     1
102
RTVSPropertyOp49
 70
     1
102
RTVSPropertyOp50
 70
     1
102
RTVSPropertyOp51
 70
     0
102
RTVSPropertyOp52
 70
     0
102
RTVSPropertyOp53
 70
     1
102
RTVSPropertyOp54
 70
     1
102
RTVSPropertyOp55
 70
     1
102
RTVSPropertyOp56
 70
     1
102
RTVSPropertyOp57
 70
     1
102
RTVSPropertyOp58
 70
     1
102
RTVSPropertyOp59
 70
     1
102
RTVSPropertyOp60
 70
     1
102
RTVSPropertyOp61
 70
     1
102
RTVSPropertyOp62
 70
     1
  0
XRECORD
  5
10002D4
102
{ACAD_REACTORS
330
10002D3
102
}
330
10002D3
100
AcDbXrecord
280
     1
102
RTVSPost2010Prop28
280
     0
102
RTVSPost2010PropOp28
 70
     1
102
RTVSPost2010Prop29
280
     1
102
RTVSPost2010PropOp29
 70
     1
102
RTVSPost2010Prop30
280
     1
102
RTVSPost2010PropOp30
 70
     1
102
RTVSPost2010Prop31
280
     0
102
RTVSPost2010PropOp31
 70
     1
102
RTVSPost2010Prop32
280
     0
102
RTVSPost2010PropOp32
 70
     1
102
RTVSPost2010Prop33
280
     0
102
RTVSPost2010PropOp33
 70
     1
102
RTVSPost2010Prop34
280
     0
102
RTVSPost2010PropOp34
 70
     1
102
RTVSPost2010Prop35
280
     0
102
RTVSPost2010PropOp35
 70
     1
102
RTVSPost2010Prop36
280
     0
102
RTVSPost2010PropOp36
 70
     1
102
RTVSPost2010Prop37
 90
       50
102
RTVSPost2010PropOp37
 70
     1
102
RTVSPost2010Prop38
140
0.0
102
RTVSPost2010PropOp38
 70
     1
102
RTVSPost2010Prop39
140
1.0
102
RTVSPost2010PropOp39
 70
     1
102
RTVSPost2010Prop40
 90
        0
102
RTVSPost2010PropOp40
 70
     1
102
RTVSPost2010Prop41ColorIndex
 90
       18
102
RTVSPost2010Prop41ColorRGB
 90
        0
102
RTVSPost2010PropOp41
 70
     1
102
RTVSPost2010Prop42
 90
       50
102
RTVSPost2010PropOp42
 70
     1
102
RTVSPost2010Prop43
 90
        3
102
RTVSPost2010PropOp43
 70
     1
102
RTVSPost2010Prop44ColorIndex
 90
        5
102
RTVSPost2010Prop44ColorRGB
 90
      255
102
RTVSPost2010PropOp44
 70
     1
102
RTVSPost2010Prop45
280
     0
102
RTVSPost2010PropOp45
 70
     1
102
RTVSPost2010Prop46
 90
       50
102
RTVSPost2010PropOp46
 70
     1
102
RTVSPost2010Prop47
 90
       50
102
RTVSPost2010PropOp47
 70
     1
102
RTVSPost2010Prop48
 90
       50
102
RTVSPost2010PropOp48
 70
     1
102
RTVSPost2010Prop49
280
     0
102
RTVSPost2010PropOp49
 70
     1
102
RTVSPost2010Prop50
 90
       50
102
RTVSPost2010PropOp50
 70
     1
102
RTVSPost2010Prop51ColorIndex
 90
      256
102
RTVSPost2010Prop51ColorRGB
 90
-16777216
102
RTVSPost2010PropOp51
 70
     0
102
RTVSPost2010Prop52
140
1.0
102
RTVSPost2010PropOp52
 70
     0
102
RTVSPost2010Prop53
 90
        2
102
RTVSPost2010PropOp53
 70
     1
102
RTVSPost2010Prop54
  1
strokes_ogs.tif
102
RTVSPost2010PropOp54
 70
     1
102
RTVSPost2010Prop55
280
     0
102
RTVSPost2010PropOp55
 70
     1
102
RTVSPost2010Prop56
140
1.0
102
RTVSPost2010PropOp56
 70
     1
102
RTVSPost2010Prop57
140
1.0
102
RTVSPost2010PropOp57
 70
     1
102
RTVSPropertyOp0
 70
     1
102
RTVSPropertyOp1
 70
     1
102
RTVSPropertyOp2
 70
     1
102
RTVSPropertyOp3
 70
     1
102
RTVSPropertyOp4
 70
     1
102
RTVSPropertyOp5
 70
     1
102
RTVSPropertyOp6
 70
     1
102
RTVSPropertyOp7
 70
     1
102
RTVSPropertyOp8
 70
     1
102
RTVSPropertyOp9
 70
     1
102
RTVSPropertyOp10
 70
     1
102
RTVSPropertyOp11
 70
     1
102
RTVSPropertyOp12
 70
     1
102
RTVSPropertyOp13
 70
     1
102
RTVSPropertyOp14
 70
     1
102
RTVSPropertyOp15
 70
     1
102
RTVSPropertyOp16
 70
     1
102
RTVSPropertyOp17
 70
     1
102
RTVSPropertyOp18
 70
     1
102
RTVSPropertyOp19
 70
     1
102
RTVSPropertyOp20
 70
     1
102
RTVSPropertyOp21
 70
     1
102
RTVSPropertyOp22
 70
     1
102
RTVSPropertyOp23
 70
     1
102
RTVSPropertyOp24
 70
     1
102
RTVSPropertyOp25
 70
     1
102
RTVSPropertyOp26
 70
     1
102
RTVSPropertyOp27
 70
     1
102
RTVSPropertyOp28
 70
     1
102
RTVSPropertyOp29
 70
     1
102
RTVSPropertyOp30
 70
     1
102
RTVSPropertyOp31
 70
     1
102
RTVSPropertyOp32
 70
     1
102
RTVSPropertyOp33
 70
     1
102
RTVSPropertyOp34
 70
     1
102
RTVSPropertyOp35
 70
     1
102
RTVSPropertyOp36
 70
     1
102
RTVSPropertyOp37
 70
     1
102
RTVSPropertyOp38
 70
     1
102
RTVSPropertyOp39
 70
     1
102
RTVSPropertyOp40
 70
     1
102
RTVSPropertyOp41
 70
     1
102
RTVSPropertyOp42
 70
     1
102
RTVSPropertyOp43
 70
     1
102
RTVSPropertyOp44
 70
     1
102
RTVSPropertyOp45
 70
     1
102
RTVSPropertyOp46
 70
     1
102
RTVSPropertyOp47
 70
     1
102
RTVSPropertyOp48
 70
     1
102
RTVSPropertyOp49
 70
     1
102
RTVSPropertyOp50
 70
     1
102
RTVSPropertyOp51
 70
     0
102
RTVSPropertyOp52
 70
     0
102
RTVSPropertyOp53
 70
     1
102
RTVSPropertyOp54
 70
     1
102
RTVSPropertyOp55
 70
     1
102
RTVSPropertyOp56
 70
     1
102
RTVSPropertyOp57
 70
     1
102
RTVSPropertyOp58
 70
     1
102
RTVSPropertyOp59
 70
     1
102
RTVSPropertyOp60
 70
     1
102
RTVSPropertyOp61
 70
     1
102
RTVSPropertyOp62
 70
     1
  0
ENDSEC
  0
EOF
