  0
SECTION
  2
HEADER
  9
$ACADVER
  1
AC1018
  9
$ACADMAINTVER
 70
   104
  9
$DWGCODEPAGE
  3
ANSI_1250
  9
$LASTSAVEDBY
  1
Dell
  9
$INSBASE
 10
0.0
 20
0.0
 30
0.0
  9
$EXTMIN
 10
7578135.53
 20
5720592.41
 30
0.0
  9
$EXTMAX
 10
7578922.54
 20
5721650.559999999
 30
0.35
  9
$LIMMIN
 10
7575055.75
 20
5718860.440000001
  9
$LIMMAX
 10
7582027.38
 20
5723886.32
  9
$ORTHOMODE
 70
     0
  9
$REGENMODE
 70
     1
  9
$FILLMODE
 70
     1
  9
$QTEXTMODE
 70
     0
  9
$MIRRTEXT
 70
     0
  9
$LTSCALE
 40
1.0
  9
$ATTMODE
 70
     1
  9
$TEXTSIZE
 40
0.2
  9
$TRACEWID
 40
0.05
  9
$TEXTSTYLE
  7
STANDARD
  9
$CLAYER
  8
0
  9
$CELTYPE
  6
CONTINUOUS
  9
$CECOLOR
 62
   256
  9
$CELTSCALE
 40
1.0
  9
$DISPSILH
 70
     0
  9
$DIMSCALE
 40
1.0
  9
$DIMASZ
 40
2.5
  9
$DIMEXO
 40
0.625
  9
$DIMDLI
 40
0.38
  9
$DIMRND
 40
0.0
  9
$DIMDLE
 40
0.0
  9
$DIMEXE
 40
1.25
  9
$DIMTP
 40
0.0
  9
$DIMTM
 40
0.0
  9
$DIMTXT
 40
2.5
  9
$DIMCEN
 40
0.09
  9
$DIMTSZ
 40
0.0
  9
$DIMTOL
 70
     0
  9
$DIMLIM
 70
     0
  9
$DIMTIH
 70
     1
  9
$DIMTOH
 70
     1
  9
$DIMSE1
 70
     0
  9
$DIMSE2
 70
     0
  9
$DIMTAD
 70
     0
  9
$DIMZIN
 70
     0
  9
$DIMBLK
  1

  9
$DIMASO
 70
     1
  9
$DIMSHO
 70
     1
  9
$DIMPOST
  1

  9
$DIMAPOST
  1

  9
$DIMALT
 70
     0
  9
$DIMALTD
 70
     2
  9
$DIMALTF
 40
25.4
  9
$DIMLFAC
 40
1.0
  9
$DIMTOFL
 70
     0
  9
$DIMTVP
 40
0.0
  9
$DIMTIX
 70
     0
  9
$DIMSOXD
 70
     0
  9
$DIMSAH
 70
     0
  9
$DIMBLK1
  1

  9
$DIMBLK2
  1

  9
$DIMSTYLE
  2
Standard
  9
$DIMCLRD
 70
     0
  9
$DIMCLRE
 70
     0
  9
$DIMCLRT
 70
     0
  9
$DIMTFAC
 40
1.0
  9
$DIMGAP
 40
0.625
  9
$DIMJUST
 70
     0
  9
$DIMSD1
 70
     0
  9
$DIMSD2
 70
     0
  9
$DIMTOLJ
 70
     1
  9
$DIMTZIN
 70
     0
  9
$DIMALTZ
 70
     0
  9
$DIMALTTZ
 70
     0
  9
$DIMUPT
 70
     0
  9
$DIMDEC
 70
     4
  9
$DIMTDEC
 70
     4
  9
$DIMALTU
 70
     2
  9
$DIMALTTD
 70
     2
  9
$DIMTXSTY
  7
STANDARD
  9
$DIMAUNIT
 70
     0
  9
$DIMADEC
 70
     0
  9
$DIMALTRND
 40
0.0
  9
$DIMAZIN
 70
     0
  9
$DIMDSEP
 70
    46
  9
$DIMATFIT
 70
     3
  9
$DIMFRAC
 70
     0
  9
$DIMLDRBLK
  1

  9
$DIMLUNIT
 70
     2
  9
$DIMLWD
 70
    -2
  9
$DIMLWE
 70
    -2
  9
$DIMTMOVE
 70
     0
  9
$LUNITS
 70
     2
  9
$LUPREC
 70
     4
  9
$SKETCHINC
 40
0.1
  9
$FILLETRAD
 40
0.0
  9
$AUNITS
 70
     0
  9
$AUPREC
 70
     0
  9
$MENU
  1

  9
$ELEVATION
 40
0.0
  9
$PELEVATION
 40
0.0
  9
$THICKNESS
 40
0.0
  9
$LIMCHECK
 70
     0
  9
$CHAMFERA
 40
0.0
  9
$CHAMFERB
 40
0.0
  9
$CHAMFERC
 40
0.0
  9
$CHAMFERD
 40
0.0
  9
$SKPOLY
 70
     0
  9
$TDCREATE
 40
2305814.904865984
  9
$TDUCREATE
 40
44981.863199317
  9
$TDUPDATE
 40
2460000.908594444
  9
$TDUUPDATE
 40
2460000.866927778
  9
$TDINDWG
 40
0.003281771
  9
$TDUSRTIMER
 40
0.003281563
  9
$USRTIMER
 70
     1
  9
$ANGBASE
 50
0.0
  9
$ANGDIR
 70
     0
  9
$PDMODE
 70
     0
  9
$PDSIZE
 40
0.0
  9
$PLINEWID
 40
0.0
  9
$SPLFRAME
 70
     0
  9
$SPLINETYPE
 70
     6
  9
$SPLINESEGS
 70
     8
  9
$HANDSEED
  5
1000304
  9
$SURFTAB1
 70
     6
  9
$SURFTAB2
 70
     6
  9
$SURFTYPE
 70
     6
  9
$SURFU
 70
     6
  9
$SURFV
 70
     6
  9
$UCSBASE
  2

  9
$UCSNAME
  2

  9
$UCSORG
 10
0.0
 20
0.0
 30
0.0
  9
$UCSXDIR
 10
1.0
 20
0.0
 30
0.0
  9
$UCSYDIR
 10
0.0
 20
1.0
 30
0.0
  9
$UCSORTHOREF
  2

  9
$UCSORTHOVIEW
 70
     0
  9
$UCSORGTOP
 10
0.0
 20
0.0
 30
0.0
  9
$UCSORGBOTTOM
 10
0.0
 20
0.0
 30
0.0
  9
$UCSORGLEFT
 10
0.0
 20
0.0
 30
0.0
  9
$UCSORGRIGHT
 10
0.0
 20
0.0
 30
0.0
  9
$UCSORGFRONT
 10
0.0
 20
0.0
 30
0.0
  9
$UCSORGBACK
 10
0.0
 20
0.0
 30
0.0
  9
$PUCSBASE
  2

  9
$PUCSNAME
  2

  9
$PUCSORG
 10
0.0
 20
0.0
 30
0.0
  9
$PUCSXDIR
 10
1.0
 20
0.0
 30
0.0
  9
$PUCSYDIR
 10
0.0
 20
1.0
 30
0.0
  9
$PUCSORTHOREF
  2

  9
$PUCSORTHOVIEW
 70
     0
  9
$PUCSORGTOP
 10
0.0
 20
0.0
 30
0.0
  9
$PUCSORGBOTTOM
 10
0.0
 20
0.0
 30
0.0
  9
$PUCSORGLEFT
 10
0.0
 20
0.0
 30
0.0
  9
$PUCSORGRIGHT
 10
0.0
 20
0.0
 30
0.0
  9
$PUCSORGFRONT
 10
0.0
 20
0.0
 30
0.0
  9
$PUCSORGBACK
 10
0.0
 20
0.0
 30
0.0
  9
$USERI1
 70
     0
  9
$USERI2
 70
     0
  9
$USERI3
 70
     0
  9
$USERI4
 70
     0
  9
$USERI5
 70
     0
  9
$USERR1
 40
0.0
  9
$USERR2
 40
0.0
  9
$USERR3
 40
0.0
  9
$USERR4
 40
0.0
  9
$USERR5
 40
0.0
  9
$WORLDVIEW
 70
     1
  9
$SHADEDGE
 70
     3
  9
$SHADEDIF
 70
    70
  9
$TILEMODE
 70
     1
  9
$MAXACTVP
 70
    64
  9
$PINSBASE
 10
0.0
 20
0.0
 30
0.0
  9
$PLIMCHECK
 70
     0
  9
$PEXTMIN
 10
1.000000000000000E+20
 20
1.000000000000000E+20
 30
1.000000000000000E+20
  9
$PEXTMAX
 10
-1.000000000000000E+20
 20
-1.000000000000000E+20
 30
-1.000000000000000E+20
  9
$PLIMMIN
 10
0.0
 20
0.0
  9
$PLIMMAX
 10
210.0
 20
297.0
  9
$UNITMODE
 70
     0
  9
$VISRETAIN
 70
     1
  9
$PLINEGEN
 70
     0
  9
$PSLTSCALE
 70
     1
  9
$TREEDEPTH
 70
  3020
  9
$CMLSTYLE
  2
Standard
  9
$CMLJUST
 70
     0
  9
$CMLSCALE
 40
1.0
  9
$PROXYGRAPHICS
 70
     1
  9
$MEASUREMENT
 70
     0
  9
$CELWEIGHT
370
    -1
  9
$ENDCAPS
280
     0
  9
$JOINSTYLE
280
     0
  9
$LWDISPLAY
290
     1
  9
$INSUNITS
 70
     6
  9
$HYPERLINKBASE
  1

  9
$STYLESHEET
  1

  9
$XEDIT
290
     0
  9
$CEPSNTYPE
380
     0
  9
$PSTYLEMODE
290
     1
  9
$FINGERPRINTGUID
  2
{3C5DC829-48B8-4257-BD49-BAA20C59D731}
  9
$VERSIONGUID
  2
{12214169-F732-4585-B698-C6586BDDA16B}
  9
$EXTNAMES
290
     1
  9
$PSVPSCALE
 40
0.0
  9
$OLESTARTUP
290
     0
  9
$SORTENTS
280
   127
  9
$INDEXCTL
280
     0
  9
$HIDETEXT
280
     1
  9
$XCLIPFRAME
290
     1
  9
$HALOGAP
280
     0
  9
$OBSCOLOR
 70
   257
  9
$OBSLTYPE
280
     0
  9
$INTERSECTIONDISPLAY
280
     0
  9
$INTERSECTIONCOLOR
 70
   257
  9
$DIMASSOC
280
     2
  9
$PROJECTNAME
  1

  0
ENDSEC
  0
SECTION
  2
CLASSES
  0
CLASS
  1
WIPEOUT
  2
AcDbWipeout
  3
WipeOut
 90
      127
 91
        0
280
     0
281
     1
  0
CLASS
  1
WIPEOUTVARIABLES
  2
AcDbWipeoutVariables
  3
WipeOut
 90
        0
 91
        1
280
     0
281
     0
  0
CLASS
  1
ACDBDICTIONARYWDFLT
  2
AcDbDictionaryWithDefault
  3
ObjectDBX Classes
 90
    32768
 91
        1
280
     0
281
     0
  0
CLASS
  1
MATERIAL
  2
AcDbMaterial
  3
ObjectDBX Classes
 90
        0
 91
        3
280
     0
281
     0
  0
CLASS
  1
VISUALSTYLE
  2
AcDbVisualStyle
  3
ObjectDBX Classes
 90
     4095
 91
       24
280
     0
281
     0
  0
CLASS
  1
TABLESTYLE
  2
AcDbTableStyle
  3
ObjectDBX Classes
 90
     2047
 91
        1
280
     0
281
     0
  0
CLASS
  1
MLEADERSTYLE
  2
AcDbMLeaderStyle
  3
ACDB_MLEADERSTYLE_CLASS
 90
     4095
 91
        1
280
     0
281
     0
  0
CLASS
  1
SCALE
  2
AcDbScale
  3
ObjectDBX Classes
 90
     1153
 91
       17
280
     0
281
     0
  0
CLASS
  1
SORTENTSTABLE
  2
AcDbSortentsTable
  3
ObjectDBX Classes
 90
        0
 91
        1
280
     0
281
     0
  0
CLASS
  1
DICTIONARYVAR
  2
AcDbDictionaryVar
  3
ObjectDBX Classes
 90
        0
 91
        5
280
     0
281
     0
  0
CLASS
  1
CELLSTYLEMAP
  2
AcDbCellStyleMap
  3
ObjectDBX Classes
 90
     1152
 91
        1
280
     0
281
     0
  0
ENDSEC
  0
SECTION
  2
TABLES
  0
TABLE
  2
VPORT
  5
1
102
{ACAD_XDICTIONARY
360
10002C5
102
}
330
0
100
AcDbSymbolTable
 70
     1
  0
VPORT
  5
2
330
1
100
AcDbSymbolTableRecord
100
AcDbViewportTableRecord
  2
*ACTIVE
 70
     0
 10
0.0
 20
0.0
 11
1.0
 21
1.0
 12
7578226.590759502
 22
5720988.711382024
 13
0.0
 23
0.0
 14
1.0
 24
1.0
 15
0.0
 25
0.0
 16
0.0
 26
0.0
 36
1.0
 17
0.0
 27
0.0
 37
0.0
 40
2658.316694259644
 41
2.099328859060402
 42
50.0
 43
0.0
 44
0.0
 50
0.0
 51
0.0
 71
     0
 72
   100
 73
     1
 74
     1
 75
     0
 76
     0
 77
     0
 78
     0
281
     0
 65
     1
110
0.0
120
0.0
130
0.0
111
1.0
121
0.0
131
0.0
112
0.0
122
1.0
132
0.0
 79
     0
146
0.0
  0
ENDTAB
  0
TABLE
  2
LTYPE
  5
3
330
0
100
AcDbSymbolTable
 70
     1
  0
LTYPE
  5
4
330
3
100
AcDbSymbolTableRecord
100
AcDbLinetypeTableRecord
  2
ByBlock
 70
     0
  3

 72
    65
 73
     0
 40
0.0
  0
LTYPE
  5
5
330
3
100
AcDbSymbolTableRecord
100
AcDbLinetypeTableRecord
  2
ByLayer
 70
     0
  3

 72
    65
 73
     0
 40
0.0
  0
LTYPE
  5
6
330
3
100
AcDbSymbolTableRecord
100
AcDbLinetypeTableRecord
  2
CONTINUOUS
 70
     0
  3
Solid line
 72
    65
 73
     0
 40
0.0
  0
ENDTAB
  0
TABLE
  2
LAYER
  5
7
330
0
100
AcDbSymbolTable
 70
     2
  0
LAYER
  5
8
102
{ACAD_XDICTIONARY
360
10002C1
102
}
330
7
100
AcDbSymbolTableRecord
100
AcDbLayerTableRecord
  2
0
 70
     0
 62
     7
  6
CONTINUOUS
370
    18
390
9
1071
 33554687
  0
LAYER
  5
A
102
{ACAD_XDICTIONARY
360
10002C3
102
}
330
7
100
AcDbSymbolTableRecord
100
AcDbLayerTableRecord
  2
dzialka
 70
     0
 62
     7
  6
CONTINUOUS
370
    18
390
9
1071
 33554687
  0
ENDTAB
  0
TABLE
  2
STYLE
  5
B
330
0
100
AcDbSymbolTable
 70
     2
  0
STYLE
  5
C
330
B
100
AcDbSymbolTableRecord
100
AcDbTextStyleTableRecord
  2
STANDARD
 70
     0
 40
0.0
 41
1.0
 50
0.0
 71
     0
 42
0.2
  3
simplex.shx
  4

  0
STYLE
  5
D
330
B
100
AcDbSymbolTableRecord
100
AcDbTextStyleTableRecord
  2
STANDARD_ITALIC
 70
     0
 40
0.0
 41
1.0
 50
15.0
 71
     0
 42
0.2
  3
simplex.shx
  4

  0
ENDTAB
  0
TABLE
  2
VIEW
  5
E
330
0
100
AcDbSymbolTable
 70
     0
  0
ENDTAB
  0
TABLE
  2
UCS
  5
F
330
0
100
AcDbSymbolTable
 70
     0
  0
ENDTAB
  0
TABLE
  2
APPID
  5
10
330
0
100
AcDbSymbolTable
 70
     2
  0
APPID
  5
11
330
10
100
AcDbSymbolTableRecord
100
AcDbRegAppTableRecord
  2
ACAD
 70
     0
  0
APPID
  5
10002CD
330
10
100
AcDbSymbolTableRecord
100
AcDbRegAppTableRecord
  2
ACAD_MLEADERVER
 70
     0
  0
ENDTAB
  0
TABLE
  2
DIMSTYLE
  5
12
330
0
100
AcDbSymbolTable
 70
     1
100
AcDbDimStyleTable
 71
     0
  0
DIMSTYLE
105
13
330
12
100
AcDbSymbolTableRecord
100
AcDbDimStyleTableRecord
  2
Standard
 70
     0
340
C
  0
ENDTAB
  0
TABLE
  2
BLOCK_RECORD
  5
14
330
0
100
AcDbSymbolTable
 70
     0
  0
BLOCK_RECORD
  5
15
102
{ACAD_XDICTIONARY
360
1000034
102
}
330
14
100
AcDbSymbolTableRecord
100
AcDbBlockTableRecord
  2
*MODEL_SPACE
340
16
  0
BLOCK_RECORD
  5
17
330
14
100
AcDbSymbolTableRecord
100
AcDbBlockTableRecord
  2
*PAPER_SPACE
340
18
  0
ENDTAB
  0
ENDSEC
  0
SECTION
  2
BLOCKS
  0
BLOCK
  5
19
330
15
100
AcDbEntity
  8
0
100
AcDbBlockBegin
  2
*MODEL_SPACE
 70
     0
 10
0.0
 20
0.0
 30
0.0
  3
*MODEL_SPACE
  1

  0
ENDBLK
  5
1A
330
15
100
AcDbEntity
  8
0
100
AcDbBlockEnd
  0
BLOCK
  5
1B
330
17
100
AcDbEntity
 67
     1
  8
0
100
AcDbBlockBegin
  2
*PAPER_SPACE
 70
     0
 10
0.0
 20
0.0
 30
0.0
  3
*PAPER_SPACE
  1

  0
ENDBLK
  5
1C
330
17
100
AcDbEntity
 67
     1
  8
0
100
AcDbBlockEnd
  0
ENDSEC
  0
SECTION
  2
ENTITIES
  0
POINT
  5
354
330
15
100
AcDbEntity
  8
dzialka
100
AcDbPoint
 10
7578299.309999998
 20
5721075.360000001
 30
0.0
  0
POINT
  5
355
330
15
100
AcDbEntity
  8
dzialka
100
AcDbPoint
 10
7578309.150000001
 20
5721217.6
 30
0.0
  0
POINT
  5
356
330
15
100
AcDbEntity
  8
dzialka
100
AcDbPoint
 10
7578316.17
 20
5721219.409999999
 30
0.0
  0
POINT
  5
357
330
15
100
AcDbEntity
  8
dzialka
100
AcDbPoint
 10
7578306.440000001
 20
5721077.669999999
 30
0.0
  0
POINT
  5
358
330
15
100
AcDbEntity
  8
dzialka
100
AcDbPoint
 10
7578292.17
 20
5721073.05
 30
0.0
  0
POINT
  5
359
330
15
100
AcDbEntity
  8
dzialka
100
AcDbPoint
 10
7578302.030000001
 20
5721215.769999999
 30
0.0
  0
POINT
  5
35A
330
15
100
AcDbEntity
  8
dzialka
100
AcDbPoint
 10
7578302.41
 20
5721221.129999999
 30
0.0
  0
POINT
  5
35B
330
15
100
AcDbEntity
  8
dzialka
100
AcDbPoint
 10
7578319.980000001
 20
5721475.33
 30
0.0
  0
POINT
  5
35C
330
15
100
AcDbEntity
  8
dzialka
100
AcDbPoint
 10
7578326.57
 20
5721469.360000001
 30
0.0
  0
POINT
  5
35D
330
15
100
AcDbEntity
  8
dzialka
100
AcDbPoint
 10
7578309.53
 20
5721222.99
 30
0.0
  0
POINT
  5
35E
330
15
100
AcDbEntity
  8
dzialka
100
AcDbPoint
 10
7578332.94
 20
5721463.599999999
 30
0.0
  0
POINT
  5
35F
330
15
100
AcDbEntity
  8
dzialka
100
AcDbPoint
 10
7578316.540000001
 20
5721224.839999999
 30
0.0
  0
POINT
  5
360
330
15
100
AcDbEntity
  8
dzialka
100
AcDbPoint
 10
7578470.469999999
 20
5721265.279999999
 30
0.0
  0
POINT
  5
361
330
15
100
AcDbEntity
  8
dzialka
100
AcDbPoint
 10
7578475.7
 20
5721343.05
 30
0.0
  0
POINT
  5
362
330
15
100
AcDbEntity
  8
dzialka
100
AcDbPoint
 10
7578476.58
 20
5721342.429999999
 30
0.0
  0
POINT
  5
363
330
15
100
AcDbEntity
  8
dzialka
100
AcDbPoint
 10
7578486.009999998
 20
5721341.039999999
 30
0.0
  0
POINT
  5
364
330
15
100
AcDbEntity
  8
dzialka
100
AcDbPoint
 10
7578479.54
 20
5721267.660000001
 30
0.0
  0
POINT
  5
365
330
15
100
AcDbEntity
  8
dzialka
100
AcDbPoint
 10
7578467.759999999
 20
5721225.08
 30
0.0
  0
POINT
  5
366
330
15
100
AcDbEntity
  8
dzialka
100
AcDbPoint
 10
7578470.04
 20
5721258.93
 30
0.0
  0
POINT
  5
367
330
15
100
AcDbEntity
  8
dzialka
100
AcDbPoint
 10
7578478.969999999
 20
5721261.22
 30
0.0
  0
POINT
  5
368
330
15
100
AcDbEntity
  8
dzialka
100
AcDbPoint
 10
7578475.54
 20
5721222.38
 30
0.0
  0
TEXT
  5
369
330
15
100
AcDbEntity
  8
dzialka
370
    35
100
AcDbText
 39
0.35
 10
7578439.33
 20
5721399.690000001
 30
0.0
 40
1.75
  1
309/2
 41
0.6600000000000001
 72
     1
 11
7578441.97
 21
5721400.565
 31
0.0
100
AcDbText
 73
     2
  0
TEXT
  5
36A
330
15
100
AcDbEntity
  8
dzialka
370
    35
100
AcDbText
 39
0.35
 10
7578311.293482605
 20
5721485.74
 30
0.0
 40
1.75
  1
300/3
 41
0.6600000000000001
 72
     1
 11
7578313.933482605
 21
5721486.614999999
 31
0.0
100
AcDbText
 73
     2
  0
TEXT
  5
36B
330
15
100
AcDbEntity
  8
dzialka
370
    35
100
AcDbText
 39
0.35
 10
7578276.609999999
 20
5721358.654999999
 30
0.0
 40
1.75
  1
218
 41
0.6600000000000001
 72
     1
 11
7578277.984999998
 21
5721359.529999999
 31
0.0
100
AcDbText
 73
     2
  0
TEXT
  5
36C
330
15
100
AcDbEntity
  8
dzialka
370
    35
100
AcDbText
 39
0.35
 10
7578283.219999999
 20
5721357.575
 30
0.0
 40
1.75
  1
220
 41
0.6600000000000001
 72
     1
 11
7578284.705000001
 21
5721358.45
 31
0.0
100
AcDbText
 73
     2
  0
TEXT
  5
36D
330
15
100
AcDbEntity
  8
dzialka
370
    35
100
AcDbText
 39
0.35
 10
7578270.0175
 20
5721135.905000001
 30
0.0
 40
1.75
  1
221
 41
0.6600000000000001
 72
     1
 11
7578271.255
 21
5721136.780000001
 31
0.0
100
AcDbText
 73
     2
  0
TEXT
  5
36E
330
15
100
AcDbEntity
  8
dzialka
370
    35
100
AcDbText
 39
0.35
 10
7578291.589999999
 20
5721354.33
 30
0.0
 40
1.75
  1
222
 41
0.6600000000000001
 72
     1
 11
7578293.074999999
 21
5721355.205
 31
0.0
100
AcDbText
 73
     2
  0
TEXT
  5
36F
330
15
100
AcDbEntity
  8
dzialka
370
    35
100
AcDbText
 39
0.35
 10
7578277.855
 20
5721138.265000002
 30
0.0
 40
1.75
  1
223
 41
0.6600000000000001
 72
     1
 11
7578279.34
 21
5721139.140000001
 31
0.0
100
AcDbText
 73
     2
  0
TEXT
  5
370
330
15
100
AcDbEntity
  8
dzialka
370
    35
100
AcDbText
 39
0.35
 10
7578299.2975
 20
5721351.89
 30
0.0
 40
1.75
  1
224
 41
0.6600000000000001
 72
     1
 11
7578300.809999999
 21
5721352.765
 31
0.0
100
AcDbText
 73
     2
  0
TEXT
  5
371
330
15
100
AcDbEntity
  8
dzialka
370
    35
100
AcDbText
 39
0.35
 10
7578285.56
 20
5721140.5
 30
0.0
 40
1.75
  1
225
 41
0.6600000000000001
 72
     1
 11
7578287.045
 21
5721141.375000001
 31
0.0
100
AcDbText
 73
     2
  0
TEXT
  5
372
330
15
100
AcDbEntity
  8
dzialka
370
    35
100
AcDbText
 39
0.35
 10
7578306.527500001
 20
5721349.460000001
 30
0.0
 40
1.75
  1
226
 41
0.6600000000000001
 72
     1
 11
7578307.985
 21
5721350.335000001
 31
0.0
100
AcDbText
 73
     2
  0
TEXT
  5
373
330
15
100
AcDbEntity
  8
dzialka
370
    35
100
AcDbText
 39
0.35
 10
7578292.569999998
 20
5721142.549999999
 30
0.0
 40
1.75
  1
227
 41
0.6600000000000001
 72
     1
 11
7578294.054999998
 21
5721143.425
 31
0.0
100
AcDbText
 73
     2
  0
TEXT
  5
374
330
15
100
AcDbEntity
  8
dzialka
370
    35
100
AcDbText
 39
0.35
 10
7578313.005
 20
5721347.355
 30
0.0
 40
1.75
  1
228
 41
0.6600000000000001
 72
     1
 11
7578314.49
 21
5721348.230000001
 31
0.0
100
AcDbText
 73
     2
  0
TEXT
  5
375
330
15
100
AcDbEntity
  8
dzialka
370
    35
100
AcDbText
 39
0.35
 10
7578299.202500001
 20
5721144.449999997
 30
0.0
 40
1.75
  1
229
 41
0.6600000000000001
 72
     1
 11
7578300.66
 21
5721145.324999999
 31
0.0
100
AcDbText
 73
     2
  0
TEXT
  5
376
330
15
100
AcDbEntity
  8
dzialka
370
    35
100
AcDbText
 39
0.35
 10
7578319.75
 20
5721345.300000002
 30
0.0
 40
1.75
  1
230
 41
0.6600000000000001
 72
     1
 11
7578321.235
 21
5721346.175000002
 31
0.0
100
AcDbText
 73
     2
  0
TEXT
  5
377
330
15
100
AcDbEntity
  8
dzialka
370
    35
100
AcDbText
 39
0.35
 10
7578306.502500001
 20
5721146.509999999
 30
0.0
 40
1.75
  1
231
 41
0.6600000000000001
 72
     1
 11
7578307.74
 21
5721147.385
 31
0.0
100
AcDbText
 73
     2
  0
TEXT
  5
378
330
15
100
AcDbEntity
  8
dzialka
370
    35
100
AcDbText
 39
0.35
 10
7578326.88
 20
5721343.345
 30
0.0
 40
1.75
  1
232
 41
0.6600000000000001
 72
     1
 11
7578328.365
 21
5721344.219999999
 31
0.0
100
AcDbText
 73
     2
  0
TEXT
  5
379
330
15
100
AcDbEntity
  8
dzialka
370
    35
100
AcDbText
 39
0.35
 10
7578313.215
 20
5721148.535000001
 30
0.0
 40
1.75
  1
233
 41
0.6600000000000001
 72
     1
 11
7578314.7
 21
5721149.41
 31
0.0
100
AcDbText
 73
     2
  0
TEXT
  5
37A
330
15
100
AcDbEntity
  8
dzialka
370
    35
100
AcDbText
 39
0.35
 10
7578332.462499998
 20
5721341.005
 30
0.0
 40
1.75
  1
234
 41
0.6600000000000001
 72
     1
 11
7578333.974999999
 21
5721341.879999999
 31
0.0
100
AcDbText
 73
     2
  0
TEXT
  5
37B
330
15
100
AcDbEntity
  8
dzialka
370
    35
100
AcDbText
 39
0.35
 10
7578319.095
 20
5721150.245
 30
0.0
 40
1.75
  1
235
 41
0.6600000000000001
 72
     1
 11
7578320.58
 21
5721151.12
 31
0.0
100
AcDbText
 73
     2
  0
TEXT
  5
37C
330
15
100
AcDbEntity
  8
dzialka
370
    35
100
AcDbText
 39
0.35
 10
7578337.152499999
 20
5721339.785
 30
0.0
 40
1.75
  1
236
 41
0.6600000000000001
 72
     1
 11
7578338.609999998
 21
5721340.66
 31
0.0
100
AcDbText
 73
     2
  0
TEXT
  5
37D
330
15
100
AcDbEntity
  8
dzialka
370
    35
100
AcDbText
 39
0.35
 10
7578324.339999998
 20
5721151.795
 30
0.0
 40
1.75
  1
237
 41
0.6600000000000001
 72
     1
 11
7578325.824999998
 21
5721152.67
 31
0.0
100
AcDbText
 73
     2
  0
TEXT
  5
37E
330
15
100
AcDbEntity
  8
dzialka
370
    35
100
AcDbText
 39
0.35
 10
7578340.815
 20
5721338.705
 30
0.0
 40
1.75
  1
238
 41
0.6600000000000001
 72
     1
 11
7578342.3
 21
5721339.58
 31
0.0
100
AcDbText
 73
     2
  0
TEXT
  5
37F
330
15
100
AcDbEntity
  8
dzialka
370
    35
100
AcDbText
 39
0.35
 10
7578328.427499999
 20
5721152.994999999
 30
0.0
 40
1.75
  1
239
 41
0.6600000000000001
 72
     1
 11
7578329.884999999
 21
5721153.869999999
 31
0.0
100
AcDbText
 73
     2
  0
TEXT
  5
380
330
15
100
AcDbEntity
  8
dzialka
370
    35
100
AcDbText
 39
0.35
 10
7578345.449999999
 20
5721337.83
 30
0.0
 40
1.75
  1
240
 41
0.6600000000000001
 72
     1
 11
7578346.934999999
 21
5721338.705
 31
0.0
100
AcDbText
 73
     2
  0
TEXT
  5
381
330
15
100
AcDbEntity
  8
dzialka
370
    35
100
AcDbText
 39
0.35
 10
7578333.782499998
 20
5721154.43
 30
0.0
 40
1.75
  1
241
 41
0.6600000000000001
 72
     1
 11
7578335.019999999
 21
5721155.304999999
 31
0.0
100
AcDbText
 73
     2
  0
TEXT
  5
382
330
15
100
AcDbEntity
  8
dzialka
370
    35
100
AcDbText
 39
0.35
 10
7578353.504999999
 20
5721336.135
 30
0.0
 40
1.75
  1
242
 41
0.6600000000000001
 72
     1
 11
7578354.99
 21
5721337.01
 31
0.0
100
AcDbText
 73
     2
  0
TEXT
  5
383
330
15
100
AcDbEntity
  8
dzialka
370
    35
100
AcDbText
 39
0.35
 10
7578342.005
 20
5721156.835
 30
0.0
 40
1.75
  1
243
 41
0.6600000000000001
 72
     1
 11
7578343.49
 21
5721157.709999999
 31
0.0
100
AcDbText
 73
     2
  0
TEXT
  5
384
330
15
100
AcDbEntity
  8
dzialka
370
    35
100
AcDbText
 39
0.35
 10
7578361.9325
 20
5721333.239999999
 30
0.0
 40
1.75
  1
244
 41
0.6600000000000001
 72
     1
 11
7578363.445
 21
5721334.115000001
 31
0.0
100
AcDbText
 73
     2
  0
TEXT
  5
385
330
15
100
AcDbEntity
  8
dzialka
370
    35
100
AcDbText
 39
0.35
 10
7578351.595
 20
5721159.629999999
 30
0.0
 40
1.75
  1
245
 41
0.6600000000000001
 72
     1
 11
7578353.08
 21
5721160.505
 31
0.0
100
AcDbText
 73
     2
  0
TEXT
  5
386
330
15
100
AcDbEntity
  8
dzialka
370
    35
100
AcDbText
 39
0.35
 10
7578371.1975
 20
5721331.390000001
 30
0.0
 40
1.75
  1
246
 41
0.6600000000000001
 72
     1
 11
7578372.655
 21
5721332.265000001
 31
0.0
100
AcDbText
 73
     2
  0
TEXT
  5
387
330
15
100
AcDbEntity
  8
dzialka
370
    35
100
AcDbText
 39
0.35
 10
7578361.215
 20
5721162.45
 30
0.0
 40
1.75
  1
247
 41
0.6600000000000001
 72
     1
 11
7578362.7
 21
5721163.325
 31
0.0
100
AcDbText
 73
     2
  0
TEXT
  5
388
330
15
100
AcDbEntity
  8
dzialka
370
    35
100
AcDbText
 39
0.35
 10
7578376.52
 20
5721328.455
 30
0.0
 40
1.75
  1
248
 41
0.6600000000000001
 72
     1
 11
7578378.005000001
 21
5721329.329999999
 31
0.0
100
AcDbText
 73
     2
  0
TEXT
  5
389
330
15
100
AcDbEntity
  8
dzialka
370
    35
100
AcDbText
 39
0.35
 10
7578366.3325
 20
5721164.019999999
 30
0.0
 40
1.75
  1
249
 41
0.6600000000000001
 72
     1
 11
7578367.790000001
 21
5721164.894999999
 31
0.0
100
AcDbText
 73
     2
  0
TEXT
  5
38A
330
15
100
AcDbEntity
  8
dzialka
370
    35
100
AcDbText
 39
0.35
 10
7578381.249999999
 20
5721327.855000001
 30
0.0
 40
1.75
  1
250
 41
0.6600000000000001
 72
     1
 11
7578382.734999999
 21
5721328.73
 31
0.0
100
AcDbText
 73
     2
  0
TEXT
  5
38B
330
15
100
AcDbEntity
  8
dzialka
370
    35
100
AcDbText
 39
0.35
 10
7578371.362499999
 20
5721165.345000001
 30
0.0
 40
1.75
  1
251
 41
0.6600000000000001
 72
     1
 11
7578372.599999998
 21
5721166.219999999
 31
0.0
100
AcDbText
 73
     2
  0
TEXT
  5
38C
330
15
100
AcDbEntity
  8
dzialka
370
    35
100
AcDbText
 39
0.35
 10
7578387.165
 20
5721325.659999999
 30
0.0
 40
1.75
  1
252
 41
0.6600000000000001
 72
     1
 11
7578388.65
 21
5721326.535000001
 31
0.0
100
AcDbText
 73
     2
  0
TEXT
  5
38D
330
15
100
AcDbEntity
  8
dzialka
370
    35
100
AcDbText
 39
0.35
 10
7578377.399999999
 20
5721167.175
 30
0.0
 40
1.75
  1
253
 41
0.6600000000000001
 72
     1
 11
7578378.884999999
 21
5721168.05
 31
0.0
100
AcDbText
 73
     2
  0
TEXT
  5
38E
330
15
100
AcDbEntity
  8
dzialka
370
    35
100
AcDbText
 39
0.35
 10
7578391.1275
 20
5721324.3
 30
0.0
 40
1.75
  1
254
 41
0.6600000000000001
 72
     1
 11
7578392.639999999
 21
5721325.175
 31
0.0
100
AcDbText
 73
     2
  0
TEXT
  5
38F
330
15
100
AcDbEntity
  8
dzialka
370
    35
100
AcDbText
 39
0.35
 10
7578381.864999998
 20
5721168.539999999
 30
0.0
 40
1.75
  1
255
 41
0.6600000000000001
 72
     1
 11
7578383.349999999
 21
5721169.415
 31
0.0
100
AcDbText
 73
     2
  0
TEXT
  5
390
330
15
100
AcDbEntity
  8
dzialka
370
    35
100
AcDbText
 39
0.35
 10
7578395.817500001
 20
5721323.704999999
 30
0.0
 40
1.75
  1
256
 41
0.6600000000000001
 72
     1
 11
7578397.275000001
 21
5721324.58
 31
0.0
100
AcDbText
 73
     2
  0
TEXT
  5
391
330
15
100
AcDbEntity
  8
dzialka
370
    35
100
AcDbText
 39
0.35
 10
7578387.194999999
 20
5721169.994999999
 30
0.0
 40
1.75
  1
257
 41
0.6600000000000001
 72
     1
 11
7578388.679999999
 21
5721170.869999999
 31
0.0
100
AcDbText
 73
     2
  0
TEXT
  5
392
330
15
100
AcDbEntity
  8
dzialka
370
    35
100
AcDbText
 39
0.35
 10
7578403.21
 20
5721321.679999999
 30
0.0
 40
1.75
  1
258
 41
0.6600000000000001
 72
     1
 11
7578404.695
 21
5721322.555
 31
0.0
100
AcDbText
 73
     2
  0
TEXT
  5
393
330
15
100
AcDbEntity
  8
dzialka
370
    35
100
AcDbText
 39
0.35
 10
7578395.3375
 20
5721177.435000002
 30
0.0
 40
1.75
  1
259
 41
0.6600000000000001
 72
     1
 11
7578396.794999999
 21
5721178.310000001
 31
0.0
100
AcDbText
 73
     2
  0
TEXT
  5
394
330
15
100
AcDbEntity
  8
dzialka
370
    35
100
AcDbText
 39
0.35
 10
7578409.505
 20
5721319.640000001
 30
0.0
 40
1.75
  1
260
 41
0.6600000000000001
 72
     1
 11
7578410.99
 21
5721320.515000002
 31
0.0
100
AcDbText
 73
     2
  0
TEXT
  5
395
330
15
100
AcDbEntity
  8
dzialka
370
    35
100
AcDbText
 39
0.35
 10
7578402.0825
 20
5721185.07
 30
0.0
 40
1.75
  1
261
 41
0.6600000000000001
 72
     1
 11
7578403.320000001
 21
5721185.945000001
 31
0.0
100
AcDbText
 73
     2
  0
TEXT
  5
396
330
15
100
AcDbEntity
  8
dzialka
370
    35
100
AcDbText
 39
0.35
 10
7578416.284999998
 20
5721317.810000001
 30
0.0
 40
1.75
  1
262
 41
0.6600000000000001
 72
     1
 11
7578417.769999998
 21
5721318.685000002
 31
0.0
100
AcDbText
 73
     2
  0
TEXT
  5
397
330
15
100
AcDbEntity
  8
dzialka
370
    35
100
AcDbText
 39
0.35
 10
7578408.87
 20
5721192.245000001
 30
0.0
 40
1.75
  1
263
 41
0.6600000000000001
 72
     1
 11
7578410.355
 21
5721193.12
 31
0.0
100
AcDbText
 73
     2
  0
TEXT
  5
398
330
15
100
AcDbEntity
  8
dzialka
370
    35
100
AcDbText
 39
0.35
 10
7578425.597499999
 20
5721315.464999999
 30
0.0
 40
1.75
  1
264
 41
0.6600000000000001
 72
     1
 11
7578427.109999998
 21
5721316.339999999
 31
0.0
100
AcDbText
 73
     2
  0
TEXT
  5
399
330
15
100
AcDbEntity
  8
dzialka
370
    35
100
AcDbText
 39
0.35
 10
7578418.595
 20
5721201.685000002
 30
0.0
 40
1.75
  1
265
 41
0.6600000000000001
 72
     1
 11
7578420.08
 21
5721202.560000001
 31
0.0
100
AcDbText
 73
     2
  0
TEXT
  5
39A
330
15
100
AcDbEntity
  8
dzialka
370
    35
100
AcDbText
 39
0.35
 10
7578437.347499999
 20
5721312.065000001
 30
0.0
 40
1.75
  1
266
 41
0.6600000000000001
 72
     1
 11
7578438.804999999
 21
5721312.94
 31
0.0
100
AcDbText
 73
     2
  0
TEXT
  5
39B
330
15
100
AcDbEntity
  8
dzialka
370
    35
100
AcDbText
 39
0.35
 10
7578430.864999999
 20
5721215.094999999
 30
0.0
 40
1.75
  1
267
 41
0.6600000000000001
 72
     1
 11
7578432.349999999
 21
5721215.969999999
 31
0.0
100
AcDbText
 73
     2
  0
TEXT
  5
39C
330
15
100
AcDbEntity
  8
dzialka
370
    35
100
AcDbText
 39
0.35
 10
7578456.985
 20
5721309.015
 30
0.0
 40
1.75
  1
268
 41
0.6600000000000001
 72
     1
 11
7578458.470000001
 21
5721309.889999999
 31
0.0
100
AcDbText
 73
     2
  0
TEXT
  5
39D
330
15
100
AcDbEntity
  8
dzialka
370
    35
100
AcDbText
 39
0.35
 10
7578452.357499998
 20
5721232.119999999
 30
0.0
 40
1.75
  1
269
 41
0.6600000000000001
 72
     1
 11
7578453.814999999
 21
5721232.994999999
 31
0.0
100
AcDbText
 73
     2
  0
TEXT
  5
39E
330
15
100
AcDbEntity
  8
dzialka
370
    35
100
AcDbText
 39
0.35
 10
7578476.755
 20
5721303.29
 30
0.0
 40
1.75
  1
270
 41
0.6600000000000001
 72
     1
 11
7578478.24
 21
5721304.165
 31
0.0
100
AcDbText
 73
     2
  0
TEXT
  5
39F
330
15
100
AcDbEntity
  8
dzialka
370
    35
100
AcDbText
 39
0.35
 10
7578472.1275
 20
5721240.925
 30
0.0
 40
1.75
  1
271
 41
0.6600000000000001
 72
     1
 11
7578473.365
 21
5721241.8
 31
0.0
100
AcDbText
 73
     2
  0
TEXT
  5
3A0
330
15
100
AcDbEntity
  8
dzialka
370
    35
100
AcDbText
 39
0.35
 10
7578485.84
 20
5721303.475
 30
0.0
 40
1.75
  1
272
 41
0.6600000000000001
 72
     1
 11
7578487.325000001
 21
5721304.35
 31
0.0
100
AcDbText
 73
     2
  0
TEXT
  5
3A1
330
15
100
AcDbEntity
  8
dzialka
370
    35
100
AcDbText
 39
0.35
 10
7578482.034999998
 20
5721240.16
 30
0.0
 40
1.75
  1
273
 41
0.6600000000000001
 72
     1
 11
7578483.519999998
 21
5721241.035
 31
0.0
100
AcDbText
 73
     2
  0
TEXT
  5
3A2
330
15
100
AcDbEntity
  8
dzialka
370
    35
100
AcDbText
 39
0.35
 10
7578499.4125
 20
5721304.415
 30
0.0
 40
1.75
  1
274
 41
0.6600000000000001
 72
     1
 11
7578500.925000001
 21
5721305.29
 31
0.0
100
AcDbText
 73
     2
  0
TEXT
  5
3A3
330
15
100
AcDbEntity
  8
dzialka
370
    35
100
AcDbText
 39
0.35
 10
7578496.944999998
 20
5721239.05
 30
0.0
 40
1.75
  1
275
 41
0.6600000000000001
 72
     1
 11
7578498.429999999
 21
5721239.924999999
 31
0.0
100
AcDbText
 73
     2
  0
TEXT
  5
3A4
330
15
100
AcDbEntity
  8
dzialka
370
    35
100
AcDbText
 39
0.35
 10
7578467.810618978
 20
5721260.935000001
 30
0.0
 40
1.75
  1
279
 41
0.6600000000000001
 72
     1
 11
7578469.268118977
 21
5721261.810000002
 31
0.0
100
AcDbText
 73
     2
  0
TEXT
  5
3A5
330
15
100
AcDbEntity
  8
dzialka
370
    35
100
AcDbText
 39
0.35
 10
7578470.755
 20
5721206.35
 30
0.0
 40
1.75
  1
323
 41
0.6600000000000001
 72
     1
 11
7578472.24
 21
5721207.224999999
 31
0.0
100
AcDbText
 73
     2
  0
TEXT
  5
3A6
330
15
100
AcDbEntity
  8
dzialka
370
    35
100
AcDbText
 39
0.35
 10
7578483.507499998
 20
5721202.324999998
 30
0.0
 40
1.75
  1
324
 41
0.6600000000000001
 72
     1
 11
7578485.019999999
 21
5721203.199999998
 31
0.0
100
AcDbText
 73
     2
  0
TEXT
  5
3A7
330
15
100
AcDbEntity
  8
dzialka
370
    35
100
AcDbText
 39
0.35
 10
7578493.109999999
 20
5721200.37
 30
0.0
 40
1.75
  1
325
 41
0.6600000000000001
 72
     1
 11
7578494.594999999
 21
5721201.245000001
 31
0.0
100
AcDbText
 73
     2
  0
LINE
  5
1000036
330
15
100
AcDbEntity
  8
dzialka
  6
Continuous
370
    18
100
AcDbLine
 10
7578479.54
 20
5721267.660000001
 30
0.0
 11
7578486.009999998
 21
5721341.039999999
 31
0.0
  0
LINE
  5
1000037
330
15
100
AcDbEntity
  8
dzialka
  6
Continuous
370
    18
100
AcDbLine
 10
7578486.009999998
 20
5721341.039999999
 30
0.0
 11
7578495.110000001
 21
5721339.69
 31
0.0
  0
LINE
  5
1000038
330
15
100
AcDbEntity
  8
dzialka
  6
Continuous
370
    18
100
AcDbLine
 10
7578495.110000001
 20
5721339.69
 30
0.0
 11
7578491.8
 21
5721270.889999999
 31
0.0
  0
LINE
  5
1000039
330
15
100
AcDbEntity
  8
dzialka
  6
Continuous
370
    18
100
AcDbLine
 10
7578491.8
 20
5721270.889999999
 30
0.0
 11
7578479.54
 21
5721267.660000001
 31
0.0
  0
LINE
  5
100003A
330
15
100
AcDbEntity
  8
dzialka
  6
Continuous
370
    18
100
AcDbLine
 10
7578410.809999999
 20
5721460.94
 30
0.0
 11
7578404.370000001
 21
5721449.74
 31
0.0
  0
LINE
  5
100003B
330
15
100
AcDbEntity
  8
dzialka
  6
Continuous
370
    18
100
AcDbLine
 10
7578404.370000001
 20
5721449.74
 30
0.0
 11
7578381.11
 21
5721433.29
 31
0.0
  0
LINE
  5
100003C
330
15
100
AcDbEntity
  8
dzialka
  6
Continuous
370
    18
100
AcDbLine
 10
7578381.11
 20
5721433.29
 30
0.0
 11
7578339.419999999
 21
5721469.820000001
 31
0.0
  0
LINE
  5
100003D
330
15
100
AcDbEntity
  8
dzialka
  6
Continuous
370
    18
100
AcDbLine
 10
7578339.419999999
 20
5721469.820000001
 30
0.0
 11
7578376.41
 21
5721512.549999999
 31
0.0
  0
LINE
  5
100003E
330
15
100
AcDbEntity
  8
dzialka
  6
Continuous
370
    18
100
AcDbLine
 10
7578376.41
 20
5721512.549999999
 30
0.0
 11
7578410.809999999
 21
5721460.94
 31
0.0
  0
LINE
  5
100003F
330
15
100
AcDbEntity
  8
dzialka
  6
Continuous
370
    18
100
AcDbLine
 10
7578248.74
 20
5721549.78
 30
0.0
 11
7578288.759999999
 21
5721593.39
 31
0.0
  0
LINE
  5
1000040
330
15
100
AcDbEntity
  8
dzialka
  6
Continuous
370
    18
100
AcDbLine
 10
7578288.759999999
 20
5721593.39
 30
0.0
 11
7578292.539999999
 21
5721590.110000001
 31
0.0
  0
LINE
  5
1000041
330
15
100
AcDbEntity
  8
dzialka
  6
Continuous
370
    18
100
AcDbLine
 10
7578292.539999999
 20
5721590.110000001
 30
0.0
 11
7578342.429999999
 21
5721546.889999999
 31
0.0
  0
LINE
  5
1000042
330
15
100
AcDbEntity
  8
dzialka
  6
Continuous
370
    18
100
AcDbLine
 10
7578342.429999999
 20
5721546.889999999
 30
0.0
 11
7578361.110000001
 21
5721530.71
 31
0.0
  0
LINE
  5
1000043
330
15
100
AcDbEntity
  8
dzialka
  6
Continuous
370
    18
100
AcDbLine
 10
7578361.110000001
 20
5721530.71
 30
0.0
 11
7578374.71
 21
5721518.92
 31
0.0
  0
LINE
  5
1000044
330
15
100
AcDbEntity
  8
dzialka
  6
Continuous
370
    18
100
AcDbLine
 10
7578374.71
 20
5721518.92
 30
0.0
 11
7578335.67
 21
5721473.13
 31
0.0
  0
LINE
  5
1000045
330
15
100
AcDbEntity
  8
dzialka
  6
Continuous
370
    18
100
AcDbLine
 10
7578335.67
 20
5721473.13
 30
0.0
 11
7578248.74
 21
5721549.78
 31
0.0
  0
LINE
  5
1000046
330
15
100
AcDbEntity
  8
dzialka
  6
Continuous
370
    18
100
AcDbLine
 10
7578376.41
 20
5721512.549999999
 30
0.0
 11
7578339.419999999
 21
5721469.820000001
 31
0.0
  0
LINE
  5
1000047
330
15
100
AcDbEntity
  8
dzialka
  6
Continuous
370
    18
100
AcDbLine
 10
7578339.419999999
 20
5721469.820000001
 30
0.0
 11
7578335.67
 21
5721473.13
 31
0.0
  0
LINE
  5
1000048
330
15
100
AcDbEntity
  8
dzialka
  6
Continuous
370
    18
100
AcDbLine
 10
7578335.67
 20
5721473.13
 30
0.0
 11
7578374.71
 21
5721518.92
 31
0.0
  0
LINE
  5
1000049
330
15
100
AcDbEntity
  8
dzialka
  6
Continuous
370
    18
100
AcDbLine
 10
7578374.71
 20
5721518.92
 30
0.0
 11
7578361.110000001
 21
5721530.71
 31
0.0
  0
LINE
  5
100004A
330
15
100
AcDbEntity
  8
dzialka
  6
Continuous
370
    18
100
AcDbLine
 10
7578361.110000001
 20
5721530.71
 30
0.0
 11
7578435.360000001
 21
5721618.68
 31
0.0
  0
LINE
  5
100004B
330
15
100
AcDbEntity
  8
dzialka
  6
Continuous
370
    18
100
AcDbLine
 10
7578435.360000001
 20
5721618.68
 30
0.0
 11
7578434.51
 21
5721589.79
 31
0.0
  0
LINE
  5
100004C
330
15
100
AcDbEntity
  8
dzialka
  6
Continuous
370
    18
100
AcDbLine
 10
7578434.51
 20
5721589.79
 30
0.0
 11
7578434.269999998
 21
5721581.490000001
 31
0.0
  0
LINE
  5
100004D
330
15
100
AcDbEntity
  8
dzialka
  6
Continuous
370
    18
100
AcDbLine
 10
7578434.269999998
 20
5721581.490000001
 30
0.0
 11
7578378.719999999
 21
5721515.45
 31
0.0
  0
LINE
  5
100004E
330
15
100
AcDbEntity
  8
dzialka
  6
Continuous
370
    18
100
AcDbLine
 10
7578378.719999999
 20
5721515.45
 30
0.0
 11
7578376.41
 21
5721512.549999999
 31
0.0
  0
LINE
  5
100004F
330
15
100
AcDbEntity
  8
dzialka
  6
Continuous
370
    18
100
AcDbLine
 10
7578381.11
 20
5721433.29
 30
0.0
 11
7578404.370000001
 21
5721449.74
 31
0.0
  0
LINE
  5
1000050
330
15
100
AcDbEntity
  8
dzialka
  6
Continuous
370
    18
100
AcDbLine
 10
7578404.370000001
 20
5721449.74
 30
0.0
 11
7578448.55
 21
5721437.18
 31
0.0
  0
LINE
  5
1000051
330
15
100
AcDbEntity
  8
dzialka
  6
Continuous
370
    18
100
AcDbLine
 10
7578448.55
 20
5721437.18
 30
0.0
 11
7578502.829999999
 21
5721412.05
 31
0.0
  0
LINE
  5
1000052
330
15
100
AcDbEntity
  8
dzialka
  6
Continuous
370
    18
100
AcDbLine
 10
7578502.829999999
 20
5721412.05
 30
0.0
 11
7578475.410000001
 21
5721351.389999999
 31
0.0
  0
LINE
  5
1000053
330
15
100
AcDbEntity
  8
dzialka
  6
Continuous
370
    18
100
AcDbLine
 10
7578475.410000001
 20
5721351.389999999
 30
0.0
 11
7578381.11
 21
5721433.29
 31
0.0
  0
LINE
  5
1000054
330
15
100
AcDbEntity
  8
dzialka
  6
Continuous
370
    18
100
AcDbLine
 10
7578410.809999999
 20
5721460.94
 30
0.0
 11
7578376.41
 21
5721512.549999999
 31
0.0
  0
LINE
  5
1000055
330
15
100
AcDbEntity
  8
dzialka
  6
Continuous
370
    18
100
AcDbLine
 10
7578376.41
 20
5721512.549999999
 30
0.0
 11
7578378.719999999
 21
5721515.45
 31
0.0
  0
LINE
  5
1000056
330
15
100
AcDbEntity
  8
dzialka
  6
Continuous
370
    18
100
AcDbLine
 10
7578378.719999999
 20
5721515.45
 30
0.0
 11
7578434.269999998
 21
5721581.490000001
 31
0.0
  0
LINE
  5
1000057
330
15
100
AcDbEntity
  8
dzialka
  6
Continuous
370
    18
100
AcDbLine
 10
7578434.269999998
 20
5721581.490000001
 30
0.0
 11
7578433.54
 21
5721556.5
 31
0.0
  0
LINE
  5
1000058
330
15
100
AcDbEntity
  8
dzialka
  6
Continuous
370
    18
100
AcDbLine
 10
7578433.54
 20
5721556.5
 30
0.0
 11
7578613.809999999
 21
5721407.93
 31
0.0
  0
LINE
  5
1000059
330
15
100
AcDbEntity
  8
dzialka
  6
Continuous
370
    18
100
AcDbLine
 10
7578613.809999999
 20
5721407.93
 30
0.0
 11
7578614.120000001
 21
5721404.74
 31
0.0
  0
LINE
  5
100005A
330
15
100
AcDbEntity
  8
dzialka
  6
Continuous
370
    18
100
AcDbLine
 10
7578614.120000001
 20
5721404.74
 30
0.0
 11
7578610.809999998
 21
5721328.67
 31
0.0
  0
LINE
  5
100005B
330
15
100
AcDbEntity
  8
dzialka
  6
Continuous
370
    18
100
AcDbLine
 10
7578610.809999998
 20
5721328.67
 30
0.0
 11
7578475.410000001
 21
5721351.389999999
 31
0.0
  0
LINE
  5
100005C
330
15
100
AcDbEntity
  8
dzialka
  6
Continuous
370
    18
100
AcDbLine
 10
7578475.410000001
 20
5721351.389999999
 30
0.0
 11
7578502.829999999
 21
5721412.05
 31
0.0
  0
LINE
  5
100005D
330
15
100
AcDbEntity
  8
dzialka
  6
Continuous
370
    18
100
AcDbLine
 10
7578502.829999999
 20
5721412.05
 30
0.0
 11
7578448.55
 21
5721437.18
 31
0.0
  0
LINE
  5
100005E
330
15
100
AcDbEntity
  8
dzialka
  6
Continuous
370
    18
100
AcDbLine
 10
7578448.55
 20
5721437.18
 30
0.0
 11
7578404.370000001
 21
5721449.74
 31
0.0
  0
LINE
  5
100005F
330
15
100
AcDbEntity
  8
dzialka
  6
Continuous
370
    18
100
AcDbLine
 10
7578404.370000001
 20
5721449.74
 30
0.0
 11
7578410.809999999
 21
5721460.94
 31
0.0
  0
LINE
  5
1000060
330
15
100
AcDbEntity
  8
dzialka
  6
Continuous
370
    18
100
AcDbLine
 10
7578611.639999999
 20
5721241.070000001
 30
0.0
 11
7578621.799999999
 21
5721263.63
 31
0.0
  0
LINE
  5
1000061
330
15
100
AcDbEntity
  8
dzialka
  6
Continuous
370
    18
100
AcDbLine
 10
7578621.799999999
 20
5721263.63
 30
0.0
 11
7578610.990000001
 21
5721268.9
 31
0.0
  0
LINE
  5
1000062
330
15
100
AcDbEntity
  8
dzialka
  6
Continuous
370
    18
100
AcDbLine
 10
7578610.990000001
 20
5721268.9
 30
0.0
 11
7578592.21
 21
5721245.940000001
 31
0.0
  0
LINE
  5
1000063
330
15
100
AcDbEntity
  8
dzialka
  6
Continuous
370
    18
100
AcDbLine
 10
7578592.21
 20
5721245.940000001
 30
0.0
 11
7578577.269999999
 21
5721249.679999999
 31
0.0
  0
LINE
  5
1000064
330
15
100
AcDbEntity
  8
dzialka
  6
Continuous
370
    18
100
AcDbLine
 10
7578577.269999999
 20
5721249.679999999
 30
0.0
 11
7578535.37
 21
5721260.16
 31
0.0
  0
LINE
  5
1000065
330
15
100
AcDbEntity
  8
dzialka
  6
Continuous
370
    18
100
AcDbLine
 10
7578535.37
 20
5721260.16
 30
0.0
 11
7578521.78
 21
5721263.559999999
 31
0.0
  0
LINE
  5
1000066
330
15
100
AcDbEntity
  8
dzialka
  6
Continuous
370
    18
100
AcDbLine
 10
7578521.78
 20
5721263.559999999
 30
0.0
 11
7578507.63
 21
5721267.1
 31
0.0
  0
LINE
  5
1000067
330
15
100
AcDbEntity
  8
dzialka
  6
Continuous
370
    18
100
AcDbLine
 10
7578507.63
 20
5721267.1
 30
0.0
 11
7578504.71
 21
5721267.83
 31
0.0
  0
LINE
  5
1000068
330
15
100
AcDbEntity
  8
dzialka
  6
Continuous
370
    18
100
AcDbLine
 10
7578504.71
 20
5721267.83
 30
0.0
 11
7578610.73
 21
5721322.670000001
 31
0.0
  0
LINE
  5
1000069
330
15
100
AcDbEntity
  8
dzialka
  6
Continuous
370
    18
100
AcDbLine
 10
7578610.73
 20
5721322.670000001
 30
0.0
 11
7578676.219999998
 21
5721323.73
 31
0.0
  0
LINE
  5
100006A
330
15
100
AcDbEntity
  8
dzialka
  6
Continuous
370
    18
100
AcDbLine
 10
7578676.219999998
 20
5721323.73
 30
0.0
 11
7578665.469999999
 21
5721301.67
 31
0.0
  0
LINE
  5
100006B
330
15
100
AcDbEntity
  8
dzialka
  6
Continuous
370
    18
100
AcDbLine
 10
7578665.469999999
 20
5721301.67
 30
0.0
 11
7578672.42
 21
5721293.019999999
 31
0.0
  0
LINE
  5
100006C
330
15
100
AcDbEntity
  8
dzialka
  6
Continuous
370
    18
100
AcDbLine
 10
7578672.42
 20
5721293.019999999
 30
0.0
 11
7578652.339999999
 21
5721230.89
 31
0.0
  0
LINE
  5
100006D
330
15
100
AcDbEntity
  8
dzialka
  6
Continuous
370
    18
100
AcDbLine
 10
7578652.339999999
 20
5721230.89
 30
0.0
 11
7578646.73
 21
5721232.29
 31
0.0
  0
LINE
  5
100006E
330
15
100
AcDbEntity
  8
dzialka
  6
Continuous
370
    18
100
AcDbLine
 10
7578646.73
 20
5721232.29
 30
0.0
 11
7578630.429999999
 21
5721236.37
 31
0.0
  0
LINE
  5
100006F
330
15
100
AcDbEntity
  8
dzialka
  6
Continuous
370
    18
100
AcDbLine
 10
7578630.429999999
 20
5721236.37
 30
0.0
 11
7578612.290000001
 21
5721240.91
 31
0.0
  0
LINE
  5
1000070
330
15
100
AcDbEntity
  8
dzialka
  6
Continuous
370
    18
100
AcDbLine
 10
7578612.290000001
 20
5721240.91
 30
0.0
 11
7578611.639999999
 21
5721241.070000001
 31
0.0
  0
LINE
  5
1000071
330
15
100
AcDbEntity
  8
dzialka
  6
Continuous
370
    18
100
AcDbLine
 10
7578339.419999999
 20
5721469.820000001
 30
0.0
 11
7578381.11
 21
5721433.29
 31
0.0
  0
LINE
  5
1000072
330
15
100
AcDbEntity
  8
dzialka
  6
Continuous
370
    18
100
AcDbLine
 10
7578381.11
 20
5721433.29
 30
0.0
 11
7578475.410000001
 21
5721351.389999999
 31
0.0
  0
LINE
  5
1000073
330
15
100
AcDbEntity
  8
dzialka
  6
Continuous
370
    18
100
AcDbLine
 10
7578475.410000001
 20
5721351.389999999
 30
0.0
 11
7578610.809999998
 21
5721328.67
 31
0.0
  0
LINE
  5
1000074
330
15
100
AcDbEntity
  8
dzialka
  6
Continuous
370
    18
100
AcDbLine
 10
7578610.809999998
 20
5721328.67
 30
0.0
 11
7578693.93
 21
5721330.09
 31
0.0
  0
LINE
  5
1000075
330
15
100
AcDbEntity
  8
dzialka
  6
Continuous
370
    18
100
AcDbLine
 10
7578693.93
 20
5721330.09
 30
0.0
 11
7578700.32
 21
5721324.12
 31
0.0
  0
LINE
  5
1000076
330
15
100
AcDbEntity
  8
dzialka
  6
Continuous
370
    18
100
AcDbLine
 10
7578700.32
 20
5721324.12
 30
0.0
 11
7578676.219999998
 21
5721323.73
 31
0.0
  0
LINE
  5
1000077
330
15
100
AcDbEntity
  8
dzialka
  6
Continuous
370
    18
100
AcDbLine
 10
7578676.219999998
 20
5721323.73
 30
0.0
 11
7578610.73
 21
5721322.670000001
 31
0.0
  0
LINE
  5
1000078
330
15
100
AcDbEntity
  8
dzialka
  6
Continuous
370
    18
100
AcDbLine
 10
7578610.73
 20
5721322.670000001
 30
0.0
 11
7578602.259999999
 21
5721323.919999999
 31
0.0
  0
LINE
  5
1000079
330
15
100
AcDbEntity
  8
dzialka
  6
Continuous
370
    18
100
AcDbLine
 10
7578602.259999999
 20
5721323.919999999
 30
0.0
 11
7578510.05
 21
5721337.49
 31
0.0
  0
LINE
  5
100007A
330
15
100
AcDbEntity
  8
dzialka
  6
Continuous
370
    18
100
AcDbLine
 10
7578510.05
 20
5721337.49
 30
0.0
 11
7578495.110000001
 21
5721339.69
 31
0.0
  0
LINE
  5
100007B
330
15
100
AcDbEntity
  8
dzialka
  6
Continuous
370
    18
100
AcDbLine
 10
7578495.110000001
 20
5721339.69
 30
0.0
 11
7578486.009999998
 21
5721341.039999999
 31
0.0
  0
LINE
  5
100007C
330
15
100
AcDbEntity
  8
dzialka
  6
Continuous
370
    18
100
AcDbLine
 10
7578486.009999998
 20
5721341.039999999
 30
0.0
 11
7578476.58
 21
5721342.429999999
 31
0.0
  0
LINE
  5
100007D
330
15
100
AcDbEntity
  8
dzialka
  6
Continuous
370
    18
100
AcDbLine
 10
7578476.58
 20
5721342.429999999
 30
0.0
 11
7578475.7
 21
5721343.05
 31
0.0
  0
LINE
  5
100007E
330
15
100
AcDbEntity
  8
dzialka
  6
Continuous
370
    18
100
AcDbLine
 10
7578475.7
 20
5721343.05
 30
0.0
 11
7578448.780000001
 21
5721362.179999999
 31
0.0
  0
LINE
  5
100007F
330
15
100
AcDbEntity
  8
dzialka
  6
Continuous
370
    18
100
AcDbLine
 10
7578448.780000001
 20
5721362.179999999
 30
0.0
 11
7578440.83
 21
5721367.81
 31
0.0
  0
LINE
  5
1000080
330
15
100
AcDbEntity
  8
dzialka
  6
Continuous
370
    18
100
AcDbLine
 10
7578440.83
 20
5721367.81
 30
0.0
 11
7578436.629999999
 21
5721371.539999999
 31
0.0
  0
LINE
  5
1000081
330
15
100
AcDbEntity
  8
dzialka
  6
Continuous
370
    18
100
AcDbLine
 10
7578436.629999999
 20
5721371.539999999
 30
0.0
 11
7578425.65
 21
5721381.29
 31
0.0
  0
LINE
  5
1000082
330
15
100
AcDbEntity
  8
dzialka
  6
Continuous
370
    18
100
AcDbLine
 10
7578425.65
 20
5721381.29
 30
0.0
 11
7578418.09
 21
5721388.000000001
 31
0.0
  0
LINE
  5
1000083
330
15
100
AcDbEntity
  8
dzialka
  6
Continuous
370
    18
100
AcDbLine
 10
7578418.09
 20
5721388.000000001
 30
0.0
 11
7578412.17
 21
5721393.240000001
 31
0.0
  0
LINE
  5
1000084
330
15
100
AcDbEntity
  8
dzialka
  6
Continuous
370
    18
100
AcDbLine
 10
7578412.17
 20
5721393.240000001
 30
0.0
 11
7578405.59
 21
5721399.08
 31
0.0
  0
LINE
  5
1000085
330
15
100
AcDbEntity
  8
dzialka
  6
Continuous
370
    18
100
AcDbLine
 10
7578405.59
 20
5721399.08
 30
0.0
 11
7578398.59
 21
5721405.289999999
 31
0.0
  0
LINE
  5
1000086
330
15
100
AcDbEntity
  8
dzialka
  6
Continuous
370
    18
100
AcDbLine
 10
7578398.59
 20
5721405.289999999
 30
0.0
 11
7578396.580000001
 21
5721407.08
 31
0.0
  0
LINE
  5
1000087
330
15
100
AcDbEntity
  8
dzialka
  6
Continuous
370
    18
100
AcDbLine
 10
7578396.580000001
 20
5721407.08
 30
0.0
 11
7578391.74
 21
5721411.370000001
 31
0.0
  0
LINE
  5
1000088
330
15
100
AcDbEntity
  8
dzialka
  6
Continuous
370
    18
100
AcDbLine
 10
7578391.74
 20
5721411.370000001
 30
0.0
 11
7578384.74
 21
5721417.589999999
 31
0.0
  0
LINE
  5
1000089
330
15
100
AcDbEntity
  8
dzialka
  6
Continuous
370
    18
100
AcDbLine
 10
7578384.74
 20
5721417.589999999
 30
0.0
 11
7578382.65
 21
5721419.44
 31
0.0
  0
LINE
  5
100008A
330
15
100
AcDbEntity
  8
dzialka
  6
Continuous
370
    18
100
AcDbLine
 10
7578382.65
 20
5721419.44
 30
0.0
 11
7578373.49
 21
5721427.570000001
 31
0.0
  0
LINE
  5
100008B
330
15
100
AcDbEntity
  8
dzialka
  6
Continuous
370
    18
100
AcDbLine
 10
7578373.49
 20
5721427.570000001
 30
0.0
 11
7578366.57
 21
5721433.71
 31
0.0
  0
LINE
  5
100008C
330
15
100
AcDbEntity
  8
dzialka
  6
Continuous
370
    18
100
AcDbLine
 10
7578366.57
 20
5721433.71
 30
0.0
 11
7578357.11
 21
5721442.11
 31
0.0
  0
LINE
  5
100008D
330
15
100
AcDbEntity
  8
dzialka
  6
Continuous
370
    18
100
AcDbLine
 10
7578357.11
 20
5721442.11
 30
0.0
 11
7578351.29
 21
5721447.259999999
 31
0.0
  0
LINE
  5
100008E
330
15
100
AcDbEntity
  8
dzialka
  6
Continuous
370
    18
100
AcDbLine
 10
7578351.29
 20
5721447.259999999
 30
0.0
 11
7578348.309999999
 21
5721449.91
 31
0.0
  0
LINE
  5
100008F
330
15
100
AcDbEntity
  8
dzialka
  6
Continuous
370
    18
100
AcDbLine
 10
7578348.309999999
 20
5721449.91
 30
0.0
 11
7578344.59
 21
5721453.219999999
 31
0.0
  0
LINE
  5
1000090
330
15
100
AcDbEntity
  8
dzialka
  6
Continuous
370
    18
100
AcDbLine
 10
7578344.59
 20
5721453.219999999
 30
0.0
 11
7578340.190000001
 21
5721457.12
 31
0.0
  0
LINE
  5
1000091
330
15
100
AcDbEntity
  8
dzialka
  6
Continuous
370
    18
100
AcDbLine
 10
7578340.190000001
 20
5721457.12
 30
0.0
 11
7578335.43
 21
5721461.339999999
 31
0.0
  0
LINE
  5
1000092
330
15
100
AcDbEntity
  8
dzialka
  6
Continuous
370
    18
100
AcDbLine
 10
7578335.43
 20
5721461.339999999
 30
0.0
 11
7578332.94
 21
5721463.599999999
 31
0.0
  0
LINE
  5
1000093
330
15
100
AcDbEntity
  8
dzialka
  6
Continuous
370
    18
100
AcDbLine
 10
7578332.94
 20
5721463.599999999
 30
0.0
 11
7578326.57
 21
5721469.360000001
 31
0.0
  0
LINE
  5
1000094
330
15
100
AcDbEntity
  8
dzialka
  6
Continuous
370
    18
100
AcDbLine
 10
7578326.57
 20
5721469.360000001
 30
0.0
 11
7578319.980000001
 21
5721475.33
 31
0.0
  0
LINE
  5
1000095
330
15
100
AcDbEntity
  8
dzialka
  6
Continuous
370
    18
100
AcDbLine
 10
7578319.980000001
 20
5721475.33
 30
0.0
 11
7578313.46
 21
5721481.230000001
 31
0.0
  0
LINE
  5
1000096
330
15
100
AcDbEntity
  8
dzialka
  6
Continuous
370
    18
100
AcDbLine
 10
7578313.46
 20
5721481.230000001
 30
0.0
 11
7578305.8
 21
5721488.139999999
 31
0.0
  0
LINE
  5
1000097
330
15
100
AcDbEntity
  8
dzialka
  6
Continuous
370
    18
100
AcDbLine
 10
7578305.8
 20
5721488.139999999
 30
0.0
 11
7578298.150000001
 21
5721495.070000001
 31
0.0
  0
LINE
  5
1000098
330
15
100
AcDbEntity
  8
dzialka
  6
Continuous
370
    18
100
AcDbLine
 10
7578298.150000001
 20
5721495.070000001
 30
0.0
 11
7578288.34
 21
5721503.959999999
 31
0.0
  0
LINE
  5
1000099
330
15
100
AcDbEntity
  8
dzialka
  6
Continuous
370
    18
100
AcDbLine
 10
7578288.34
 20
5721503.959999999
 30
0.0
 11
7578284.9
 21
5721507.06
 31
0.0
  0
LINE
  5
100009A
330
15
100
AcDbEntity
  8
dzialka
  6
Continuous
370
    18
100
AcDbLine
 10
7578284.9
 20
5721507.06
 30
0.0
 11
7578280.36
 21
5721511.17
 31
0.0
  0
LINE
  5
100009B
330
15
100
AcDbEntity
  8
dzialka
  6
Continuous
370
    18
100
AcDbLine
 10
7578280.36
 20
5721511.17
 30
0.0
 11
7578276.91
 21
5721514.29
 31
0.0
  0
LINE
  5
100009C
330
15
100
AcDbEntity
  8
dzialka
  6
Continuous
370
    18
100
AcDbLine
 10
7578276.91
 20
5721514.29
 30
0.0
 11
7578274.94
 21
5721516.079999999
 31
0.0
  0
LINE
  5
100009D
330
15
100
AcDbEntity
  8
dzialka
  6
Continuous
370
    18
100
AcDbLine
 10
7578274.94
 20
5721516.079999999
 30
0.0
 11
7578270.25
 21
5721520.309999999
 31
0.0
  0
LINE
  5
100009E
330
15
100
AcDbEntity
  8
dzialka
  6
Continuous
370
    18
100
AcDbLine
 10
7578270.25
 20
5721520.309999999
 30
0.0
 11
7578265.059999998
 21
5721525.02
 31
0.0
  0
LINE
  5
100009F
330
15
100
AcDbEntity
  8
dzialka
  6
Continuous
370
    18
100
AcDbLine
 10
7578265.059999998
 20
5721525.02
 30
0.0
 11
7578262.559999999
 21
5721527.27
 31
0.0
  0
LINE
  5
10000A0
330
15
100
AcDbEntity
  8
dzialka
  6
Continuous
370
    18
100
AcDbLine
 10
7578262.559999999
 20
5721527.27
 30
0.0
 11
7578247.849999999
 21
5721539.9
 31
0.0
  0
LINE
  5
10000A1
330
15
100
AcDbEntity
  8
dzialka
  6
Continuous
370
    18
100
AcDbLine
 10
7578247.849999999
 20
5721539.9
 30
0.0
 11
7578145.280000001
 21
5721627.98
 31
0.0
  0
LINE
  5
10000A2
330
15
100
AcDbEntity
  8
dzialka
  6
Continuous
370
    18
100
AcDbLine
 10
7578145.280000001
 20
5721627.98
 30
0.0
 11
7578135.53
 21
5721637.27
 31
0.0
  0
LINE
  5
10000A3
330
15
100
AcDbEntity
  8
dzialka
  6
Continuous
370
    18
100
AcDbLine
 10
7578135.53
 20
5721637.27
 30
0.0
 11
7578136.370000001
 21
5721650.559999999
 31
0.0
  0
LINE
  5
10000A4
330
15
100
AcDbEntity
  8
dzialka
  6
Continuous
370
    18
100
AcDbLine
 10
7578136.370000001
 20
5721650.559999999
 30
0.0
 11
7578144.37
 21
5721642.809999999
 31
0.0
  0
LINE
  5
10000A5
330
15
100
AcDbEntity
  8
dzialka
  6
Continuous
370
    18
100
AcDbLine
 10
7578144.37
 20
5721642.809999999
 30
0.0
 11
7578159.740000001
 21
5721629.11
 31
0.0
  0
LINE
  5
10000A6
330
15
100
AcDbEntity
  8
dzialka
  6
Continuous
370
    18
100
AcDbLine
 10
7578159.740000001
 20
5721629.11
 30
0.0
 11
7578173.84
 21
5721616.54
 31
0.0
  0
LINE
  5
10000A7
330
15
100
AcDbEntity
  8
dzialka
  6
Continuous
370
    18
100
AcDbLine
 10
7578173.84
 20
5721616.54
 30
0.0
 11
7578182.34
 21
5721608.96
 31
0.0
  0
LINE
  5
10000A8
330
15
100
AcDbEntity
  8
dzialka
  6
Continuous
370
    18
100
AcDbLine
 10
7578182.34
 20
5721608.96
 30
0.0
 11
7578190.769999999
 21
5721601.45
 31
0.0
  0
LINE
  5
10000A9
330
15
100
AcDbEntity
  8
dzialka
  6
Continuous
370
    18
100
AcDbLine
 10
7578190.769999999
 20
5721601.45
 30
0.0
 11
7578218.750000001
 21
5721576.51
 31
0.0
  0
LINE
  5
10000AA
330
15
100
AcDbEntity
  8
dzialka
  6
Continuous
370
    18
100
AcDbLine
 10
7578218.750000001
 20
5721576.51
 30
0.0
 11
7578248.74
 21
5721549.78
 31
0.0
  0
LINE
  5
10000AB
330
15
100
AcDbEntity
  8
dzialka
  6
Continuous
370
    18
100
AcDbLine
 10
7578248.74
 20
5721549.78
 30
0.0
 11
7578335.67
 21
5721473.13
 31
0.0
  0
LINE
  5
10000AC
330
15
100
AcDbEntity
  8
dzialka
  6
Continuous
370
    18
100
AcDbLine
 10
7578335.67
 20
5721473.13
 30
0.0
 11
7578339.419999999
 21
5721469.820000001
 31
0.0
  0
LINE
  5
10000AD
330
15
100
AcDbEntity
  8
dzialka
  6
Continuous
370
    18
100
AcDbLine
 10
7578267.63
 20
5721212.0
 30
0.0
 11
7578284.9
 21
5721507.06
 31
0.0
  0
LINE
  5
10000AE
330
15
100
AcDbEntity
  8
dzialka
  6
Continuous
370
    18
100
AcDbLine
 10
7578284.9
 20
5721507.06
 30
0.0
 11
7578288.34
 21
5721503.959999999
 31
0.0
  0
LINE
  5
10000AF
330
15
100
AcDbEntity
  8
dzialka
  6
Continuous
370
    18
100
AcDbLine
 10
7578288.34
 20
5721503.959999999
 30
0.0
 11
7578271.259999999
 21
5721212.94
 31
0.0
  0
LINE
  5
10000B0
330
15
100
AcDbEntity
  8
dzialka
  6
Continuous
370
    18
100
AcDbLine
 10
7578271.259999999
 20
5721212.94
 30
0.0
 11
7578267.63
 21
5721212.0
 31
0.0
  0
LINE
  5
10000B1
330
15
100
AcDbEntity
  8
dzialka
  6
Continuous
370
    18
100
AcDbLine
 10
7578271.259999999
 20
5721212.94
 30
0.0
 11
7578288.34
 21
5721503.959999999
 31
0.0
  0
LINE
  5
10000B2
330
15
100
AcDbEntity
  8
dzialka
  6
Continuous
370
    18
100
AcDbLine
 10
7578288.34
 20
5721503.959999999
 30
0.0
 11
7578298.150000001
 21
5721495.070000001
 31
0.0
  0
LINE
  5
10000B3
330
15
100
AcDbEntity
  8
dzialka
  6
Continuous
370
    18
100
AcDbLine
 10
7578298.150000001
 20
5721495.070000001
 30
0.0
 11
7578280.349999999
 21
5721215.339999999
 31
0.0
  0
LINE
  5
10000B4
330
15
100
AcDbEntity
  8
dzialka
  6
Continuous
370
    18
100
AcDbLine
 10
7578280.349999999
 20
5721215.339999999
 30
0.0
 11
7578271.259999999
 21
5721212.94
 31
0.0
  0
LINE
  5
10000B5
330
15
100
AcDbEntity
  8
dzialka
  6
Continuous
370
    18
100
AcDbLine
 10
7578262.490000001
 20
5721063.45
 30
0.0
 11
7578270.96
 21
5721207.790000001
 31
0.0
  0
LINE
  5
10000B6
330
15
100
AcDbEntity
  8
dzialka
  6
Continuous
370
    18
100
AcDbLine
 10
7578270.96
 20
5721207.790000001
 30
0.0
 11
7578280.019999998
 21
5721210.11
 31
0.0
  0
LINE
  5
10000B7
330
15
100
AcDbEntity
  8
dzialka
  6
Continuous
370
    18
100
AcDbLine
 10
7578280.019999998
 20
5721210.11
 30
0.0
 11
7578270.860000001
 21
5721066.15
 31
0.0
  0
LINE
  5
10000B8
330
15
100
AcDbEntity
  8
dzialka
  6
Continuous
370
    18
100
AcDbLine
 10
7578270.860000001
 20
5721066.15
 30
0.0
 11
7578268.200000001
 21
5721065.3
 31
0.0
  0
LINE
  5
10000B9
330
15
100
AcDbEntity
  8
dzialka
  6
Continuous
370
    18
100
AcDbLine
 10
7578268.200000001
 20
5721065.3
 30
0.0
 11
7578262.490000001
 21
5721063.45
 31
0.0
  0
LINE
  5
10000BA
330
15
100
AcDbEntity
  8
dzialka
  6
Continuous
370
    18
100
AcDbLine
 10
7578280.349999999
 20
5721215.339999999
 30
0.0
 11
7578298.150000001
 21
5721495.070000001
 31
0.0
  0
LINE
  5
10000BB
330
15
100
AcDbEntity
  8
dzialka
  6
Continuous
370
    18
100
AcDbLine
 10
7578298.150000001
 20
5721495.070000001
 30
0.0
 11
7578305.8
 21
5721488.139999999
 31
0.0
  0
LINE
  5
10000BC
330
15
100
AcDbEntity
  8
dzialka
  6
Continuous
370
    18
100
AcDbLine
 10
7578305.8
 20
5721488.139999999
 30
0.0
 11
7578288.16
 21
5721217.39
 31
0.0
  0
LINE
  5
10000BD
330
15
100
AcDbEntity
  8
dzialka
  6
Continuous
370
    18
100
AcDbLine
 10
7578288.16
 20
5721217.39
 30
0.0
 11
7578280.349999999
 21
5721215.339999999
 31
0.0
  0
LINE
  5
10000BE
330
15
100
AcDbEntity
  8
dzialka
  6
Continuous
370
    18
100
AcDbLine
 10
7578270.860000001
 20
5721066.15
 30
0.0
 11
7578280.019999998
 21
5721210.11
 31
0.0
  0
LINE
  5
10000BF
330
15
100
AcDbEntity
  8
dzialka
  6
Continuous
370
    18
100
AcDbLine
 10
7578280.019999998
 20
5721210.11
 30
0.0
 11
7578287.82
 21
5721212.13
 31
0.0
  0
LINE
  5
10000C0
330
15
100
AcDbEntity
  8
dzialka
  6
Continuous
370
    18
100
AcDbLine
 10
7578287.82
 20
5721212.13
 30
0.0
 11
7578278.459999999
 21
5721068.620000001
 31
0.0
  0
LINE
  5
10000C1
330
15
100
AcDbEntity
  8
dzialka
  6
Continuous
370
    18
100
AcDbLine
 10
7578278.459999999
 20
5721068.620000001
 30
0.0
 11
7578270.860000001
 21
5721066.15
 31
0.0
  0
LINE
  5
10000C2
330
15
100
AcDbEntity
  8
dzialka
  6
Continuous
370
    18
100
AcDbLine
 10
7578288.16
 20
5721217.39
 30
0.0
 11
7578305.8
 21
5721488.139999999
 31
0.0
  0
LINE
  5
10000C3
330
15
100
AcDbEntity
  8
dzialka
  6
Continuous
370
    18
100
AcDbLine
 10
7578305.8
 20
5721488.139999999
 30
0.0
 11
7578313.46
 21
5721481.230000001
 31
0.0
  0
LINE
  5
10000C4
330
15
100
AcDbEntity
  8
dzialka
  6
Continuous
370
    18
100
AcDbLine
 10
7578313.46
 20
5721481.230000001
 30
0.0
 11
7578295.99
 21
5721219.440000001
 31
0.0
  0
LINE
  5
10000C5
330
15
100
AcDbEntity
  8
dzialka
  6
Continuous
370
    18
100
AcDbLine
 10
7578295.99
 20
5721219.440000001
 30
0.0
 11
7578288.16
 21
5721217.39
 31
0.0
  0
LINE
  5
10000C6
330
15
100
AcDbEntity
  8
dzialka
  6
Continuous
370
    18
100
AcDbLine
 10
7578278.459999999
 20
5721068.620000001
 30
0.0
 11
7578287.82
 21
5721212.13
 31
0.0
  0
LINE
  5
10000C7
330
15
100
AcDbEntity
  8
dzialka
  6
Continuous
370
    18
100
AcDbLine
 10
7578287.82
 20
5721212.13
 30
0.0
 11
7578295.63
 21
5721214.129999999
 31
0.0
  0
LINE
  5
10000C8
330
15
100
AcDbEntity
  8
dzialka
  6
Continuous
370
    18
100
AcDbLine
 10
7578295.63
 20
5721214.129999999
 30
0.0
 11
7578286.08
 21
5721071.08
 31
0.0
  0
LINE
  5
10000C9
330
15
100
AcDbEntity
  8
dzialka
  6
Continuous
370
    18
100
AcDbLine
 10
7578286.08
 20
5721071.08
 30
0.0
 11
7578278.459999999
 21
5721068.620000001
 31
0.0
  0
LINE
  5
10000CA
330
15
100
AcDbEntity
  8
dzialka
  6
Continuous
370
    18
100
AcDbLine
 10
7578295.99
 20
5721219.440000001
 30
0.0
 11
7578313.46
 21
5721481.230000001
 31
0.0
  0
LINE
  5
10000CB
330
15
100
AcDbEntity
  8
dzialka
  6
Continuous
370
    18
100
AcDbLine
 10
7578313.46
 20
5721481.230000001
 30
0.0
 11
7578319.980000001
 21
5721475.33
 31
0.0
  0
LINE
  5
10000CC
330
15
100
AcDbEntity
  8
dzialka
  6
Continuous
370
    18
100
AcDbLine
 10
7578319.980000001
 20
5721475.33
 30
0.0
 11
7578302.41
 21
5721221.129999999
 31
0.0
  0
LINE
  5
10000CD
330
15
100
AcDbEntity
  8
dzialka
  6
Continuous
370
    18
100
AcDbLine
 10
7578302.41
 20
5721221.129999999
 30
0.0
 11
7578295.99
 21
5721219.440000001
 31
0.0
  0
LINE
  5
10000CE
330
15
100
AcDbEntity
  8
dzialka
  6
Continuous
370
    18
100
AcDbLine
 10
7578286.08
 20
5721071.08
 30
0.0
 11
7578295.63
 21
5721214.129999999
 31
0.0
  0
LINE
  5
10000CF
330
15
100
AcDbEntity
  8
dzialka
  6
Continuous
370
    18
100
AcDbLine
 10
7578295.63
 20
5721214.129999999
 30
0.0
 11
7578302.030000001
 21
5721215.769999999
 31
0.0
  0
LINE
  5
10000D0
330
15
100
AcDbEntity
  8
dzialka
  6
Continuous
370
    18
100
AcDbLine
 10
7578302.030000001
 20
5721215.769999999
 30
0.0
 11
7578292.17
 21
5721073.05
 31
0.0
  0
LINE
  5
10000D1
330
15
100
AcDbEntity
  8
dzialka
  6
Continuous
370
    18
100
AcDbLine
 10
7578292.17
 20
5721073.05
 30
0.0
 11
7578289.98
 21
5721072.34
 31
0.0
  0
LINE
  5
10000D2
330
15
100
AcDbEntity
  8
dzialka
  6
Continuous
370
    18
100
AcDbLine
 10
7578289.98
 20
5721072.34
 30
0.0
 11
7578286.08
 21
5721071.08
 31
0.0
  0
LINE
  5
10000D3
330
15
100
AcDbEntity
  8
dzialka
  6
Continuous
 62
     5
370
    18
100
AcDbLine
 10
7578302.41
 20
5721221.129999999
 30
0.0
 11
7578319.980000001
 21
5721475.33
 31
0.0
  0
LINE
  5
10000D4
330
15
100
AcDbEntity
  8
dzialka
  6
Continuous
 62
     5
370
    18
100
AcDbLine
 10
7578319.980000001
 20
5721475.33
 30
0.0
 11
7578326.57
 21
5721469.360000001
 31
0.0
  0
LINE
  5
10000D5
330
15
100
AcDbEntity
  8
dzialka
  6
Continuous
 62
     5
370
    18
100
AcDbLine
 10
7578326.57
 20
5721469.360000001
 30
0.0
 11
7578309.53
 21
5721222.99
 31
0.0
  0
LINE
  5
10000D6
330
15
100
AcDbEntity
  8
dzialka
  6
Continuous
 62
     5
370
    18
100
AcDbLine
 10
7578309.53
 20
5721222.99
 30
0.0
 11
7578302.41
 21
5721221.129999999
 31
0.0
  0
LINE
  5
10000D7
330
15
100
AcDbEntity
  8
dzialka
  6
Continuous
 62
     5
370
    18
100
AcDbLine
 10
7578292.17
 20
5721073.05
 30
0.0
 11
7578302.030000001
 21
5721215.769999999
 31
0.0
  0
LINE
  5
10000D8
330
15
100
AcDbEntity
  8
dzialka
  6
Continuous
 62
     5
370
    18
100
AcDbLine
 10
7578302.030000001
 20
5721215.769999999
 30
0.0
 11
7578309.150000001
 21
5721217.6
 31
0.0
  0
LINE
  5
10000D9
330
15
100
AcDbEntity
  8
dzialka
  6
Continuous
 62
     5
370
    18
100
AcDbLine
 10
7578309.150000001
 20
5721217.6
 30
0.0
 11
7578299.309999998
 21
5721075.360000001
 31
0.0
  0
LINE
  5
10000DA
330
15
100
AcDbEntity
  8
dzialka
  6
Continuous
 62
     5
370
    18
100
AcDbLine
 10
7578299.309999998
 20
5721075.360000001
 30
0.0
 11
7578292.17
 21
5721073.05
 31
0.0
  0
LINE
  5
10000DB
330
15
100
AcDbEntity
  8
dzialka
  6
Continuous
 62
     5
370
    18
100
AcDbLine
 10
7578309.53
 20
5721222.99
 30
0.0
 11
7578326.57
 21
5721469.360000001
 31
0.0
  0
LINE
  5
10000DC
330
15
100
AcDbEntity
  8
dzialka
  6
Continuous
 62
     5
370
    18
100
AcDbLine
 10
7578326.57
 20
5721469.360000001
 30
0.0
 11
7578332.94
 21
5721463.599999999
 31
0.0
  0
LINE
  5
10000DD
330
15
100
AcDbEntity
  8
dzialka
  6
Continuous
 62
     5
370
    18
100
AcDbLine
 10
7578332.94
 20
5721463.599999999
 30
0.0
 11
7578316.540000001
 21
5721224.839999999
 31
0.0
  0
LINE
  5
10000DE
330
15
100
AcDbEntity
  8
dzialka
  6
Continuous
 62
     5
370
    18
100
AcDbLine
 10
7578316.540000001
 20
5721224.839999999
 30
0.0
 11
7578309.53
 21
5721222.99
 31
0.0
  0
LINE
  5
10000DF
330
15
100
AcDbEntity
  8
dzialka
  6
Continuous
 62
     5
370
    18
100
AcDbLine
 10
7578299.309999998
 20
5721075.360000001
 30
0.0
 11
7578309.150000001
 21
5721217.6
 31
0.0
  0
LINE
  5
10000E0
330
15
100
AcDbEntity
  8
dzialka
  6
Continuous
 62
     5
370
    18
100
AcDbLine
 10
7578309.150000001
 20
5721217.6
 30
0.0
 11
7578316.17
 21
5721219.409999999
 31
0.0
  0
LINE
  5
10000E1
330
15
100
AcDbEntity
  8
dzialka
  6
Continuous
 62
     5
370
    18
100
AcDbLine
 10
7578316.17
 20
5721219.409999999
 30
0.0
 11
7578306.440000001
 21
5721077.669999999
 31
0.0
  0
LINE
  5
10000E2
330
15
100
AcDbEntity
  8
dzialka
  6
Continuous
 62
     5
370
    18
100
AcDbLine
 10
7578306.440000001
 20
5721077.669999999
 30
0.0
 11
7578299.309999998
 21
5721075.360000001
 31
0.0
  0
LINE
  5
10000E3
330
15
100
AcDbEntity
  8
dzialka
  6
Continuous
370
    18
100
AcDbLine
 10
7578316.540000001
 20
5721224.839999999
 30
0.0
 11
7578332.94
 21
5721463.599999999
 31
0.0
  0
LINE
  5
10000E4
330
15
100
AcDbEntity
  8
dzialka
  6
Continuous
370
    18
100
AcDbLine
 10
7578332.94
 20
5721463.599999999
 30
0.0
 11
7578335.43
 21
5721461.339999999
 31
0.0
  0
LINE
  5
10000E5
330
15
100
AcDbEntity
  8
dzialka
  6
Continuous
370
    18
100
AcDbLine
 10
7578335.43
 20
5721461.339999999
 30
0.0
 11
7578340.190000001
 21
5721457.12
 31
0.0
  0
LINE
  5
10000E6
330
15
100
AcDbEntity
  8
dzialka
  6
Continuous
370
    18
100
AcDbLine
 10
7578340.190000001
 20
5721457.12
 30
0.0
 11
7578323.36
 21
5721226.64
 31
0.0
  0
LINE
  5
10000E7
330
15
100
AcDbEntity
  8
dzialka
  6
Continuous
370
    18
100
AcDbLine
 10
7578323.36
 20
5721226.64
 30
0.0
 11
7578316.540000001
 21
5721224.839999999
 31
0.0
  0
LINE
  5
10000E8
330
15
100
AcDbEntity
  8
dzialka
  6
Continuous
370
    18
100
AcDbLine
 10
7578306.440000001
 20
5721077.669999999
 30
0.0
 11
7578316.17
 21
5721219.409999999
 31
0.0
  0
LINE
  5
10000E9
330
15
100
AcDbEntity
  8
dzialka
  6
Continuous
370
    18
100
AcDbLine
 10
7578316.17
 20
5721219.409999999
 30
0.0
 11
7578322.96
 21
5721221.149999999
 31
0.0
  0
LINE
  5
10000EA
330
15
100
AcDbEntity
  8
dzialka
  6
Continuous
370
    18
100
AcDbLine
 10
7578322.96
 20
5721221.149999999
 30
0.0
 11
7578312.63
 21
5721079.66
 31
0.0
  0
LINE
  5
10000EB
330
15
100
AcDbEntity
  8
dzialka
  6
Continuous
370
    18
100
AcDbLine
 10
7578312.63
 20
5721079.66
 30
0.0
 11
7578310.73
 21
5721079.049999999
 31
0.0
  0
LINE
  5
10000EC
330
15
100
AcDbEntity
  8
dzialka
  6
Continuous
370
    18
100
AcDbLine
 10
7578310.73
 20
5721079.049999999
 30
0.0
 11
7578306.440000001
 21
5721077.669999999
 31
0.0
  0
LINE
  5
10000ED
330
15
100
AcDbEntity
  8
dzialka
  6
Continuous
370
    18
100
AcDbLine
 10
7578323.36
 20
5721226.64
 30
0.0
 11
7578340.190000001
 21
5721457.12
 31
0.0
  0
LINE
  5
10000EE
330
15
100
AcDbEntity
  8
dzialka
  6
Continuous
370
    18
100
AcDbLine
 10
7578340.190000001
 20
5721457.12
 30
0.0
 11
7578344.59
 21
5721453.219999999
 31
0.0
  0
LINE
  5
10000EF
330
15
100
AcDbEntity
  8
dzialka
  6
Continuous
370
    18
100
AcDbLine
 10
7578344.59
 20
5721453.219999999
 30
0.0
 11
7578328.91
 21
5721228.099999999
 31
0.0
  0
LINE
  5
10000F0
330
15
100
AcDbEntity
  8
dzialka
  6
Continuous
370
    18
100
AcDbLine
 10
7578328.91
 20
5721228.099999999
 30
0.0
 11
7578323.36
 21
5721226.64
 31
0.0
  0
LINE
  5
10000F1
330
15
100
AcDbEntity
  8
dzialka
  6
Continuous
370
    18
100
AcDbLine
 10
7578312.63
 20
5721079.66
 30
0.0
 11
7578322.96
 21
5721221.149999999
 31
0.0
  0
LINE
  5
10000F2
330
15
100
AcDbEntity
  8
dzialka
  6
Continuous
370
    18
100
AcDbLine
 10
7578322.96
 20
5721221.149999999
 30
0.0
 11
7578328.530000001
 21
5721222.58
 31
0.0
  0
LINE
  5
10000F3
330
15
100
AcDbEntity
  8
dzialka
  6
Continuous
370
    18
100
AcDbLine
 10
7578328.530000001
 20
5721222.58
 30
0.0
 11
7578318.719999998
 21
5721081.629999999
 31
0.0
  0
LINE
  5
10000F4
330
15
100
AcDbEntity
  8
dzialka
  6
Continuous
370
    18
100
AcDbLine
 10
7578318.719999998
 20
5721081.629999999
 30
0.0
 11
7578312.63
 21
5721079.66
 31
0.0
  0
LINE
  5
10000F5
330
15
100
AcDbEntity
  8
dzialka
  6
Continuous
370
    18
100
AcDbLine
 10
7578328.91
 20
5721228.099999999
 30
0.0
 11
7578344.59
 21
5721453.219999999
 31
0.0
  0
LINE
  5
10000F6
330
15
100
AcDbEntity
  8
dzialka
  6
Continuous
370
    18
100
AcDbLine
 10
7578344.59
 20
5721453.219999999
 30
0.0
 11
7578348.309999999
 21
5721449.91
 31
0.0
  0
LINE
  5
10000F7
330
15
100
AcDbEntity
  8
dzialka
  6
Continuous
370
    18
100
AcDbLine
 10
7578348.309999999
 20
5721449.91
 30
0.0
 11
7578333.309999999
 21
5721229.25
 31
0.0
  0
LINE
  5
10000F8
330
15
100
AcDbEntity
  8
dzialka
  6
Continuous
370
    18
100
AcDbLine
 10
7578333.309999999
 20
5721229.25
 30
0.0
 11
7578328.91
 21
5721228.099999999
 31
0.0
  0
LINE
  5
10000F9
330
15
100
AcDbEntity
  8
dzialka
  6
Continuous
370
    18
100
AcDbLine
 10
7578318.719999998
 20
5721081.629999999
 30
0.0
 11
7578328.530000001
 21
5721222.58
 31
0.0
  0
LINE
  5
10000FA
330
15
100
AcDbEntity
  8
dzialka
  6
Continuous
370
    18
100
AcDbLine
 10
7578328.530000001
 20
5721222.58
 30
0.0
 11
7578332.929999999
 21
5721223.71
 31
0.0
  0
LINE
  5
10000FB
330
15
100
AcDbEntity
  8
dzialka
  6
Continuous
370
    18
100
AcDbLine
 10
7578332.929999999
 20
5721223.71
 30
0.0
 11
7578323.38
 21
5721083.139999999
 31
0.0
  0
LINE
  5
10000FC
330
15
100
AcDbEntity
  8
dzialka
  6
Continuous
370
    18
100
AcDbLine
 10
7578323.38
 20
5721083.139999999
 30
0.0
 11
7578319.200000001
 21
5721081.78
 31
0.0
  0
LINE
  5
10000FD
330
15
100
AcDbEntity
  8
dzialka
  6
Continuous
370
    18
100
AcDbLine
 10
7578319.200000001
 20
5721081.78
 30
0.0
 11
7578318.719999998
 21
5721081.629999999
 31
0.0
  0
LINE
  5
10000FE
330
15
100
AcDbEntity
  8
dzialka
  6
Continuous
370
    18
100
AcDbLine
 10
7578333.309999999
 20
5721229.25
 30
0.0
 11
7578348.309999999
 21
5721449.91
 31
0.0
  0
LINE
  5
10000FF
330
15
100
AcDbEntity
  8
dzialka
  6
Continuous
370
    18
100
AcDbLine
 10
7578348.309999999
 20
5721449.91
 30
0.0
 11
7578351.29
 21
5721447.259999999
 31
0.0
  0
LINE
  5
1000100
330
15
100
AcDbEntity
  8
dzialka
  6
Continuous
370
    18
100
AcDbLine
 10
7578351.29
 20
5721447.259999999
 30
0.0
 11
7578336.76
 21
5721230.15
 31
0.0
  0
LINE
  5
1000101
330
15
100
AcDbEntity
  8
dzialka
  6
Continuous
370
    18
100
AcDbLine
 10
7578336.76
 20
5721230.15
 30
0.0
 11
7578333.309999999
 21
5721229.25
 31
0.0
  0
LINE
  5
1000102
330
15
100
AcDbEntity
  8
dzialka
  6
Continuous
370
    18
100
AcDbLine
 10
7578323.38
 20
5721083.139999999
 30
0.0
 11
7578332.929999999
 21
5721223.71
 31
0.0
  0
LINE
  5
1000103
330
15
100
AcDbEntity
  8
dzialka
  6
Continuous
370
    18
100
AcDbLine
 10
7578332.929999999
 20
5721223.71
 30
0.0
 11
7578336.389999999
 21
5721224.6
 31
0.0
  0
LINE
  5
1000104
330
15
100
AcDbEntity
  8
dzialka
  6
Continuous
370
    18
100
AcDbLine
 10
7578336.389999999
 20
5721224.6
 30
0.0
 11
7578326.99
 21
5721084.31
 31
0.0
  0
LINE
  5
1000105
330
15
100
AcDbEntity
  8
dzialka
  6
Continuous
370
    18
100
AcDbLine
 10
7578326.99
 20
5721084.31
 30
0.0
 11
7578323.38
 21
5721083.139999999
 31
0.0
  0
LINE
  5
1000106
330
15
100
AcDbEntity
  8
dzialka
  6
Continuous
370
    18
100
AcDbLine
 10
7578336.76
 20
5721230.15
 30
0.0
 11
7578351.29
 21
5721447.259999999
 31
0.0
  0
LINE
  5
1000107
330
15
100
AcDbEntity
  8
dzialka
  6
Continuous
370
    18
100
AcDbLine
 10
7578351.29
 20
5721447.259999999
 30
0.0
 11
7578357.11
 21
5721442.11
 31
0.0
  0
LINE
  5
1000108
330
15
100
AcDbEntity
  8
dzialka
  6
Continuous
370
    18
100
AcDbLine
 10
7578357.11
 20
5721442.11
 30
0.0
 11
7578343.41
 21
5721231.91
 31
0.0
  0
LINE
  5
1000109
330
15
100
AcDbEntity
  8
dzialka
  6
Continuous
370
    18
100
AcDbLine
 10
7578343.41
 20
5721231.91
 30
0.0
 11
7578336.76
 21
5721230.15
 31
0.0
  0
LINE
  5
100010A
330
15
100
AcDbEntity
  8
dzialka
  6
Continuous
370
    18
100
AcDbLine
 10
7578326.99
 20
5721084.31
 30
0.0
 11
7578336.389999999
 21
5721224.6
 31
0.0
  0
LINE
  5
100010B
330
15
100
AcDbEntity
  8
dzialka
  6
Continuous
370
    18
100
AcDbLine
 10
7578336.389999999
 20
5721224.6
 30
0.0
 11
7578343.049999999
 21
5721226.299999999
 31
0.0
  0
LINE
  5
100010C
330
15
100
AcDbEntity
  8
dzialka
  6
Continuous
370
    18
100
AcDbLine
 10
7578343.049999999
 20
5721226.299999999
 30
0.0
 11
7578333.950000001
 21
5721086.549999999
 31
0.0
  0
LINE
  5
100010D
330
15
100
AcDbEntity
  8
dzialka
  6
Continuous
370
    18
100
AcDbLine
 10
7578333.950000001
 20
5721086.549999999
 30
0.0
 11
7578326.99
 21
5721084.31
 31
0.0
  0
LINE
  5
100010E
330
15
100
AcDbEntity
  8
dzialka
  6
Continuous
370
    18
100
AcDbLine
 10
7578343.41
 20
5721231.91
 30
0.0
 11
7578357.11
 21
5721442.11
 31
0.0
  0
LINE
  5
100010F
330
15
100
AcDbEntity
  8
dzialka
  6
Continuous
370
    18
100
AcDbLine
 10
7578357.11
 20
5721442.11
 30
0.0
 11
7578366.57
 21
5721433.71
 31
0.0
  0
LINE
  5
1000110
330
15
100
AcDbEntity
  8
dzialka
  6
Continuous
370
    18
100
AcDbLine
 10
7578366.57
 20
5721433.71
 30
0.0
 11
7578353.400000001
 21
5721234.519999999
 31
0.0
  0
LINE
  5
1000111
330
15
100
AcDbEntity
  8
dzialka
  6
Continuous
370
    18
100
AcDbLine
 10
7578353.400000001
 20
5721234.519999999
 30
0.0
 11
7578343.41
 21
5721231.91
 31
0.0
  0
LINE
  5
1000112
330
15
100
AcDbEntity
  8
dzialka
  6
Continuous
370
    18
100
AcDbLine
 10
7578333.950000001
 20
5721086.549999999
 30
0.0
 11
7578343.049999999
 21
5721226.299999999
 31
0.0
  0
LINE
  5
1000113
330
15
100
AcDbEntity
  8
dzialka
  6
Continuous
370
    18
100
AcDbLine
 10
7578343.049999999
 20
5721226.299999999
 30
0.0
 11
7578353.03
 21
5721228.87
 31
0.0
  0
LINE
  5
1000114
330
15
100
AcDbEntity
  8
dzialka
  6
Continuous
370
    18
100
AcDbLine
 10
7578353.03
 20
5721228.87
 30
0.0
 11
7578343.83
 21
5721089.749999999
 31
0.0
  0
LINE
  5
1000115
330
15
100
AcDbEntity
  8
dzialka
  6
Continuous
370
    18
100
AcDbLine
 10
7578343.83
 20
5721089.749999999
 30
0.0
 11
7578333.950000001
 21
5721086.549999999
 31
0.0
  0
LINE
  5
1000116
330
15
100
AcDbEntity
  8
dzialka
  6
Continuous
370
    18
100
AcDbLine
 10
7578353.400000001
 20
5721234.519999999
 30
0.0
 11
7578366.57
 21
5721433.71
 31
0.0
  0
LINE
  5
1000117
330
15
100
AcDbEntity
  8
dzialka
  6
Continuous
370
    18
100
AcDbLine
 10
7578366.57
 20
5721433.71
 30
0.0
 11
7578373.49
 21
5721427.570000001
 31
0.0
  0
LINE
  5
1000118
330
15
100
AcDbEntity
  8
dzialka
  6
Continuous
370
    18
100
AcDbLine
 10
7578373.49
 20
5721427.570000001
 30
0.0
 11
7578362.66
 21
5721236.959999999
 31
0.0
  0
LINE
  5
1000119
330
15
100
AcDbEntity
  8
dzialka
  6
Continuous
370
    18
100
AcDbLine
 10
7578362.66
 20
5721236.959999999
 30
0.0
 11
7578353.400000001
 21
5721234.519999999
 31
0.0
  0
LINE
  5
100011A
330
15
100
AcDbEntity
  8
dzialka
  6
Continuous
370
    18
100
AcDbLine
 10
7578343.83
 20
5721089.749999999
 30
0.0
 11
7578353.03
 21
5721228.87
 31
0.0
  0
LINE
  5
100011B
330
15
100
AcDbEntity
  8
dzialka
  6
Continuous
370
    18
100
AcDbLine
 10
7578353.03
 20
5721228.87
 30
0.0
 11
7578362.33
 21
5721231.259999999
 31
0.0
  0
LINE
  5
100011C
330
15
100
AcDbEntity
  8
dzialka
  6
Continuous
370
    18
100
AcDbLine
 10
7578362.33
 20
5721231.259999999
 30
0.0
 11
7578354.49
 21
5721093.19
 31
0.0
  0
LINE
  5
100011D
330
15
100
AcDbEntity
  8
dzialka
  6
Continuous
370
    18
100
AcDbLine
 10
7578354.49
 20
5721093.19
 30
0.0
 11
7578348.59
 21
5721091.29
 31
0.0
  0
LINE
  5
100011E
330
15
100
AcDbEntity
  8
dzialka
  6
Continuous
370
    18
100
AcDbLine
 10
7578348.59
 20
5721091.29
 30
0.0
 11
7578343.83
 21
5721089.749999999
 31
0.0
  0
LINE
  5
100011F
330
15
100
AcDbEntity
  8
dzialka
  6
Continuous
370
    18
100
AcDbLine
 10
7578362.66
 20
5721236.959999999
 30
0.0
 11
7578373.49
 21
5721427.570000001
 31
0.0
  0
LINE
  5
1000120
330
15
100
AcDbEntity
  8
dzialka
  6
Continuous
370
    18
100
AcDbLine
 10
7578373.49
 20
5721427.570000001
 30
0.0
 11
7578382.65
 21
5721419.44
 31
0.0
  0
LINE
  5
1000121
330
15
100
AcDbEntity
  8
dzialka
  6
Continuous
370
    18
100
AcDbLine
 10
7578382.65
 20
5721419.44
 30
0.0
 11
7578371.269999998
 21
5721239.22
 31
0.0
  0
LINE
  5
1000122
330
15
100
AcDbEntity
  8
dzialka
  6
Continuous
370
    18
100
AcDbLine
 10
7578371.269999998
 20
5721239.22
 30
0.0
 11
7578362.66
 21
5721236.959999999
 31
0.0
  0
LINE
  5
1000123
330
15
100
AcDbEntity
  8
dzialka
  6
Continuous
370
    18
100
AcDbLine
 10
7578354.49
 20
5721093.19
 30
0.0
 11
7578362.33
 21
5721231.259999999
 31
0.0
  0
LINE
  5
1000124
330
15
100
AcDbEntity
  8
dzialka
  6
Continuous
370
    18
100
AcDbLine
 10
7578362.33
 20
5721231.259999999
 30
0.0
 11
7578370.910000001
 21
5721233.459999999
 31
0.0
  0
LINE
  5
1000125
330
15
100
AcDbEntity
  8
dzialka
  6
Continuous
370
    18
100
AcDbLine
 10
7578370.910000001
 20
5721233.459999999
 30
0.0
 11
7578362.2
 21
5721095.690000001
 31
0.0
  0
LINE
  5
1000126
330
15
100
AcDbEntity
  8
dzialka
  6
Continuous
370
    18
100
AcDbLine
 10
7578362.2
 20
5721095.690000001
 30
0.0
 11
7578354.49
 21
5721093.19
 31
0.0
  0
LINE
  5
1000127
330
15
100
AcDbEntity
  8
dzialka
  6
Continuous
370
    18
100
AcDbLine
 10
7578371.269999998
 20
5721239.22
 30
0.0
 11
7578382.65
 21
5721419.44
 31
0.0
  0
LINE
  5
1000128
330
15
100
AcDbEntity
  8
dzialka
  6
Continuous
370
    18
100
AcDbLine
 10
7578382.65
 20
5721419.44
 30
0.0
 11
7578384.74
 21
5721417.589999999
 31
0.0
  0
LINE
  5
1000129
330
15
100
AcDbEntity
  8
dzialka
  6
Continuous
370
    18
100
AcDbLine
 10
7578384.74
 20
5721417.589999999
 30
0.0
 11
7578373.73
 21
5721239.87
 31
0.0
  0
LINE
  5
100012A
330
15
100
AcDbEntity
  8
dzialka
  6
Continuous
370
    18
100
AcDbLine
 10
7578373.73
 20
5721239.87
 30
0.0
 11
7578371.269999998
 21
5721239.22
 31
0.0
  0
LINE
  5
100012B
330
15
100
AcDbEntity
  8
dzialka
  6
Continuous
370
    18
100
AcDbLine
 10
7578362.2
 20
5721095.690000001
 30
0.0
 11
7578370.910000001
 21
5721233.459999999
 31
0.0
  0
LINE
  5
100012C
330
15
100
AcDbEntity
  8
dzialka
  6
Continuous
370
    18
100
AcDbLine
 10
7578370.910000001
 20
5721233.459999999
 30
0.0
 11
7578373.38
 21
5721234.1
 31
0.0
  0
LINE
  5
100012D
330
15
100
AcDbEntity
  8
dzialka
  6
Continuous
370
    18
100
AcDbLine
 10
7578373.38
 20
5721234.1
 30
0.0
 11
7578364.86
 21
5721096.549999999
 31
0.0
  0
LINE
  5
100012E
330
15
100
AcDbEntity
  8
dzialka
  6
Continuous
370
    18
100
AcDbLine
 10
7578364.86
 20
5721096.549999999
 30
0.0
 11
7578362.2
 21
5721095.690000001
 31
0.0
  0
LINE
  5
100012F
330
15
100
AcDbEntity
  8
dzialka
  6
Continuous
370
    18
100
AcDbLine
 10
7578373.73
 20
5721239.87
 30
0.0
 11
7578384.74
 21
5721417.589999999
 31
0.0
  0
LINE
  5
1000130
330
15
100
AcDbEntity
  8
dzialka
  6
Continuous
370
    18
100
AcDbLine
 10
7578384.74
 20
5721417.589999999
 30
0.0
 11
7578391.74
 21
5721411.370000001
 31
0.0
  0
LINE
  5
1000131
330
15
100
AcDbEntity
  8
dzialka
  6
Continuous
370
    18
100
AcDbLine
 10
7578391.74
 20
5721411.370000001
 30
0.0
 11
7578380.719999999
 21
5721241.7
 31
0.0
  0
LINE
  5
1000132
330
15
100
AcDbEntity
  8
dzialka
  6
Continuous
370
    18
100
AcDbLine
 10
7578380.719999999
 20
5721241.7
 30
0.0
 11
7578373.73
 21
5721239.87
 31
0.0
  0
LINE
  5
1000133
330
15
100
AcDbEntity
  8
dzialka
  6
Continuous
370
    18
100
AcDbLine
 10
7578364.86
 20
5721096.549999999
 30
0.0
 11
7578373.38
 21
5721234.1
 31
0.0
  0
LINE
  5
1000134
330
15
100
AcDbEntity
  8
dzialka
  6
Continuous
370
    18
100
AcDbLine
 10
7578373.38
 20
5721234.1
 30
0.0
 11
7578380.339999999
 21
5721235.89
 31
0.0
  0
LINE
  5
1000135
330
15
100
AcDbEntity
  8
dzialka
  6
Continuous
370
    18
100
AcDbLine
 10
7578380.339999999
 20
5721235.89
 30
0.0
 11
7578371.429999999
 21
5721098.669999999
 31
0.0
  0
LINE
  5
1000136
330
15
100
AcDbEntity
  8
dzialka
  6
Continuous
370
    18
100
AcDbLine
 10
7578371.429999999
 20
5721098.669999999
 30
0.0
 11
7578370.190000001
 21
5721098.269999999
 31
0.0
  0
LINE
  5
1000137
330
15
100
AcDbEntity
  8
dzialka
  6
Continuous
370
    18
100
AcDbLine
 10
7578370.190000001
 20
5721098.269999999
 30
0.0
 11
7578364.86
 21
5721096.549999999
 31
0.0
  0
LINE
  5
1000138
330
15
100
AcDbEntity
  8
dzialka
  6
Continuous
370
    18
100
AcDbLine
 10
7578380.719999999
 20
5721241.7
 30
0.0
 11
7578391.74
 21
5721411.370000001
 31
0.0
  0
LINE
  5
1000139
330
15
100
AcDbEntity
  8
dzialka
  6
Continuous
370
    18
100
AcDbLine
 10
7578391.74
 20
5721411.370000001
 30
0.0
 11
7578396.580000001
 21
5721407.08
 31
0.0
  0
LINE
  5
100013A
330
15
100
AcDbEntity
  8
dzialka
  6
Continuous
370
    18
100
AcDbLine
 10
7578396.580000001
 20
5721407.08
 30
0.0
 11
7578386.690000001
 21
5721243.27
 31
0.0
  0
LINE
  5
100013B
330
15
100
AcDbEntity
  8
dzialka
  6
Continuous
370
    18
100
AcDbLine
 10
7578386.690000001
 20
5721243.27
 30
0.0
 11
7578380.719999999
 21
5721241.7
 31
0.0
  0
LINE
  5
100013C
330
15
100
AcDbEntity
  8
dzialka
  6
Continuous
370
    18
100
AcDbLine
 10
7578371.429999999
 20
5721098.669999999
 30
0.0
 11
7578380.339999999
 21
5721235.89
 31
0.0
  0
LINE
  5
100013D
330
15
100
AcDbEntity
  8
dzialka
  6
Continuous
370
    18
100
AcDbLine
 10
7578380.339999999
 20
5721235.89
 30
0.0
 11
7578386.34
 21
5721237.43
 31
0.0
  0
LINE
  5
100013E
330
15
100
AcDbEntity
  8
dzialka
  6
Continuous
370
    18
100
AcDbLine
 10
7578386.34
 20
5721237.43
 30
0.0
 11
7578378.09
 21
5721100.82
 31
0.0
  0
LINE
  5
100013F
330
15
100
AcDbEntity
  8
dzialka
  6
Continuous
370
    18
100
AcDbLine
 10
7578378.09
 20
5721100.82
 30
0.0
 11
7578371.429999999
 21
5721098.669999999
 31
0.0
  0
LINE
  5
1000140
330
15
100
AcDbEntity
  8
dzialka
  6
Continuous
370
    18
100
AcDbLine
 10
7578386.690000001
 20
5721243.27
 30
0.0
 11
7578396.580000001
 21
5721407.08
 31
0.0
  0
LINE
  5
1000141
330
15
100
AcDbEntity
  8
dzialka
  6
Continuous
370
    18
100
AcDbLine
 10
7578396.580000001
 20
5721407.08
 30
0.0
 11
7578398.59
 21
5721405.289999999
 31
0.0
  0
LINE
  5
1000142
330
15
100
AcDbEntity
  8
dzialka
  6
Continuous
370
    18
100
AcDbLine
 10
7578398.59
 20
5721405.289999999
 30
0.0
 11
7578388.959999999
 21
5721243.870000001
 31
0.0
  0
LINE
  5
1000143
330
15
100
AcDbEntity
  8
dzialka
  6
Continuous
370
    18
100
AcDbLine
 10
7578388.959999999
 20
5721243.870000001
 30
0.0
 11
7578386.690000001
 21
5721243.27
 31
0.0
  0
LINE
  5
1000144
330
15
100
AcDbEntity
  8
dzialka
  6
Continuous
370
    18
100
AcDbLine
 10
7578378.09
 20
5721100.82
 30
0.0
 11
7578386.34
 21
5721237.43
 31
0.0
  0
LINE
  5
1000145
330
15
100
AcDbEntity
  8
dzialka
  6
Continuous
370
    18
100
AcDbLine
 10
7578386.34
 20
5721237.43
 30
0.0
 11
7578388.610000001
 21
5721238.009999999
 31
0.0
  0
LINE
  5
1000146
330
15
100
AcDbEntity
  8
dzialka
  6
Continuous
370
    18
100
AcDbLine
 10
7578388.610000001
 20
5721238.009999999
 30
0.0
 11
7578380.469999999
 21
5721101.599999999
 31
0.0
  0
LINE
  5
1000147
330
15
100
AcDbEntity
  8
dzialka
  6
Continuous
370
    18
100
AcDbLine
 10
7578380.469999999
 20
5721101.599999999
 30
0.0
 11
7578378.09
 21
5721100.82
 31
0.0
  0
LINE
  5
1000148
330
15
100
AcDbEntity
  8
dzialka
  6
Continuous
370
    18
100
AcDbLine
 10
7578388.959999999
 20
5721243.870000001
 30
0.0
 11
7578398.59
 21
5721405.289999999
 31
0.0
  0
LINE
  5
1000149
330
15
100
AcDbEntity
  8
dzialka
  6
Continuous
370
    18
100
AcDbLine
 10
7578398.59
 20
5721405.289999999
 30
0.0
 11
7578405.59
 21
5721399.08
 31
0.0
  0
LINE
  5
100014A
330
15
100
AcDbEntity
  8
dzialka
  6
Continuous
370
    18
100
AcDbLine
 10
7578405.59
 20
5721399.08
 30
0.0
 11
7578401.980000001
 21
5721333.11
 31
0.0
  0
LINE
  5
100014B
330
15
100
AcDbEntity
  8
dzialka
  6
Continuous
370
    18
100
AcDbLine
 10
7578401.980000001
 20
5721333.11
 30
0.0
 11
7578399.25
 21
5721283.18
 31
0.0
  0
LINE
  5
100014C
330
15
100
AcDbEntity
  8
dzialka
  6
Continuous
370
    18
100
AcDbLine
 10
7578399.25
 20
5721283.18
 30
0.0
 11
7578397.219999999
 21
5721246.030000001
 31
0.0
  0
LINE
  5
100014D
330
15
100
AcDbEntity
  8
dzialka
  6
Continuous
370
    18
100
AcDbLine
 10
7578397.219999999
 20
5721246.030000001
 30
0.0
 11
7578388.959999999
 21
5721243.870000001
 31
0.0
  0
LINE
  5
100014E
330
15
100
AcDbEntity
  8
dzialka
  6
Continuous
370
    18
100
AcDbLine
 10
7578380.469999999
 20
5721101.599999999
 30
0.0
 11
7578388.610000001
 21
5721238.009999999
 31
0.0
  0
LINE
  5
100014F
330
15
100
AcDbEntity
  8
dzialka
  6
Continuous
370
    18
100
AcDbLine
 10
7578388.610000001
 20
5721238.009999999
 30
0.0
 11
7578396.889999999
 21
5721240.139999999
 31
0.0
  0
LINE
  5
1000150
330
15
100
AcDbEntity
  8
dzialka
  6
Continuous
370
    18
100
AcDbLine
 10
7578396.889999999
 20
5721240.139999999
 30
0.0
 11
7578396.519999999
 21
5721233.25
 31
0.0
  0
LINE
  5
1000151
330
15
100
AcDbEntity
  8
dzialka
  6
Continuous
370
    18
100
AcDbLine
 10
7578396.519999999
 20
5721233.25
 30
0.0
 11
7578394.900000001
 21
5721203.610000001
 31
0.0
  0
LINE
  5
1000152
330
15
100
AcDbEntity
  8
dzialka
  6
Continuous
370
    18
100
AcDbLine
 10
7578394.900000001
 20
5721203.610000001
 30
0.0
 11
7578390.04
 21
5721114.78
 31
0.0
  0
LINE
  5
1000153
330
15
100
AcDbEntity
  8
dzialka
  6
Continuous
370
    18
100
AcDbLine
 10
7578390.04
 20
5721114.78
 30
0.0
 11
7578383.8
 21
5721102.67
 31
0.0
  0
LINE
  5
1000154
330
15
100
AcDbEntity
  8
dzialka
  6
Continuous
370
    18
100
AcDbLine
 10
7578383.8
 20
5721102.67
 30
0.0
 11
7578380.469999999
 21
5721101.599999999
 31
0.0
  0
LINE
  5
1000155
330
15
100
AcDbEntity
  8
dzialka
  6
Continuous
370
    18
100
AcDbLine
 10
7578401.980000001
 20
5721333.11
 30
0.0
 11
7578405.59
 21
5721399.08
 31
0.0
  0
LINE
  5
1000156
330
15
100
AcDbEntity
  8
dzialka
  6
Continuous
370
    18
100
AcDbLine
 10
7578405.59
 20
5721399.08
 30
0.0
 11
7578412.17
 21
5721393.240000001
 31
0.0
  0
LINE
  5
1000157
330
15
100
AcDbEntity
  8
dzialka
  6
Continuous
370
    18
100
AcDbLine
 10
7578412.17
 20
5721393.240000001
 30
0.0
 11
7578403.889999999
 21
5721247.789999999
 31
0.0
  0
LINE
  5
1000158
330
15
100
AcDbEntity
  8
dzialka
  6
Continuous
370
    18
100
AcDbLine
 10
7578403.889999999
 20
5721247.789999999
 30
0.0
 11
7578397.219999999
 21
5721246.030000001
 31
0.0
  0
LINE
  5
1000159
330
15
100
AcDbEntity
  8
dzialka
  6
Continuous
370
    18
100
AcDbLine
 10
7578397.219999999
 20
5721246.030000001
 30
0.0
 11
7578399.25
 21
5721283.18
 31
0.0
  0
LINE
  5
100015A
330
15
100
AcDbEntity
  8
dzialka
  6
Continuous
370
    18
100
AcDbLine
 10
7578399.25
 20
5721283.18
 30
0.0
 11
7578401.980000001
 21
5721333.11
 31
0.0
  0
LINE
  5
100015B
330
15
100
AcDbEntity
  8
dzialka
  6
Continuous
370
    18
100
AcDbLine
 10
7578394.900000001
 20
5721203.610000001
 30
0.0
 11
7578396.519999999
 21
5721233.25
 31
0.0
  0
LINE
  5
100015C
330
15
100
AcDbEntity
  8
dzialka
  6
Continuous
370
    18
100
AcDbLine
 10
7578396.519999999
 20
5721233.25
 30
0.0
 11
7578396.889999999
 21
5721240.139999999
 31
0.0
  0
LINE
  5
100015D
330
15
100
AcDbEntity
  8
dzialka
  6
Continuous
370
    18
100
AcDbLine
 10
7578396.889999999
 20
5721240.139999999
 30
0.0
 11
7578403.55
 21
5721241.84
 31
0.0
  0
LINE
  5
100015E
330
15
100
AcDbEntity
  8
dzialka
  6
Continuous
370
    18
100
AcDbLine
 10
7578403.55
 20
5721241.84
 30
0.0
 11
7578397.099999998
 21
5721128.499999999
 31
0.0
  0
LINE
  5
100015F
330
15
100
AcDbEntity
  8
dzialka
  6
Continuous
370
    18
100
AcDbLine
 10
7578397.099999998
 20
5721128.499999999
 30
0.0
 11
7578390.04
 21
5721114.78
 31
0.0
  0
LINE
  5
1000160
330
15
100
AcDbEntity
  8
dzialka
  6
Continuous
370
    18
100
AcDbLine
 10
7578390.04
 20
5721114.78
 30
0.0
 11
7578394.900000001
 21
5721203.610000001
 31
0.0
  0
LINE
  5
1000161
330
15
100
AcDbEntity
  8
dzialka
  6
Continuous
370
    18
100
AcDbLine
 10
7578403.889999999
 20
5721247.789999999
 30
0.0
 11
7578412.17
 21
5721393.240000001
 31
0.0
  0
LINE
  5
1000162
330
15
100
AcDbEntity
  8
dzialka
  6
Continuous
370
    18
100
AcDbLine
 10
7578412.17
 20
5721393.240000001
 30
0.0
 11
7578418.09
 21
5721388.000000001
 31
0.0
  0
LINE
  5
1000163
330
15
100
AcDbEntity
  8
dzialka
  6
Continuous
370
    18
100
AcDbLine
 10
7578418.09
 20
5721388.000000001
 30
0.0
 11
7578409.889999999
 21
5721249.37
 31
0.0
  0
LINE
  5
1000164
330
15
100
AcDbEntity
  8
dzialka
  6
Continuous
370
    18
100
AcDbLine
 10
7578409.889999999
 20
5721249.37
 30
0.0
 11
7578403.889999999
 21
5721247.789999999
 31
0.0
  0
LINE
  5
1000165
330
15
100
AcDbEntity
  8
dzialka
  6
Continuous
370
    18
100
AcDbLine
 10
7578397.099999998
 20
5721128.499999999
 30
0.0
 11
7578403.55
 21
5721241.84
 31
0.0
  0
LINE
  5
1000166
330
15
100
AcDbEntity
  8
dzialka
  6
Continuous
370
    18
100
AcDbLine
 10
7578403.55
 20
5721241.84
 30
0.0
 11
7578409.539999999
 21
5721243.389999999
 31
0.0
  0
LINE
  5
1000167
330
15
100
AcDbEntity
  8
dzialka
  6
Continuous
370
    18
100
AcDbLine
 10
7578409.539999999
 20
5721243.389999999
 30
0.0
 11
7578403.49
 21
5721140.88
 31
0.0
  0
LINE
  5
1000168
330
15
100
AcDbEntity
  8
dzialka
  6
Continuous
370
    18
100
AcDbLine
 10
7578403.49
 20
5721140.88
 30
0.0
 11
7578397.099999998
 21
5721128.499999999
 31
0.0
  0
LINE
  5
1000169
330
15
100
AcDbEntity
  8
dzialka
  6
Continuous
370
    18
100
AcDbLine
 10
7578409.889999999
 20
5721249.37
 30
0.0
 11
7578418.09
 21
5721388.000000001
 31
0.0
  0
LINE
  5
100016A
330
15
100
AcDbEntity
  8
dzialka
  6
Continuous
370
    18
100
AcDbLine
 10
7578418.09
 20
5721388.000000001
 30
0.0
 11
7578425.65
 21
5721381.29
 31
0.0
  0
LINE
  5
100016B
330
15
100
AcDbEntity
  8
dzialka
  6
Continuous
370
    18
100
AcDbLine
 10
7578425.65
 20
5721381.29
 30
0.0
 11
7578417.59
 21
5721251.389999999
 31
0.0
  0
LINE
  5
100016C
330
15
100
AcDbEntity
  8
dzialka
  6
Continuous
370
    18
100
AcDbLine
 10
7578417.59
 20
5721251.389999999
 30
0.0
 11
7578409.889999999
 21
5721249.37
 31
0.0
  0
LINE
  5
100016D
330
15
100
AcDbEntity
  8
dzialka
  6
Continuous
370
    18
100
AcDbLine
 10
7578403.49
 20
5721140.88
 30
0.0
 11
7578409.539999999
 21
5721243.389999999
 31
0.0
  0
LINE
  5
100016E
330
15
100
AcDbEntity
  8
dzialka
  6
Continuous
370
    18
100
AcDbLine
 10
7578409.539999999
 20
5721243.389999999
 30
0.0
 11
7578417.219999998
 21
5721245.36
 31
0.0
  0
LINE
  5
100016F
330
15
100
AcDbEntity
  8
dzialka
  6
Continuous
370
    18
100
AcDbLine
 10
7578417.219999998
 20
5721245.36
 30
0.0
 11
7578411.739999999
 21
5721156.889999999
 31
0.0
  0
LINE
  5
1000170
330
15
100
AcDbEntity
  8
dzialka
  6
Continuous
370
    18
100
AcDbLine
 10
7578411.739999999
 20
5721156.889999999
 30
0.0
 11
7578406.07
 21
5721145.89
 31
0.0
  0
LINE
  5
1000171
330
15
100
AcDbEntity
  8
dzialka
  6
Continuous
370
    18
100
AcDbLine
 10
7578406.07
 20
5721145.89
 30
0.0
 11
7578403.49
 21
5721140.88
 31
0.0
  0
LINE
  5
1000172
330
15
100
AcDbEntity
  8
dzialka
  6
Continuous
370
    18
100
AcDbLine
 10
7578417.59
 20
5721251.389999999
 30
0.0
 11
7578425.65
 21
5721381.29
 31
0.0
  0
LINE
  5
1000173
330
15
100
AcDbEntity
  8
dzialka
  6
Continuous
370
    18
100
AcDbLine
 10
7578425.65
 20
5721381.29
 30
0.0
 11
7578436.629999999
 21
5721371.539999999
 31
0.0
  0
LINE
  5
1000174
330
15
100
AcDbEntity
  8
dzialka
  6
Continuous
370
    18
100
AcDbLine
 10
7578436.629999999
 20
5721371.539999999
 30
0.0
 11
7578428.83
 21
5721254.34
 31
0.0
  0
LINE
  5
1000175
330
15
100
AcDbEntity
  8
dzialka
  6
Continuous
370
    18
100
AcDbLine
 10
7578428.83
 20
5721254.34
 30
0.0
 11
7578417.59
 21
5721251.389999999
 31
0.0
  0
LINE
  5
1000176
330
15
100
AcDbEntity
  8
dzialka
  6
Continuous
370
    18
100
AcDbLine
 10
7578411.739999999
 20
5721156.889999999
 30
0.0
 11
7578417.219999998
 21
5721245.36
 31
0.0
  0
LINE
  5
1000177
330
15
100
AcDbEntity
  8
dzialka
  6
Continuous
370
    18
100
AcDbLine
 10
7578417.219999998
 20
5721245.36
 30
0.0
 11
7578428.42
 21
5721248.230000001
 31
0.0
  0
LINE
  5
1000178
330
15
100
AcDbEntity
  8
dzialka
  6
Continuous
370
    18
100
AcDbLine
 10
7578428.42
 20
5721248.230000001
 30
0.0
 11
7578423.91
 21
5721180.52
 31
0.0
  0
LINE
  5
1000179
330
15
100
AcDbEntity
  8
dzialka
  6
Continuous
370
    18
100
AcDbLine
 10
7578423.91
 20
5721180.52
 30
0.0
 11
7578411.739999999
 21
5721156.889999999
 31
0.0
  0
LINE
  5
100017A
330
15
100
AcDbEntity
  8
dzialka
  6
Continuous
370
    18
100
AcDbLine
 10
7578428.83
 20
5721254.34
 30
0.0
 11
7578436.629999999
 21
5721371.539999999
 31
0.0
  0
LINE
  5
100017B
330
15
100
AcDbEntity
  8
dzialka
  6
Continuous
370
    18
100
AcDbLine
 10
7578436.629999999
 20
5721371.539999999
 30
0.0
 11
7578440.83
 21
5721367.81
 31
0.0
  0
LINE
  5
100017C
330
15
100
AcDbEntity
  8
dzialka
  6
Continuous
370
    18
100
AcDbLine
 10
7578440.83
 20
5721367.81
 30
0.0
 11
7578448.780000001
 21
5721362.179999999
 31
0.0
  0
LINE
  5
100017D
330
15
100
AcDbEntity
  8
dzialka
  6
Continuous
370
    18
100
AcDbLine
 10
7578448.780000001
 20
5721362.179999999
 30
0.0
 11
7578441.24
 21
5721257.6
 31
0.0
  0
LINE
  5
100017E
330
15
100
AcDbEntity
  8
dzialka
  6
Continuous
370
    18
100
AcDbLine
 10
7578441.24
 20
5721257.6
 30
0.0
 11
7578428.83
 21
5721254.34
 31
0.0
  0
LINE
  5
100017F
330
15
100
AcDbEntity
  8
dzialka
  6
Continuous
370
    18
100
AcDbLine
 10
7578423.91
 20
5721180.52
 30
0.0
 11
7578428.42
 21
5721248.230000001
 31
0.0
  0
LINE
  5
1000180
330
15
100
AcDbEntity
  8
dzialka
  6
Continuous
370
    18
100
AcDbLine
 10
7578428.42
 20
5721248.230000001
 30
0.0
 11
7578440.790000001
 21
5721251.419999999
 31
0.0
  0
LINE
  5
1000181
330
15
100
AcDbEntity
  8
dzialka
  6
Continuous
370
    18
100
AcDbLine
 10
7578440.790000001
 20
5721251.419999999
 30
0.0
 11
7578437.59
 21
5721207.06
 31
0.0
  0
LINE
  5
1000182
330
15
100
AcDbEntity
  8
dzialka
  6
Continuous
370
    18
100
AcDbLine
 10
7578437.59
 20
5721207.06
 30
0.0
 11
7578432.42
 21
5721197.03
 31
0.0
  0
LINE
  5
1000183
330
15
100
AcDbEntity
  8
dzialka
  6
Continuous
370
    18
100
AcDbLine
 10
7578432.42
 20
5721197.03
 30
0.0
 11
7578423.91
 21
5721180.52
 31
0.0
  0
LINE
  5
1000184
330
15
100
AcDbEntity
  8
dzialka
  6
Continuous
370
    18
100
AcDbLine
 10
7578441.24
 20
5721257.6
 30
0.0
 11
7578448.780000001
 21
5721362.179999999
 31
0.0
  0
LINE
  5
1000185
330
15
100
AcDbEntity
  8
dzialka
  6
Continuous
370
    18
100
AcDbLine
 10
7578448.780000001
 20
5721362.179999999
 30
0.0
 11
7578475.7
 21
5721343.05
 31
0.0
  0
LINE
  5
1000186
330
15
100
AcDbEntity
  8
dzialka
  6
Continuous
370
    18
100
AcDbLine
 10
7578475.7
 20
5721343.05
 30
0.0
 11
7578470.469999999
 21
5721265.279999999
 31
0.0
  0
LINE
  5
1000187
330
15
100
AcDbEntity
  8
dzialka
  6
Continuous
370
    18
100
AcDbLine
 10
7578470.469999999
 20
5721265.279999999
 30
0.0
 11
7578441.24
 21
5721257.6
 31
0.0
  0
LINE
  5
1000188
330
15
100
AcDbEntity
  8
dzialka
  6
Continuous
370
    18
100
AcDbLine
 10
7578437.59
 20
5721207.06
 30
0.0
 11
7578440.790000001
 21
5721251.419999999
 31
0.0
  0
LINE
  5
1000189
330
15
100
AcDbEntity
  8
dzialka
  6
Continuous
370
    18
100
AcDbLine
 10
7578440.790000001
 20
5721251.419999999
 30
0.0
 11
7578470.04
 21
5721258.93
 31
0.0
  0
LINE
  5
100018A
330
15
100
AcDbEntity
  8
dzialka
  6
Continuous
370
    18
100
AcDbLine
 10
7578470.04
 20
5721258.93
 30
0.0
 11
7578467.759999999
 21
5721225.08
 31
0.0
  0
LINE
  5
100018B
330
15
100
AcDbEntity
  8
dzialka
  6
Continuous
370
    18
100
AcDbLine
 10
7578467.759999999
 20
5721225.08
 30
0.0
 11
7578450.039999999
 21
5721231.219999999
 31
0.0
  0
LINE
  5
100018C
330
15
100
AcDbEntity
  8
dzialka
  6
Continuous
370
    18
100
AcDbLine
 10
7578450.039999999
 20
5721231.219999999
 30
0.0
 11
7578441.92
 21
5721215.44
 31
0.0
  0
LINE
  5
100018D
330
15
100
AcDbEntity
  8
dzialka
  6
Continuous
370
    18
100
AcDbLine
 10
7578441.92
 20
5721215.44
 30
0.0
 11
7578437.59
 21
5721207.06
 31
0.0
  0
LINE
  5
100018E
330
15
100
AcDbEntity
  8
dzialka
  6
Continuous
 62
     5
370
    18
100
AcDbLine
 10
7578470.469999999
 20
5721265.279999999
 30
0.0
 11
7578475.7
 21
5721343.05
 31
0.0
  0
LINE
  5
100018F
330
15
100
AcDbEntity
  8
dzialka
  6
Continuous
 62
     5
370
    18
100
AcDbLine
 10
7578475.7
 20
5721343.05
 30
0.0
 11
7578476.58
 21
5721342.429999999
 31
0.0
  0
LINE
  5
1000190
330
15
100
AcDbEntity
  8
dzialka
  6
Continuous
 62
     5
370
    18
100
AcDbLine
 10
7578476.58
 20
5721342.429999999
 30
0.0
 11
7578486.009999998
 21
5721341.039999999
 31
0.0
  0
LINE
  5
1000191
330
15
100
AcDbEntity
  8
dzialka
  6
Continuous
 62
     5
370
    18
100
AcDbLine
 10
7578486.009999998
 20
5721341.039999999
 30
0.0
 11
7578479.54
 21
5721267.660000001
 31
0.0
  0
LINE
  5
1000192
330
15
100
AcDbEntity
  8
dzialka
  6
Continuous
 62
     5
370
    18
100
AcDbLine
 10
7578479.54
 20
5721267.660000001
 30
0.0
 11
7578470.469999999
 21
5721265.279999999
 31
0.0
  0
LINE
  5
1000193
330
15
100
AcDbEntity
  8
dzialka
  6
Continuous
370
    18
100
AcDbLine
 10
7578491.8
 20
5721270.889999999
 30
0.0
 11
7578495.110000001
 21
5721339.69
 31
0.0
  0
LINE
  5
1000194
330
15
100
AcDbEntity
  8
dzialka
  6
Continuous
370
    18
100
AcDbLine
 10
7578495.110000001
 20
5721339.69
 30
0.0
 11
7578510.05
 21
5721337.49
 31
0.0
  0
LINE
  5
1000195
330
15
100
AcDbEntity
  8
dzialka
  6
Continuous
370
    18
100
AcDbLine
 10
7578510.05
 20
5721337.49
 30
0.0
 11
7578509.63
 21
5721325.4
 31
0.0
  0
LINE
  5
1000196
330
15
100
AcDbEntity
  8
dzialka
  6
Continuous
370
    18
100
AcDbLine
 10
7578509.63
 20
5721325.4
 30
0.0
 11
7578509.17
 21
5721312.219999999
 31
0.0
  0
LINE
  5
1000197
330
15
100
AcDbEntity
  8
dzialka
  6
Continuous
370
    18
100
AcDbLine
 10
7578509.17
 20
5721312.219999999
 30
0.0
 11
7578507.9
 21
5721275.11
 31
0.0
  0
LINE
  5
1000198
330
15
100
AcDbEntity
  8
dzialka
  6
Continuous
370
    18
100
AcDbLine
 10
7578507.9
 20
5721275.11
 30
0.0
 11
7578491.8
 21
5721270.889999999
 31
0.0
  0
LINE
  5
1000199
330
15
100
AcDbEntity
  8
dzialka
  6
Continuous
370
    18
100
AcDbLine
 10
7578489.230000001
 20
5721217.639999999
 30
0.0
 11
7578491.5
 21
5721264.429999999
 31
0.0
  0
LINE
  5
100019A
330
15
100
AcDbEntity
  8
dzialka
  6
Continuous
370
    18
100
AcDbLine
 10
7578491.5
 20
5721264.429999999
 30
0.0
 11
7578504.71
 21
5721267.83
 31
0.0
  0
LINE
  5
100019B
330
15
100
AcDbEntity
  8
dzialka
  6
Continuous
370
    18
100
AcDbLine
 10
7578504.71
 20
5721267.83
 30
0.0
 11
7578507.63
 21
5721267.1
 31
0.0
  0
LINE
  5
100019C
330
15
100
AcDbEntity
  8
dzialka
  6
Continuous
370
    18
100
AcDbLine
 10
7578507.63
 20
5721267.1
 30
0.0
 11
7578504.259999999
 21
5721212.02
 31
0.0
  0
LINE
  5
100019D
330
15
100
AcDbEntity
  8
dzialka
  6
Continuous
370
    18
100
AcDbLine
 10
7578504.259999999
 20
5721212.02
 30
0.0
 11
7578496.120000001
 21
5721215.24
 31
0.0
  0
LINE
  5
100019E
330
15
100
AcDbEntity
  8
dzialka
  6
Continuous
370
    18
100
AcDbLine
 10
7578496.120000001
 20
5721215.24
 30
0.0
 11
7578489.230000001
 21
5721217.639999999
 31
0.0
  0
LINE
  5
100019F
330
15
100
AcDbEntity
  8
dzialka
  6
Continuous
370
    18
100
AcDbLine
 10
7578509.63
 20
5721325.4
 30
0.0
 11
7578510.05
 21
5721337.49
 31
0.0
  0
LINE
  5
10001A0
330
15
100
AcDbEntity
  8
dzialka
  6
Continuous
370
    18
100
AcDbLine
 10
7578510.05
 20
5721337.49
 30
0.0
 11
7578602.259999999
 21
5721323.919999999
 31
0.0
  0
LINE
  5
10001A1
330
15
100
AcDbEntity
  8
dzialka
  6
Continuous
370
    18
100
AcDbLine
 10
7578602.259999999
 20
5721323.919999999
 30
0.0
 11
7578509.63
 21
5721325.4
 31
0.0
  0
LINE
  5
10001A2
330
15
100
AcDbEntity
  8
dzialka
  6
Continuous
370
    18
100
AcDbLine
 10
7578509.17
 20
5721312.219999999
 30
0.0
 11
7578509.63
 21
5721325.4
 31
0.0
  0
LINE
  5
10001A3
330
15
100
AcDbEntity
  8
dzialka
  6
Continuous
370
    18
100
AcDbLine
 10
7578509.63
 20
5721325.4
 30
0.0
 11
7578602.259999999
 21
5721323.919999999
 31
0.0
  0
LINE
  5
10001A4
330
15
100
AcDbEntity
  8
dzialka
  6
Continuous
370
    18
100
AcDbLine
 10
7578602.259999999
 20
5721323.919999999
 30
0.0
 11
7578509.17
 21
5721312.219999999
 31
0.0
  0
LINE
  5
10001A5
330
15
100
AcDbEntity
  8
dzialka
  6
Continuous
370
    18
100
AcDbLine
 10
7578507.9
 20
5721275.11
 30
0.0
 11
7578509.17
 21
5721312.219999999
 31
0.0
  0
LINE
  5
10001A6
330
15
100
AcDbEntity
  8
dzialka
  6
Continuous
370
    18
100
AcDbLine
 10
7578509.17
 20
5721312.219999999
 30
0.0
 11
7578602.259999999
 21
5721323.919999999
 31
0.0
  0
LINE
  5
10001A7
330
15
100
AcDbEntity
  8
dzialka
  6
Continuous
370
    18
100
AcDbLine
 10
7578602.259999999
 20
5721323.919999999
 30
0.0
 11
7578507.9
 21
5721275.11
 31
0.0
  0
LINE
  5
10001A8
330
15
100
AcDbEntity
  8
dzialka
  6
Continuous
370
    18
100
AcDbLine
 10
7578239.639999999
 20
5721202.18
 30
0.0
 11
7578239.820000001
 21
5721204.69
 31
0.0
  0
LINE
  5
10001A9
330
15
100
AcDbEntity
  8
dzialka
  6
Continuous
370
    18
100
AcDbLine
 10
7578239.820000001
 20
5721204.69
 30
0.0
 11
7578243.96
 21
5721205.78
 31
0.0
  0
LINE
  5
10001AA
330
15
100
AcDbEntity
  8
dzialka
  6
Continuous
370
    18
100
AcDbLine
 10
7578243.96
 20
5721205.78
 30
0.0
 11
7578248.849999998
 21
5721207.06
 31
0.0
  0
LINE
  5
10001AB
330
15
100
AcDbEntity
  8
dzialka
  6
Continuous
370
    18
100
AcDbLine
 10
7578248.849999998
 20
5721207.06
 30
0.0
 11
7578255.86
 21
5721208.9
 31
0.0
  0
LINE
  5
10001AC
330
15
100
AcDbEntity
  8
dzialka
  6
Continuous
370
    18
100
AcDbLine
 10
7578255.86
 20
5721208.9
 30
0.0
 11
7578258.009999999
 21
5721209.469999999
 31
0.0
  0
LINE
  5
10001AD
330
15
100
AcDbEntity
  8
dzialka
  6
Continuous
370
    18
100
AcDbLine
 10
7578258.009999999
 20
5721209.469999999
 30
0.0
 11
7578261.78
 21
5721210.459999999
 31
0.0
  0
LINE
  5
10001AE
330
15
100
AcDbEntity
  8
dzialka
  6
Continuous
370
    18
100
AcDbLine
 10
7578261.78
 20
5721210.459999999
 30
0.0
 11
7578267.63
 21
5721212.0
 31
0.0
  0
LINE
  5
10001AF
330
15
100
AcDbEntity
  8
dzialka
  6
Continuous
370
    18
100
AcDbLine
 10
7578267.63
 20
5721212.0
 30
0.0
 11
7578271.259999999
 21
5721212.94
 31
0.0
  0
LINE
  5
10001B0
330
15
100
AcDbEntity
  8
dzialka
  6
Continuous
370
    18
100
AcDbLine
 10
7578271.259999999
 20
5721212.94
 30
0.0
 11
7578280.349999999
 21
5721215.339999999
 31
0.0
  0
LINE
  5
10001B1
330
15
100
AcDbEntity
  8
dzialka
  6
Continuous
370
    18
100
AcDbLine
 10
7578280.349999999
 20
5721215.339999999
 30
0.0
 11
7578288.16
 21
5721217.39
 31
0.0
  0
LINE
  5
10001B2
330
15
100
AcDbEntity
  8
dzialka
  6
Continuous
370
    18
100
AcDbLine
 10
7578288.16
 20
5721217.39
 30
0.0
 11
7578295.99
 21
5721219.440000001
 31
0.0
  0
LINE
  5
10001B3
330
15
100
AcDbEntity
  8
dzialka
  6
Continuous
370
    18
100
AcDbLine
 10
7578295.99
 20
5721219.440000001
 30
0.0
 11
7578302.41
 21
5721221.129999999
 31
0.0
  0
LINE
  5
10001B4
330
15
100
AcDbEntity
  8
dzialka
  6
Continuous
370
    18
100
AcDbLine
 10
7578302.41
 20
5721221.129999999
 30
0.0
 11
7578309.53
 21
5721222.99
 31
0.0
  0
LINE
  5
10001B5
330
15
100
AcDbEntity
  8
dzialka
  6
Continuous
370
    18
100
AcDbLine
 10
7578309.53
 20
5721222.99
 30
0.0
 11
7578316.540000001
 21
5721224.839999999
 31
0.0
  0
LINE
  5
10001B6
330
15
100
AcDbEntity
  8
dzialka
  6
Continuous
370
    18
100
AcDbLine
 10
7578316.540000001
 20
5721224.839999999
 30
0.0
 11
7578323.36
 21
5721226.64
 31
0.0
  0
LINE
  5
10001B7
330
15
100
AcDbEntity
  8
dzialka
  6
Continuous
370
    18
100
AcDbLine
 10
7578323.36
 20
5721226.64
 30
0.0
 11
7578328.91
 21
5721228.099999999
 31
0.0
  0
LINE
  5
10001B8
330
15
100
AcDbEntity
  8
dzialka
  6
Continuous
370
    18
100
AcDbLine
 10
7578328.91
 20
5721228.099999999
 30
0.0
 11
7578333.309999999
 21
5721229.25
 31
0.0
  0
LINE
  5
10001B9
330
15
100
AcDbEntity
  8
dzialka
  6
Continuous
370
    18
100
AcDbLine
 10
7578333.309999999
 20
5721229.25
 30
0.0
 11
7578336.76
 21
5721230.15
 31
0.0
  0
LINE
  5
10001BA
330
15
100
AcDbEntity
  8
dzialka
  6
Continuous
370
    18
100
AcDbLine
 10
7578336.76
 20
5721230.15
 30
0.0
 11
7578343.41
 21
5721231.91
 31
0.0
  0
LINE
  5
10001BB
330
15
100
AcDbEntity
  8
dzialka
  6
Continuous
370
    18
100
AcDbLine
 10
7578343.41
 20
5721231.91
 30
0.0
 11
7578353.400000001
 21
5721234.519999999
 31
0.0
  0
LINE
  5
10001BC
330
15
100
AcDbEntity
  8
dzialka
  6
Continuous
370
    18
100
AcDbLine
 10
7578353.400000001
 20
5721234.519999999
 30
0.0
 11
7578362.66
 21
5721236.959999999
 31
0.0
  0
LINE
  5
10001BD
330
15
100
AcDbEntity
  8
dzialka
  6
Continuous
370
    18
100
AcDbLine
 10
7578362.66
 20
5721236.959999999
 30
0.0
 11
7578371.269999998
 21
5721239.22
 31
0.0
  0
LINE
  5
10001BE
330
15
100
AcDbEntity
  8
dzialka
  6
Continuous
370
    18
100
AcDbLine
 10
7578371.269999998
 20
5721239.22
 30
0.0
 11
7578373.73
 21
5721239.87
 31
0.0
  0
LINE
  5
10001BF
330
15
100
AcDbEntity
  8
dzialka
  6
Continuous
370
    18
100
AcDbLine
 10
7578373.73
 20
5721239.87
 30
0.0
 11
7578380.719999999
 21
5721241.7
 31
0.0
  0
LINE
  5
10001C0
330
15
100
AcDbEntity
  8
dzialka
  6
Continuous
370
    18
100
AcDbLine
 10
7578380.719999999
 20
5721241.7
 30
0.0
 11
7578386.690000001
 21
5721243.27
 31
0.0
  0
LINE
  5
10001C1
330
15
100
AcDbEntity
  8
dzialka
  6
Continuous
370
    18
100
AcDbLine
 10
7578386.690000001
 20
5721243.27
 30
0.0
 11
7578388.959999999
 21
5721243.870000001
 31
0.0
  0
LINE
  5
10001C2
330
15
100
AcDbEntity
  8
dzialka
  6
Continuous
370
    18
100
AcDbLine
 10
7578388.959999999
 20
5721243.870000001
 30
0.0
 11
7578397.219999999
 21
5721246.030000001
 31
0.0
  0
LINE
  5
10001C3
330
15
100
AcDbEntity
  8
dzialka
  6
Continuous
370
    18
100
AcDbLine
 10
7578397.219999999
 20
5721246.030000001
 30
0.0
 11
7578403.889999999
 21
5721247.789999999
 31
0.0
  0
LINE
  5
10001C4
330
15
100
AcDbEntity
  8
dzialka
  6
Continuous
370
    18
100
AcDbLine
 10
7578403.889999999
 20
5721247.789999999
 30
0.0
 11
7578409.889999999
 21
5721249.37
 31
0.0
  0
LINE
  5
10001C5
330
15
100
AcDbEntity
  8
dzialka
  6
Continuous
370
    18
100
AcDbLine
 10
7578409.889999999
 20
5721249.37
 30
0.0
 11
7578417.59
 21
5721251.389999999
 31
0.0
  0
LINE
  5
10001C6
330
15
100
AcDbEntity
  8
dzialka
  6
Continuous
370
    18
100
AcDbLine
 10
7578417.59
 20
5721251.389999999
 30
0.0
 11
7578428.83
 21
5721254.34
 31
0.0
  0
LINE
  5
10001C7
330
15
100
AcDbEntity
  8
dzialka
  6
Continuous
370
    18
100
AcDbLine
 10
7578428.83
 20
5721254.34
 30
0.0
 11
7578441.24
 21
5721257.6
 31
0.0
  0
LINE
  5
10001C8
330
15
100
AcDbEntity
  8
dzialka
  6
Continuous
370
    18
100
AcDbLine
 10
7578441.24
 20
5721257.6
 30
0.0
 11
7578470.469999999
 21
5721265.279999999
 31
0.0
  0
LINE
  5
10001C9
330
15
100
AcDbEntity
  8
dzialka
  6
Continuous
370
    18
100
AcDbLine
 10
7578470.469999999
 20
5721265.279999999
 30
0.0
 11
7578479.54
 21
5721267.660000001
 31
0.0
  0
LINE
  5
10001CA
330
15
100
AcDbEntity
  8
dzialka
  6
Continuous
370
    18
100
AcDbLine
 10
7578479.54
 20
5721267.660000001
 30
0.0
 11
7578491.8
 21
5721270.889999999
 31
0.0
  0
LINE
  5
10001CB
330
15
100
AcDbEntity
  8
dzialka
  6
Continuous
370
    18
100
AcDbLine
 10
7578491.8
 20
5721270.889999999
 30
0.0
 11
7578507.9
 21
5721275.11
 31
0.0
  0
LINE
  5
10001CC
330
15
100
AcDbEntity
  8
dzialka
  6
Continuous
370
    18
100
AcDbLine
 10
7578507.9
 20
5721275.11
 30
0.0
 11
7578602.259999999
 21
5721323.919999999
 31
0.0
  0
LINE
  5
10001CD
330
15
100
AcDbEntity
  8
dzialka
  6
Continuous
370
    18
100
AcDbLine
 10
7578602.259999999
 20
5721323.919999999
 30
0.0
 11
7578610.73
 21
5721322.670000001
 31
0.0
  0
LINE
  5
10001CE
330
15
100
AcDbEntity
  8
dzialka
  6
Continuous
370
    18
100
AcDbLine
 10
7578610.73
 20
5721322.670000001
 30
0.0
 11
7578504.71
 21
5721267.83
 31
0.0
  0
LINE
  5
10001CF
330
15
100
AcDbEntity
  8
dzialka
  6
Continuous
370
    18
100
AcDbLine
 10
7578504.71
 20
5721267.83
 30
0.0
 11
7578491.5
 21
5721264.429999999
 31
0.0
  0
LINE
  5
10001D0
330
15
100
AcDbEntity
  8
dzialka
  6
Continuous
370
    18
100
AcDbLine
 10
7578491.5
 20
5721264.429999999
 30
0.0
 11
7578478.969999999
 21
5721261.22
 31
0.0
  0
LINE
  5
10001D1
330
15
100
AcDbEntity
  8
dzialka
  6
Continuous
370
    18
100
AcDbLine
 10
7578478.969999999
 20
5721261.22
 30
0.0
 11
7578470.04
 21
5721258.93
 31
0.0
  0
LINE
  5
10001D2
330
15
100
AcDbEntity
  8
dzialka
  6
Continuous
370
    18
100
AcDbLine
 10
7578470.04
 20
5721258.93
 30
0.0
 11
7578440.790000001
 21
5721251.419999999
 31
0.0
  0
LINE
  5
10001D3
330
15
100
AcDbEntity
  8
dzialka
  6
Continuous
370
    18
100
AcDbLine
 10
7578440.790000001
 20
5721251.419999999
 30
0.0
 11
7578428.42
 21
5721248.230000001
 31
0.0
  0
LINE
  5
10001D4
330
15
100
AcDbEntity
  8
dzialka
  6
Continuous
370
    18
100
AcDbLine
 10
7578428.42
 20
5721248.230000001
 30
0.0
 11
7578417.219999998
 21
5721245.36
 31
0.0
  0
LINE
  5
10001D5
330
15
100
AcDbEntity
  8
dzialka
  6
Continuous
370
    18
100
AcDbLine
 10
7578417.219999998
 20
5721245.36
 30
0.0
 11
7578409.539999999
 21
5721243.389999999
 31
0.0
  0
LINE
  5
10001D6
330
15
100
AcDbEntity
  8
dzialka
  6
Continuous
370
    18
100
AcDbLine
 10
7578409.539999999
 20
5721243.389999999
 30
0.0
 11
7578403.55
 21
5721241.84
 31
0.0
  0
LINE
  5
10001D7
330
15
100
AcDbEntity
  8
dzialka
  6
Continuous
370
    18
100
AcDbLine
 10
7578403.55
 20
5721241.84
 30
0.0
 11
7578396.889999999
 21
5721240.139999999
 31
0.0
  0
LINE
  5
10001D8
330
15
100
AcDbEntity
  8
dzialka
  6
Continuous
370
    18
100
AcDbLine
 10
7578396.889999999
 20
5721240.139999999
 30
0.0
 11
7578388.610000001
 21
5721238.009999999
 31
0.0
  0
LINE
  5
10001D9
330
15
100
AcDbEntity
  8
dzialka
  6
Continuous
370
    18
100
AcDbLine
 10
7578388.610000001
 20
5721238.009999999
 30
0.0
 11
7578386.34
 21
5721237.43
 31
0.0
  0
LINE
  5
10001DA
330
15
100
AcDbEntity
  8
dzialka
  6
Continuous
370
    18
100
AcDbLine
 10
7578386.34
 20
5721237.43
 30
0.0
 11
7578380.339999999
 21
5721235.89
 31
0.0
  0
LINE
  5
10001DB
330
15
100
AcDbEntity
  8
dzialka
  6
Continuous
370
    18
100
AcDbLine
 10
7578380.339999999
 20
5721235.89
 30
0.0
 11
7578373.38
 21
5721234.1
 31
0.0
  0
LINE
  5
10001DC
330
15
100
AcDbEntity
  8
dzialka
  6
Continuous
370
    18
100
AcDbLine
 10
7578373.38
 20
5721234.1
 30
0.0
 11
7578370.910000001
 21
5721233.459999999
 31
0.0
  0
LINE
  5
10001DD
330
15
100
AcDbEntity
  8
dzialka
  6
Continuous
370
    18
100
AcDbLine
 10
7578370.910000001
 20
5721233.459999999
 30
0.0
 11
7578362.33
 21
5721231.259999999
 31
0.0
  0
LINE
  5
10001DE
330
15
100
AcDbEntity
  8
dzialka
  6
Continuous
370
    18
100
AcDbLine
 10
7578362.33
 20
5721231.259999999
 30
0.0
 11
7578353.03
 21
5721228.87
 31
0.0
  0
LINE
  5
10001DF
330
15
100
AcDbEntity
  8
dzialka
  6
Continuous
370
    18
100
AcDbLine
 10
7578353.03
 20
5721228.87
 30
0.0
 11
7578343.049999999
 21
5721226.299999999
 31
0.0
  0
LINE
  5
10001E0
330
15
100
AcDbEntity
  8
dzialka
  6
Continuous
370
    18
100
AcDbLine
 10
7578343.049999999
 20
5721226.299999999
 30
0.0
 11
7578336.389999999
 21
5721224.6
 31
0.0
  0
LINE
  5
10001E1
330
15
100
AcDbEntity
  8
dzialka
  6
Continuous
370
    18
100
AcDbLine
 10
7578336.389999999
 20
5721224.6
 30
0.0
 11
7578332.929999999
 21
5721223.71
 31
0.0
  0
LINE
  5
10001E2
330
15
100
AcDbEntity
  8
dzialka
  6
Continuous
370
    18
100
AcDbLine
 10
7578332.929999999
 20
5721223.71
 30
0.0
 11
7578328.530000001
 21
5721222.58
 31
0.0
  0
LINE
  5
10001E3
330
15
100
AcDbEntity
  8
dzialka
  6
Continuous
370
    18
100
AcDbLine
 10
7578328.530000001
 20
5721222.58
 30
0.0
 11
7578322.96
 21
5721221.149999999
 31
0.0
  0
LINE
  5
10001E4
330
15
100
AcDbEntity
  8
dzialka
  6
Continuous
370
    18
100
AcDbLine
 10
7578322.96
 20
5721221.149999999
 30
0.0
 11
7578316.17
 21
5721219.409999999
 31
0.0
  0
LINE
  5
10001E5
330
15
100
AcDbEntity
  8
dzialka
  6
Continuous
370
    18
100
AcDbLine
 10
7578316.17
 20
5721219.409999999
 30
0.0
 11
7578309.150000001
 21
5721217.6
 31
0.0
  0
LINE
  5
10001E6
330
15
100
AcDbEntity
  8
dzialka
  6
Continuous
370
    18
100
AcDbLine
 10
7578309.150000001
 20
5721217.6
 30
0.0
 11
7578302.030000001
 21
5721215.769999999
 31
0.0
  0
LINE
  5
10001E7
330
15
100
AcDbEntity
  8
dzialka
  6
Continuous
370
    18
100
AcDbLine
 10
7578302.030000001
 20
5721215.769999999
 30
0.0
 11
7578295.63
 21
5721214.129999999
 31
0.0
  0
LINE
  5
10001E8
330
15
100
AcDbEntity
  8
dzialka
  6
Continuous
370
    18
100
AcDbLine
 10
7578295.63
 20
5721214.129999999
 30
0.0
 11
7578287.82
 21
5721212.13
 31
0.0
  0
LINE
  5
10001E9
330
15
100
AcDbEntity
  8
dzialka
  6
Continuous
370
    18
100
AcDbLine
 10
7578287.82
 20
5721212.13
 30
0.0
 11
7578280.019999998
 21
5721210.11
 31
0.0
  0
LINE
  5
10001EA
330
15
100
AcDbEntity
  8
dzialka
  6
Continuous
370
    18
100
AcDbLine
 10
7578280.019999998
 20
5721210.11
 30
0.0
 11
7578270.96
 21
5721207.790000001
 31
0.0
  0
LINE
  5
10001EB
330
15
100
AcDbEntity
  8
dzialka
  6
Continuous
370
    18
100
AcDbLine
 10
7578270.96
 20
5721207.790000001
 30
0.0
 11
7578267.33
 21
5721206.860000001
 31
0.0
  0
LINE
  5
10001EC
330
15
100
AcDbEntity
  8
dzialka
  6
Continuous
370
    18
100
AcDbLine
 10
7578267.33
 20
5721206.860000001
 30
0.0
 11
7578261.46
 21
5721205.349999999
 31
0.0
  0
LINE
  5
10001ED
330
15
100
AcDbEntity
  8
dzialka
  6
Continuous
370
    18
100
AcDbLine
 10
7578261.46
 20
5721205.349999999
 30
0.0
 11
7578257.7
 21
5721204.38
 31
0.0
  0
LINE
  5
10001EE
330
15
100
AcDbEntity
  8
dzialka
  6
Continuous
370
    18
100
AcDbLine
 10
7578257.7
 20
5721204.38
 30
0.0
 11
7578255.54
 21
5721203.83
 31
0.0
  0
LINE
  5
10001EF
330
15
100
AcDbEntity
  8
dzialka
  6
Continuous
370
    18
100
AcDbLine
 10
7578255.54
 20
5721203.83
 30
0.0
 11
7578248.5
 21
5721202.019999999
 31
0.0
  0
LINE
  5
10001F0
330
15
100
AcDbEntity
  8
dzialka
  6
Continuous
370
    18
100
AcDbLine
 10
7578248.5
 20
5721202.019999999
 30
0.0
 11
7578243.620000001
 21
5721200.77
 31
0.0
  0
LINE
  5
10001F1
330
15
100
AcDbEntity
  8
dzialka
  6
Continuous
370
    18
100
AcDbLine
 10
7578243.620000001
 20
5721200.77
 30
0.0
 11
7578239.469999998
 21
5721199.7
 31
0.0
  0
LINE
  5
10001F2
330
15
100
AcDbEntity
  8
dzialka
  6
Continuous
370
    18
100
AcDbLine
 10
7578239.469999998
 20
5721199.7
 30
0.0
 11
7578239.639999999
 21
5721202.18
 31
0.0
  0
LINE
  5
10001F3
330
15
100
AcDbEntity
  8
dzialka
  6
Continuous
370
    18
100
AcDbLine
 10
7578504.259999999
 20
5721212.02
 30
0.0
 11
7578507.63
 21
5721267.1
 31
0.0
  0
LINE
  5
10001F4
330
15
100
AcDbEntity
  8
dzialka
  6
Continuous
370
    18
100
AcDbLine
 10
7578507.63
 20
5721267.1
 30
0.0
 11
7578521.78
 21
5721263.559999999
 31
0.0
  0
LINE
  5
10001F5
330
15
100
AcDbEntity
  8
dzialka
  6
Continuous
370
    18
100
AcDbLine
 10
7578521.78
 20
5721263.559999999
 30
0.0
 11
7578516.66
 21
5721206.17
 31
0.0
  0
LINE
  5
10001F6
330
15
100
AcDbEntity
  8
dzialka
  6
Continuous
370
    18
100
AcDbLine
 10
7578516.66
 20
5721206.17
 30
0.0
 11
7578505.37
 21
5721211.58
 31
0.0
  0
LINE
  5
10001F7
330
15
100
AcDbEntity
  8
dzialka
  6
Continuous
370
    18
100
AcDbLine
 10
7578505.37
 20
5721211.58
 30
0.0
 11
7578504.259999999
 21
5721212.02
 31
0.0
  0
LINE
  5
10001F8
330
15
100
AcDbEntity
  8
dzialka
  6
Continuous
370
    18
100
AcDbLine
 10
7578467.759999999
 20
5721225.08
 30
0.0
 11
7578475.54
 21
5721222.38
 31
0.0
  0
LINE
  5
10001F9
330
15
100
AcDbEntity
  8
dzialka
  6
Continuous
370
    18
100
AcDbLine
 10
7578475.54
 20
5721222.38
 30
0.0
 11
7578489.230000001
 21
5721217.639999999
 31
0.0
  0
LINE
  5
10001FA
330
15
100
AcDbEntity
  8
dzialka
  6
Continuous
370
    18
100
AcDbLine
 10
7578489.230000001
 20
5721217.639999999
 30
0.0
 11
7578496.120000001
 21
5721215.24
 31
0.0
  0
LINE
  5
10001FB
330
15
100
AcDbEntity
  8
dzialka
  6
Continuous
370
    18
100
AcDbLine
 10
7578496.120000001
 20
5721215.24
 30
0.0
 11
7578504.259999999
 21
5721212.02
 31
0.0
  0
LINE
  5
10001FC
330
15
100
AcDbEntity
  8
dzialka
  6
Continuous
370
    18
100
AcDbLine
 10
7578504.259999999
 20
5721212.02
 30
0.0
 11
7578505.37
 21
5721211.58
 31
0.0
  0
LINE
  5
10001FD
330
15
100
AcDbEntity
  8
dzialka
  6
Continuous
370
    18
100
AcDbLine
 10
7578505.37
 20
5721211.58
 30
0.0
 11
7578516.66
 21
5721206.17
 31
0.0
  0
LINE
  5
10001FE
330
15
100
AcDbEntity
  8
dzialka
  6
Continuous
370
    18
100
AcDbLine
 10
7578516.66
 20
5721206.17
 30
0.0
 11
7578524.960000001
 21
5721202.2
 31
0.0
  0
LINE
  5
10001FF
330
15
100
AcDbEntity
  8
dzialka
  6
Continuous
370
    18
100
AcDbLine
 10
7578524.960000001
 20
5721202.2
 30
0.0
 11
7578529.839999999
 21
5721200.34
 31
0.0
  0
LINE
  5
1000200
330
15
100
AcDbEntity
  8
dzialka
  6
Continuous
370
    18
100
AcDbLine
 10
7578529.839999999
 20
5721200.34
 30
0.0
 11
7578571.009999999
 21
5721184.759999999
 31
0.0
  0
LINE
  5
1000201
330
15
100
AcDbEntity
  8
dzialka
  6
Continuous
370
    18
100
AcDbLine
 10
7578571.009999999
 20
5721184.759999999
 30
0.0
 11
7578587.09
 21
5721178.67
 31
0.0
  0
LINE
  5
1000202
330
15
100
AcDbEntity
  8
dzialka
  6
Continuous
370
    18
100
AcDbLine
 10
7578587.09
 20
5721178.67
 30
0.0
 11
7578596.530000001
 21
5721175.09
 31
0.0
  0
LINE
  5
1000203
330
15
100
AcDbEntity
  8
dzialka
  6
Continuous
370
    18
100
AcDbLine
 10
7578596.530000001
 20
5721175.09
 30
0.0
 11
7578606.059999998
 21
5721171.49
 31
0.0
  0
LINE
  5
1000204
330
15
100
AcDbEntity
  8
dzialka
  6
Continuous
370
    18
100
AcDbLine
 10
7578606.059999998
 20
5721171.49
 30
0.0
 11
7578618.66
 21
5721166.71
 31
0.0
  0
LINE
  5
1000205
330
15
100
AcDbEntity
  8
dzialka
  6
Continuous
370
    18
100
AcDbLine
 10
7578618.66
 20
5721166.71
 30
0.0
 11
7578638.86
 21
5721159.070000001
 31
0.0
  0
LINE
  5
1000206
330
15
100
AcDbEntity
  8
dzialka
  6
Continuous
370
    18
100
AcDbLine
 10
7578638.86
 20
5721159.070000001
 30
0.0
 11
7578659.110000001
 21
5721151.4
 31
0.0
  0
LINE
  5
1000207
330
15
100
AcDbEntity
  8
dzialka
  6
Continuous
370
    18
100
AcDbLine
 10
7578659.110000001
 20
5721151.4
 30
0.0
 11
7578692.7
 21
5721138.67
 31
0.0
  0
LINE
  5
1000208
330
15
100
AcDbEntity
  8
dzialka
  6
Continuous
370
    18
100
AcDbLine
 10
7578692.7
 20
5721138.67
 30
0.0
 11
7578707.95
 21
5721132.91
 31
0.0
  0
LINE
  5
1000209
330
15
100
AcDbEntity
  8
dzialka
  6
Continuous
370
    18
100
AcDbLine
 10
7578707.95
 20
5721132.91
 30
0.0
 11
7578726.7
 21
5721125.81
 31
0.0
  0
LINE
  5
100020A
330
15
100
AcDbEntity
  8
dzialka
  6
Continuous
370
    18
100
AcDbLine
 10
7578726.7
 20
5721125.81
 30
0.0
 11
7578727.019999998
 21
5721125.69
 31
0.0
  0
LINE
  5
100020B
330
15
100
AcDbEntity
  8
dzialka
  6
Continuous
370
    18
100
AcDbLine
 10
7578727.019999998
 20
5721125.69
 30
0.0
 11
7578756.019999998
 21
5721115.919999999
 31
0.0
  0
LINE
  5
100020C
330
15
100
AcDbEntity
  8
dzialka
  6
Continuous
370
    18
100
AcDbLine
 10
7578756.019999998
 20
5721115.919999999
 30
0.0
 11
7578781.84
 21
5721107.24
 31
0.0
  0
LINE
  5
100020D
330
15
100
AcDbEntity
  8
dzialka
  6
Continuous
370
    18
100
AcDbLine
 10
7578781.84
 20
5721107.24
 30
0.0
 11
7578791.58
 21
5721103.98
 31
0.0
  0
LINE
  5
100020E
330
15
100
AcDbEntity
  8
dzialka
  6
Continuous
370
    18
100
AcDbLine
 10
7578791.58
 20
5721103.98
 30
0.0
 11
7578800.809999998
 21
5721100.869999999
 31
0.0
  0
LINE
  5
100020F
330
15
100
AcDbEntity
  8
dzialka
  6
Continuous
370
    18
100
AcDbLine
 10
7578800.809999998
 20
5721100.869999999
 30
0.0
 11
7578815.3
 21
5721095.99
 31
0.0
  0
LINE
  5
1000210
330
15
100
AcDbEntity
  8
dzialka
  6
Continuous
370
    18
100
AcDbLine
 10
7578815.3
 20
5721095.99
 30
0.0
 11
7578824.73
 21
5721092.819999999
 31
0.0
  0
LINE
  5
1000211
330
15
100
AcDbEntity
  8
dzialka
  6
Continuous
370
    18
100
AcDbLine
 10
7578824.73
 20
5721092.819999999
 30
0.0
 11
7578832.25
 21
5721090.290000001
 31
0.0
  0
LINE
  5
1000212
330
15
100
AcDbEntity
  8
dzialka
  6
Continuous
370
    18
100
AcDbLine
 10
7578832.25
 20
5721090.290000001
 30
0.0
 11
7578851.269999999
 21
5721085.54
 31
0.0
  0
LINE
  5
1000213
330
15
100
AcDbEntity
  8
dzialka
  6
Continuous
370
    18
100
AcDbLine
 10
7578851.269999999
 20
5721085.54
 30
0.0
 11
7578862.54
 21
5721082.73
 31
0.0
  0
LINE
  5
1000214
330
15
100
AcDbEntity
  8
dzialka
  6
Continuous
370
    18
100
AcDbLine
 10
7578862.54
 20
5721082.73
 30
0.0
 11
7578876.9
 21
5721079.14
 31
0.0
  0
LINE
  5
1000215
330
15
100
AcDbEntity
  8
dzialka
  6
Continuous
370
    18
100
AcDbLine
 10
7578876.9
 20
5721079.14
 30
0.0
 11
7578889.36
 21
5721076.03
 31
0.0
  0
LINE
  5
1000216
330
15
100
AcDbEntity
  8
dzialka
  6
Continuous
370
    18
100
AcDbLine
 10
7578889.36
 20
5721076.03
 30
0.0
 11
7578906.96
 21
5721071.629999999
 31
0.0
  0
LINE
  5
1000217
330
15
100
AcDbEntity
  8
dzialka
  6
Continuous
370
    18
100
AcDbLine
 10
7578906.96
 20
5721071.629999999
 30
0.0
 11
7578922.54
 21
5721067.740000001
 31
0.0
  0
LINE
  5
1000218
330
15
100
AcDbEntity
  8
dzialka
  6
Continuous
370
    18
100
AcDbLine
 10
7578922.54
 20
5721067.740000001
 30
0.0
 11
7578922.42
 21
5721066.219999999
 31
0.0
  0
LINE
  5
1000219
330
15
100
AcDbEntity
  8
dzialka
  6
Continuous
370
    18
100
AcDbLine
 10
7578922.42
 20
5721066.219999999
 30
0.0
 11
7578922.3
 21
5721064.7
 31
0.0
  0
LINE
  5
100021A
330
15
100
AcDbEntity
  8
dzialka
  6
Continuous
370
    18
100
AcDbLine
 10
7578922.3
 20
5721064.7
 30
0.0
 11
7578830.830000001
 21
5721087.15
 31
0.0
  0
LINE
  5
100021B
330
15
100
AcDbEntity
  8
dzialka
  6
Continuous
370
    18
100
AcDbLine
 10
7578830.830000001
 20
5721087.15
 30
0.0
 11
7578795.36
 21
5721099.04
 31
0.0
  0
LINE
  5
100021C
330
15
100
AcDbEntity
  8
dzialka
  6
Continuous
370
    18
100
AcDbLine
 10
7578795.36
 20
5721099.04
 30
0.0
 11
7578731.88
 21
5721120.320000001
 31
0.0
  0
LINE
  5
100021D
330
15
100
AcDbEntity
  8
dzialka
  6
Continuous
370
    18
100
AcDbLine
 10
7578731.88
 20
5721120.320000001
 30
0.0
 11
7578726.809999999
 21
5721122.38
 31
0.0
  0
LINE
  5
100021E
330
15
100
AcDbEntity
  8
dzialka
  6
Continuous
370
    18
100
AcDbLine
 10
7578726.809999999
 20
5721122.38
 30
0.0
 11
7578680.17
 21
5721140.07
 31
0.0
  0
LINE
  5
100021F
330
15
100
AcDbEntity
  8
dzialka
  6
Continuous
370
    18
100
AcDbLine
 10
7578680.17
 20
5721140.07
 30
0.0
 11
7578665.69
 21
5721145.56
 31
0.0
  0
LINE
  5
1000220
330
15
100
AcDbEntity
  8
dzialka
  6
Continuous
370
    18
100
AcDbLine
 10
7578665.69
 20
5721145.56
 30
0.0
 11
7578650.75
 21
5721151.23
 31
0.0
  0
LINE
  5
1000221
330
15
100
AcDbEntity
  8
dzialka
  6
Continuous
370
    18
100
AcDbLine
 10
7578650.75
 20
5721151.23
 30
0.0
 11
7578619.070000001
 21
5721163.25
 31
0.0
  0
LINE
  5
1000222
330
15
100
AcDbEntity
  8
dzialka
  6
Continuous
370
    18
100
AcDbLine
 10
7578619.070000001
 20
5721163.25
 30
0.0
 11
7578587.389999999
 21
5721175.259999999
 31
0.0
  0
LINE
  5
1000223
330
15
100
AcDbEntity
  8
dzialka
  6
Continuous
370
    18
100
AcDbLine
 10
7578587.389999999
 20
5721175.259999999
 30
0.0
 11
7578571.309999999
 21
5721181.36
 31
0.0
  0
LINE
  5
1000224
330
15
100
AcDbEntity
  8
dzialka
  6
Continuous
370
    18
100
AcDbLine
 10
7578571.309999999
 20
5721181.36
 30
0.0
 11
7578555.34
 21
5721187.409999999
 31
0.0
  0
LINE
  5
1000225
330
15
100
AcDbEntity
  8
dzialka
  6
Continuous
370
    18
100
AcDbLine
 10
7578555.34
 20
5721187.409999999
 30
0.0
 11
7578524.040000001
 21
5721199.29
 31
0.0
  0
LINE
  5
1000226
330
15
100
AcDbEntity
  8
dzialka
  6
Continuous
370
    18
100
AcDbLine
 10
7578524.040000001
 20
5721199.29
 30
0.0
 11
7578504.25
 21
5721208.79
 31
0.0
  0
LINE
  5
1000227
330
15
100
AcDbEntity
  8
dzialka
  6
Continuous
370
    18
100
AcDbLine
 10
7578504.25
 20
5721208.79
 30
0.0
 11
7578495.019999999
 21
5721212.46
 31
0.0
  0
LINE
  5
1000228
330
15
100
AcDbEntity
  8
dzialka
  6
Continuous
370
    18
100
AcDbLine
 10
7578495.019999999
 20
5721212.46
 30
0.0
 11
7578488.6
 21
5721214.66
 31
0.0
  0
LINE
  5
1000229
330
15
100
AcDbEntity
  8
dzialka
  6
Continuous
370
    18
100
AcDbLine
 10
7578488.6
 20
5721214.66
 30
0.0
 11
7578484.33
 21
5721216.14
 31
0.0
  0
LINE
  5
100022A
330
15
100
AcDbEntity
  8
dzialka
  6
Continuous
370
    18
100
AcDbLine
 10
7578484.33
 20
5721216.14
 30
0.0
 11
7578462.53
 21
5721223.65
 31
0.0
  0
LINE
  5
100022B
330
15
100
AcDbEntity
  8
dzialka
  6
Continuous
370
    18
100
AcDbLine
 10
7578462.53
 20
5721223.65
 30
0.0
 11
7578449.769999998
 21
5721228.049999999
 31
0.0
  0
LINE
  5
100022C
330
15
100
AcDbEntity
  8
dzialka
  6
Continuous
370
    18
100
AcDbLine
 10
7578449.769999998
 20
5721228.049999999
 30
0.0
 11
7578450.039999999
 21
5721231.219999999
 31
0.0
  0
LINE
  5
100022D
330
15
100
AcDbEntity
  8
dzialka
  6
Continuous
370
    18
100
AcDbLine
 10
7578450.039999999
 20
5721231.219999999
 30
0.0
 11
7578467.759999999
 21
5721225.08
 31
0.0
  0
LINE
  5
100022E
330
15
100
AcDbEntity
  8
dzialka
  6
Continuous
370
    18
100
AcDbLine
 10
7578270.860000001
 20
5721066.15
 30
0.0
 11
7578278.459999999
 21
5721068.620000001
 31
0.0
  0
LINE
  5
100022F
330
15
100
AcDbEntity
  8
dzialka
  6
Continuous
370
    18
100
AcDbLine
 10
7578278.459999999
 20
5721068.620000001
 30
0.0
 11
7578286.08
 21
5721071.08
 31
0.0
  0
LINE
  5
1000230
330
15
100
AcDbEntity
  8
dzialka
  6
Continuous
370
    18
100
AcDbLine
 10
7578286.08
 20
5721071.08
 30
0.0
 11
7578289.98
 21
5721072.34
 31
0.0
  0
LINE
  5
1000231
330
15
100
AcDbEntity
  8
dzialka
  6
Continuous
370
    18
100
AcDbLine
 10
7578289.98
 20
5721072.34
 30
0.0
 11
7578284.67
 21
5721002.910000001
 31
0.0
  0
LINE
  5
1000232
330
15
100
AcDbEntity
  8
dzialka
  6
Continuous
370
    18
100
AcDbLine
 10
7578284.67
 20
5721002.910000001
 30
0.0
 11
7578259.849999999
 21
5720598.7
 31
0.0
  0
LINE
  5
1000233
330
15
100
AcDbEntity
  8
dzialka
  6
Continuous
370
    18
100
AcDbLine
 10
7578259.849999999
 20
5720598.7
 30
0.0
 11
7578239.15
 21
5720601.19
 31
0.0
  0
LINE
  5
1000234
330
15
100
AcDbEntity
  8
dzialka
  6
Continuous
370
    18
100
AcDbLine
 10
7578239.15
 20
5720601.19
 30
0.0
 11
7578263.929999999
 21
5721004.389999999
 31
0.0
  0
LINE
  5
1000235
330
15
100
AcDbEntity
  8
dzialka
  6
Continuous
370
    18
100
AcDbLine
 10
7578263.929999999
 20
5721004.389999999
 30
0.0
 11
7578268.200000001
 21
5721065.3
 31
0.0
  0
LINE
  5
1000236
330
15
100
AcDbEntity
  8
dzialka
  6
Continuous
370
    18
100
AcDbLine
 10
7578268.200000001
 20
5721065.3
 30
0.0
 11
7578270.860000001
 21
5721066.15
 31
0.0
  0
LINE
  5
1000237
330
15
100
AcDbEntity
  8
dzialka
  6
Continuous
370
    18
100
AcDbLine
 10
7578292.17
 20
5721073.05
 30
0.0
 11
7578299.309999998
 21
5721075.360000001
 31
0.0
  0
LINE
  5
1000238
330
15
100
AcDbEntity
  8
dzialka
  6
Continuous
370
    18
100
AcDbLine
 10
7578299.309999998
 20
5721075.360000001
 30
0.0
 11
7578306.440000001
 21
5721077.669999999
 31
0.0
  0
LINE
  5
1000239
330
15
100
AcDbEntity
  8
dzialka
  6
Continuous
370
    18
100
AcDbLine
 10
7578306.440000001
 20
5721077.669999999
 30
0.0
 11
7578310.73
 21
5721079.049999999
 31
0.0
  0
LINE
  5
100023A
330
15
100
AcDbEntity
  8
dzialka
  6
Continuous
370
    18
100
AcDbLine
 10
7578310.73
 20
5721079.049999999
 30
0.0
 11
7578305.009999999
 21
5721001.47
 31
0.0
  0
LINE
  5
100023B
330
15
100
AcDbEntity
  8
dzialka
  6
Continuous
370
    18
100
AcDbLine
 10
7578305.009999999
 20
5721001.47
 30
0.0
 11
7578278.19
 21
5720596.5
 31
0.0
  0
LINE
  5
100023C
330
15
100
AcDbEntity
  8
dzialka
  6
Continuous
370
    18
100
AcDbLine
 10
7578278.19
 20
5720596.5
 30
0.0
 11
7578259.849999999
 21
5720598.7
 31
0.0
  0
LINE
  5
100023D
330
15
100
AcDbEntity
  8
dzialka
  6
Continuous
370
    18
100
AcDbLine
 10
7578259.849999999
 20
5720598.7
 30
0.0
 11
7578284.67
 21
5721002.910000001
 31
0.0
  0
LINE
  5
100023E
330
15
100
AcDbEntity
  8
dzialka
  6
Continuous
370
    18
100
AcDbLine
 10
7578284.67
 20
5721002.910000001
 30
0.0
 11
7578289.98
 21
5721072.34
 31
0.0
  0
LINE
  5
100023F
330
15
100
AcDbEntity
  8
dzialka
  6
Continuous
370
    18
100
AcDbLine
 10
7578289.98
 20
5721072.34
 30
0.0
 11
7578292.17
 21
5721073.05
 31
0.0
  0
LINE
  5
1000240
330
15
100
AcDbEntity
  8
dzialka
  6
Continuous
370
    18
100
AcDbLine
 10
7578312.63
 20
5721079.66
 30
0.0
 11
7578318.719999998
 21
5721081.629999999
 31
0.0
  0
LINE
  5
1000241
330
15
100
AcDbEntity
  8
dzialka
  6
Continuous
370
    18
100
AcDbLine
 10
7578318.719999998
 20
5721081.629999999
 30
0.0
 11
7578319.200000001
 21
5721081.78
 31
0.0
  0
LINE
  5
1000242
330
15
100
AcDbEntity
  8
dzialka
  6
Continuous
370
    18
100
AcDbLine
 10
7578319.200000001
 20
5721081.78
 30
0.0
 11
7578312.99
 21
5721000.909999999
 31
0.0
  0
LINE
  5
1000243
330
15
100
AcDbEntity
  8
dzialka
  6
Continuous
370
    18
100
AcDbLine
 10
7578312.99
 20
5721000.909999999
 30
0.0
 11
7578285.96
 21
5720595.56
 31
0.0
  0
LINE
  5
1000244
330
15
100
AcDbEntity
  8
dzialka
  6
Continuous
370
    18
100
AcDbLine
 10
7578285.96
 20
5720595.56
 30
0.0
 11
7578278.19
 21
5720596.5
 31
0.0
  0
LINE
  5
1000245
330
15
100
AcDbEntity
  8
dzialka
  6
Continuous
370
    18
100
AcDbLine
 10
7578278.19
 20
5720596.5
 30
0.0
 11
7578305.009999999
 21
5721001.47
 31
0.0
  0
LINE
  5
1000246
330
15
100
AcDbEntity
  8
dzialka
  6
Continuous
370
    18
100
AcDbLine
 10
7578305.009999999
 20
5721001.47
 30
0.0
 11
7578310.73
 21
5721079.049999999
 31
0.0
  0
LINE
  5
1000247
330
15
100
AcDbEntity
  8
dzialka
  6
Continuous
370
    18
100
AcDbLine
 10
7578310.73
 20
5721079.049999999
 30
0.0
 11
7578312.63
 21
5721079.66
 31
0.0
  0
LINE
  5
1000248
330
15
100
AcDbEntity
  8
dzialka
  6
Continuous
370
    18
100
AcDbLine
 10
7578323.38
 20
5721083.139999999
 30
0.0
 11
7578326.99
 21
5721084.31
 31
0.0
  0
LINE
  5
1000249
330
15
100
AcDbEntity
  8
dzialka
  6
Continuous
370
    18
100
AcDbLine
 10
7578326.99
 20
5721084.31
 30
0.0
 11
7578333.950000001
 21
5721086.549999999
 31
0.0
  0
LINE
  5
100024A
330
15
100
AcDbEntity
  8
dzialka
  6
Continuous
370
    18
100
AcDbLine
 10
7578333.950000001
 20
5721086.549999999
 30
0.0
 11
7578343.83
 21
5721089.749999999
 31
0.0
  0
LINE
  5
100024B
330
15
100
AcDbEntity
  8
dzialka
  6
Continuous
370
    18
100
AcDbLine
 10
7578343.83
 20
5721089.749999999
 30
0.0
 11
7578348.59
 21
5721091.29
 31
0.0
  0
LINE
  5
100024C
330
15
100
AcDbEntity
  8
dzialka
  6
Continuous
370
    18
100
AcDbLine
 10
7578348.59
 20
5721091.29
 30
0.0
 11
7578342.4
 21
5720998.83
 31
0.0
  0
LINE
  5
100024D
330
15
100
AcDbEntity
  8
dzialka
  6
Continuous
370
    18
100
AcDbLine
 10
7578342.4
 20
5720998.83
 30
0.0
 11
7578316.21
 21
5720593.280000001
 31
0.0
  0
LINE
  5
100024E
330
15
100
AcDbEntity
  8
dzialka
  6
Continuous
370
    18
100
AcDbLine
 10
7578316.21
 20
5720593.280000001
 30
0.0
 11
7578285.96
 21
5720595.56
 31
0.0
  0
LINE
  5
100024F
330
15
100
AcDbEntity
  8
dzialka
  6
Continuous
370
    18
100
AcDbLine
 10
7578285.96
 20
5720595.56
 30
0.0
 11
7578312.99
 21
5721000.909999999
 31
0.0
  0
LINE
  5
1000250
330
15
100
AcDbEntity
  8
dzialka
  6
Continuous
370
    18
100
AcDbLine
 10
7578312.99
 20
5721000.909999999
 30
0.0
 11
7578319.200000001
 21
5721081.78
 31
0.0
  0
LINE
  5
1000251
330
15
100
AcDbEntity
  8
dzialka
  6
Continuous
370
    18
100
AcDbLine
 10
7578319.200000001
 20
5721081.78
 30
0.0
 11
7578323.38
 21
5721083.139999999
 31
0.0
  0
LINE
  5
1000252
330
15
100
AcDbEntity
  8
dzialka
  6
Continuous
370
    18
100
AcDbLine
 10
7578371.429999999
 20
5721098.669999999
 30
0.0
 11
7578378.09
 21
5721100.82
 31
0.0
  0
LINE
  5
1000253
330
15
100
AcDbEntity
  8
dzialka
  6
Continuous
370
    18
100
AcDbLine
 10
7578378.09
 20
5721100.82
 30
0.0
 11
7578380.469999999
 21
5721101.599999999
 31
0.0
  0
LINE
  5
1000254
330
15
100
AcDbEntity
  8
dzialka
  6
Continuous
370
    18
100
AcDbLine
 10
7578380.469999999
 20
5721101.599999999
 30
0.0
 11
7578383.8
 21
5721102.67
 31
0.0
  0
LINE
  5
1000255
330
15
100
AcDbEntity
  8
dzialka
  6
Continuous
370
    18
100
AcDbLine
 10
7578383.8
 20
5721102.67
 30
0.0
 11
7578376.009999999
 21
5720996.44
 31
0.0
  0
LINE
  5
1000256
330
15
100
AcDbEntity
  8
dzialka
  6
Continuous
370
    18
100
AcDbLine
 10
7578376.009999999
 20
5720996.44
 30
0.0
 11
7578350.03
 21
5720597.160000001
 31
0.0
  0
LINE
  5
1000257
330
15
100
AcDbEntity
  8
dzialka
  6
Continuous
370
    18
100
AcDbLine
 10
7578350.03
 20
5720597.160000001
 30
0.0
 11
7578343.04
 21
5720595.67
 31
0.0
  0
LINE
  5
1000258
330
15
100
AcDbEntity
  8
dzialka
  6
Continuous
370
    18
100
AcDbLine
 10
7578343.04
 20
5720595.67
 30
0.0
 11
7578354.45
 21
5720760.83
 31
0.0
  0
LINE
  5
1000259
330
15
100
AcDbEntity
  8
dzialka
  6
Continuous
370
    18
100
AcDbLine
 10
7578354.45
 20
5720760.83
 30
0.0
 11
7578347.869999999
 21
5720761.25
 31
0.0
  0
LINE
  5
100025A
330
15
100
AcDbEntity
  8
dzialka
  6
Continuous
370
    18
100
AcDbLine
 10
7578347.869999999
 20
5720761.25
 30
0.0
 11
7578363.139999999
 21
5720997.36
 31
0.0
  0
LINE
  5
100025B
330
15
100
AcDbEntity
  8
dzialka
  6
Continuous
370
    18
100
AcDbLine
 10
7578363.139999999
 20
5720997.36
 30
0.0
 11
7578370.190000001
 21
5721098.269999999
 31
0.0
  0
LINE
  5
100025C
330
15
100
AcDbEntity
  8
dzialka
  6
Continuous
370
    18
100
AcDbLine
 10
7578370.190000001
 20
5721098.269999999
 30
0.0
 11
7578371.429999999
 21
5721098.669999999
 31
0.0
  0
LINE
  5
100025D
330
15
100
AcDbEntity
  8
dzialka
  6
Continuous
370
    18
100
AcDbLine
 10
7578383.8
 20
5721102.67
 30
0.0
 11
7578390.04
 21
5721114.78
 31
0.0
  0
LINE
  5
100025E
330
15
100
AcDbEntity
  8
dzialka
  6
Continuous
370
    18
100
AcDbLine
 10
7578390.04
 20
5721114.78
 30
0.0
 11
7578397.099999998
 21
5721128.499999999
 31
0.0
  0
LINE
  5
100025F
330
15
100
AcDbEntity
  8
dzialka
  6
Continuous
370
    18
100
AcDbLine
 10
7578397.099999998
 20
5721128.499999999
 30
0.0
 11
7578403.49
 21
5721140.88
 31
0.0
  0
LINE
  5
1000260
330
15
100
AcDbEntity
  8
dzialka
  6
Continuous
370
    18
100
AcDbLine
 10
7578403.49
 20
5721140.88
 30
0.0
 11
7578406.07
 21
5721145.89
 31
0.0
  0
LINE
  5
1000261
330
15
100
AcDbEntity
  8
dzialka
  6
Continuous
370
    18
100
AcDbLine
 10
7578406.07
 20
5721145.89
 30
0.0
 11
7578395.150000001
 21
5720995.08
 31
0.0
  0
LINE
  5
1000262
330
15
100
AcDbEntity
  8
dzialka
  6
Continuous
370
    18
100
AcDbLine
 10
7578395.150000001
 20
5720995.08
 30
0.0
 11
7578369.679999999
 21
5720601.36
 31
0.0
  0
LINE
  5
1000263
330
15
100
AcDbEntity
  8
dzialka
  6
Continuous
370
    18
100
AcDbLine
 10
7578369.679999999
 20
5720601.36
 30
0.0
 11
7578369.160000001
 21
5720601.23
 31
0.0
  0
LINE
  5
1000264
330
15
100
AcDbEntity
  8
dzialka
  6
Continuous
370
    18
100
AcDbLine
 10
7578369.160000001
 20
5720601.23
 30
0.0
 11
7578350.03
 21
5720597.160000001
 31
0.0
  0
LINE
  5
1000265
330
15
100
AcDbEntity
  8
dzialka
  6
Continuous
370
    18
100
AcDbLine
 10
7578350.03
 20
5720597.160000001
 30
0.0
 11
7578376.009999999
 21
5720996.44
 31
0.0
  0
LINE
  5
1000266
330
15
100
AcDbEntity
  8
dzialka
  6
Continuous
370
    18
100
AcDbLine
 10
7578376.009999999
 20
5720996.44
 30
0.0
 11
7578383.8
 21
5721102.67
 31
0.0
  0
LINE
  5
1000267
330
15
100
AcDbEntity
  8
dzialka
  6
Continuous
370
    18
100
AcDbLine
 10
7578411.739999999
 20
5721156.889999999
 30
0.0
 11
7578423.91
 21
5721180.52
 31
0.0
  0
LINE
  5
1000268
330
15
100
AcDbEntity
  8
dzialka
  6
Continuous
370
    18
100
AcDbLine
 10
7578423.91
 20
5721180.52
 30
0.0
 11
7578432.42
 21
5721197.03
 31
0.0
  0
LINE
  5
1000269
330
15
100
AcDbEntity
  8
dzialka
  6
Continuous
370
    18
100
AcDbLine
 10
7578432.42
 20
5721197.03
 30
0.0
 11
7578417.389999999
 21
5720993.509999999
 31
0.0
  0
LINE
  5
100026A
330
15
100
AcDbEntity
  8
dzialka
  6
Continuous
370
    18
100
AcDbLine
 10
7578417.389999999
 20
5720993.509999999
 30
0.0
 11
7578392.459999999
 21
5720607.36
 31
0.0
  0
LINE
  5
100026B
330
15
100
AcDbEntity
  8
dzialka
  6
Continuous
370
    18
100
AcDbLine
 10
7578392.459999999
 20
5720607.36
 30
0.0
 11
7578369.679999999
 21
5720601.36
 31
0.0
  0
LINE
  5
100026C
330
15
100
AcDbEntity
  8
dzialka
  6
Continuous
370
    18
100
AcDbLine
 10
7578369.679999999
 20
5720601.36
 30
0.0
 11
7578395.150000001
 21
5720995.08
 31
0.0
  0
LINE
  5
100026D
330
15
100
AcDbEntity
  8
dzialka
  6
Continuous
370
    18
100
AcDbLine
 10
7578395.150000001
 20
5720995.08
 30
0.0
 11
7578406.07
 21
5721145.89
 31
0.0
  0
LINE
  5
100026E
330
15
100
AcDbEntity
  8
dzialka
  6
Continuous
370
    18
100
AcDbLine
 10
7578406.07
 20
5721145.89
 30
0.0
 11
7578411.739999999
 21
5721156.889999999
 31
0.0
  0
LINE
  5
100026F
330
15
100
AcDbEntity
  8
dzialka
  6
Continuous
370
    18
100
AcDbLine
 10
7578437.59
 20
5721207.06
 30
0.0
 11
7578441.92
 21
5721215.44
 31
0.0
  0
LINE
  5
1000270
330
15
100
AcDbEntity
  8
dzialka
  6
Continuous
370
    18
100
AcDbLine
 10
7578441.92
 20
5721215.44
 30
0.0
 11
7578425.469999999
 21
5720992.93
 31
0.0
  0
LINE
  5
1000271
330
15
100
AcDbEntity
  8
dzialka
  6
Continuous
370
    18
100
AcDbLine
 10
7578425.469999999
 20
5720992.93
 30
0.0
 11
7578399.799999999
 21
5720609.289999999
 31
0.0
  0
LINE
  5
1000272
330
15
100
AcDbEntity
  8
dzialka
  6
Continuous
370
    18
100
AcDbLine
 10
7578399.799999999
 20
5720609.289999999
 30
0.0
 11
7578392.459999999
 21
5720607.36
 31
0.0
  0
LINE
  5
1000273
330
15
100
AcDbEntity
  8
dzialka
  6
Continuous
370
    18
100
AcDbLine
 10
7578392.459999999
 20
5720607.36
 30
0.0
 11
7578417.389999999
 21
5720993.509999999
 31
0.0
  0
LINE
  5
1000274
330
15
100
AcDbEntity
  8
dzialka
  6
Continuous
370
    18
100
AcDbLine
 10
7578417.389999999
 20
5720993.509999999
 30
0.0
 11
7578432.42
 21
5721197.03
 31
0.0
  0
LINE
  5
1000275
330
15
100
AcDbEntity
  8
dzialka
  6
Continuous
370
    18
100
AcDbLine
 10
7578432.42
 20
5721197.03
 30
0.0
 11
7578437.59
 21
5721207.06
 31
0.0
  0
LINE
  5
1000276
330
15
100
AcDbEntity
  8
dzialka
  6
Continuous
370
    18
100
AcDbLine
 10
7578441.92
 20
5721215.44
 30
0.0
 11
7578450.039999999
 21
5721231.219999999
 31
0.0
  0
LINE
  5
1000277
330
15
100
AcDbEntity
  8
dzialka
  6
Continuous
370
    18
100
AcDbLine
 10
7578450.039999999
 20
5721231.219999999
 30
0.0
 11
7578449.769999998
 21
5721228.049999999
 31
0.0
  0
LINE
  5
1000278
330
15
100
AcDbEntity
  8
dzialka
  6
Continuous
370
    18
100
AcDbLine
 10
7578449.769999998
 20
5721228.049999999
 30
0.0
 11
7578431.849999999
 21
5720992.480000001
 31
0.0
  0
LINE
  5
1000279
330
15
100
AcDbEntity
  8
dzialka
  6
Continuous
370
    18
100
AcDbLine
 10
7578431.849999999
 20
5720992.480000001
 30
0.0
 11
7578405.940000001
 21
5720610.709999999
 31
0.0
  0
LINE
  5
100027A
330
15
100
AcDbEntity
  8
dzialka
  6
Continuous
370
    18
100
AcDbLine
 10
7578405.940000001
 20
5720610.709999999
 30
0.0
 11
7578405.36
 21
5720610.74
 31
0.0
  0
LINE
  5
100027B
330
15
100
AcDbEntity
  8
dzialka
  6
Continuous
370
    18
100
AcDbLine
 10
7578405.36
 20
5720610.74
 30
0.0
 11
7578399.799999999
 21
5720609.289999999
 31
0.0
  0
LINE
  5
100027C
330
15
100
AcDbEntity
  8
dzialka
  6
Continuous
370
    18
100
AcDbLine
 10
7578399.799999999
 20
5720609.289999999
 30
0.0
 11
7578425.469999999
 21
5720992.93
 31
0.0
  0
LINE
  5
100027D
330
15
100
AcDbEntity
  8
dzialka
  6
Continuous
370
    18
100
AcDbLine
 10
7578425.469999999
 20
5720992.93
 30
0.0
 11
7578441.92
 21
5721215.44
 31
0.0
  0
LINE
  5
100027E
330
15
100
AcDbEntity
  8
dzialka
  6
Continuous
370
    18
100
AcDbLine
 10
7578449.769999998
 20
5721228.049999999
 30
0.0
 11
7578462.53
 21
5721223.65
 31
0.0
  0
LINE
  5
100027F
330
15
100
AcDbEntity
  8
dzialka
  6
Continuous
370
    18
100
AcDbLine
 10
7578462.53
 20
5721223.65
 30
0.0
 11
7578460.15
 21
5721194.119999999
 31
0.0
  0
LINE
  5
1000280
330
15
100
AcDbEntity
  8
dzialka
  6
Continuous
370
    18
100
AcDbLine
 10
7578460.15
 20
5721194.119999999
 30
0.0
 11
7578457.519999999
 21
5721161.53
 31
0.0
  0
LINE
  5
1000281
330
15
100
AcDbEntity
  8
dzialka
  6
Continuous
370
    18
100
AcDbLine
 10
7578457.519999999
 20
5721161.53
 30
0.0
 11
7578443.83
 21
5720991.64
 31
0.0
  0
LINE
  5
1000282
330
15
100
AcDbEntity
  8
dzialka
  6
Continuous
370
    18
100
AcDbLine
 10
7578443.83
 20
5720991.64
 30
0.0
 11
7578418.389999999
 21
5720609.95
 31
0.0
  0
LINE
  5
1000283
330
15
100
AcDbEntity
  8
dzialka
  6
Continuous
370
    18
100
AcDbLine
 10
7578418.389999999
 20
5720609.95
 30
0.0
 11
7578405.940000001
 21
5720610.709999999
 31
0.0
  0
LINE
  5
1000284
330
15
100
AcDbEntity
  8
dzialka
  6
Continuous
370
    18
100
AcDbLine
 10
7578405.940000001
 20
5720610.709999999
 30
0.0
 11
7578431.849999999
 21
5720992.480000001
 31
0.0
  0
LINE
  5
1000285
330
15
100
AcDbEntity
  8
dzialka
  6
Continuous
370
    18
100
AcDbLine
 10
7578431.849999999
 20
5720992.480000001
 30
0.0
 11
7578449.769999998
 21
5721228.049999999
 31
0.0
  0
LINE
  5
1000286
330
15
100
AcDbEntity
  8
dzialka
  6
Continuous
370
    18
100
AcDbLine
 10
7578462.53
 20
5721223.65
 30
0.0
 11
7578484.33
 21
5721216.14
 31
0.0
  0
LINE
  5
1000287
330
15
100
AcDbEntity
  8
dzialka
  6
Continuous
370
    18
100
AcDbLine
 10
7578484.33
 20
5721216.14
 30
0.0
 11
7578481.44
 21
5721190.8
 31
0.0
  0
LINE
  5
1000288
330
15
100
AcDbEntity
  8
dzialka
  6
Continuous
370
    18
100
AcDbLine
 10
7578481.44
 20
5721190.8
 30
0.0
 11
7578460.15
 21
5721194.119999999
 31
0.0
  0
LINE
  5
1000289
330
15
100
AcDbEntity
  8
dzialka
  6
Continuous
370
    18
100
AcDbLine
 10
7578460.15
 20
5721194.119999999
 30
0.0
 11
7578462.53
 21
5721223.65
 31
0.0
  0
LINE
  5
100028A
330
15
100
AcDbEntity
  8
dzialka
  6
Continuous
370
    18
100
AcDbLine
 10
7578484.33
 20
5721216.14
 30
0.0
 11
7578488.6
 21
5721214.66
 31
0.0
  0
LINE
  5
100028B
330
15
100
AcDbEntity
  8
dzialka
  6
Continuous
370
    18
100
AcDbLine
 10
7578488.6
 20
5721214.66
 30
0.0
 11
7578484.94
 21
5721190.259999999
 31
0.0
  0
LINE
  5
100028C
330
15
100
AcDbEntity
  8
dzialka
  6
Continuous
370
    18
100
AcDbLine
 10
7578484.94
 20
5721190.259999999
 30
0.0
 11
7578481.44
 21
5721190.8
 31
0.0
  0
LINE
  5
100028D
330
15
100
AcDbEntity
  8
dzialka
  6
Continuous
370
    18
100
AcDbLine
 10
7578481.44
 20
5721190.8
 30
0.0
 11
7578484.33
 21
5721216.14
 31
0.0
  0
LINE
  5
100028E
330
15
100
AcDbEntity
  8
dzialka
  6
Continuous
370
    18
100
AcDbLine
 10
7578488.6
 20
5721214.66
 30
0.0
 11
7578495.019999999
 21
5721212.46
 31
0.0
  0
LINE
  5
100028F
330
15
100
AcDbEntity
  8
dzialka
  6
Continuous
370
    18
100
AcDbLine
 10
7578495.019999999
 20
5721212.46
 30
0.0
 11
7578504.25
 21
5721208.79
 31
0.0
  0
LINE
  5
1000290
330
15
100
AcDbEntity
  8
dzialka
  6
Continuous
370
    18
100
AcDbLine
 10
7578504.25
 20
5721208.79
 30
0.0
 11
7578500.49
 21
5721187.829999999
 31
0.0
  0
LINE
  5
1000291
330
15
100
AcDbEntity
  8
dzialka
  6
Continuous
370
    18
100
AcDbLine
 10
7578500.49
 20
5721187.829999999
 30
0.0
 11
7578484.94
 21
5721190.259999999
 31
0.0
  0
LINE
  5
1000292
330
15
100
AcDbEntity
  8
dzialka
  6
Continuous
370
    18
100
AcDbLine
 10
7578484.94
 20
5721190.259999999
 30
0.0
 11
7578488.6
 21
5721214.66
 31
0.0
  0
LINE
  5
1000293
330
15
100
AcDbEntity
  8
dzialka
  6
Continuous
370
    18
100
AcDbLine
 10
7578418.389999999
 20
5720609.95
 30
0.0
 11
7578443.83
 21
5720991.64
 31
0.0
  0
LINE
  5
1000294
330
15
100
AcDbEntity
  8
dzialka
  6
Continuous
370
    18
100
AcDbLine
 10
7578443.83
 20
5720991.64
 30
0.0
 11
7578457.519999999
 21
5721161.53
 31
0.0
  0
LINE
  5
1000295
330
15
100
AcDbEntity
  8
dzialka
  6
Continuous
370
    18
100
AcDbLine
 10
7578457.519999999
 20
5721161.53
 30
0.0
 11
7578471.36
 21
5721158.769999999
 31
0.0
  0
LINE
  5
1000296
330
15
100
AcDbEntity
  8
dzialka
  6
Continuous
370
    18
100
AcDbLine
 10
7578471.36
 20
5721158.769999999
 30
0.0
 11
7578469.580000001
 21
5721139.86
 31
0.0
  0
LINE
  5
1000297
330
15
100
AcDbEntity
  8
dzialka
  6
Continuous
370
    18
100
AcDbLine
 10
7578469.580000001
 20
5721139.86
 30
0.0
 11
7578455.589999999
 21
5720990.8
 31
0.0
  0
LINE
  5
1000298
330
15
100
AcDbEntity
  8
dzialka
  6
Continuous
370
    18
100
AcDbLine
 10
7578455.589999999
 20
5720990.8
 30
0.0
 11
7578430.820000001
 21
5720609.2
 31
0.0
  0
LINE
  5
1000299
330
15
100
AcDbEntity
  8
dzialka
  6
Continuous
370
    18
100
AcDbLine
 10
7578430.820000001
 20
5720609.2
 30
0.0
 11
7578418.389999999
 21
5720609.95
 31
0.0
  0
LINE
  5
100029A
330
15
100
AcDbEntity
  8
dzialka
  6
Continuous
370
    18
100
AcDbLine
 10
7578504.25
 20
5721208.79
 30
0.0
 11
7578524.040000001
 21
5721199.29
 31
0.0
  0
LINE
  5
100029B
330
15
100
AcDbEntity
  8
dzialka
  6
Continuous
370
    18
100
AcDbLine
 10
7578524.040000001
 20
5721199.29
 30
0.0
 11
7578508.509999998
 21
5720987.049999999
 31
0.0
  0
LINE
  5
100029C
330
15
100
AcDbEntity
  8
dzialka
  6
Continuous
370
    18
100
AcDbLine
 10
7578508.509999998
 20
5720987.049999999
 30
0.0
 11
7578482.099999998
 21
5720606.09
 31
0.0
  0
LINE
  5
100029D
330
15
100
AcDbEntity
  8
dzialka
  6
Continuous
370
    18
100
AcDbLine
 10
7578482.099999998
 20
5720606.09
 30
0.0
 11
7578443.259999999
 21
5720608.440000001
 31
0.0
  0
LINE
  5
100029E
330
15
100
AcDbEntity
  8
dzialka
  6
Continuous
370
    18
100
AcDbLine
 10
7578443.259999999
 20
5720608.440000001
 30
0.0
 11
7578466.96
 21
5720989.99
 31
0.0
  0
LINE
  5
100029F
330
15
100
AcDbEntity
  8
dzialka
  6
Continuous
370
    18
100
AcDbLine
 10
7578466.96
 20
5720989.99
 30
0.0
 11
7578479.900000001
 21
5721138.889999999
 31
0.0
  0
LINE
  5
10002A0
330
15
100
AcDbEntity
  8
dzialka
  6
Continuous
370
    18
100
AcDbLine
 10
7578479.900000001
 20
5721138.889999999
 30
0.0
 11
7578469.580000001
 21
5721139.86
 31
0.0
  0
LINE
  5
10002A1
330
15
100
AcDbEntity
  8
dzialka
  6
Continuous
370
    18
100
AcDbLine
 10
7578469.580000001
 20
5721139.86
 30
0.0
 11
7578471.36
 21
5721158.769999999
 31
0.0
  0
LINE
  5
10002A2
330
15
100
AcDbEntity
  8
dzialka
  6
Continuous
370
    18
100
AcDbLine
 10
7578471.36
 20
5721158.769999999
 30
0.0
 11
7578457.519999999
 21
5721161.53
 31
0.0
  0
LINE
  5
10002A3
330
15
100
AcDbEntity
  8
dzialka
  6
Continuous
370
    18
100
AcDbLine
 10
7578457.519999999
 20
5721161.53
 30
0.0
 11
7578460.15
 21
5721194.119999999
 31
0.0
  0
LINE
  5
10002A4
330
15
100
AcDbEntity
  8
dzialka
  6
Continuous
370
    18
100
AcDbLine
 10
7578460.15
 20
5721194.119999999
 30
0.0
 11
7578481.44
 21
5721190.8
 31
0.0
  0
LINE
  5
10002A5
330
15
100
AcDbEntity
  8
dzialka
  6
Continuous
370
    18
100
AcDbLine
 10
7578481.44
 20
5721190.8
 30
0.0
 11
7578484.94
 21
5721190.259999999
 31
0.0
  0
LINE
  5
10002A6
330
15
100
AcDbEntity
  8
dzialka
  6
Continuous
370
    18
100
AcDbLine
 10
7578484.94
 20
5721190.259999999
 30
0.0
 11
7578500.49
 21
5721187.829999999
 31
0.0
  0
LINE
  5
10002A7
330
15
100
AcDbEntity
  8
dzialka
  6
Continuous
370
    18
100
AcDbLine
 10
7578500.49
 20
5721187.829999999
 30
0.0
 11
7578504.25
 21
5721208.79
 31
0.0
  0
LINE
  5
10002A8
330
15
100
AcDbEntity
  8
dzialka
  6
Continuous
370
    18
100
AcDbLine
 10
7578354.49
 20
5721093.19
 30
0.0
 11
7578362.2
 21
5721095.690000001
 31
0.0
  0
LINE
  5
10002A9
330
15
100
AcDbEntity
  8
dzialka
  6
Continuous
370
    18
100
AcDbLine
 10
7578362.2
 20
5721095.690000001
 30
0.0
 11
7578364.86
 21
5721096.549999999
 31
0.0
  0
LINE
  5
10002AA
330
15
100
AcDbEntity
  8
dzialka
  6
Continuous
370
    18
100
AcDbLine
 10
7578364.86
 20
5721096.549999999
 30
0.0
 11
7578370.190000001
 21
5721098.269999999
 31
0.0
  0
LINE
  5
10002AB
330
15
100
AcDbEntity
  8
dzialka
  6
Continuous
370
    18
100
AcDbLine
 10
7578370.190000001
 20
5721098.269999999
 30
0.0
 11
7578363.139999999
 21
5720997.36
 31
0.0
  0
LINE
  5
10002AC
330
15
100
AcDbEntity
  8
dzialka
  6
Continuous
370
    18
100
AcDbLine
 10
7578363.139999999
 20
5720997.36
 30
0.0
 11
7578347.869999999
 21
5720761.25
 31
0.0
  0
LINE
  5
10002AD
330
15
100
AcDbEntity
  8
dzialka
  6
Continuous
370
    18
100
AcDbLine
 10
7578347.869999999
 20
5720761.25
 30
0.0
 11
7578337.059999999
 21
5720594.400000001
 31
0.0
  0
LINE
  5
10002AE
330
15
100
AcDbEntity
  8
dzialka
  6
Continuous
370
    18
100
AcDbLine
 10
7578337.059999999
 20
5720594.400000001
 30
0.0
 11
7578327.73
 21
5720592.41
 31
0.0
  0
LINE
  5
10002AF
330
15
100
AcDbEntity
  8
dzialka
  6
Continuous
370
    18
100
AcDbLine
 10
7578327.73
 20
5720592.41
 30
0.0
 11
7578316.21
 21
5720593.280000001
 31
0.0
  0
LINE
  5
10002B0
330
15
100
AcDbEntity
  8
dzialka
  6
Continuous
370
    18
100
AcDbLine
 10
7578316.21
 20
5720593.280000001
 30
0.0
 11
7578342.4
 21
5720998.83
 31
0.0
  0
LINE
  5
10002B1
330
15
100
AcDbEntity
  8
dzialka
  6
Continuous
370
    18
100
AcDbLine
 10
7578342.4
 20
5720998.83
 30
0.0
 11
7578348.59
 21
5721091.29
 31
0.0
  0
LINE
  5
10002B2
330
15
100
AcDbEntity
  8
dzialka
  6
Continuous
370
    18
100
AcDbLine
 10
7578348.59
 20
5721091.29
 30
0.0
 11
7578354.49
 21
5721093.19
 31
0.0
  0
LINE
  5
10002B3
330
15
100
AcDbEntity
  8
dzialka
  6
Continuous
370
    18
100
AcDbLine
 10
7578475.54
 20
5721222.38
 30
0.0
 11
7578478.969999999
 21
5721261.22
 31
0.0
  0
LINE
  5
10002B4
330
15
100
AcDbEntity
  8
dzialka
  6
Continuous
370
    18
100
AcDbLine
 10
7578478.969999999
 20
5721261.22
 30
0.0
 11
7578491.5
 21
5721264.429999999
 31
0.0
  0
LINE
  5
10002B5
330
15
100
AcDbEntity
  8
dzialka
  6
Continuous
370
    18
100
AcDbLine
 10
7578491.5
 20
5721264.429999999
 30
0.0
 11
7578489.230000001
 21
5721217.639999999
 31
0.0
  0
LINE
  5
10002B6
330
15
100
AcDbEntity
  8
dzialka
  6
Continuous
370
    18
100
AcDbLine
 10
7578489.230000001
 20
5721217.639999999
 30
0.0
 11
7578475.54
 21
5721222.38
 31
0.0
  0
LINE
  5
10002B7
330
15
100
AcDbEntity
  8
dzialka
  6
Continuous
 62
     5
370
    18
100
AcDbLine
 10
7578467.759999999
 20
5721225.08
 30
0.0
 11
7578470.04
 21
5721258.93
 31
0.0
  0
LINE
  5
10002B8
330
15
100
AcDbEntity
  8
dzialka
  6
Continuous
 62
     5
370
    18
100
AcDbLine
 10
7578470.04
 20
5721258.93
 30
0.0
 11
7578478.969999999
 21
5721261.22
 31
0.0
  0
LINE
  5
10002B9
330
15
100
AcDbEntity
  8
dzialka
  6
Continuous
 62
     5
370
    18
100
AcDbLine
 10
7578478.969999999
 20
5721261.22
 30
0.0
 11
7578475.54
 21
5721222.38
 31
0.0
  0
LINE
  5
10002BA
330
15
100
AcDbEntity
  8
dzialka
  6
Continuous
 62
     5
370
    18
100
AcDbLine
 10
7578475.54
 20
5721222.38
 30
0.0
 11
7578467.759999999
 21
5721225.08
 31
0.0
  0
ENDSEC
  0
SECTION
  2
OBJECTS
  0
DICTIONARY
  5
3A8
330
0
100
AcDbDictionary
281
     1
  3
ACAD_COLOR
350
100001C
  3
ACAD_GROUP
350
3A9
  3
ACAD_LAYOUT
350
3AA
  3
ACAD_MATERIAL
350
FFFFFF
  3
ACAD_MLEADERSTYLE
350
100001F
  3
ACAD_MLINESTYLE
350
3AB
  3
ACAD_PLOTSETTINGS
350
3AC
  3
ACAD_PLOTSTYLENAME
350
3AD
  3
ACAD_SCALELIST
350
1000021
  3
ACAD_TABLESTYLE
350
100001D
  3
ACAD_VISUALSTYLE
350
1000003
  3
ACAD_WIPEOUT_VARS
350
3AE
  3
ACDB_RECOMPOSE_DATA
350
1000303
  3
AcDbVariableDictionary
350
10002BB
  0
DICTIONARY
  5
10002C5
330
1
100
AcDbDictionary
280
     1
281
     1
  3
ACAD_XREC_ROUNDTRIP
360
10002C6
  0
DICTIONARY
  5
10002C1
330
8
100
AcDbDictionary
280
     1
281
     1
  3
ACAD_XREC_ROUNDTRIP
360
10002C2
  0
DICTIONARY
  5
10002C3
330
A
100
AcDbDictionary
280
     1
281
     1
  3
ACAD_XREC_ROUNDTRIP
360
10002C4
  0
DICTIONARY
  5
1000034
330
15
100
AcDbDictionary
280
     1
281
     1
  3
ACAD_SORTENTS
360
1000035
  0
DICTIONARY
  5
100001C
102
{ACAD_REACTORS
330
3A8
102
}
330
3A8
100
AcDbDictionary
281
     1
  0
DICTIONARY
  5
3A9
102
{ACAD_REACTORS
330
3A8
102
}
330
3A8
100
AcDbDictionary
281
     1
  0
DICTIONARY
  5
3AA
102
{ACAD_REACTORS
330
3A8
102
}
330
3A8
100
AcDbDictionary
281
     1
  3
Layout
350
18
  3
Model
350
16
  0
DICTIONARY
  5
FFFFFF
102
{ACAD_REACTORS
330
3A8
102
}
330
3A8
100
AcDbDictionary
281
     1
  3
ByBlock
350
1000001
  3
ByLayer
350
1000000
  3
Global
350
1000002
  0
DICTIONARY
  5
100001F
102
{ACAD_REACTORS
330
3A8
102
}
330
3A8
100
AcDbDictionary
281
     1
  3
Standard
350
1000020
  0
DICTIONARY
  5
3AB
102
{ACAD_REACTORS
330
3A8
102
}
330
3A8
100
AcDbDictionary
281
     1
  3
Standard
350
3AF
  0
DICTIONARY
  5
3AC
102
{ACAD_REACTORS
330
3A8
102
}
330
3A8
100
AcDbDictionary
281
     1
  0
ACDBDICTIONARYWDFLT
  5
3AD
102
{ACAD_REACTORS
330
3A8
102
}
330
3A8
100
AcDbDictionary
281
     1
  3
Normal
350
9
100
AcDbDictionaryWithDefault
340
9
  0
DICTIONARY
  5
1000021
102
{ACAD_REACTORS
330
3A8
102
}
330
3A8
100
AcDbDictionary
281
     1
  3
A0
350
1000022
  3
A1
350
1000023
  3
A2
350
1000024
  3
A3
350
1000025
  3
A4
350
1000026
  3
A5
350
1000027
  3
A6
350
1000028
  3
A7
350
1000029
  3
A8
350
100002A
  3
A9
350
100002B
  3
B0
350
100002C
  3
B1
350
100002D
  3
B2
350
100002E
  3
B3
350
100002F
  3
B4
350
1000030
  3
B5
350
1000031
  3
B6
350
1000032
  0
DICTIONARY
  5
100001D
102
{ACAD_REACTORS
330
3A8
102
}
330
3A8
100
AcDbDictionary
281
     1
  3
Standard
350
100001E
  0
DICTIONARY
  5
1000003
102
{ACAD_REACTORS
330
3A8
102
}
330
3A8
100
AcDbDictionary
281
     1
  3
2dWireframe
350
1000008
  3
Basic
350
100000B
  3
Brighten
350
100000F
  3
ColorChange
350
1000013
  3
Conceptual
350
100000D
  3
Dim
350
100000E
  3
EdgeColorOff
350
1000016
  3
Facepattern
350
1000012
  3
Flat
350
1000004
  3
FlatWithEdges
350
1000005
  3
Gouraud
350
1000006
  3
GouraudWithEdges
350
1000007
  3
Hidden
350
100000A
  3
JitterOff
350
1000014
  3
Linepattern
350
1000011
  3
OverhangOff
350
1000015
  3
Realistic
350
100000C
  3
Shaded
350
100001B
  3
Shaded with edges
350
100001A
  3
Shades of Gray
350
1000017
  3
Sketchy
350
1000018
  3
Thicken
350
1000010
  3
Wireframe
350
1000009
  3
X-Ray
350
1000019
  0
WIPEOUTVARIABLES
  5
3AE
102
{ACAD_REACTORS
330
3A8
102
}
330
3A8
100
AcDbWipeoutVariables
 70
     0
  0
XRECORD
  5
1000303
102
{ACAD_REACTORS
330
3A8
102
}
330
3A8
100
AcDbXrecord
280
     1
 90
        1
330
100001E
  0
DICTIONARY
  5
10002BB
102
{ACAD_REACTORS
330
3A8
102
}
330
3A8
100
AcDbDictionary
281
     1
  3
CANNOSCALE
350
10002C0
  3
CMLEADERSTYLE
350
10002BD
  3
CTABLESTYLE
350
10002BC
  3
MSLTSCALE
350
10002BE
  3
XCLIPFRAME
350
10002BF
  0
XRECORD
  5
10002C6
102
{ACAD_REACTORS
330
10002C5
102
}
330
10002C5
100
AcDbXrecord
280
     1
102
VTR_0.000_0.000_1.000_1.000_VISUALSTYLE
340
1000008
102
VTR_0.000_0.000_1.000_1.000_GRIDDISPLAY
 70
     3
102
VTR_0.000_0.000_1.000_1.000_GRIDMAJOR
 70
     5
102
VTR_0.000_0.000_1.000_1.000_DEFAULTLIGHTING
280
     1
102
VTR_0.000_0.000_1.000_1.000_DEFAULTLIGHTINGTYPE
 70
     1
102
VTR_0.000_0.000_1.000_1.000_BRIGHTNESS
141
0.0
102
VTR_0.000_0.000_1.000_1.000_CONTRAST
142
0.0
  0
XRECORD
  5
10002C2
102
{ACAD_REACTORS
330
10002C1
102
}
330
10002C1
100
AcDbXrecord
280
     1
102
MATERIAL
340
1000002
  0
XRECORD
  5
10002C4
102
{ACAD_REACTORS
330
10002C3
102
}
330
10002C3
100
AcDbXrecord
280
     1
102
MATERIAL
340
1000002
  0
SORTENTSTABLE
  5
1000035
102
{ACAD_REACTORS
330
1000034
102
}
330
1000034
100
AcDbSortentsTable
330
15
331
100026D
  5
1000219
331
100021C
  5
10001C8
331
1000121
  5
10000CD
331
1000172
  5
100011E
331
39B
  5
10002A6
331
3A3
  5
10002AE
331
1000075
  5
391
331
1000277
  5
1000223
331
100021A
  5
10001C6
331
10001C9
  5
1000175
331
377
  5
1000282
331
100029D
  5
1000249
331
10002A8
  5
1000254
331
1000257
  5
1000203
331
10001FA
  5
10001A6
331
10001A9
  5
1000155
331
1000208
  5
10001B4
331
10001B7
  5
1000163
331
1000265
  5
1000211
331
1000214
  5
10001C0
331
100016A
  5
1000116
331
361
  5
100026C
331
1000037
  5
347
331
1000088
  5
3A4
331
1000183
  5
100012F
331
1000280
  5
100022C
331
10001D2
  5
100017E
331
1000181
  5
100012D
331
1000086
  5
3A2
331
1000134
  5
10000E0
331
1000288
  5
1000234
331
1000237
  5
10001E3
331
10001DA
  5
1000186
331
1000189
  5
1000135
331
1000297
  5
1000243
331
10001E9
  5
1000195
331
36D
  5
1000278
331
10000E4
  5
1000090
331
1000244
  5
10001F0
331
10000B6
  5
1000062
331
10000AE
  5
100005A
331
100015C
  5
1000108
331
1000102
  5
10000AE
331
1000217
  5
10001C3
331
392
  5
100029D
331
1000064
  5
380
331
1000262
  5
100020E
331
1000116
  5
10000C2
331
1000065
  5
381
331
1000113
  5
10000BF
331
10000CB
  5
1000077
331
100011E
  5
10000CA
331
1000233
  5
10001DF
331
100008A
  5
1000036
331
1000185
  5
1000131
331
1000039
  5
355
331
10000E7
  5
1000093
331
1000138
  5
10000E4
331
100029A
  5
1000246
331
1000249
  5
10001F5
331
1000043
  5
35F
331
10001F0
  5
100019C
331
100019F
  5
100014B
331
1000052
  5
36E
331
1000100
  5
10000AC
331
1000054
  5
370
331
100006A
  5
386
331
100027A
  5
1000226
331
1000229
  5
10001D5
331
1000232
  5
10001DE
331
100012D
  5
10000D9
331
10000F6
  5
10000A2
331
100022A
  5
10001D6
331
1000125
  5
10000D1
331
36C
  5
1000277
331
10001D0
  5
100017C
331
100017F
  5
100012B
331
360
  5
100026B
331
1000292
  5
100023E
331
1000241
  5
10001ED
331
100003B
  5
357
331
100003E
  5
35A
331
10000EC
  5
1000098
331
365
  5
1000270
331
100009F
  5
100004B
331
10000D4
  5
1000080
331
100019C
  5
1000148
331
10000F2
  5
100009E
331
1000046
  5
362
331
10000F4
  5
10000A0
331
10000B5
  5
1000061
331
396
  5
10002A1
331
3A2
  5
10002AD
331
1000146
  5
10000F2
331
100004F
  5
36B
331
381
  5
100028C
331
388
  5
1000293
331
1000078
  5
394
331
354
  5
100025F
331
355
  5
1000260
331
100022B
  5
10001D7
331
100017D
  5
1000129
331
356
  5
1000261
331
357
  5
1000262
331
358
  5
1000263
331
100007C
  5
398
331
10000CD
  5
1000079
331
100027B
  5
1000227
331
10001CD
  5
1000179
331
359
  5
1000264
331
1000081
  5
39D
331
35A
  5
1000265
331
10000D3
  5
100007F
331
1000082
  5
39E
331
10000DF
  5
100008B
331
1000130
  5
10000DC
331
35B
  5
1000266
331
35C
  5
1000267
331
35D
  5
1000268
331
35E
  5
1000269
331
1000036
  5
337
331
35F
  5
100026A
331
10000D8
  5
1000084
331
362
  5
100026D
331
363
  5
100026E
331
364
  5
100026F
331
1000135
  5
10000E1
331
366
  5
1000271
331
367
  5
1000272
331
100008F
  5
100003B
331
100013E
  5
10000EA
331
368
  5
1000273
331
369
  5
1000274
331
1000096
  5
1000042
331
36A
  5
1000275
331
36B
  5
1000276
331
1000093
  5
100003F
331
10000E6
  5
1000092
331
36E
  5
1000279
331
1000194
  5
1000140
331
10000EA
  5
1000096
331
36F
  5
100027A
331
370
  5
100027B
331
10000F5
  5
10000A1
331
10001F5
  5
10001A1
331
371
  5
100027C
331
372
  5
100027D
331
100004C
  5
368
331
373
  5
100027E
331
1000047
  5
363
331
1000098
  5
1000044
331
374
  5
100027F
331
375
  5
1000280
331
376
  5
1000281
331
378
  5
1000283
331
100009C
  5
1000048
331
10000ED
  5
1000099
331
100029B
  5
1000247
331
10001ED
  5
1000199
331
379
  5
1000284
331
10000A1
  5
100004D
331
37A
  5
1000285
331
1000045
  5
361
331
10000F3
  5
100009F
331
37B
  5
1000286
331
37C
  5
1000287
331
37D
  5
1000288
331
37E
  5
1000289
331
1000050
  5
36C
331
1000151
  5
10000FD
331
37F
  5
100028A
331
1000051
  5
36D
331
10000A2
  5
100004E
331
10000FF
  5
10000AB
331
1000150
  5
10000FC
331
10001AA
  5
1000156
331
10000A5
  5
1000051
331
1000153
  5
10000FF
331
380
  5
100028B
331
382
  5
100028D
331
383
  5
100028E
331
1000055
  5
371
331
384
  5
100028F
331
100005E
  5
37A
331
100010C
  5
10000B8
331
385
  5
1000290
331
10001AF
  5
100015B
331
386
  5
1000291
331
387
  5
1000292
331
389
  5
1000294
331
100005F
  5
37B
331
10000B0
  5
100005C
331
38A
  5
1000295
331
38B
  5
1000296
331
10000AF
  5
100005B
331
100020A
  5
10001B6
331
38C
  5
1000297
331
1000209
  5
10001B5
331
38D
  5
1000298
331
1000104
  5
10000B0
331
10000B4
  5
1000060
331
1000105
  5
10000B1
331
38E
  5
1000299
331
10000B3
  5
100005F
331
1000106
  5
10000B2
331
38F
  5
100029A
331
390
  5
100029B
331
391
  5
100029C
331
1000111
  5
10000BD
331
1000162
  5
100010E
331
393
  5
100029E
331
10000B9
  5
1000065
331
1000167
  5
1000113
331
394
  5
100029F
331
395
  5
10002A0
331
1000115
  5
10000C1
331
397
  5
10002A2
331
398
  5
10002A3
331
399
  5
10002A4
331
100020F
  5
10001BB
331
39A
  5
10002A5
331
39C
  5
10002A7
331
39D
  5
10002A8
331
39E
  5
10002A9
331
1000070
  5
38C
331
1000171
  5
100011D
331
39F
  5
10002AA
331
1000071
  5
38D
331
10000C2
  5
100006E
331
100011F
  5
10000CB
331
1000170
  5
100011C
331
10001CA
  5
1000176
331
10000C5
  5
1000071
331
1000173
  5
100011F
331
3A0
  5
10002AB
331
100006F
  5
38B
331
3A1
  5
10002AC
331
3A4
  5
10002AF
331
100007E
  5
39A
331
100012C
  5
10000D8
331
3A5
  5
10002B0
331
3A6
  5
10002B1
331
3A7
  5
10002B2
331
100021F
  5
10001CB
331
1000038
  5
354
331
1000139
  5
10000E5
331
100003A
  5
356
331
10000E8
  5
1000094
331
100003C
  5
358
331
100003D
  5
359
331
10000EB
  5
1000097
331
100003F
  5
35B
331
1000090
  5
100003C
331
100028D
  5
1000239
331
1000040
  5
35C
331
1000141
  5
10000ED
331
100023B
  5
10001E7
331
100018D
  5
1000139
331
1000041
  5
35D
331
1000092
  5
100003E
331
1000140
  5
10000EC
331
1000042
  5
35E
331
10000F0
  5
100009C
331
10001F7
  5
10001A3
331
1000044
  5
360
331
1000048
  5
364
331
1000149
  5
10000F5
331
1000243
  5
10001EF
331
1000049
  5
365
331
100009A
  5
1000046
331
10000F7
  5
10000A3
331
1000148
  5
10000F4
331
100004A
  5
366
331
100004B
  5
367
331
100004D
  5
369
331
10000FB
  5
10000A7
331
1000201
  5
10001AD
331
100004E
  5
36A
331
10000FC
  5
10000A8
331
10002AA
  5
1000256
331
1000053
  5
36F
331
1000056
  5
372
331
10001A3
  5
100014F
331
1000057
  5
373
331
10000A8
  5
1000054
331
1000058
  5
374
331
1000159
  5
1000105
331
1000059
  5
375
331
1000107
  5
10000B3
331
1000158
  5
1000104
331
100005A
  5
376
331
1000108
  5
10000B4
331
10002B2
  5
100025E
331
1000261
  5
100020D
331
100005B
  5
377
331
100005C
  5
378
331
100005D
  5
379
331
100010B
  5
10000B7
331
10002AD
  5
1000259
331
1000060
  5
37C
331
1000161
  5
100010D
331
100025B
  5
1000207
331
10001AD
  5
1000159
331
1000061
  5
37D
331
10000B2
  5
100005E
331
1000160
  5
100010C
331
1000062
  5
37E
331
1000110
  5
10000BC
331
1000269
  5
1000215
331
1000063
  5
37F
331
1000066
  5
382
331
1000114
  5
10000C0
331
1000067
  5
383
331
10000B8
  5
1000064
331
1000068
  5
384
331
1000169
  5
1000115
331
1000263
  5
100020F
331
1000069
  5
385
331
10000BA
  5
1000066
331
1000117
  5
10000C3
331
1000168
  5
1000114
331
100006B
  5
387
331
100006C
  5
388
331
100006D
  5
389
331
100011B
  5
10000C7
331
1000221
  5
10001CD
331
100006E
  5
38A
331
100011C
  5
10000C8
331
1000072
  5
38E
331
1000120
  5
10000CC
331
1000073
  5
38F
331
1000074
  5
390
331
1000076
  5
392
331
10001C3
  5
100016F
331
1000077
  5
393
331
10000C8
  5
1000074
331
1000079
  5
395
331
1000127
  5
10000D3
331
1000223
  5
10001CF
331
100007A
  5
396
331
10000D7
  5
1000083
331
1000128
  5
10000D4
331
1000281
  5
100022D
331
100007B
  5
397
331
10000CE
  5
100007A
331
1000180
  5
100012C
331
100007D
  5
399
331
100012B
  5
10000D7
331
100007F
  5
39B
331
1000080
  5
39C
331
100017B
  5
1000127
331
1000289
  5
1000235
331
1000188
  5
1000134
331
1000083
  5
39F
331
1000084
  5
3A0
331
100018A
  5
1000136
331
1000085
  5
3A1
331
1000133
  5
10000DF
331
1000087
  5
3A3
331
1000283
  5
100022F
331
1000089
  5
3A5
331
1000137
  5
10000E3
331
100008B
  5
1000037
331
10000DE
  5
100008A
331
100008C
  5
1000038
331
10000DD
  5
1000089
331
1000240
  5
10001EC
331
1000192
  5
100013E
331
100008D
  5
1000039
331
100013B
  5
10000E7
331
100008E
  5
100003A
331
100013C
  5
10000E8
331
1000091
  5
100003D
331
100013F
  5
10000EB
331
1000094
  5
1000040
331
10000E5
  5
1000091
331
1000095
  5
1000041
331
10001E3
  5
100018F
331
1000097
  5
1000043
331
1000099
  5
1000045
331
1000147
  5
10000F3
331
10002A1
  5
100024D
331
10001A0
  5
100014C
331
100009B
  5
1000047
331
10000EE
  5
100009A
331
100009D
  5
1000049
331
100014B
  5
10000F7
331
100009E
  5
100004A
331
100014C
  5
10000F8
331
100019B
  5
1000147
331
10000A0
  5
100004C
331
10002A9
  5
1000255
331
10001A8
  5
1000154
331
10000A3
  5
100004F
331
10000A4
  5
1000050
331
10000A6
  5
1000052
331
1000154
  5
1000100
331
10000A7
  5
1000053
331
10002A3
  5
100024F
331
10000A9
  5
1000055
331
1000157
  5
1000103
331
1000253
  5
10001FF
331
10001A5
  5
1000151
331
10000AA
  5
1000056
331
10000AB
  5
1000057
331
10000FE
  5
10000AA
331
10000AC
  5
1000058
331
10000FD
  5
10000A9
331
1000260
  5
100020C
331
10001B2
  5
100015E
331
10000AD
  5
1000059
331
100015B
  5
1000107
331
10000B1
  5
100005D
331
100015F
  5
100010B
331
1000203
  5
10001AF
331
10000B7
  5
1000063
331
10001C0
  5
100016C
331
10000BB
  5
1000067
331
100010E
  5
10000BA
331
10000BC
  5
1000068
331
100010D
  5
10000B9
331
10000BD
  5
1000069
331
100016B
  5
1000117
331
10000BE
  5
100006A
331
100016C
  5
1000118
331
10000BF
  5
100006B
331
10001BB
  5
1000167
331
10000C0
  5
100006C
331
100020D
  5
10001B9
331
10000C1
  5
100006D
331
10001C8
  5
1000174
331
10000C3
  5
100006F
331
10000C4
  5
1000070
331
10000C6
  5
1000072
331
1000174
  5
1000120
331
10000C7
  5
1000073
331
10000C9
  5
1000075
331
1000177
  5
1000123
331
1000273
  5
100021F
331
10001C5
  5
1000171
331
10000CA
  5
1000076
331
10000CC
  5
1000078
331
100011D
  5
10000C9
331
10000CF
  5
100007B
331
10000D0
  5
100007C
331
10000D1
  5
100007D
331
1000122
  5
10000CE
331
10000D2
  5
100007E
331
100017C
  5
1000128
331
10000D5
  5
1000081
331
10000D6
  5
1000082
331
10000D9
  5
1000085
331
10000DA
  5
1000086
331
1000184
  5
1000130
331
10000DB
  5
1000087
331
10001E1
  5
100018D
331
10000DC
  5
1000088
331
10000E0
  5
100008C
331
100022D
  5
10001D9
331
10001DC
  5
1000188
331
10000E1
  5
100008D
331
1000132
  5
10000DE
331
10000E2
  5
100008E
331
10000E3
  5
100008F
331
10001E4
  5
1000190
331
10000E9
  5
1000095
331
100013A
  5
10000E6
331
10000EF
  5
100009B
331
10000F1
  5
100009D
331
1000142
  5
10000EE
331
10000F8
  5
10000A4
331
10000F9
  5
10000A5
331
10001A4
  5
1000150
331
10000FA
  5
10000A6
331
100024D
  5
10001F9
331
10001FC
  5
10001A8
331
1000101
  5
10000AD
331
1000152
  5
10000FE
331
1000103
  5
10000AF
331
1000204
  5
10001B0
331
1000109
  5
10000B5
331
100015A
  5
1000106
331
10001B4
  5
1000160
331
100010A
  5
10000B6
331
100010F
  5
10000BB
331
10001BC
  5
1000168
331
1000112
  5
10000BE
331
1000118
  5
10000C4
331
1000119
  5
10000C5
331
10001C4
  5
1000170
331
100011A
  5
10000C6
331
1000228
  5
10001D4
331
1000123
  5
10000CF
331
100017A
  5
1000126
331
1000124
  5
10000D0
331
1000126
  5
10000D2
331
1000129
  5
10000D5
331
1000225
  5
10001D1
331
10001D4
  5
1000180
331
100012A
  5
10000D6
331
10001E0
  5
100018C
331
100012E
  5
10000DA
331
100012F
  5
10000DB
331
1000131
  5
10000DD
331
1000136
  5
10000E2
331
100013D
  5
10000E9
331
1000248
  5
10001F4
331
100019A
  5
1000146
331
1000143
  5
10000EF
331
1000144
  5
10000F0
331
100024A
  5
10001F6
331
1000145
  5
10000F1
331
1000245
  5
10001F1
331
10001F4
  5
10001A0
331
100014A
  5
10000F6
331
1000252
  5
10001FE
331
100014D
  5
10000F9
331
1000200
  5
10001AC
331
100014E
  5
10000FA
331
100014F
  5
10000FB
331
1000155
  5
1000101
331
1000156
  5
1000102
331
100015D
  5
1000109
331
100015E
  5
100010A
331
1000268
  5
1000214
331
10001BA
  5
1000166
331
1000163
  5
100010F
331
1000164
  5
1000110
331
100026A
  5
1000216
331
1000165
  5
1000111
331
1000166
  5
1000112
331
1000272
  5
100021E
331
100016D
  5
1000119
331
1000220
  5
10001CC
331
100016E
  5
100011A
331
100016F
  5
100011B
331
1000175
  5
1000121
331
1000176
  5
1000122
331
1000279
  5
1000225
331
1000178
  5
1000124
331
1000278
  5
1000224
331
1000227
  5
10001D3
331
1000179
  5
1000125
331
100022C
  5
10001D8
331
100017E
  5
100012A
331
1000230
  5
10001DC
331
1000182
  5
100012E
331
1000234
  5
10001E0
331
1000186
  5
1000132
331
10001D8
  5
1000184
331
1000187
  5
1000133
331
100018B
  5
1000137
331
100018C
  5
1000138
331
100023C
  5
10001E8
331
100018E
  5
100013A
331
100018F
  5
100013B
331
1000291
  5
100023D
331
1000190
  5
100013C
331
1000290
  5
100023C
331
100023F
  5
10001EB
331
10001E2
  5
100018E
331
1000191
  5
100013D
331
1000193
  5
100013F
331
1000195
  5
1000141
331
1000196
  5
1000142
331
10001E8
  5
1000194
331
1000197
  5
1000143
331
1000299
  5
1000245
331
1000198
  5
1000144
331
1000298
  5
1000244
331
1000247
  5
10001F3
331
1000199
  5
1000145
331
100024B
  5
10001F7
331
100019D
  5
1000149
331
100024C
  5
10001F8
331
100019E
  5
100014A
331
10002A0
  5
100024C
331
10001F2
  5
100019E
331
10001A1
  5
100014D
331
1000250
  5
10001FC
331
10001A2
  5
100014E
331
1000254
  5
1000200
331
10001A6
  5
1000152
331
10001F8
  5
10001A4
331
10001A7
  5
1000153
331
10001AB
  5
1000157
331
10001AC
  5
1000158
331
100025C
  5
1000208
331
10001AE
  5
100015A
331
10002B1
  5
100025D
331
10001B0
  5
100015C
331
10002B0
  5
100025C
331
100025F
  5
100020B
331
1000202
  5
10001AE
331
10001B1
  5
100015D
331
10001B3
  5
100015F
331
10001B5
  5
1000161
331
10001B6
  5
1000162
331
10001B8
  5
1000164
331
1000267
  5
1000213
331
10001B9
  5
1000165
331
100026B
  5
1000217
331
10001BD
  5
1000169
331
100026C
  5
1000218
331
10001BE
  5
100016A
331
1000210
  5
10001BC
331
10001BF
  5
100016B
331
1000212
  5
10001BE
331
10001C1
  5
100016D
331
1000270
  5
100021C
331
10001C2
  5
100016E
331
1000274
  5
1000220
331
10001C6
  5
1000172
331
1000218
  5
10001C4
331
10001C7
  5
1000173
331
10001CB
  5
1000177
331
10001CC
  5
1000178
331
100027C
  5
1000228
331
10001CE
  5
100017A
331
10001CF
  5
100017B
331
100027F
  5
100022B
331
10001D1
  5
100017D
331
1000226
  5
10001D2
331
10001D3
  5
100017F
331
10001D5
  5
1000181
331
10001D6
  5
1000182
331
10001D7
  5
1000183
331
1000287
  5
1000233
331
10001D9
  5
1000185
331
100022E
  5
10001DA
331
10001DB
  5
1000187
331
100028B
  5
1000237
331
10001DD
  5
1000189
331
100028C
  5
1000238
331
10001DE
  5
100018A
331
10001DF
  5
100018B
331
1000293
  5
100023F
331
10001E5
  5
1000191
331
1000294
  5
1000240
331
10001E6
  5
1000192
331
10001E7
  5
1000193
331
10001EA
  5
1000196
331
100023E
  5
10001EA
331
10001EB
  5
1000197
331
100023D
  5
10001E9
331
10001EC
  5
1000198
331
100029C
  5
1000248
331
10001EE
  5
100019A
331
10001EF
  5
100019B
331
100029F
  5
100024B
331
10001F1
  5
100019D
331
1000246
  5
10001F2
331
10001F3
  5
100019F
331
10001F6
  5
10001A2
331
10002A7
  5
1000253
331
10001F9
  5
10001A5
331
100024E
  5
10001FA
331
10001FB
  5
10001A7
331
10002AB
  5
1000257
331
10001FD
  5
10001A9
331
10002AC
  5
1000258
331
10001FE
  5
10001AA
331
10001FF
  5
10001AB
331
1000205
  5
10001B1
331
1000206
  5
10001B2
331
1000207
  5
10001B3
331
100025E
  5
100020A
331
100020B
  5
10001B7
331
100025D
  5
1000209
331
100020C
  5
10001B8
331
100020E
  5
10001BA
331
1000211
  5
10001BD
331
1000266
  5
1000212
331
1000213
  5
10001BF
331
1000215
  5
10001C1
331
1000216
  5
10001C2
331
1000219
  5
10001C5
331
100026E
  5
100021A
331
100021B
  5
10001C7
331
100021D
  5
10001C9
331
100021E
  5
10001CA
331
1000222
  5
10001CE
331
1000224
  5
10001D0
331
100022F
  5
10001DB
331
1000282
  5
100022E
331
1000231
  5
10001DD
331
1000235
  5
10001E1
331
1000236
  5
10001E2
331
1000238
  5
10001E4
331
1000239
  5
10001E5
331
100023A
  5
10001E6
331
1000242
  5
10001EE
331
100024F
  5
10001FB
331
10002A2
  5
100024E
331
1000251
  5
10001FD
331
1000255
  5
1000201
331
1000256
  5
1000202
331
1000258
  5
1000204
331
1000259
  5
1000205
331
100025A
  5
1000206
331
1000264
  5
1000210
331
100026F
  5
100021B
331
1000271
  5
100021D
331
1000275
  5
1000221
331
1000276
  5
1000222
331
100027D
  5
1000229
331
100027E
  5
100022A
331
1000284
  5
1000230
331
1000285
  5
1000231
331
1000286
  5
1000232
331
100028A
  5
1000236
331
100028E
  5
100023A
331
100028F
  5
100023B
331
1000295
  5
1000241
331
1000296
  5
1000242
331
100029E
  5
100024A
331
10002A4
  5
1000250
331
10002A5
  5
1000251
331
10002A6
  5
1000252
331
10002AE
  5
100025A
331
10002AF
  5
100025B
  0
LAYOUT
  5
18
330
3AA
100
AcDbPlotSettings
  1

  2

  4

  6

 40
0.0
 41
0.0
 42
0.0
 43
0.0
 44
0.0
 45
0.0
 46
0.0
 47
0.0
 48
0.0
 49
0.0
140
0.0
141
0.0
142
1.0
143
1.0
 70
   688
 72
     1
 73
     0
 74
     5
  7

 75
     0
 76
     0
 77
     2
 78
   300
147
1.0
148
0.0
149
0.0
100
AcDbLayout
  1
Layout
 70
     1
 71
     1
 10
0.0
 20
0.0
 11
420.0
 21
297.0
 12
0.0
 22
0.0
 32
0.0
 14
1.000000000000000E+20
 24
1.000000000000000E+20
 34
1.000000000000000E+20
 15
-1.000000000000000E+20
 25
-1.000000000000000E+20
 35
-1.000000000000000E+20
146
0.0
 13
0.0
 23
0.0
 33
0.0
 16
1.0
 26
0.0
 36
0.0
 17
0.0
 27
1.0
 37
0.0
 76
     0
330
17
  0
LAYOUT
  5
16
330
3AA
100
AcDbPlotSettings
  1

  2

  4

  6

 40
0.0
 41
0.0
 42
0.0
 43
0.0
 44
0.0
 45
0.0
 46
0.0
 47
0.0
 48
0.0
 49
0.0
140
0.0
141
0.0
142
1.0
143
1.0
 70
  1712
 72
     1
 73
     0
 74
     0
  7

 75
     0
 76
     0
 77
     2
 78
   300
147
1.0
148
0.0
149
0.0
100
AcDbLayout
  1
Model
 70
     1
 71
     0
 10
0.0
 20
0.0
 11
12.0
 21
9.0
 12
0.0
 22
0.0
 32
0.0
 14
0.0
 24
0.0
 34
0.0
 15
0.0
 25
0.0
 35
0.0
146
0.0
 13
0.0
 23
0.0
 33
0.0
 16
1.0
 26
0.0
 36
0.0
 17
0.0
 27
1.0
 37
0.0
 76
     0
330
15
331
2
  0
MATERIAL
  5
1000001
102
{ACAD_XDICTIONARY
360
10002C7
102
}
102
{ACAD_REACTORS
330
FFFFFF
102
}
330
FFFFFF
100
AcDbMaterial
  1
ByBlock
 72
     0
 73
     2
 77
     0
 78
     2
171
     0
172
     2
175
     0
176
     2
179
     0
270
     2
274
     2
  0
MATERIAL
  5
1000000
102
{ACAD_XDICTIONARY
360
10002C9
102
}
102
{ACAD_REACTORS
330
FFFFFF
102
}
330
FFFFFF
100
AcDbMaterial
  1
ByLayer
 72
     0
 73
     2
 77
     0
 78
     2
171
     0
172
     2
175
     0
176
     2
179
     0
270
     2
274
     2
  0
MATERIAL
  5
1000002
102
{ACAD_XDICTIONARY
360
10002CB
102
}
102
{ACAD_REACTORS
330
FFFFFF
102
}
330
FFFFFF
100
AcDbMaterial
  1
Global
 72
     0
 73
     2
 77
     0
 78
     2
171
     0
172
     2
175
     0
176
     2
179
     0
270
     2
274
     2
  0
MLEADERSTYLE
  5
1000020
102
{ACAD_XDICTIONARY
360
10002CE
102
}
102
{ACAD_REACTORS
330
100001F
102
}
330
100001F
100
AcDbMLeaderStyle
170
     2
171
     1
172
     0
 90
        2
 40
0.0
 41
0.0
173
     1
 91
-1056964608
340
4
 92
       -2
290
     1
 42
0.4
291
     1
 43
2.0
  3
Standard
 44
0.18
300

342
C
174
     1
178
     1
175
     1
176
     0
 93
-1056964608
 45
0.2
292
     0
297
     0
 46
5.0
 94
-1056964608
 47
1.0
 49
1.0
140
1.0
293
     1
141
0.0
294
     1
177
     0
142
1.0
295
     0
296
     0
143
0.125
1001
ACAD_MLEADERVER
1070
     2
  0
MLINESTYLE
  5
3AF
102
{ACAD_REACTORS
330
3AB
102
}
330
3AB
100
AcDbMlineStyle
  2
Standard
 70
     0
  3

 62
   256
 51
90.0
 52
90.0
 71
     2
 49
0.5
 62
   256
  6
BYLAYER
 49
-0.5
 62
   256
  6
BYLAYER
  0
ACDBPLACEHOLDER
  5
9
330
3AD
  0
SCALE
  5
1000022
102
{ACAD_REACTORS
330
1000021
102
}
330
1000021
100
AcDbScale
 70
     0
300
1:1
140
1.0
141
1.0
290
     1
  0
SCALE
  5
1000023
102
{ACAD_REACTORS
330
1000021
102
}
330
1000021
100
AcDbScale
 70
     0
300
1:2
140
1.0
141
2.0
290
     0
  0
SCALE
  5
1000024
102
{ACAD_REACTORS
330
1000021
102
}
330
1000021
100
AcDbScale
 70
     0
300
1:4
140
1.0
141
4.0
290
     0
  0
SCALE
  5
1000025
102
{ACAD_REACTORS
330
1000021
102
}
330
1000021
100
AcDbScale
 70
     0
300
1:5
140
1.0
141
5.0
290
     0
  0
SCALE
  5
1000026
102
{ACAD_REACTORS
330
1000021
102
}
330
1000021
100
AcDbScale
 70
     0
300
1:8
140
1.0
141
8.0
290
     0
  0
SCALE
  5
1000027
102
{ACAD_REACTORS
330
1000021
102
}
330
1000021
100
AcDbScale
 70
     0
300
1:10
140
1.0
141
10.0
290
     0
  0
SCALE
  5
1000028
102
{ACAD_REACTORS
330
1000021
102
}
330
1000021
100
AcDbScale
 70
     0
300
1:16
140
1.0
141
16.0
290
     0
  0
SCALE
  5
1000029
102
{ACAD_REACTORS
330
1000021
102
}
330
1000021
100
AcDbScale
 70
     0
300
1:20
140
1.0
141
20.0
290
     0
  0
SCALE
  5
100002A
102
{ACAD_REACTORS
330
1000021
102
}
330
1000021
100
AcDbScale
 70
     0
300
1:30
140
1.0
141
30.0
290
     0
  0
SCALE
  5
100002B
102
{ACAD_REACTORS
330
1000021
102
}
330
1000021
100
AcDbScale
 70
     0
300
1:40
140
1.0
141
40.0
290
     0
  0
SCALE
  5
100002C
102
{ACAD_REACTORS
330
1000021
102
}
330
1000021
100
AcDbScale
 70
     0
300
1:50
140
1.0
141
50.0
290
     0
  0
SCALE
  5
100002D
102
{ACAD_REACTORS
330
1000021
102
}
330
1000021
100
AcDbScale
 70
     0
300
1:100
140
1.0
141
100.0
290
     0
  0
SCALE
  5
100002E
102
{ACAD_REACTORS
330
1000021
102
}
330
1000021
100
AcDbScale
 70
     0
300
2:1
140
2.0
141
1.0
290
     0
  0
SCALE
  5
100002F
102
{ACAD_REACTORS
330
1000021
102
}
330
1000021
100
AcDbScale
 70
     0
300
4:1
140
4.0
141
1.0
290
     0
  0
SCALE
  5
1000030
102
{ACAD_REACTORS
330
1000021
102
}
330
1000021
100
AcDbScale
 70
     0
300
8:1
140
8.0
141
1.0
290
     0
  0
SCALE
  5
1000031
102
{ACAD_REACTORS
330
1000021
102
}
330
1000021
100
AcDbScale
 70
     0
300
10:1
140
10.0
141
1.0
290
     0
  0
SCALE
  5
1000032
102
{ACAD_REACTORS
330
1000021
102
}
330
1000021
100
AcDbScale
 70
     0
300
100:1
140
100.0
141
1.0
290
     0
  0
TABLESTYLE
  5
100001E
102
{ACAD_XDICTIONARY
360
10002D0
102
}
102
{ACAD_REACTORS
330
100001D
102
}
330
100001D
100
AcDbTableStyle
  3
Standard
 70
     0
 71
     0
 40
0.06
 41
0.06
280
     0
281
     0
  7
STANDARD
140
0.18
170
     2
 62
     7
 63
   257
283
     0
274
    -2
284
     1
 64
     0
275
    -2
285
     1
 65
     0
276
    -2
286
     1
 66
     0
277
    -2
287
     1
 67
     0
278
    -2
288
     1
 68
     0
279
    -2
289
     1
 69
     0
  7
STANDARD
140
0.25
170
     5
 62
     7
 63
   257
283
     0
274
    -2
284
     1
 64
     0
275
    -2
285
     1
 65
     0
276
    -2
286
     1
 66
     0
277
    -2
287
     1
 67
     0
278
    -2
288
     1
 68
     0
279
    -2
289
     1
 69
     0
  7
STANDARD
140
0.18
170
     5
 62
     7
 63
   257
283
     0
274
    -2
284
     1
 64
     0
275
    -2
285
     1
 65
     0
276
    -2
286
     1
 66
     0
277
    -2
287
     1
 67
     0
278
    -2
288
     1
 68
     0
279
    -2
289
     1
 69
     0
  0
VISUALSTYLE
  5
1000008
102
{ACAD_XDICTIONARY
360
10002D3
102
}
102
{ACAD_REACTORS
330
1000003
102
}
330
1000003
100
AcDbVisualStyle
  2
2dWireframe
 70
     4
 71
     0
 72
     2
 73
     0
 90
        0
 40
0.6
 41
30.0
 62
     5
 63
     7
421
 16777215
 74
     1
 91
        4
 64
     7
 65
   257
 75
     1
175
     1
 42
1.0
 92
        0
 66
   257
 43
1.0
 76
     1
 77
     6
 78
     2
 67
     7
 79
     5
170
     0
171
     0
290
     0
174
     0
 93
        1
 44
0.0
173
     0
291
     0
 45
0.0
1001
ACAD
1000
AcDbSavedByObjectVersion
1070
     0
  0
VISUALSTYLE
  5
100000B
102
{ACAD_XDICTIONARY
360
10002D5
102
}
102
{ACAD_REACTORS
330
1000003
102
}
330
1000003
100
AcDbVisualStyle
  2
Basic
 70
     7
 71
     1
 72
     0
 73
     1
 90
        0
 40
0.6
 41
30.0
 62
     5
 63
     7
421
 16777215
 74
     0
 91
        4
 64
     7
 65
   257
 75
     1
175
     1
 42
1.0
 92
        8
 66
     7
 43
1.0
 76
     1
 77
     6
 78
     2
 67
     7
 79
     5
170
     0
171
     0
290
     0
174
     0
 93
        1
 44
0.0
173
     0
291
     1
 45
0.0
1001
ACAD
1000
AcDbSavedByObjectVersion
1070
     0
  0
VISUALSTYLE
  5
100000F
102
{ACAD_XDICTIONARY
360
10002D7
102
}
102
{ACAD_REACTORS
330
1000003
102
}
330
1000003
100
AcDbVisualStyle
  2
Brighten
 70
    12
 71
     2
 72
     2
 73
     0
 90
        0
 40
0.6
 41
30.0
 62
     5
 63
     7
421
 16777215
 74
     1
 91
        4
 64
     7
 65
   257
 75
     1
175
     1
 42
1.0
 92
        8
 66
     7
 43
1.0
 76
     1
 77
     6
 78
     2
 67
     7
 79
     5
170
     0
171
     0
290
     0
174
     0
 93
        1
 44
50.0
173
     0
291
     1
 45
0.0
1001
ACAD
1000
AcDbSavedByObjectVersion
1070
     0
  0
VISUALSTYLE
  5
1000013
102
{ACAD_XDICTIONARY
360
10002D9
102
}
102
{ACAD_REACTORS
330
1000003
102
}
330
1000003
100
AcDbVisualStyle
  2
ColorChange
 70
    16
 71
     2
 72
     2
 73
     3
 90
        0
 40
0.6
 41
30.0
 62
     5
 63
     8
421
  8421504
 74
     1
 91
        4
 64
     7
 65
   257
 75
     1
175
     1
 42
1.0
 92
        8
 66
     8
424
  8421504
 43
1.0
 76
     1
 77
     6
 78
     2
 67
     7
 79
     5
170
     0
171
     0
290
     0
174
     0
 93
        1
 44
0.0
173
     0
291
     1
 45
0.0
1001
ACAD
1000
AcDbSavedByObjectVersion
1070
     0
  0
VISUALSTYLE
  5
100000D
102
{ACAD_XDICTIONARY
360
10002DB
102
}
102
{ACAD_REACTORS
330
1000003
102
}
330
1000003
100
AcDbVisualStyle
  2
Conceptual
 70
     9
 71
     3
 72
     2
 73
     0
 90
        0
 40
0.6
 41
30.0
 62
     5
 63
     7
421
 16777215
 74
     2
 91
        2
 64
     7
 65
   257
 75
     1
175
     1
 42
179.0
 92
        8
 66
     7
 43
1.0
 76
     1
 77
     6
 78
     2
 67
     7
 79
     3
170
     0
171
     0
290
     0
174
     0
 93
        1
 44
0.0
173
     0
291
     0
 45
0.0
1001
ACAD
1000
AcDbSavedByObjectVersion
1070
     0
  0
VISUALSTYLE
  5
100000E
102
{ACAD_XDICTIONARY
360
10002DD
102
}
102
{ACAD_REACTORS
330
1000003
102
}
330
1000003
100
AcDbVisualStyle
  2
Dim
 70
    11
 71
     2
 72
     2
 73
     0
 90
        0
 40
0.6
 41
30.0
 62
     5
 63
     7
421
 16777215
 74
     1
 91
        4
 64
     7
 65
   257
 75
     1
175
     1
 42
1.0
 92
        8
 66
     7
 43
1.0
 76
     1
 77
     6
 78
     2
 67
     7
 79
     5
170
     0
171
     0
290
     0
174
     0
 93
        1
 44
-50.0
173
     0
291
     1
 45
0.0
1001
ACAD
1000
AcDbSavedByObjectVersion
1070
     0
  0
VISUALSTYLE
  5
1000016
102
{ACAD_XDICTIONARY
360
10002DF
102
}
102
{ACAD_REACTORS
330
1000003
102
}
330
1000003
100
AcDbVisualStyle
  2
EdgeColorOff
 70
    22
 71
     2
 72
     2
 73
     0
 90
        0
 40
0.6
 41
30.0
 62
     5
 63
     7
421
 16777215
 74
     1
 91
        4
 64
     7
 65
   257
 75
     1
175
     1
 42
1.0
 92
        8
 66
     7
 43
1.0
 76
     1
 77
     6
 78
     2
 67
     7
 79
     5
170
     0
171
     0
290
     0
174
     0
 93
        1
 44
0.0
173
     0
291
     1
 45
0.0
1001
ACAD
1000
AcDbSavedByObjectVersion
1070
     0
  0
VISUALSTYLE
  5
1000012
102
{ACAD_XDICTIONARY
360
10002E1
102
}
102
{ACAD_REACTORS
330
1000003
102
}
330
1000003
100
AcDbVisualStyle
  2
Facepattern
 70
    15
 71
     2
 72
     2
 73
     0
 90
        0
 40
0.6
 41
30.0
 62
     5
 63
     7
421
 16777215
 74
     1
 91
        4
 64
     7
 65
   257
 75
     1
175
     1
 42
1.0
 92
        8
 66
     7
 43
1.0
 76
     1
 77
     6
 78
     2
 67
     7
 79
     5
170
     0
171
     0
290
     0
174
     0
 93
        1
 44
0.0
173
     0
291
     1
 45
0.0
1001
ACAD
1000
AcDbSavedByObjectVersion
1070
     0
  0
VISUALSTYLE
  5
1000004
102
{ACAD_XDICTIONARY
360
10002E3
102
}
102
{ACAD_REACTORS
330
1000003
102
}
330
1000003
100
AcDbVisualStyle
  2
Flat
 70
     0
 71
     2
 72
     1
 73
     1
 90
        2
 40
0.6
 41
30.0
 62
     5
 63
     7
421
 16777215
 74
     0
 91
        0
 64
     7
 65
   257
 75
     1
175
     1
 42
1.0
 92
        8
 66
     7
 43
1.0
 76
     1
 77
     6
 78
     2
 67
     7
 79
     5
170
     0
171
     0
290
     0
174
     0
 93
       13
 44
0.0
173
     0
291
     1
 45
0.0
1001
ACAD
1000
AcDbSavedByObjectVersion
1070
     0
  0
VISUALSTYLE
  5
1000005
102
{ACAD_XDICTIONARY
360
10002E5
102
}
102
{ACAD_REACTORS
330
1000003
102
}
330
1000003
100
AcDbVisualStyle
  2
FlatWithEdges
 70
     1
 71
     2
 72
     1
 73
     1
 90
        2
 40
0.6
 41
30.0
 62
     5
 63
     7
421
 16777215
 74
     1
 91
        0
 64
     7
 65
   257
 75
     1
175
     1
 42
1.0
 92
        0
 66
   257
 43
1.0
 76
     1
 77
     6
 78
     2
 67
     7
 79
     5
170
     0
171
     0
290
     0
174
     0
 93
       13
 44
0.0
173
     0
291
     1
 45
0.0
1001
ACAD
1000
AcDbSavedByObjectVersion
1070
     0
  0
VISUALSTYLE
  5
1000006
102
{ACAD_XDICTIONARY
360
10002E7
102
}
102
{ACAD_REACTORS
330
1000003
102
}
330
1000003
100
AcDbVisualStyle
  2
Gouraud
 70
     2
 71
     2
 72
     2
 73
     1
 90
        2
 40
0.6
 41
30.0
 62
     5
 63
     7
421
 16777215
 74
     0
 91
        0
 64
     7
 65
   257
 75
     1
175
     1
 42
1.0
 92
        0
 66
     7
 43
1.0
 76
     1
 77
     6
 78
     2
 67
     7
 79
     5
170
     0
171
     0
290
     0
174
     0
 93
       13
 44
0.0
173
     0
291
     1
 45
0.0
1001
ACAD
1000
AcDbSavedByObjectVersion
1070
     0
  0
VISUALSTYLE
  5
1000007
102
{ACAD_XDICTIONARY
360
10002E9
102
}
102
{ACAD_REACTORS
330
1000003
102
}
330
1000003
100
AcDbVisualStyle
  2
GouraudWithEdges
 70
     3
 71
     2
 72
     2
 73
     1
 90
        2
 40
0.6
 41
30.0
 62
     5
 63
     7
421
 16777215
 74
     1
 91
        0
 64
     7
 65
   257
 75
     1
175
     1
 42
1.0
 92
        0
 66
   257
 43
1.0
 76
     1
 77
     6
 78
     2
 67
     7
 79
     5
170
     0
171
     0
290
     0
174
     0
 93
       13
 44
0.0
173
     0
291
     1
 45
0.0
1001
ACAD
1000
AcDbSavedByObjectVersion
1070
     0
  0
VISUALSTYLE
  5
100000A
102
{ACAD_XDICTIONARY
360
10002EB
102
}
102
{ACAD_REACTORS
330
1000003
102
}
330
1000003
100
AcDbVisualStyle
  2
Hidden
 70
     6
 71
     1
 72
     2
 73
     2
 90
        0
 40
0.6
 41
30.0
 62
     5
 63
     7
421
 16777215
 74
     2
 91
        2
 64
     7
 65
   257
 75
     2
175
     1
 42
40.0
 92
        0
 66
   257
 43
1.0
 76
     1
 77
     6
 78
     2
 67
     7
 79
     3
170
     0
171
     0
290
     0
174
     0
 93
        1
 44
0.0
173
     0
291
     0
 45
0.0
1001
ACAD
1000
AcDbSavedByObjectVersion
1070
     0
  0
VISUALSTYLE
  5
1000014
102
{ACAD_XDICTIONARY
360
10002ED
102
}
102
{ACAD_REACTORS
330
1000003
102
}
330
1000003
100
AcDbVisualStyle
  2
JitterOff
 70
    20
 71
     2
 72
     2
 73
     0
 90
        0
 40
0.6
 41
30.0
 62
     5
 63
     7
421
 16777215
 74
     1
 91
        4
 64
     7
 65
   257
 75
     1
175
     1
 42
1.0
 92
       10
 66
     7
 43
1.0
 76
     1
 77
     6
 78
     2
 67
     7
 79
     5
170
     0
171
     0
290
     0
174
     0
 93
        1
 44
0.0
173
     0
291
     1
 45
0.0
1001
ACAD
1000
AcDbSavedByObjectVersion
1070
     0
  0
VISUALSTYLE
  5
1000011
102
{ACAD_XDICTIONARY
360
10002EF
102
}
102
{ACAD_REACTORS
330
1000003
102
}
330
1000003
100
AcDbVisualStyle
  2
Linepattern
 70
    14
 71
     2
 72
     2
 73
     0
 90
        0
 40
0.6
 41
30.0
 62
     5
 63
     7
421
 16777215
 74
     1
 91
        4
 64
     7
 65
   257
 75
     7
175
     7
 42
1.0
 92
        8
 66
     7
 43
1.0
 76
     1
 77
     6
 78
     2
 67
     7
 79
     5
170
     0
171
     0
290
     0
174
     0
 93
        1
 44
0.0
173
     0
291
     1
 45
0.0
1001
ACAD
1000
AcDbSavedByObjectVersion
1070
     0
  0
VISUALSTYLE
  5
1000015
102
{ACAD_XDICTIONARY
360
10002F1
102
}
102
{ACAD_REACTORS
330
1000003
102
}
330
1000003
100
AcDbVisualStyle
  2
OverhangOff
 70
    21
 71
     2
 72
     2
 73
     0
 90
        0
 40
0.6
 41
30.0
 62
     5
 63
     7
421
 16777215
 74
     1
 91
        4
 64
     7
 65
   257
 75
     1
175
     1
 42
1.0
 92
        9
 66
     7
 43
1.0
 76
     1
 77
     6
 78
     2
 67
     7
 79
     5
170
     0
171
     0
290
     0
174
     0
 93
        1
 44
0.0
173
     0
291
     1
 45
0.0
1001
ACAD
1000
AcDbSavedByObjectVersion
1070
     0
  0
VISUALSTYLE
  5
100000C
102
{ACAD_XDICTIONARY
360
10002F3
102
}
102
{ACAD_REACTORS
330
1000003
102
}
330
1000003
100
AcDbVisualStyle
  2
Realistic
 70
     8
 71
     2
 72
     3
 73
     0
 90
        2
 40
0.6
 41
30.0
 62
     5
 63
     7
421
 16777215
 74
     0
 91
        0
 64
     7
 65
   257
 75
     1
175
     1
 42
1.0
 92
        8
 66
   257
 43
1.0
 76
     1
 77
     6
 78
     2
 67
     7
 79
     3
170
     0
171
     0
290
     0
174
     0
 93
       13
 44
0.0
173
     0
291
     0
 45
0.0
1001
ACAD
1000
AcDbSavedByObjectVersion
1070
     0
  0
VISUALSTYLE
  5
100001B
102
{ACAD_XDICTIONARY
360
10002F5
102
}
102
{ACAD_REACTORS
330
1000003
102
}
330
1000003
100
AcDbVisualStyle
  2
Shaded
 70
    27
 71
     2
 72
     2
 73
     1
 90
        2
 40
0.6
 41
30.0
 62
     5
 63
     7
421
 16777215
 74
     0
 91
        4
 64
     7
 65
   257
 75
     1
175
     1
 42
1.0
 92
        8
 66
   257
 43
1.0
 76
     1
 77
     6
 78
     2
 67
     8
425
  7895160
 79
     3
170
     0
171
     0
290
     0
174
     0
 93
        5
 44
0.0
173
     0
291
     0
 45
0.0
1001
ACAD
1000
AcDbSavedByObjectVersion
1070
     0
  0
VISUALSTYLE
  5
100001A
102
{ACAD_XDICTIONARY
360
10002F7
102
}
102
{ACAD_REACTORS
330
1000003
102
}
330
1000003
100
AcDbVisualStyle
  2
Shaded with edges
 70
    26
 71
     2
 72
     2
 73
     1
 90
        2
 40
0.6
 41
30.0
 62
     5
 63
     7
421
 16777215
 74
     1
 91
       10
 64
     7
 65
   257
 75
     2
175
     1
 42
1.0
 92
        8
 66
   257
 43
1.0
 76
     1
 77
     6
 78
     2
 67
     7
 79
     3
170
     0
171
     0
290
     0
174
     0
 93
        5
 44
0.0
173
     0
291
     0
 45
0.0
1001
ACAD
1000
AcDbSavedByObjectVersion
1070
     0
  0
VISUALSTYLE
  5
1000017
102
{ACAD_XDICTIONARY
360
10002F9
102
}
102
{ACAD_REACTORS
330
1000003
102
}
330
1000003
100
AcDbVisualStyle
  2
Shades of Gray
 70
    23
 71
     2
 72
     2
 73
     3
 90
        0
 40
0.6
 41
30.0
 62
     5
 63
     7
421
 16777215
 74
     2
 91
        2
 64
     7
 65
     7
 75
     1
175
     1
 42
40.0
 92
        8
 66
     7
 43
1.0
 76
     1
 77
     6
 78
     2
 67
     7
 79
     3
170
     0
171
     0
290
     0
174
     0
 93
        1
 44
0.0
173
     0
291
     0
 45
0.0
1001
ACAD
1000
AcDbSavedByObjectVersion
1070
     0
  0
VISUALSTYLE
  5
1000018
102
{ACAD_XDICTIONARY
360
10002FB
102
}
102
{ACAD_REACTORS
330
1000003
102
}
330
1000003
100
AcDbVisualStyle
  2
Sketchy
 70
    24
 71
     1
 72
     2
 73
     2
 90
        0
 40
0.6
 41
30.0
 62
     5
 63
     7
421
 16777215
 74
     2
 91
        2
 64
     7
 65
     7
 75
     1
175
     1
 42
40.0
 92
       11
 66
     7
 43
1.0
 76
     1
 77
     6
 78
     2
 67
     7
 79
     6
170
     0
171
     0
290
     0
174
     0
 93
        1
 44
0.0
173
     0
291
     0
 45
0.0
1001
ACAD
1000
AcDbSavedByObjectVersion
1070
     0
  0
VISUALSTYLE
  5
1000010
102
{ACAD_XDICTIONARY
360
10002FD
102
}
102
{ACAD_REACTORS
330
1000003
102
}
330
1000003
100
AcDbVisualStyle
  2
Thicken
 70
    13
 71
     2
 72
     2
 73
     0
 90
        0
 40
0.6
 41
30.0
 62
     5
 63
     7
421
 16777215
 74
     1
 91
        4
 64
     7
 65
   257
 75
     1
175
     1
 42
1.0
 92
       12
 66
     7
 43
1.0
 76
     1
 77
     6
 78
     2
 67
     7
 79
     5
170
     0
171
     0
290
     0
174
     0
 93
        1
 44
0.0
173
     0
291
     1
 45
0.0
1001
ACAD
1000
AcDbSavedByObjectVersion
1070
     0
  0
VISUALSTYLE
  5
1000009
102
{ACAD_XDICTIONARY
360
10002FF
102
}
102
{ACAD_REACTORS
330
1000003
102
}
330
1000003
100
AcDbVisualStyle
  2
Wireframe
 70
     5
 71
     0
 72
     2
 73
     0
 90
        0
 40
0.6
 41
30.0
 62
     5
 63
     7
421
 16777215
 74
     1
 91
        4
 64
     7
 65
   257
 75
     1
175
     1
 42
1.0
 92
        0
 66
   257
 43
1.0
 76
     1
 77
     6
 78
     2
 67
     7
 79
     3
170
     0
171
     0
290
     0
174
     0
 93
        1
 44
0.0
173
     0
291
     0
 45
0.0
1001
ACAD
1000
AcDbSavedByObjectVersion
1070
     0
  0
VISUALSTYLE
  5
1000019
102
{ACAD_XDICTIONARY
360
1000301
102
}
102
{ACAD_REACTORS
330
1000003
102
}
330
1000003
100
AcDbVisualStyle
  2
X-Ray
 70
    25
 71
     2
 72
     2
 73
     1
 90
        1
 40
0.5
 41
30.0
 62
     5
 63
     7
421
 16777215
 74
     1
 91
        0
 64
     7
 65
   257
 75
     1
175
     1
 42
1.0
 92
        8
 66
     7
 43
1.0
 76
     1
 77
     6
 78
     2
 67
     7
 79
     3
170
     0
171
     0
290
     0
174
     0
 93
       13
 44
0.0
173
     0
291
     0
 45
0.0
1001
ACAD
1000
AcDbSavedByObjectVersion
1070
     0
  0
DICTIONARYVAR
  5
10002C0
102
{ACAD_REACTORS
330
10002BB
102
}
330
10002BB
100
DictionaryVariables
280
     0
  1
1:1
  0
DICTIONARYVAR
  5
10002BD
102
{ACAD_REACTORS
330
10002BB
102
}
330
10002BB
100
DictionaryVariables
280
     0
  1
Standard
  0
DICTIONARYVAR
  5
10002BC
102
{ACAD_REACTORS
330
10002BB
102
}
330
10002BB
100
DictionaryVariables
280
     0
  1
Standard
  0
DICTIONARYVAR
  5
10002BE
102
{ACAD_REACTORS
330
10002BB
102
}
330
10002BB
100
DictionaryVariables
280
     0
  1
0
  0
DICTIONARYVAR
  5
10002BF
102
{ACAD_REACTORS
330
10002BB
102
}
330
10002BB
100
DictionaryVariables
280
     0
  1
2
  0
DICTIONARY
  5
10002C7
330
1000001
100
AcDbDictionary
280
     1
281
     1
  3
ACAD_XREC_ROUNDTRIP
360
10002C8
  0
DICTIONARY
  5
10002C9
330
1000000
100
AcDbDictionary
280
     1
281
     1
  3
ACAD_XREC_ROUNDTRIP
360
10002CA
  0
DICTIONARY
  5
10002CB
330
1000002
100
AcDbDictionary
280
     1
281
     1
  3
ACAD_XREC_ROUNDTRIP
360
10002CC
  0
DICTIONARY
  5
10002CE
330
1000020
100
AcDbDictionary
280
     1
281
     1
  3
ACAD_XREC_ROUNDTRIP
360
10002CF
  0
DICTIONARY
  5
10002D0
330
100001E
100
AcDbDictionary
280
     1
281
     1
  3
ACAD_ROUNDTRIP_2008_TABLESTYLE_CELLSTYLEMAP
360
10002D2
  3
ACAD_XREC_ROUNDTRIP
360
10002D1
  0
DICTIONARY
  5
10002D3
330
1000008
100
AcDbDictionary
280
     1
281
     1
  3
ACAD_XREC_ROUNDTRIP
360
10002D4
  0
DICTIONARY
  5
10002D5
330
100000B
100
AcDbDictionary
280
     1
281
     1
  3
ACAD_XREC_ROUNDTRIP
360
10002D6
  0
DICTIONARY
  5
10002D7
330
100000F
100
AcDbDictionary
280
     1
281
     1
  3
ACAD_XREC_ROUNDTRIP
360
10002D8
  0
DICTIONARY
  5
10002D9
330
1000013
100
AcDbDictionary
280
     1
281
     1
  3
ACAD_XREC_ROUNDTRIP
360
10002DA
  0
DICTIONARY
  5
10002DB
330
100000D
100
AcDbDictionary
280
     1
281
     1
  3
ACAD_XREC_ROUNDTRIP
360
10002DC
  0
DICTIONARY
  5
10002DD
330
100000E
100
AcDbDictionary
280
     1
281
     1
  3
ACAD_XREC_ROUNDTRIP
360
10002DE
  0
DICTIONARY
  5
10002DF
330
1000016
100
AcDbDictionary
280
     1
281
     1
  3
ACAD_XREC_ROUNDTRIP
360
10002E0
  0
DICTIONARY
  5
10002E1
330
1000012
100
AcDbDictionary
280
     1
281
     1
  3
ACAD_XREC_ROUNDTRIP
360
10002E2
  0
DICTIONARY
  5
10002E3
330
1000004
100
AcDbDictionary
280
     1
281
     1
  3
ACAD_XREC_ROUNDTRIP
360
10002E4
  0
DICTIONARY
  5
10002E5
330
1000005
100
AcDbDictionary
280
     1
281
     1
  3
ACAD_XREC_ROUNDTRIP
360
10002E6
  0
DICTIONARY
  5
10002E7
330
1000006
100
AcDbDictionary
280
     1
281
     1
  3
ACAD_XREC_ROUNDTRIP
360
10002E8
  0
DICTIONARY
  5
10002E9
330
1000007
100
AcDbDictionary
280
     1
281
     1
  3
ACAD_XREC_ROUNDTRIP
360
10002EA
  0
DICTIONARY
  5
10002EB
330
100000A
100
AcDbDictionary
280
     1
281
     1
  3
ACAD_XREC_ROUNDTRIP
360
10002EC
  0
DICTIONARY
  5
10002ED
330
1000014
100
AcDbDictionary
280
     1
281
     1
  3
ACAD_XREC_ROUNDTRIP
360
10002EE
  0
DICTIONARY
  5
10002EF
330
1000011
100
AcDbDictionary
280
     1
281
     1
  3
ACAD_XREC_ROUNDTRIP
360
10002F0
  0
DICTIONARY
  5
10002F1
330
1000015
100
AcDbDictionary
280
     1
281
     1
  3
ACAD_XREC_ROUNDTRIP
360
10002F2
  0
DICTIONARY
  5
10002F3
330
100000C
100
AcDbDictionary
280
     1
281
     1
  3
ACAD_XREC_ROUNDTRIP
360
10002F4
  0
DICTIONARY
  5
10002F5
330
100001B
100
AcDbDictionary
280
     1
281
     1
  3
ACAD_XREC_ROUNDTRIP
360
10002F6
  0
DICTIONARY
  5
10002F7
330
100001A
100
AcDbDictionary
280
     1
281
     1
  3
ACAD_XREC_ROUNDTRIP
360
10002F8
  0
DICTIONARY
  5
10002F9
330
1000017
100
AcDbDictionary
280
     1
281
     1
  3
ACAD_XREC_ROUNDTRIP
360
10002FA
  0
DICTIONARY
  5
10002FB
330
1000018
100
AcDbDictionary
280
     1
281
     1
  3
ACAD_XREC_ROUNDTRIP
360
10002FC
  0
DICTIONARY
  5
10002FD
330
1000010
100
AcDbDictionary
280
     1
281
     1
  3
ACAD_XREC_ROUNDTRIP
360
10002FE
  0
DICTIONARY
  5
10002FF
330
1000009
100
AcDbDictionary
280
     1
281
     1
  3
ACAD_XREC_ROUNDTRIP
360
1000300
  0
DICTIONARY
  5
1000301
330
1000019
100
AcDbDictionary
280
     1
281
     1
  3
ACAD_XREC_ROUNDTRIP
360
1000302
  0
XRECORD
  5
10002C8
102
{ACAD_REACTORS
330
10002C7
102
}
330
10002C7
100
AcDbXrecord
280
     1
102
MATERIAL
148
0.0
149
0.0
149
0.0
 93
        0
 94
      127
282
     0
 72
     0
 77
     0
171
     0
175
     0
179
     0
273
     0
  0
XRECORD
  5
10002CA
102
{ACAD_REACTORS
330
10002C9
102
}
330
10002C9
100
AcDbXrecord
280
     1
102
MATERIAL
148
0.0
149
0.0
149
0.0
 93
        0
 94
      127
282
     0
 72
     0
 77
     0
171
     0
175
     0
179
     0
273
     0
  0
XRECORD
  5
10002CC
102
{ACAD_REACTORS
330
10002CB
102
}
330
10002CB
100
AcDbXrecord
280
     1
102
MATERIAL
148
0.0
149
0.0
149
0.0
 93
        0
 94
      127
282
     0
 72
     0
 77
     0
171
     0
175
     0
179
     0
273
     0
  0
XRECORD
  5
10002CF
102
{ACAD_REACTORS
330
10002CE
102
}
330
10002CE
100
AcDbXrecord
280
     1
102
ACAD_ROUNDTRIP_2010_MLEADER_STYLE
  0
CELLSTYLEMAP
  5
10002D2
102
{ACAD_REACTORS
330
10002D0
102
}
330
10002D0
100
AcDbCellStyleMap
 90
        3
300
CELLSTYLE
  1
TABLEFORMAT_BEGIN
 90
        5
170
     1
 91
        0
 92
    32768
 62
   257
 93
        1
300
CONTENTFORMAT
  1
CONTENTFORMAT_BEGIN
 90
        0
 91
        0
 92
        4
 93
        0
300

 40
0.0
140
1.0
 94
        5
 62
     7
340
C
144
0.25
309
CONTENTFORMAT_END
171
     1
301
MARGIN
  1
CELLMARGIN_BEGIN
 40
0.06
 40
0.06
 40
0.06
 40
0.06
 40
0.06
 40
0.06
309
CELLMARGIN_END
 94
        6
 95
        1
302
GRIDFORMAT
  1
GRIDFORMAT_BEGIN
 90
        0
 91
        1
 62
     0
 92
       -2
340
0
 93
        0
 40
0.045
309
GRIDFORMAT_END
 95
        2
302
GRIDFORMAT
  1
GRIDFORMAT_BEGIN
 90
        0
 91
        1
 62
     0
 92
       -2
340
0
 93
        0
 40
0.045
309
GRIDFORMAT_END
 95
        4
302
GRIDFORMAT
  1
GRIDFORMAT_BEGIN
 90
        0
 91
        1
 62
     0
 92
       -2
340
0
 93
        0
 40
0.045
309
GRIDFORMAT_END
 95
        8
302
GRIDFORMAT
  1
GRIDFORMAT_BEGIN
 90
        0
 91
        1
 62
     0
 92
       -2
340
0
 93
        0
 40
0.045
309
GRIDFORMAT_END
 95
       16
302
GRIDFORMAT
  1
GRIDFORMAT_BEGIN
 90
        0
 91
        1
 62
     0
 92
       -2
340
0
 93
        0
 40
0.045
309
GRIDFORMAT_END
 95
       32
302
GRIDFORMAT
  1
GRIDFORMAT_BEGIN
 90
        0
 91
        1
 62
     0
 92
       -2
340
0
 93
        0
 40
0.045
309
GRIDFORMAT_END
309
TABLEFORMAT_END
  1
CELLSTYLE_BEGIN
 90
        1
 91
        1
300
_TITLE
309
CELLSTYLE_END
300
CELLSTYLE
  1
TABLEFORMAT_BEGIN
 90
        5
170
     1
 91
        0
 92
        0
 62
   257
 93
        1
300
CONTENTFORMAT
  1
CONTENTFORMAT_BEGIN
 90
        0
 91
        0
 92
        4
 93
        0
300

 40
0.0
140
1.0
 94
        5
 62
     7
340
C
144
0.18
309
CONTENTFORMAT_END
171
     1
301
MARGIN
  1
CELLMARGIN_BEGIN
 40
0.06
 40
0.06
 40
0.06
 40
0.06
 40
0.06
 40
0.06
309
CELLMARGIN_END
 94
        6
 95
        1
302
GRIDFORMAT
  1
GRIDFORMAT_BEGIN
 90
        0
 91
        1
 62
     0
 92
       -2
340
0
 93
        0
 40
0.045
309
GRIDFORMAT_END
 95
        2
302
GRIDFORMAT
  1
GRIDFORMAT_BEGIN
 90
        0
 91
        1
 62
     0
 92
       -2
340
0
 93
        0
 40
0.045
309
GRIDFORMAT_END
 95
        4
302
GRIDFORMAT
  1
GRIDFORMAT_BEGIN
 90
        0
 91
        1
 62
     0
 92
       -2
340
0
 93
        0
 40
0.045
309
GRIDFORMAT_END
 95
        8
302
GRIDFORMAT
  1
GRIDFORMAT_BEGIN
 90
        0
 91
        1
 62
     0
 92
       -2
340
0
 93
        0
 40
0.045
309
GRIDFORMAT_END
 95
       16
302
GRIDFORMAT
  1
GRIDFORMAT_BEGIN
 90
        0
 91
        1
 62
     0
 92
       -2
340
0
 93
        0
 40
0.045
309
GRIDFORMAT_END
 95
       32
302
GRIDFORMAT
  1
GRIDFORMAT_BEGIN
 90
        0
 91
        1
 62
     0
 92
       -2
340
0
 93
        0
 40
0.045
309
GRIDFORMAT_END
309
TABLEFORMAT_END
  1
CELLSTYLE_BEGIN
 90
        2
 91
        1
300
_HEADER
309
CELLSTYLE_END
300
CELLSTYLE
  1
TABLEFORMAT_BEGIN
 90
        5
170
     1
 91
        0
 92
        0
 62
   257
 93
        1
300
CONTENTFORMAT
  1
CONTENTFORMAT_BEGIN
 90
        0
 91
        0
 92
        4
 93
        0
300

 40
0.0
140
1.0
 94
        2
 62
     7
340
C
144
0.18
309
CONTENTFORMAT_END
171
     1
301
MARGIN
  1
CELLMARGIN_BEGIN
 40
0.06
 40
0.06
 40
0.06
 40
0.06
 40
0.06
 40
0.06
309
CELLMARGIN_END
 94
        6
 95
        1
302
GRIDFORMAT
  1
GRIDFORMAT_BEGIN
 90
        0
 91
        1
 62
     0
 92
       -2
340
0
 93
        0
 40
0.045
309
GRIDFORMAT_END
 95
        2
302
GRIDFORMAT
  1
GRIDFORMAT_BEGIN
 90
        0
 91
        1
 62
     0
 92
       -2
340
0
 93
        0
 40
0.045
309
GRIDFORMAT_END
 95
        4
302
GRIDFORMAT
  1
GRIDFORMAT_BEGIN
 90
        0
 91
        1
 62
     0
 92
       -2
340
0
 93
        0
 40
0.045
309
GRIDFORMAT_END
 95
        8
302
GRIDFORMAT
  1
GRIDFORMAT_BEGIN
 90
        0
 91
        1
 62
     0
 92
       -2
340
0
 93
        0
 40
0.045
309
GRIDFORMAT_END
 95
       16
302
GRIDFORMAT
  1
GRIDFORMAT_BEGIN
 90
        0
 91
        1
 62
     0
 92
       -2
340
0
 93
        0
 40
0.045
309
GRIDFORMAT_END
 95
       32
302
GRIDFORMAT
  1
GRIDFORMAT_BEGIN
 90
        0
 91
        1
 62
     0
 92
       -2
340
0
 93
        0
 40
0.045
309
GRIDFORMAT_END
309
TABLEFORMAT_END
  1
CELLSTYLE_BEGIN
 90
        3
 91
        2
300
_DATA
309
CELLSTYLE_END
  0
XRECORD
  5
10002D1
102
{ACAD_REACTORS
330
10002D0
102
}
330
10002D0
100
AcDbXrecord
280
     1
102
ACAD_ROUNDTRIP_PRE2007_TABLESTYLE
 90
        4
 91
        0
  1

 92
        4
 93
        0
  2

 94
        4
 95
        0
  3

  0
XRECORD
  5
10002D4
102
{ACAD_REACTORS
330
10002D3
102
}
330
10002D3
100
AcDbXrecord
280
     1
102
RTVSPropertyOp0
 70
     1
102
RTVSPropertyOp1
 70
     1
102
RTVSPropertyOp2
 70
     1
102
RTVSPropertyOp3
 70
     1
102
RTVSPropertyOp4
 70
     1
102
RTVSPropertyOp5
 70
     1
102
RTVSPropertyOp6
 70
     1
102
RTVSPropertyOp7
 70
     1
102
RTVSPropertyOp8
 70
     1
102
RTVSPropertyOp9
 70
     1
102
RTVSPropertyOp10
 70
     1
102
RTVSPropertyOp11
 70
     1
102
RTVSPropertyOp12
 70
     1
102
RTVSPropertyOp13
 70
     1
102
RTVSPropertyOp14
 70
     1
102
RTVSPropertyOp15
 70
     1
102
RTVSPropertyOp16
 70
     1
102
RTVSPropertyOp17
 70
     1
102
RTVSPropertyOp18
 70
     1
102
RTVSPropertyOp19
 70
     1
102
RTVSPropertyOp20
 70
     1
102
RTVSPropertyOp21
 70
     1
102
RTVSPropertyOp22
 70
     1
102
RTVSPropertyOp23
 70
     1
102
RTVSPropertyOp24
 70
     1
102
RTVSPropertyOp25
 70
     1
102
RTVSPropertyOp26
 70
     1
102
RTVSPropertyOp27
 70
     1
102
RTVSPropertyOp28
 70
     1
102
RTVSPropertyOp29
 70
     1
102
RTVSPropertyOp30
 70
     1
102
RTVSPropertyOp31
 70
     1
102
RTVSPropertyOp32
 70
     1
102
RTVSPropertyOp33
 70
     1
102
RTVSPropertyOp34
 70
     1
102
RTVSPropertyOp35
 70
     1
102
RTVSPropertyOp36
 70
     1
102
RTVSPropertyOp37
 70
     1
102
RTVSPropertyOp38
 70
     1
102
RTVSPropertyOp39
 70
     1
102
RTVSPropertyOp40
 70
     1
102
RTVSPropertyOp41
 70
     1
102
RTVSPropertyOp42
 70
     1
102
RTVSPropertyOp43
 70
     1
102
RTVSPropertyOp44
 70
     1
102
RTVSPropertyOp45
 70
     1
102
RTVSPropertyOp46
 70
     1
102
RTVSPropertyOp47
 70
     1
102
RTVSPropertyOp48
 70
     1
102
RTVSPropertyOp49
 70
     1
102
RTVSPropertyOp50
 70
     1
102
RTVSPropertyOp51
 70
     0
102
RTVSPropertyOp52
 70
     0
102
RTVSPropertyOp53
 70
     1
102
RTVSPropertyOp54
 70
     1
102
RTVSPropertyOp55
 70
     1
102
RTVSPropertyOp56
 70
     1
102
RTVSPropertyOp57
 70
     1
102
RTVSPost2010Prop28
280
     1
102
RTVSPost2010PropOp28
 70
     1
102
RTVSPost2010Prop29
280
     1
102
RTVSPost2010PropOp29
 70
     1
102
RTVSPost2010Prop30
280
     0
102
RTVSPost2010PropOp30
 70
     1
102
RTVSPost2010Prop31
280
     0
102
RTVSPost2010PropOp31
 70
     1
102
RTVSPost2010Prop32
280
     0
102
RTVSPost2010PropOp32
 70
     1
102
RTVSPost2010Prop33
280
     0
102
RTVSPost2010PropOp33
 70
     1
102
RTVSPost2010Prop34
280
     0
102
RTVSPost2010PropOp34
 70
     1
102
RTVSPost2010Prop35
280
     0
102
RTVSPost2010PropOp35
 70
     1
102
RTVSPost2010Prop36
280
     0
102
RTVSPost2010PropOp36
 70
     1
102
RTVSPost2010Prop37
 90
       50
102
RTVSPost2010PropOp37
 70
     1
102
RTVSPost2010Prop38
140
0.0
102
RTVSPost2010PropOp38
 70
     1
102
RTVSPost2010Prop39
140
1.0
102
RTVSPost2010PropOp39
 70
     1
102
RTVSPost2010Prop40
 90
        0
102
RTVSPost2010PropOp40
 70
     1
102
RTVSPost2010Prop41ColorIndex
 90
       18
102
RTVSPost2010Prop41ColorRGB
 90
        0
102
RTVSPost2010PropOp41
 70
     1
102
RTVSPost2010Prop42
 90
       50
102
RTVSPost2010PropOp42
 70
     1
102
RTVSPost2010Prop43
 90
        3
102
RTVSPost2010PropOp43
 70
     1
102
RTVSPost2010Prop44ColorIndex
 90
        5
102
RTVSPost2010Prop44ColorRGB
 90
      255
102
RTVSPost2010PropOp44
 70
     1
102
RTVSPost2010Prop45
280
     0
102
RTVSPost2010PropOp45
 70
     1
102
RTVSPost2010Prop46
 90
       50
102
RTVSPost2010PropOp46
 70
     1
102
RTVSPost2010Prop47
 90
       50
102
RTVSPost2010PropOp47
 70
     1
102
RTVSPost2010Prop48
 90
       50
102
RTVSPost2010PropOp48
 70
     1
102
RTVSPost2010Prop49
280
     0
102
RTVSPost2010PropOp49
 70
     1
102
RTVSPost2010Prop50
 90
       50
102
RTVSPost2010PropOp50
 70
     1
102
RTVSPost2010Prop51ColorIndex
 90
      256
102
RTVSPost2010Prop51ColorRGB
 90
-16777216
102
RTVSPost2010PropOp51
 70
     0
102
RTVSPost2010Prop52
140
1.0
102
RTVSPost2010PropOp52
 70
     0
102
RTVSPost2010Prop53
 90
        2
102
RTVSPost2010PropOp53
 70
     1
102
RTVSPost2010Prop54
  1
strokes_ogs.tif
102
RTVSPost2010PropOp54
 70
     1
102
RTVSPost2010Prop55
280
     0
102
RTVSPost2010PropOp55
 70
     1
102
RTVSPost2010Prop56
140
1.0
102
RTVSPost2010PropOp56
 70
     1
102
RTVSPost2010Prop57
140
1.0
102
RTVSPost2010PropOp57
 70
     1
  0
XRECORD
  5
10002D6
102
{ACAD_REACTORS
330
10002D5
102
}
330
10002D5
100
AcDbXrecord
280
     1
102
RTVSPropertyOp0
 70
     1
102
RTVSPropertyOp1
 70
     1
102
RTVSPropertyOp2
 70
     1
102
RTVSPropertyOp3
 70
     1
102
RTVSPropertyOp4
 70
     1
102
RTVSPropertyOp5
 70
     1
102
RTVSPropertyOp6
 70
     1
102
RTVSPropertyOp7
 70
     1
102
RTVSPropertyOp8
 70
     1
102
RTVSPropertyOp9
 70
     1
102
RTVSPropertyOp10
 70
     1
102
RTVSPropertyOp11
 70
     1
102
RTVSPropertyOp12
 70
     1
102
RTVSPropertyOp13
 70
     1
102
RTVSPropertyOp14
 70
     1
102
RTVSPropertyOp15
 70
     1
102
RTVSPropertyOp16
 70
     1
102
RTVSPropertyOp17
 70
     1
102
RTVSPropertyOp18
 70
     1
102
RTVSPropertyOp19
 70
     1
102
RTVSPropertyOp20
 70
     1
102
RTVSPropertyOp21
 70
     1
102
RTVSPropertyOp22
 70
     1
102
RTVSPropertyOp23
 70
     1
102
RTVSPropertyOp24
 70
     1
102
RTVSPropertyOp25
 70
     1
102
RTVSPropertyOp26
 70
     1
102
RTVSPropertyOp27
 70
     1
102
RTVSPropertyOp28
 70
     1
102
RTVSPropertyOp29
 70
     1
102
RTVSPropertyOp30
 70
     1
102
RTVSPropertyOp31
 70
     1
102
RTVSPropertyOp32
 70
     1
102
RTVSPropertyOp33
 70
     1
102
RTVSPropertyOp34
 70
     1
102
RTVSPropertyOp35
 70
     1
102
RTVSPropertyOp36
 70
     1
102
RTVSPropertyOp37
 70
     1
102
RTVSPropertyOp38
 70
     1
102
RTVSPropertyOp39
 70
     1
102
RTVSPropertyOp40
 70
     1
102
RTVSPropertyOp41
 70
     1
102
RTVSPropertyOp42
 70
     1
102
RTVSPropertyOp43
 70
     1
102
RTVSPropertyOp44
 70
     1
102
RTVSPropertyOp45
 70
     1
102
RTVSPropertyOp46
 70
     1
102
RTVSPropertyOp47
 70
     1
102
RTVSPropertyOp48
 70
     1
102
RTVSPropertyOp49
 70
     1
102
RTVSPropertyOp50
 70
     1
102
RTVSPropertyOp51
 70
     0
102
RTVSPropertyOp52
 70
     0
102
RTVSPropertyOp53
 70
     1
102
RTVSPropertyOp54
 70
     1
102
RTVSPropertyOp55
 70
     1
102
RTVSPropertyOp56
 70
     1
102
RTVSPropertyOp57
 70
     1
102
RTVSPost2010Prop28
280
     0
102
RTVSPost2010PropOp28
 70
     1
102
RTVSPost2010Prop29
280
     1
102
RTVSPost2010PropOp29
 70
     1
102
RTVSPost2010Prop30
280
     1
102
RTVSPost2010PropOp30
 70
     1
102
RTVSPost2010Prop31
280
     0
102
RTVSPost2010PropOp31
 70
     1
102
RTVSPost2010Prop32
280
     0
102
RTVSPost2010PropOp32
 70
     1
102
RTVSPost2010Prop33
280
     0
102
RTVSPost2010PropOp33
 70
     1
102
RTVSPost2010Prop34
280
     0
102
RTVSPost2010PropOp34
 70
     1
102
RTVSPost2010Prop35
280
     0
102
RTVSPost2010PropOp35
 70
     1
102
RTVSPost2010Prop36
280
     0
102
RTVSPost2010PropOp36
 70
     1
102
RTVSPost2010Prop37
 90
       50
102
RTVSPost2010PropOp37
 70
     1
102
RTVSPost2010Prop38
140
0.0
102
RTVSPost2010PropOp38
 70
     1
102
RTVSPost2010Prop39
140
1.0
102
RTVSPost2010PropOp39
 70
     1
102
RTVSPost2010Prop40
 90
        0
102
RTVSPost2010PropOp40
 70
     1
102
RTVSPost2010Prop41ColorIndex
 90
       18
102
RTVSPost2010Prop41ColorRGB
 90
        0
102
RTVSPost2010PropOp41
 70
     1
102
RTVSPost2010Prop42
 90
       50
102
RTVSPost2010PropOp42
 70
     1
102
RTVSPost2010Prop43
 90
        3
102
RTVSPost2010PropOp43
 70
     1
102
RTVSPost2010Prop44ColorIndex
 90
        5
102
RTVSPost2010Prop44ColorRGB
 90
      255
102
RTVSPost2010PropOp44
 70
     1
102
RTVSPost2010Prop45
280
     0
102
RTVSPost2010PropOp45
 70
     1
102
RTVSPost2010Prop46
 90
       50
102
RTVSPost2010PropOp46
 70
     1
102
RTVSPost2010Prop47
 90
       50
102
RTVSPost2010PropOp47
 70
     1
102
RTVSPost2010Prop48
 90
       50
102
RTVSPost2010PropOp48
 70
     1
102
RTVSPost2010Prop49
280
     0
102
RTVSPost2010PropOp49
 70
     1
102
RTVSPost2010Prop50
 90
       50
102
RTVSPost2010PropOp50
 70
     1
102
RTVSPost2010Prop51ColorIndex
 90
      256
102
RTVSPost2010Prop51ColorRGB
 90
-16777216
102
RTVSPost2010PropOp51
 70
     0
102
RTVSPost2010Prop52
140
1.0
102
RTVSPost2010PropOp52
 70
     0
102
RTVSPost2010Prop53
 90
        2
102
RTVSPost2010PropOp53
 70
     1
102
RTVSPost2010Prop54
  1
strokes_ogs.tif
102
RTVSPost2010PropOp54
 70
     1
102
RTVSPost2010Prop55
280
     0
102
RTVSPost2010PropOp55
 70
     1
102
RTVSPost2010Prop56
140
1.0
102
RTVSPost2010PropOp56
 70
     1
102
RTVSPost2010Prop57
140
1.0
102
RTVSPost2010PropOp57
 70
     1
  0
XRECORD
  5
10002D8
102
{ACAD_REACTORS
330
10002D7
102
}
330
10002D7
100
AcDbXrecord
280
     1
102
RTVSPropertyOp0
 70
     1
102
RTVSPropertyOp1
 70
     1
102
RTVSPropertyOp2
 70
     1
102
RTVSPropertyOp3
 70
     1
102
RTVSPropertyOp4
 70
     1
102
RTVSPropertyOp5
 70
     1
102
RTVSPropertyOp6
 70
     1
102
RTVSPropertyOp7
 70
     1
102
RTVSPropertyOp8
 70
     1
102
RTVSPropertyOp9
 70
     1
102
RTVSPropertyOp10
 70
     1
102
RTVSPropertyOp11
 70
     1
102
RTVSPropertyOp12
 70
     1
102
RTVSPropertyOp13
 70
     1
102
RTVSPropertyOp14
 70
     1
102
RTVSPropertyOp15
 70
     1
102
RTVSPropertyOp16
 70
     1
102
RTVSPropertyOp17
 70
     1
102
RTVSPropertyOp18
 70
     1
102
RTVSPropertyOp19
 70
     1
102
RTVSPropertyOp20
 70
     1
102
RTVSPropertyOp21
 70
     1
102
RTVSPropertyOp22
 70
     1
102
RTVSPropertyOp23
 70
     1
102
RTVSPropertyOp24
 70
     1
102
RTVSPropertyOp25
 70
     1
102
RTVSPropertyOp26
 70
     1
102
RTVSPropertyOp27
 70
     1
102
RTVSPropertyOp28
 70
     1
102
RTVSPropertyOp29
 70
     1
102
RTVSPropertyOp30
 70
     1
102
RTVSPropertyOp31
 70
     1
102
RTVSPropertyOp32
 70
     1
102
RTVSPropertyOp33
 70
     1
102
RTVSPropertyOp34
 70
     1
102
RTVSPropertyOp35
 70
     1
102
RTVSPropertyOp36
 70
     1
102
RTVSPropertyOp37
 70
     1
102
RTVSPropertyOp38
 70
     1
102
RTVSPropertyOp39
 70
     1
102
RTVSPropertyOp40
 70
     1
102
RTVSPropertyOp41
 70
     1
102
RTVSPropertyOp42
 70
     1
102
RTVSPropertyOp43
 70
     1
102
RTVSPropertyOp44
 70
     1
102
RTVSPropertyOp45
 70
     1
102
RTVSPropertyOp46
 70
     1
102
RTVSPropertyOp47
 70
     1
102
RTVSPropertyOp48
 70
     1
102
RTVSPropertyOp49
 70
     1
102
RTVSPropertyOp50
 70
     1
102
RTVSPropertyOp51
 70
     0
102
RTVSPropertyOp52
 70
     0
102
RTVSPropertyOp53
 70
     1
102
RTVSPropertyOp54
 70
     1
102
RTVSPropertyOp55
 70
     1
102
RTVSPropertyOp56
 70
     1
102
RTVSPropertyOp57
 70
     1
102
RTVSPost2010Prop28
280
     0
102
RTVSPost2010PropOp28
 70
     1
102
RTVSPost2010Prop29
280
     1
102
RTVSPost2010PropOp29
 70
     1
102
RTVSPost2010Prop30
280
     1
102
RTVSPost2010PropOp30
 70
     1
102
RTVSPost2010Prop31
280
     0
102
RTVSPost2010PropOp31
 70
     1
102
RTVSPost2010Prop32
280
     0
102
RTVSPost2010PropOp32
 70
     1
102
RTVSPost2010Prop33
280
     0
102
RTVSPost2010PropOp33
 70
     1
102
RTVSPost2010Prop34
280
     0
102
RTVSPost2010PropOp34
 70
     1
102
RTVSPost2010Prop35
280
     0
102
RTVSPost2010PropOp35
 70
     1
102
RTVSPost2010Prop36
280
     0
102
RTVSPost2010PropOp36
 70
     1
102
RTVSPost2010Prop37
 90
       50
102
RTVSPost2010PropOp37
 70
     1
102
RTVSPost2010Prop38
140
0.0
102
RTVSPost2010PropOp38
 70
     1
102
RTVSPost2010Prop39
140
1.0
102
RTVSPost2010PropOp39
 70
     1
102
RTVSPost2010Prop40
 90
        0
102
RTVSPost2010PropOp40
 70
     1
102
RTVSPost2010Prop41ColorIndex
 90
       18
102
RTVSPost2010Prop41ColorRGB
 90
        0
102
RTVSPost2010PropOp41
 70
     1
102
RTVSPost2010Prop42
 90
       50
102
RTVSPost2010PropOp42
 70
     1
102
RTVSPost2010Prop43
 90
        3
102
RTVSPost2010PropOp43
 70
     1
102
RTVSPost2010Prop44ColorIndex
 90
        5
102
RTVSPost2010Prop44ColorRGB
 90
      255
102
RTVSPost2010PropOp44
 70
     1
102
RTVSPost2010Prop45
280
     0
102
RTVSPost2010PropOp45
 70
     1
102
RTVSPost2010Prop46
 90
       50
102
RTVSPost2010PropOp46
 70
     1
102
RTVSPost2010Prop47
 90
       50
102
RTVSPost2010PropOp47
 70
     1
102
RTVSPost2010Prop48
 90
       50
102
RTVSPost2010PropOp48
 70
     1
102
RTVSPost2010Prop49
280
     0
102
RTVSPost2010PropOp49
 70
     1
102
RTVSPost2010Prop50
 90
       50
102
RTVSPost2010PropOp50
 70
     1
102
RTVSPost2010Prop51ColorIndex
 90
      256
102
RTVSPost2010Prop51ColorRGB
 90
-16777216
102
RTVSPost2010PropOp51
 70
     0
102
RTVSPost2010Prop52
140
1.0
102
RTVSPost2010PropOp52
 70
     0
102
RTVSPost2010Prop53
 90
        2
102
RTVSPost2010PropOp53
 70
     1
102
RTVSPost2010Prop54
  1
strokes_ogs.tif
102
RTVSPost2010PropOp54
 70
     1
102
RTVSPost2010Prop55
280
     0
102
RTVSPost2010PropOp55
 70
     1
102
RTVSPost2010Prop56
140
1.0
102
RTVSPost2010PropOp56
 70
     1
102
RTVSPost2010Prop57
140
1.0
102
RTVSPost2010PropOp57
 70
     1
  0
XRECORD
  5
10002DA
102
{ACAD_REACTORS
330
10002D9
102
}
330
10002D9
100
AcDbXrecord
280
     1
102
RTVSPropertyOp0
 70
     1
102
RTVSPropertyOp1
 70
     1
102
RTVSPropertyOp2
 70
     1
102
RTVSPropertyOp3
 70
     1
102
RTVSPropertyOp4
 70
     1
102
RTVSPropertyOp5
 70
     1
102
RTVSPropertyOp6
 70
     1
102
RTVSPropertyOp7
 70
     1
102
RTVSPropertyOp8
 70
     1
102
RTVSPropertyOp9
 70
     1
102
RTVSPropertyOp10
 70
     1
102
RTVSPropertyOp11
 70
     1
102
RTVSPropertyOp12
 70
     1
102
RTVSPropertyOp13
 70
     1
102
RTVSPropertyOp14
 70
     1
102
RTVSPropertyOp15
 70
     1
102
RTVSPropertyOp16
 70
     1
102
RTVSPropertyOp17
 70
     1
102
RTVSPropertyOp18
 70
     1
102
RTVSPropertyOp19
 70
     1
102
RTVSPropertyOp20
 70
     1
102
RTVSPropertyOp21
 70
     1
102
RTVSPropertyOp22
 70
     1
102
RTVSPropertyOp23
 70
     1
102
RTVSPropertyOp24
 70
     1
102
RTVSPropertyOp25
 70
     1
102
RTVSPropertyOp26
 70
     1
102
RTVSPropertyOp27
 70
     1
102
RTVSPropertyOp28
 70
     1
102
RTVSPropertyOp29
 70
     1
102
RTVSPropertyOp30
 70
     1
102
RTVSPropertyOp31
 70
     1
102
RTVSPropertyOp32
 70
     1
102
RTVSPropertyOp33
 70
     1
102
RTVSPropertyOp34
 70
     1
102
RTVSPropertyOp35
 70
     1
102
RTVSPropertyOp36
 70
     1
102
RTVSPropertyOp37
 70
     1
102
RTVSPropertyOp38
 70
     1
102
RTVSPropertyOp39
 70
     1
102
RTVSPropertyOp40
 70
     1
102
RTVSPropertyOp41
 70
     1
102
RTVSPropertyOp42
 70
     1
102
RTVSPropertyOp43
 70
     1
102
RTVSPropertyOp44
 70
     1
102
RTVSPropertyOp45
 70
     1
102
RTVSPropertyOp46
 70
     1
102
RTVSPropertyOp47
 70
     1
102
RTVSPropertyOp48
 70
     1
102
RTVSPropertyOp49
 70
     1
102
RTVSPropertyOp50
 70
     1
102
RTVSPropertyOp51
 70
     0
102
RTVSPropertyOp52
 70
     0
102
RTVSPropertyOp53
 70
     1
102
RTVSPropertyOp54
 70
     1
102
RTVSPropertyOp55
 70
     1
102
RTVSPropertyOp56
 70
     1
102
RTVSPropertyOp57
 70
     1
102
RTVSPost2010Prop28
280
     0
102
RTVSPost2010PropOp28
 70
     1
102
RTVSPost2010Prop29
280
     1
102
RTVSPost2010PropOp29
 70
     1
102
RTVSPost2010Prop30
280
     1
102
RTVSPost2010PropOp30
 70
     1
102
RTVSPost2010Prop31
280
     0
102
RTVSPost2010PropOp31
 70
     1
102
RTVSPost2010Prop32
280
     0
102
RTVSPost2010PropOp32
 70
     1
102
RTVSPost2010Prop33
280
     0
102
RTVSPost2010PropOp33
 70
     1
102
RTVSPost2010Prop34
280
     0
102
RTVSPost2010PropOp34
 70
     1
102
RTVSPost2010Prop35
280
     0
102
RTVSPost2010PropOp35
 70
     1
102
RTVSPost2010Prop36
280
     0
102
RTVSPost2010PropOp36
 70
     1
102
RTVSPost2010Prop37
 90
       50
102
RTVSPost2010PropOp37
 70
     1
102
RTVSPost2010Prop38
140
0.0
102
RTVSPost2010PropOp38
 70
     1
102
RTVSPost2010Prop39
140
1.0
102
RTVSPost2010PropOp39
 70
     1
102
RTVSPost2010Prop40
 90
        0
102
RTVSPost2010PropOp40
 70
     1
102
RTVSPost2010Prop41ColorIndex
 90
       18
102
RTVSPost2010Prop41ColorRGB
 90
        0
102
RTVSPost2010PropOp41
 70
     1
102
RTVSPost2010Prop42
 90
       50
102
RTVSPost2010PropOp42
 70
     1
102
RTVSPost2010Prop43
 90
        3
102
RTVSPost2010PropOp43
 70
     1
102
RTVSPost2010Prop44ColorIndex
 90
        5
102
RTVSPost2010Prop44ColorRGB
 90
      255
102
RTVSPost2010PropOp44
 70
     1
102
RTVSPost2010Prop45
280
     0
102
RTVSPost2010PropOp45
 70
     1
102
RTVSPost2010Prop46
 90
       50
102
RTVSPost2010PropOp46
 70
     1
102
RTVSPost2010Prop47
 90
       50
102
RTVSPost2010PropOp47
 70
     1
102
RTVSPost2010Prop48
 90
       50
102
RTVSPost2010PropOp48
 70
     1
102
RTVSPost2010Prop49
280
     0
102
RTVSPost2010PropOp49
 70
     1
102
RTVSPost2010Prop50
 90
       50
102
RTVSPost2010PropOp50
 70
     1
102
RTVSPost2010Prop51ColorIndex
 90
      256
102
RTVSPost2010Prop51ColorRGB
 90
-16777216
102
RTVSPost2010PropOp51
 70
     0
102
RTVSPost2010Prop52
140
1.0
102
RTVSPost2010PropOp52
 70
     0
102
RTVSPost2010Prop53
 90
        2
102
RTVSPost2010PropOp53
 70
     1
102
RTVSPost2010Prop54
  1
strokes_ogs.tif
102
RTVSPost2010PropOp54
 70
     1
102
RTVSPost2010Prop55
280
     0
102
RTVSPost2010PropOp55
 70
     1
102
RTVSPost2010Prop56
140
1.0
102
RTVSPost2010PropOp56
 70
     1
102
RTVSPost2010Prop57
140
1.0
102
RTVSPost2010PropOp57
 70
     1
  0
XRECORD
  5
10002DC
102
{ACAD_REACTORS
330
10002DB
102
}
330
10002DB
100
AcDbXrecord
280
     1
102
RTVSPropertyOp0
 70
     1
102
RTVSPropertyOp1
 70
     1
102
RTVSPropertyOp2
 70
     1
102
RTVSPropertyOp3
 70
     1
102
RTVSPropertyOp4
 70
     1
102
RTVSPropertyOp5
 70
     1
102
RTVSPropertyOp6
 70
     1
102
RTVSPropertyOp7
 70
     1
102
RTVSPropertyOp8
 70
     1
102
RTVSPropertyOp9
 70
     1
102
RTVSPropertyOp10
 70
     1
102
RTVSPropertyOp11
 70
     1
102
RTVSPropertyOp12
 70
     1
102
RTVSPropertyOp13
 70
     1
102
RTVSPropertyOp14
 70
     1
102
RTVSPropertyOp15
 70
     1
102
RTVSPropertyOp16
 70
     1
102
RTVSPropertyOp17
 70
     1
102
RTVSPropertyOp18
 70
     1
102
RTVSPropertyOp19
 70
     1
102
RTVSPropertyOp20
 70
     1
102
RTVSPropertyOp21
 70
     1
102
RTVSPropertyOp22
 70
     1
102
RTVSPropertyOp23
 70
     1
102
RTVSPropertyOp24
 70
     1
102
RTVSPropertyOp25
 70
     1
102
RTVSPropertyOp26
 70
     1
102
RTVSPropertyOp27
 70
     1
102
RTVSPropertyOp28
 70
     1
102
RTVSPropertyOp29
 70
     1
102
RTVSPropertyOp30
 70
     1
102
RTVSPropertyOp31
 70
     1
102
RTVSPropertyOp32
 70
     1
102
RTVSPropertyOp33
 70
     1
102
RTVSPropertyOp34
 70
     1
102
RTVSPropertyOp35
 70
     1
102
RTVSPropertyOp36
 70
     1
102
RTVSPropertyOp37
 70
     1
102
RTVSPropertyOp38
 70
     1
102
RTVSPropertyOp39
 70
     1
102
RTVSPropertyOp40
 70
     1
102
RTVSPropertyOp41
 70
     1
102
RTVSPropertyOp42
 70
     1
102
RTVSPropertyOp43
 70
     1
102
RTVSPropertyOp44
 70
     1
102
RTVSPropertyOp45
 70
     1
102
RTVSPropertyOp46
 70
     1
102
RTVSPropertyOp47
 70
     1
102
RTVSPropertyOp48
 70
     1
102
RTVSPropertyOp49
 70
     1
102
RTVSPropertyOp50
 70
     1
102
RTVSPropertyOp51
 70
     0
102
RTVSPropertyOp52
 70
     0
102
RTVSPropertyOp53
 70
     1
102
RTVSPropertyOp54
 70
     1
102
RTVSPropertyOp55
 70
     1
102
RTVSPropertyOp56
 70
     1
102
RTVSPropertyOp57
 70
     1
102
RTVSPost2010Prop28
280
     0
102
RTVSPost2010PropOp28
 70
     1
102
RTVSPost2010Prop29
280
     1
102
RTVSPost2010PropOp29
 70
     1
102
RTVSPost2010Prop30
280
     1
102
RTVSPost2010PropOp30
 70
     1
102
RTVSPost2010Prop31
280
     0
102
RTVSPost2010PropOp31
 70
     1
102
RTVSPost2010Prop32
280
     0
102
RTVSPost2010PropOp32
 70
     1
102
RTVSPost2010Prop33
280
     0
102
RTVSPost2010PropOp33
 70
     1
102
RTVSPost2010Prop34
280
     0
102
RTVSPost2010PropOp34
 70
     1
102
RTVSPost2010Prop35
280
     0
102
RTVSPost2010PropOp35
 70
     1
102
RTVSPost2010Prop36
280
     0
102
RTVSPost2010PropOp36
 70
     1
102
RTVSPost2010Prop37
 90
       50
102
RTVSPost2010PropOp37
 70
     1
102
RTVSPost2010Prop38
140
0.0
102
RTVSPost2010PropOp38
 70
     1
102
RTVSPost2010Prop39
140
1.0
102
RTVSPost2010PropOp39
 70
     1
102
RTVSPost2010Prop40
 90
        0
102
RTVSPost2010PropOp40
 70
     1
102
RTVSPost2010Prop41ColorIndex
 90
       18
102
RTVSPost2010Prop41ColorRGB
 90
        0
102
RTVSPost2010PropOp41
 70
     1
102
RTVSPost2010Prop42
 90
       50
102
RTVSPost2010PropOp42
 70
     1
102
RTVSPost2010Prop43
 90
        3
102
RTVSPost2010PropOp43
 70
     1
102
RTVSPost2010Prop44ColorIndex
 90
        5
102
RTVSPost2010Prop44ColorRGB
 90
      255
102
RTVSPost2010PropOp44
 70
     1
102
RTVSPost2010Prop45
280
     0
102
RTVSPost2010PropOp45
 70
     1
102
RTVSPost2010Prop46
 90
       50
102
RTVSPost2010PropOp46
 70
     1
102
RTVSPost2010Prop47
 90
       50
102
RTVSPost2010PropOp47
 70
     1
102
RTVSPost2010Prop48
 90
       50
102
RTVSPost2010PropOp48
 70
     1
102
RTVSPost2010Prop49
280
     0
102
RTVSPost2010PropOp49
 70
     1
102
RTVSPost2010Prop50
 90
       50
102
RTVSPost2010PropOp50
 70
     1
102
RTVSPost2010Prop51ColorIndex
 90
      256
102
RTVSPost2010Prop51ColorRGB
 90
-16777216
102
RTVSPost2010PropOp51
 70
     0
102
RTVSPost2010Prop52
140
1.0
102
RTVSPost2010PropOp52
 70
     0
102
RTVSPost2010Prop53
 90
        2
102
RTVSPost2010PropOp53
 70
     1
102
RTVSPost2010Prop54
  1
strokes_ogs.tif
102
RTVSPost2010PropOp54
 70
     1
102
RTVSPost2010Prop55
280
     0
102
RTVSPost2010PropOp55
 70
     1
102
RTVSPost2010Prop56
140
1.0
102
RTVSPost2010PropOp56
 70
     1
102
RTVSPost2010Prop57
140
1.0
102
RTVSPost2010PropOp57
 70
     1
  0
XRECORD
  5
10002DE
102
{ACAD_REACTORS
330
10002DD
102
}
330
10002DD
100
AcDbXrecord
280
     1
102
RTVSPropertyOp0
 70
     1
102
RTVSPropertyOp1
 70
     1
102
RTVSPropertyOp2
 70
     1
102
RTVSPropertyOp3
 70
     1
102
RTVSPropertyOp4
 70
     1
102
RTVSPropertyOp5
 70
     1
102
RTVSPropertyOp6
 70
     1
102
RTVSPropertyOp7
 70
     1
102
RTVSPropertyOp8
 70
     1
102
RTVSPropertyOp9
 70
     1
102
RTVSPropertyOp10
 70
     1
102
RTVSPropertyOp11
 70
     1
102
RTVSPropertyOp12
 70
     1
102
RTVSPropertyOp13
 70
     1
102
RTVSPropertyOp14
 70
     1
102
RTVSPropertyOp15
 70
     1
102
RTVSPropertyOp16
 70
     1
102
RTVSPropertyOp17
 70
     1
102
RTVSPropertyOp18
 70
     1
102
RTVSPropertyOp19
 70
     1
102
RTVSPropertyOp20
 70
     1
102
RTVSPropertyOp21
 70
     1
102
RTVSPropertyOp22
 70
     1
102
RTVSPropertyOp23
 70
     1
102
RTVSPropertyOp24
 70
     1
102
RTVSPropertyOp25
 70
     1
102
RTVSPropertyOp26
 70
     1
102
RTVSPropertyOp27
 70
     1
102
RTVSPropertyOp28
 70
     1
102
RTVSPropertyOp29
 70
     1
102
RTVSPropertyOp30
 70
     1
102
RTVSPropertyOp31
 70
     1
102
RTVSPropertyOp32
 70
     1
102
RTVSPropertyOp33
 70
     1
102
RTVSPropertyOp34
 70
     1
102
RTVSPropertyOp35
 70
     1
102
RTVSPropertyOp36
 70
     1
102
RTVSPropertyOp37
 70
     1
102
RTVSPropertyOp38
 70
     1
102
RTVSPropertyOp39
 70
     1
102
RTVSPropertyOp40
 70
     1
102
RTVSPropertyOp41
 70
     1
102
RTVSPropertyOp42
 70
     1
102
RTVSPropertyOp43
 70
     1
102
RTVSPropertyOp44
 70
     1
102
RTVSPropertyOp45
 70
     1
102
RTVSPropertyOp46
 70
     1
102
RTVSPropertyOp47
 70
     1
102
RTVSPropertyOp48
 70
     1
102
RTVSPropertyOp49
 70
     1
102
RTVSPropertyOp50
 70
     1
102
RTVSPropertyOp51
 70
     0
102
RTVSPropertyOp52
 70
     0
102
RTVSPropertyOp53
 70
     1
102
RTVSPropertyOp54
 70
     1
102
RTVSPropertyOp55
 70
     1
102
RTVSPropertyOp56
 70
     1
102
RTVSPropertyOp57
 70
     1
102
RTVSPost2010Prop28
280
     0
102
RTVSPost2010PropOp28
 70
     1
102
RTVSPost2010Prop29
280
     1
102
RTVSPost2010PropOp29
 70
     1
102
RTVSPost2010Prop30
280
     1
102
RTVSPost2010PropOp30
 70
     1
102
RTVSPost2010Prop31
280
     0
102
RTVSPost2010PropOp31
 70
     1
102
RTVSPost2010Prop32
280
     0
102
RTVSPost2010PropOp32
 70
     1
102
RTVSPost2010Prop33
280
     0
102
RTVSPost2010PropOp33
 70
     1
102
RTVSPost2010Prop34
280
     0
102
RTVSPost2010PropOp34
 70
     1
102
RTVSPost2010Prop35
280
     0
102
RTVSPost2010PropOp35
 70
     1
102
RTVSPost2010Prop36
280
     0
102
RTVSPost2010PropOp36
 70
     1
102
RTVSPost2010Prop37
 90
       50
102
RTVSPost2010PropOp37
 70
     1
102
RTVSPost2010Prop38
140
0.0
102
RTVSPost2010PropOp38
 70
     1
102
RTVSPost2010Prop39
140
1.0
102
RTVSPost2010PropOp39
 70
     1
102
RTVSPost2010Prop40
 90
        0
102
RTVSPost2010PropOp40
 70
     1
102
RTVSPost2010Prop41ColorIndex
 90
       18
102
RTVSPost2010Prop41ColorRGB
 90
        0
102
RTVSPost2010PropOp41
 70
     1
102
RTVSPost2010Prop42
 90
       50
102
RTVSPost2010PropOp42
 70
     1
102
RTVSPost2010Prop43
 90
        3
102
RTVSPost2010PropOp43
 70
     1
102
RTVSPost2010Prop44ColorIndex
 90
        5
102
RTVSPost2010Prop44ColorRGB
 90
      255
102
RTVSPost2010PropOp44
 70
     1
102
RTVSPost2010Prop45
280
     0
102
RTVSPost2010PropOp45
 70
     1
102
RTVSPost2010Prop46
 90
       50
102
RTVSPost2010PropOp46
 70
     1
102
RTVSPost2010Prop47
 90
       50
102
RTVSPost2010PropOp47
 70
     1
102
RTVSPost2010Prop48
 90
       50
102
RTVSPost2010PropOp48
 70
     1
102
RTVSPost2010Prop49
280
     0
102
RTVSPost2010PropOp49
 70
     1
102
RTVSPost2010Prop50
 90
       50
102
RTVSPost2010PropOp50
 70
     1
102
RTVSPost2010Prop51ColorIndex
 90
      256
102
RTVSPost2010Prop51ColorRGB
 90
-16777216
102
RTVSPost2010PropOp51
 70
     0
102
RTVSPost2010Prop52
140
1.0
102
RTVSPost2010PropOp52
 70
     0
102
RTVSPost2010Prop53
 90
        2
102
RTVSPost2010PropOp53
 70
     1
102
RTVSPost2010Prop54
  1
strokes_ogs.tif
102
RTVSPost2010PropOp54
 70
     1
102
RTVSPost2010Prop55
280
     0
102
RTVSPost2010PropOp55
 70
     1
102
RTVSPost2010Prop56
140
1.0
102
RTVSPost2010PropOp56
 70
     1
102
RTVSPost2010Prop57
140
1.0
102
RTVSPost2010PropOp57
 70
     1
  0
XRECORD
  5
10002E0
102
{ACAD_REACTORS
330
10002DF
102
}
330
10002DF
100
AcDbXrecord
280
     1
102
RTVSPropertyOp0
 70
     0
102
RTVSPropertyOp1
 70
     0
102
RTVSPropertyOp2
 70
     0
102
RTVSPropertyOp3
 70
     0
102
RTVSPropertyOp4
 70
     0
102
RTVSPropertyOp5
 70
     0
102
RTVSPropertyOp6
 70
     0
102
RTVSPropertyOp7
 70
     0
102
RTVSPropertyOp8
 70
     0
102
RTVSPropertyOp9
 70
     0
102
RTVSPropertyOp10
 70
     0
102
RTVSPropertyOp11
 70
     0
102
RTVSPropertyOp12
 70
     0
102
RTVSPropertyOp13
 70
     0
102
RTVSPropertyOp14
 70
     2
102
RTVSPropertyOp15
 70
     0
102
RTVSPropertyOp16
 70
     0
102
RTVSPropertyOp17
 70
     0
102
RTVSPropertyOp18
 70
     0
102
RTVSPropertyOp19
 70
     0
102
RTVSPropertyOp20
 70
     0
102
RTVSPropertyOp21
 70
     0
102
RTVSPropertyOp22
 70
     0
102
RTVSPropertyOp23
 70
     0
102
RTVSPropertyOp24
 70
     0
102
RTVSPropertyOp25
 70
     0
102
RTVSPropertyOp26
 70
     0
102
RTVSPropertyOp27
 70
     0
102
RTVSPropertyOp28
 70
     0
102
RTVSPropertyOp29
 70
     0
102
RTVSPropertyOp30
 70
     0
102
RTVSPropertyOp31
 70
     0
102
RTVSPropertyOp32
 70
     0
102
RTVSPropertyOp33
 70
     0
102
RTVSPropertyOp34
 70
     0
102
RTVSPropertyOp35
 70
     0
102
RTVSPropertyOp36
 70
     0
102
RTVSPropertyOp37
 70
     0
102
RTVSPropertyOp38
 70
     0
102
RTVSPropertyOp39
 70
     0
102
RTVSPropertyOp40
 70
     0
102
RTVSPropertyOp41
 70
     0
102
RTVSPropertyOp42
 70
     0
102
RTVSPropertyOp43
 70
     0
102
RTVSPropertyOp44
 70
     0
102
RTVSPropertyOp45
 70
     0
102
RTVSPropertyOp46
 70
     0
102
RTVSPropertyOp47
 70
     0
102
RTVSPropertyOp48
 70
     0
102
RTVSPropertyOp49
 70
     0
102
RTVSPropertyOp50
 70
     0
102
RTVSPropertyOp51
 70
     0
102
RTVSPropertyOp52
 70
     0
102
RTVSPropertyOp53
 70
     0
102
RTVSPropertyOp54
 70
     0
102
RTVSPropertyOp55
 70
     0
102
RTVSPropertyOp56
 70
     0
102
RTVSPropertyOp57
 70
     0
102
RTVSPost2010Prop28
280
     0
102
RTVSPost2010PropOp28
 70
     0
102
RTVSPost2010Prop29
280
     1
102
RTVSPost2010PropOp29
 70
     0
102
RTVSPost2010Prop30
280
     1
102
RTVSPost2010PropOp30
 70
     0
102
RTVSPost2010Prop31
280
     0
102
RTVSPost2010PropOp31
 70
     0
102
RTVSPost2010Prop32
280
     0
102
RTVSPost2010PropOp32
 70
     0
102
RTVSPost2010Prop33
280
     0
102
RTVSPost2010PropOp33
 70
     0
102
RTVSPost2010Prop34
280
     0
102
RTVSPost2010PropOp34
 70
     0
102
RTVSPost2010Prop35
280
     0
102
RTVSPost2010PropOp35
 70
     0
102
RTVSPost2010Prop36
280
     0
102
RTVSPost2010PropOp36
 70
     0
102
RTVSPost2010Prop37
 90
       50
102
RTVSPost2010PropOp37
 70
     0
102
RTVSPost2010Prop38
140
0.0
102
RTVSPost2010PropOp38
 70
     0
102
RTVSPost2010Prop39
140
1.0
102
RTVSPost2010PropOp39
 70
     0
102
RTVSPost2010Prop40
 90
        0
102
RTVSPost2010PropOp40
 70
     0
102
RTVSPost2010Prop41ColorIndex
 90
       18
102
RTVSPost2010Prop41ColorRGB
 90
        0
102
RTVSPost2010PropOp41
 70
     0
102
RTVSPost2010Prop42
 90
       50
102
RTVSPost2010PropOp42
 70
     0
102
RTVSPost2010Prop43
 90
        3
102
RTVSPost2010PropOp43
 70
     0
102
RTVSPost2010Prop44ColorIndex
 90
        5
102
RTVSPost2010Prop44ColorRGB
 90
      255
102
RTVSPost2010PropOp44
 70
     0
102
RTVSPost2010Prop45
280
     0
102
RTVSPost2010PropOp45
 70
     0
102
RTVSPost2010Prop46
 90
       50
102
RTVSPost2010PropOp46
 70
     0
102
RTVSPost2010Prop47
 90
       50
102
RTVSPost2010PropOp47
 70
     0
102
RTVSPost2010Prop48
 90
       50
102
RTVSPost2010PropOp48
 70
     0
102
RTVSPost2010Prop49
280
     0
102
RTVSPost2010PropOp49
 70
     0
102
RTVSPost2010Prop50
 90
       50
102
RTVSPost2010PropOp50
 70
     0
102
RTVSPost2010Prop51ColorIndex
 90
      256
102
RTVSPost2010Prop51ColorRGB
 90
-16777216
102
RTVSPost2010PropOp51
 70
     0
102
RTVSPost2010Prop52
140
1.0
102
RTVSPost2010PropOp52
 70
     0
102
RTVSPost2010Prop53
 90
        2
102
RTVSPost2010PropOp53
 70
     0
102
RTVSPost2010Prop54
  1
strokes_ogs.tif
102
RTVSPost2010PropOp54
 70
     0
102
RTVSPost2010Prop55
280
     0
102
RTVSPost2010PropOp55
 70
     0
102
RTVSPost2010Prop56
140
1.0
102
RTVSPost2010PropOp56
 70
     0
102
RTVSPost2010Prop57
140
1.0
102
RTVSPost2010PropOp57
 70
     0
  0
XRECORD
  5
10002E2
102
{ACAD_REACTORS
330
10002E1
102
}
330
10002E1
100
AcDbXrecord
280
     1
102
RTVSPropertyOp0
 70
     1
102
RTVSPropertyOp1
 70
     1
102
RTVSPropertyOp2
 70
     1
102
RTVSPropertyOp3
 70
     1
102
RTVSPropertyOp4
 70
     1
102
RTVSPropertyOp5
 70
     1
102
RTVSPropertyOp6
 70
     1
102
RTVSPropertyOp7
 70
     1
102
RTVSPropertyOp8
 70
     1
102
RTVSPropertyOp9
 70
     1
102
RTVSPropertyOp10
 70
     1
102
RTVSPropertyOp11
 70
     1
102
RTVSPropertyOp12
 70
     1
102
RTVSPropertyOp13
 70
     1
102
RTVSPropertyOp14
 70
     1
102
RTVSPropertyOp15
 70
     1
102
RTVSPropertyOp16
 70
     1
102
RTVSPropertyOp17
 70
     1
102
RTVSPropertyOp18
 70
     1
102
RTVSPropertyOp19
 70
     1
102
RTVSPropertyOp20
 70
     1
102
RTVSPropertyOp21
 70
     1
102
RTVSPropertyOp22
 70
     1
102
RTVSPropertyOp23
 70
     1
102
RTVSPropertyOp24
 70
     1
102
RTVSPropertyOp25
 70
     1
102
RTVSPropertyOp26
 70
     1
102
RTVSPropertyOp27
 70
     1
102
RTVSPropertyOp28
 70
     1
102
RTVSPropertyOp29
 70
     1
102
RTVSPropertyOp30
 70
     1
102
RTVSPropertyOp31
 70
     1
102
RTVSPropertyOp32
 70
     1
102
RTVSPropertyOp33
 70
     1
102
RTVSPropertyOp34
 70
     1
102
RTVSPropertyOp35
 70
     1
102
RTVSPropertyOp36
 70
     1
102
RTVSPropertyOp37
 70
     1
102
RTVSPropertyOp38
 70
     1
102
RTVSPropertyOp39
 70
     1
102
RTVSPropertyOp40
 70
     1
102
RTVSPropertyOp41
 70
     1
102
RTVSPropertyOp42
 70
     1
102
RTVSPropertyOp43
 70
     1
102
RTVSPropertyOp44
 70
     1
102
RTVSPropertyOp45
 70
     1
102
RTVSPropertyOp46
 70
     1
102
RTVSPropertyOp47
 70
     1
102
RTVSPropertyOp48
 70
     1
102
RTVSPropertyOp49
 70
     1
102
RTVSPropertyOp50
 70
     1
102
RTVSPropertyOp51
 70
     0
102
RTVSPropertyOp52
 70
     0
102
RTVSPropertyOp53
 70
     1
102
RTVSPropertyOp54
 70
     1
102
RTVSPropertyOp55
 70
     1
102
RTVSPropertyOp56
 70
     1
102
RTVSPropertyOp57
 70
     1
102
RTVSPost2010Prop28
280
     0
102
RTVSPost2010PropOp28
 70
     1
102
RTVSPost2010Prop29
280
     1
102
RTVSPost2010PropOp29
 70
     1
102
RTVSPost2010Prop30
280
     1
102
RTVSPost2010PropOp30
 70
     1
102
RTVSPost2010Prop31
280
     0
102
RTVSPost2010PropOp31
 70
     1
102
RTVSPost2010Prop32
280
     0
102
RTVSPost2010PropOp32
 70
     1
102
RTVSPost2010Prop33
280
     0
102
RTVSPost2010PropOp33
 70
     1
102
RTVSPost2010Prop34
280
     0
102
RTVSPost2010PropOp34
 70
     1
102
RTVSPost2010Prop35
280
     0
102
RTVSPost2010PropOp35
 70
     1
102
RTVSPost2010Prop36
280
     0
102
RTVSPost2010PropOp36
 70
     1
102
RTVSPost2010Prop37
 90
       50
102
RTVSPost2010PropOp37
 70
     1
102
RTVSPost2010Prop38
140
0.0
102
RTVSPost2010PropOp38
 70
     1
102
RTVSPost2010Prop39
140
1.0
102
RTVSPost2010PropOp39
 70
     1
102
RTVSPost2010Prop40
 90
        0
102
RTVSPost2010PropOp40
 70
     1
102
RTVSPost2010Prop41ColorIndex
 90
       18
102
RTVSPost2010Prop41ColorRGB
 90
        0
102
RTVSPost2010PropOp41
 70
     1
102
RTVSPost2010Prop42
 90
       50
102
RTVSPost2010PropOp42
 70
     1
102
RTVSPost2010Prop43
 90
        3
102
RTVSPost2010PropOp43
 70
     1
102
RTVSPost2010Prop44ColorIndex
 90
        5
102
RTVSPost2010Prop44ColorRGB
 90
      255
102
RTVSPost2010PropOp44
 70
     1
102
RTVSPost2010Prop45
280
     0
102
RTVSPost2010PropOp45
 70
     1
102
RTVSPost2010Prop46
 90
       50
102
RTVSPost2010PropOp46
 70
     1
102
RTVSPost2010Prop47
 90
       50
102
RTVSPost2010PropOp47
 70
     1
102
RTVSPost2010Prop48
 90
       50
102
RTVSPost2010PropOp48
 70
     1
102
RTVSPost2010Prop49
280
     0
102
RTVSPost2010PropOp49
 70
     1
102
RTVSPost2010Prop50
 90
       50
102
RTVSPost2010PropOp50
 70
     1
102
RTVSPost2010Prop51ColorIndex
 90
      256
102
RTVSPost2010Prop51ColorRGB
 90
-16777216
102
RTVSPost2010PropOp51
 70
     0
102
RTVSPost2010Prop52
140
1.0
102
RTVSPost2010PropOp52
 70
     0
102
RTVSPost2010Prop53
 90
        2
102
RTVSPost2010PropOp53
 70
     1
102
RTVSPost2010Prop54
  1
strokes_ogs.tif
102
RTVSPost2010PropOp54
 70
     1
102
RTVSPost2010Prop55
280
     0
102
RTVSPost2010PropOp55
 70
     1
102
RTVSPost2010Prop56
140
1.0
102
RTVSPost2010PropOp56
 70
     1
102
RTVSPost2010Prop57
140
1.0
102
RTVSPost2010PropOp57
 70
     1
  0
XRECORD
  5
10002E4
102
{ACAD_REACTORS
330
10002E3
102
}
330
10002E3
100
AcDbXrecord
280
     1
102
RTVSPropertyOp0
 70
     1
102
RTVSPropertyOp1
 70
     1
102
RTVSPropertyOp2
 70
     1
102
RTVSPropertyOp3
 70
     1
102
RTVSPropertyOp4
 70
     1
102
RTVSPropertyOp5
 70
     1
102
RTVSPropertyOp6
 70
     1
102
RTVSPropertyOp7
 70
     1
102
RTVSPropertyOp8
 70
     1
102
RTVSPropertyOp9
 70
     1
102
RTVSPropertyOp10
 70
     1
102
RTVSPropertyOp11
 70
     1
102
RTVSPropertyOp12
 70
     1
102
RTVSPropertyOp13
 70
     1
102
RTVSPropertyOp14
 70
     1
102
RTVSPropertyOp15
 70
     1
102
RTVSPropertyOp16
 70
     1
102
RTVSPropertyOp17
 70
     1
102
RTVSPropertyOp18
 70
     1
102
RTVSPropertyOp19
 70
     1
102
RTVSPropertyOp20
 70
     1
102
RTVSPropertyOp21
 70
     1
102
RTVSPropertyOp22
 70
     1
102
RTVSPropertyOp23
 70
     1
102
RTVSPropertyOp24
 70
     1
102
RTVSPropertyOp25
 70
     1
102
RTVSPropertyOp26
 70
     1
102
RTVSPropertyOp27
 70
     1
102
RTVSPropertyOp28
 70
     1
102
RTVSPropertyOp29
 70
     1
102
RTVSPropertyOp30
 70
     1
102
RTVSPropertyOp31
 70
     1
102
RTVSPropertyOp32
 70
     1
102
RTVSPropertyOp33
 70
     1
102
RTVSPropertyOp34
 70
     1
102
RTVSPropertyOp35
 70
     1
102
RTVSPropertyOp36
 70
     1
102
RTVSPropertyOp37
 70
     1
102
RTVSPropertyOp38
 70
     1
102
RTVSPropertyOp39
 70
     1
102
RTVSPropertyOp40
 70
     1
102
RTVSPropertyOp41
 70
     1
102
RTVSPropertyOp42
 70
     1
102
RTVSPropertyOp43
 70
     1
102
RTVSPropertyOp44
 70
     1
102
RTVSPropertyOp45
 70
     1
102
RTVSPropertyOp46
 70
     1
102
RTVSPropertyOp47
 70
     1
102
RTVSPropertyOp48
 70
     1
102
RTVSPropertyOp49
 70
     1
102
RTVSPropertyOp50
 70
     1
102
RTVSPropertyOp51
 70
     0
102
RTVSPropertyOp52
 70
     0
102
RTVSPropertyOp53
 70
     1
102
RTVSPropertyOp54
 70
     1
102
RTVSPropertyOp55
 70
     1
102
RTVSPropertyOp56
 70
     1
102
RTVSPropertyOp57
 70
     1
102
RTVSPost2010Prop28
280
     0
102
RTVSPost2010PropOp28
 70
     1
102
RTVSPost2010Prop29
280
     1
102
RTVSPost2010PropOp29
 70
     1
102
RTVSPost2010Prop30
280
     1
102
RTVSPost2010PropOp30
 70
     1
102
RTVSPost2010Prop31
280
     0
102
RTVSPost2010PropOp31
 70
     1
102
RTVSPost2010Prop32
280
     0
102
RTVSPost2010PropOp32
 70
     1
102
RTVSPost2010Prop33
280
     0
102
RTVSPost2010PropOp33
 70
     1
102
RTVSPost2010Prop34
280
     0
102
RTVSPost2010PropOp34
 70
     1
102
RTVSPost2010Prop35
280
     0
102
RTVSPost2010PropOp35
 70
     1
102
RTVSPost2010Prop36
280
     0
102
RTVSPost2010PropOp36
 70
     1
102
RTVSPost2010Prop37
 90
       50
102
RTVSPost2010PropOp37
 70
     1
102
RTVSPost2010Prop38
140
0.0
102
RTVSPost2010PropOp38
 70
     1
102
RTVSPost2010Prop39
140
1.0
102
RTVSPost2010PropOp39
 70
     1
102
RTVSPost2010Prop40
 90
        0
102
RTVSPost2010PropOp40
 70
     1
102
RTVSPost2010Prop41ColorIndex
 90
       18
102
RTVSPost2010Prop41ColorRGB
 90
        0
102
RTVSPost2010PropOp41
 70
     1
102
RTVSPost2010Prop42
 90
       50
102
RTVSPost2010PropOp42
 70
     1
102
RTVSPost2010Prop43
 90
        3
102
RTVSPost2010PropOp43
 70
     1
102
RTVSPost2010Prop44ColorIndex
 90
        5
102
RTVSPost2010Prop44ColorRGB
 90
      255
102
RTVSPost2010PropOp44
 70
     1
102
RTVSPost2010Prop45
280
     0
102
RTVSPost2010PropOp45
 70
     1
102
RTVSPost2010Prop46
 90
       50
102
RTVSPost2010PropOp46
 70
     1
102
RTVSPost2010Prop47
 90
       50
102
RTVSPost2010PropOp47
 70
     1
102
RTVSPost2010Prop48
 90
       50
102
RTVSPost2010PropOp48
 70
     1
102
RTVSPost2010Prop49
280
     0
102
RTVSPost2010PropOp49
 70
     1
102
RTVSPost2010Prop50
 90
       50
102
RTVSPost2010PropOp50
 70
     1
102
RTVSPost2010Prop51ColorIndex
 90
      256
102
RTVSPost2010Prop51ColorRGB
 90
-16777216
102
RTVSPost2010PropOp51
 70
     0
102
RTVSPost2010Prop52
140
1.0
102
RTVSPost2010PropOp52
 70
     0
102
RTVSPost2010Prop53
 90
        2
102
RTVSPost2010PropOp53
 70
     1
102
RTVSPost2010Prop54
  1
strokes_ogs.tif
102
RTVSPost2010PropOp54
 70
     1
102
RTVSPost2010Prop55
280
     0
102
RTVSPost2010PropOp55
 70
     1
102
RTVSPost2010Prop56
140
1.0
102
RTVSPost2010PropOp56
 70
     1
102
RTVSPost2010Prop57
140
1.0
102
RTVSPost2010PropOp57
 70
     1
  0
XRECORD
  5
10002E6
102
{ACAD_REACTORS
330
10002E5
102
}
330
10002E5
100
AcDbXrecord
280
     1
102
RTVSPropertyOp0
 70
     1
102
RTVSPropertyOp1
 70
     1
102
RTVSPropertyOp2
 70
     1
102
RTVSPropertyOp3
 70
     1
102
RTVSPropertyOp4
 70
     1
102
RTVSPropertyOp5
 70
     1
102
RTVSPropertyOp6
 70
     1
102
RTVSPropertyOp7
 70
     1
102
RTVSPropertyOp8
 70
     1
102
RTVSPropertyOp9
 70
     1
102
RTVSPropertyOp10
 70
     1
102
RTVSPropertyOp11
 70
     1
102
RTVSPropertyOp12
 70
     1
102
RTVSPropertyOp13
 70
     1
102
RTVSPropertyOp14
 70
     1
102
RTVSPropertyOp15
 70
     1
102
RTVSPropertyOp16
 70
     1
102
RTVSPropertyOp17
 70
     1
102
RTVSPropertyOp18
 70
     1
102
RTVSPropertyOp19
 70
     1
102
RTVSPropertyOp20
 70
     1
102
RTVSPropertyOp21
 70
     1
102
RTVSPropertyOp22
 70
     1
102
RTVSPropertyOp23
 70
     1
102
RTVSPropertyOp24
 70
     1
102
RTVSPropertyOp25
 70
     1
102
RTVSPropertyOp26
 70
     1
102
RTVSPropertyOp27
 70
     1
102
RTVSPropertyOp28
 70
     1
102
RTVSPropertyOp29
 70
     1
102
RTVSPropertyOp30
 70
     1
102
RTVSPropertyOp31
 70
     1
102
RTVSPropertyOp32
 70
     1
102
RTVSPropertyOp33
 70
     1
102
RTVSPropertyOp34
 70
     1
102
RTVSPropertyOp35
 70
     1
102
RTVSPropertyOp36
 70
     1
102
RTVSPropertyOp37
 70
     1
102
RTVSPropertyOp38
 70
     1
102
RTVSPropertyOp39
 70
     1
102
RTVSPropertyOp40
 70
     1
102
RTVSPropertyOp41
 70
     1
102
RTVSPropertyOp42
 70
     1
102
RTVSPropertyOp43
 70
     1
102
RTVSPropertyOp44
 70
     1
102
RTVSPropertyOp45
 70
     1
102
RTVSPropertyOp46
 70
     1
102
RTVSPropertyOp47
 70
     1
102
RTVSPropertyOp48
 70
     1
102
RTVSPropertyOp49
 70
     1
102
RTVSPropertyOp50
 70
     1
102
RTVSPropertyOp51
 70
     0
102
RTVSPropertyOp52
 70
     0
102
RTVSPropertyOp53
 70
     1
102
RTVSPropertyOp54
 70
     1
102
RTVSPropertyOp55
 70
     1
102
RTVSPropertyOp56
 70
     1
102
RTVSPropertyOp57
 70
     1
102
RTVSPost2010Prop28
280
     0
102
RTVSPost2010PropOp28
 70
     1
102
RTVSPost2010Prop29
280
     1
102
RTVSPost2010PropOp29
 70
     1
102
RTVSPost2010Prop30
280
     1
102
RTVSPost2010PropOp30
 70
     1
102
RTVSPost2010Prop31
280
     0
102
RTVSPost2010PropOp31
 70
     1
102
RTVSPost2010Prop32
280
     0
102
RTVSPost2010PropOp32
 70
     1
102
RTVSPost2010Prop33
280
     0
102
RTVSPost2010PropOp33
 70
     1
102
RTVSPost2010Prop34
280
     0
102
RTVSPost2010PropOp34
 70
     1
102
RTVSPost2010Prop35
280
     0
102
RTVSPost2010PropOp35
 70
     1
102
RTVSPost2010Prop36
280
     0
102
RTVSPost2010PropOp36
 70
     1
102
RTVSPost2010Prop37
 90
       50
102
RTVSPost2010PropOp37
 70
     1
102
RTVSPost2010Prop38
140
0.0
102
RTVSPost2010PropOp38
 70
     1
102
RTVSPost2010Prop39
140
1.0
102
RTVSPost2010PropOp39
 70
     1
102
RTVSPost2010Prop40
 90
        0
102
RTVSPost2010PropOp40
 70
     1
102
RTVSPost2010Prop41ColorIndex
 90
       18
102
RTVSPost2010Prop41ColorRGB
 90
        0
102
RTVSPost2010PropOp41
 70
     1
102
RTVSPost2010Prop42
 90
       50
102
RTVSPost2010PropOp42
 70
     1
102
RTVSPost2010Prop43
 90
        3
102
RTVSPost2010PropOp43
 70
     1
102
RTVSPost2010Prop44ColorIndex
 90
        5
102
RTVSPost2010Prop44ColorRGB
 90
      255
102
RTVSPost2010PropOp44
 70
     1
102
RTVSPost2010Prop45
280
     0
102
RTVSPost2010PropOp45
 70
     1
102
RTVSPost2010Prop46
 90
       50
102
RTVSPost2010PropOp46
 70
     1
102
RTVSPost2010Prop47
 90
       50
102
RTVSPost2010PropOp47
 70
     1
102
RTVSPost2010Prop48
 90
       50
102
RTVSPost2010PropOp48
 70
     1
102
RTVSPost2010Prop49
280
     0
102
RTVSPost2010PropOp49
 70
     1
102
RTVSPost2010Prop50
 90
       50
102
RTVSPost2010PropOp50
 70
     1
102
RTVSPost2010Prop51ColorIndex
 90
      256
102
RTVSPost2010Prop51ColorRGB
 90
-16777216
102
RTVSPost2010PropOp51
 70
     0
102
RTVSPost2010Prop52
140
1.0
102
RTVSPost2010PropOp52
 70
     0
102
RTVSPost2010Prop53
 90
        2
102
RTVSPost2010PropOp53
 70
     1
102
RTVSPost2010Prop54
  1
strokes_ogs.tif
102
RTVSPost2010PropOp54
 70
     1
102
RTVSPost2010Prop55
280
     0
102
RTVSPost2010PropOp55
 70
     1
102
RTVSPost2010Prop56
140
1.0
102
RTVSPost2010PropOp56
 70
     1
102
RTVSPost2010Prop57
140
1.0
102
RTVSPost2010PropOp57
 70
     1
  0
XRECORD
  5
10002E8
102
{ACAD_REACTORS
330
10002E7
102
}
330
10002E7
100
AcDbXrecord
280
     1
102
RTVSPropertyOp0
 70
     1
102
RTVSPropertyOp1
 70
     1
102
RTVSPropertyOp2
 70
     1
102
RTVSPropertyOp3
 70
     1
102
RTVSPropertyOp4
 70
     1
102
RTVSPropertyOp5
 70
     1
102
RTVSPropertyOp6
 70
     1
102
RTVSPropertyOp7
 70
     1
102
RTVSPropertyOp8
 70
     1
102
RTVSPropertyOp9
 70
     1
102
RTVSPropertyOp10
 70
     1
102
RTVSPropertyOp11
 70
     1
102
RTVSPropertyOp12
 70
     1
102
RTVSPropertyOp13
 70
     1
102
RTVSPropertyOp14
 70
     1
102
RTVSPropertyOp15
 70
     1
102
RTVSPropertyOp16
 70
     1
102
RTVSPropertyOp17
 70
     1
102
RTVSPropertyOp18
 70
     1
102
RTVSPropertyOp19
 70
     1
102
RTVSPropertyOp20
 70
     1
102
RTVSPropertyOp21
 70
     1
102
RTVSPropertyOp22
 70
     1
102
RTVSPropertyOp23
 70
     1
102
RTVSPropertyOp24
 70
     1
102
RTVSPropertyOp25
 70
     1
102
RTVSPropertyOp26
 70
     1
102
RTVSPropertyOp27
 70
     1
102
RTVSPropertyOp28
 70
     1
102
RTVSPropertyOp29
 70
     1
102
RTVSPropertyOp30
 70
     1
102
RTVSPropertyOp31
 70
     1
102
RTVSPropertyOp32
 70
     1
102
RTVSPropertyOp33
 70
     1
102
RTVSPropertyOp34
 70
     1
102
RTVSPropertyOp35
 70
     1
102
RTVSPropertyOp36
 70
     1
102
RTVSPropertyOp37
 70
     1
102
RTVSPropertyOp38
 70
     1
102
RTVSPropertyOp39
 70
     1
102
RTVSPropertyOp40
 70
     1
102
RTVSPropertyOp41
 70
     1
102
RTVSPropertyOp42
 70
     1
102
RTVSPropertyOp43
 70
     1
102
RTVSPropertyOp44
 70
     1
102
RTVSPropertyOp45
 70
     1
102
RTVSPropertyOp46
 70
     1
102
RTVSPropertyOp47
 70
     1
102
RTVSPropertyOp48
 70
     1
102
RTVSPropertyOp49
 70
     1
102
RTVSPropertyOp50
 70
     1
102
RTVSPropertyOp51
 70
     0
102
RTVSPropertyOp52
 70
     0
102
RTVSPropertyOp53
 70
     1
102
RTVSPropertyOp54
 70
     1
102
RTVSPropertyOp55
 70
     1
102
RTVSPropertyOp56
 70
     1
102
RTVSPropertyOp57
 70
     1
102
RTVSPost2010Prop28
280
     0
102
RTVSPost2010PropOp28
 70
     1
102
RTVSPost2010Prop29
280
     1
102
RTVSPost2010PropOp29
 70
     1
102
RTVSPost2010Prop30
280
     1
102
RTVSPost2010PropOp30
 70
     1
102
RTVSPost2010Prop31
280
     0
102
RTVSPost2010PropOp31
 70
     1
102
RTVSPost2010Prop32
280
     0
102
RTVSPost2010PropOp32
 70
     1
102
RTVSPost2010Prop33
280
     0
102
RTVSPost2010PropOp33
 70
     1
102
RTVSPost2010Prop34
280
     0
102
RTVSPost2010PropOp34
 70
     1
102
RTVSPost2010Prop35
280
     0
102
RTVSPost2010PropOp35
 70
     1
102
RTVSPost2010Prop36
280
     0
102
RTVSPost2010PropOp36
 70
     1
102
RTVSPost2010Prop37
 90
       50
102
RTVSPost2010PropOp37
 70
     1
102
RTVSPost2010Prop38
140
0.0
102
RTVSPost2010PropOp38
 70
     1
102
RTVSPost2010Prop39
140
1.0
102
RTVSPost2010PropOp39
 70
     1
102
RTVSPost2010Prop40
 90
        0
102
RTVSPost2010PropOp40
 70
     1
102
RTVSPost2010Prop41ColorIndex
 90
       18
102
RTVSPost2010Prop41ColorRGB
 90
        0
102
RTVSPost2010PropOp41
 70
     1
102
RTVSPost2010Prop42
 90
       50
102
RTVSPost2010PropOp42
 70
     1
102
RTVSPost2010Prop43
 90
        3
102
RTVSPost2010PropOp43
 70
     1
102
RTVSPost2010Prop44ColorIndex
 90
        5
102
RTVSPost2010Prop44ColorRGB
 90
      255
102
RTVSPost2010PropOp44
 70
     1
102
RTVSPost2010Prop45
280
     0
102
RTVSPost2010PropOp45
 70
     1
102
RTVSPost2010Prop46
 90
       50
102
RTVSPost2010PropOp46
 70
     1
102
RTVSPost2010Prop47
 90
       50
102
RTVSPost2010PropOp47
 70
     1
102
RTVSPost2010Prop48
 90
       50
102
RTVSPost2010PropOp48
 70
     1
102
RTVSPost2010Prop49
280
     0
102
RTVSPost2010PropOp49
 70
     1
102
RTVSPost2010Prop50
 90
       50
102
RTVSPost2010PropOp50
 70
     1
102
RTVSPost2010Prop51ColorIndex
 90
      256
102
RTVSPost2010Prop51ColorRGB
 90
-16777216
102
RTVSPost2010PropOp51
 70
     0
102
RTVSPost2010Prop52
140
1.0
102
RTVSPost2010PropOp52
 70
     0
102
RTVSPost2010Prop53
 90
        2
102
RTVSPost2010PropOp53
 70
     1
102
RTVSPost2010Prop54
  1
strokes_ogs.tif
102
RTVSPost2010PropOp54
 70
     1
102
RTVSPost2010Prop55
280
     0
102
RTVSPost2010PropOp55
 70
     1
102
RTVSPost2010Prop56
140
1.0
102
RTVSPost2010PropOp56
 70
     1
102
RTVSPost2010Prop57
140
1.0
102
RTVSPost2010PropOp57
 70
     1
  0
XRECORD
  5
10002EA
102
{ACAD_REACTORS
330
10002E9
102
}
330
10002E9
100
AcDbXrecord
280
     1
102
RTVSPropertyOp0
 70
     1
102
RTVSPropertyOp1
 70
     1
102
RTVSPropertyOp2
 70
     1
102
RTVSPropertyOp3
 70
     1
102
RTVSPropertyOp4
 70
     1
102
RTVSPropertyOp5
 70
     1
102
RTVSPropertyOp6
 70
     1
102
RTVSPropertyOp7
 70
     1
102
RTVSPropertyOp8
 70
     1
102
RTVSPropertyOp9
 70
     1
102
RTVSPropertyOp10
 70
     1
102
RTVSPropertyOp11
 70
     1
102
RTVSPropertyOp12
 70
     1
102
RTVSPropertyOp13
 70
     1
102
RTVSPropertyOp14
 70
     1
102
RTVSPropertyOp15
 70
     1
102
RTVSPropertyOp16
 70
     1
102
RTVSPropertyOp17
 70
     1
102
RTVSPropertyOp18
 70
     1
102
RTVSPropertyOp19
 70
     1
102
RTVSPropertyOp20
 70
     1
102
RTVSPropertyOp21
 70
     1
102
RTVSPropertyOp22
 70
     1
102
RTVSPropertyOp23
 70
     1
102
RTVSPropertyOp24
 70
     1
102
RTVSPropertyOp25
 70
     1
102
RTVSPropertyOp26
 70
     1
102
RTVSPropertyOp27
 70
     1
102
RTVSPropertyOp28
 70
     1
102
RTVSPropertyOp29
 70
     1
102
RTVSPropertyOp30
 70
     1
102
RTVSPropertyOp31
 70
     1
102
RTVSPropertyOp32
 70
     1
102
RTVSPropertyOp33
 70
     1
102
RTVSPropertyOp34
 70
     1
102
RTVSPropertyOp35
 70
     1
102
RTVSPropertyOp36
 70
     1
102
RTVSPropertyOp37
 70
     1
102
RTVSPropertyOp38
 70
     1
102
RTVSPropertyOp39
 70
     1
102
RTVSPropertyOp40
 70
     1
102
RTVSPropertyOp41
 70
     1
102
RTVSPropertyOp42
 70
     1
102
RTVSPropertyOp43
 70
     1
102
RTVSPropertyOp44
 70
     1
102
RTVSPropertyOp45
 70
     1
102
RTVSPropertyOp46
 70
     1
102
RTVSPropertyOp47
 70
     1
102
RTVSPropertyOp48
 70
     1
102
RTVSPropertyOp49
 70
     1
102
RTVSPropertyOp50
 70
     1
102
RTVSPropertyOp51
 70
     0
102
RTVSPropertyOp52
 70
     0
102
RTVSPropertyOp53
 70
     1
102
RTVSPropertyOp54
 70
     1
102
RTVSPropertyOp55
 70
     1
102
RTVSPropertyOp56
 70
     1
102
RTVSPropertyOp57
 70
     1
102
RTVSPost2010Prop28
280
     0
102
RTVSPost2010PropOp28
 70
     1
102
RTVSPost2010Prop29
280
     1
102
RTVSPost2010PropOp29
 70
     1
102
RTVSPost2010Prop30
280
     1
102
RTVSPost2010PropOp30
 70
     1
102
RTVSPost2010Prop31
280
     0
102
RTVSPost2010PropOp31
 70
     1
102
RTVSPost2010Prop32
280
     0
102
RTVSPost2010PropOp32
 70
     1
102
RTVSPost2010Prop33
280
     0
102
RTVSPost2010PropOp33
 70
     1
102
RTVSPost2010Prop34
280
     0
102
RTVSPost2010PropOp34
 70
     1
102
RTVSPost2010Prop35
280
     0
102
RTVSPost2010PropOp35
 70
     1
102
RTVSPost2010Prop36
280
     0
102
RTVSPost2010PropOp36
 70
     1
102
RTVSPost2010Prop37
 90
       50
102
RTVSPost2010PropOp37
 70
     1
102
RTVSPost2010Prop38
140
0.0
102
RTVSPost2010PropOp38
 70
     1
102
RTVSPost2010Prop39
140
1.0
102
RTVSPost2010PropOp39
 70
     1
102
RTVSPost2010Prop40
 90
        0
102
RTVSPost2010PropOp40
 70
     1
102
RTVSPost2010Prop41ColorIndex
 90
       18
102
RTVSPost2010Prop41ColorRGB
 90
        0
102
RTVSPost2010PropOp41
 70
     1
102
RTVSPost2010Prop42
 90
       50
102
RTVSPost2010PropOp42
 70
     1
102
RTVSPost2010Prop43
 90
        3
102
RTVSPost2010PropOp43
 70
     1
102
RTVSPost2010Prop44ColorIndex
 90
        5
102
RTVSPost2010Prop44ColorRGB
 90
      255
102
RTVSPost2010PropOp44
 70
     1
102
RTVSPost2010Prop45
280
     0
102
RTVSPost2010PropOp45
 70
     1
102
RTVSPost2010Prop46
 90
       50
102
RTVSPost2010PropOp46
 70
     1
102
RTVSPost2010Prop47
 90
       50
102
RTVSPost2010PropOp47
 70
     1
102
RTVSPost2010Prop48
 90
       50
102
RTVSPost2010PropOp48
 70
     1
102
RTVSPost2010Prop49
280
     0
102
RTVSPost2010PropOp49
 70
     1
102
RTVSPost2010Prop50
 90
       50
102
RTVSPost2010PropOp50
 70
     1
102
RTVSPost2010Prop51ColorIndex
 90
      256
102
RTVSPost2010Prop51ColorRGB
 90
-16777216
102
RTVSPost2010PropOp51
 70
     0
102
RTVSPost2010Prop52
140
1.0
102
RTVSPost2010PropOp52
 70
     0
102
RTVSPost2010Prop53
 90
        2
102
RTVSPost2010PropOp53
 70
     1
102
RTVSPost2010Prop54
  1
strokes_ogs.tif
102
RTVSPost2010PropOp54
 70
     1
102
RTVSPost2010Prop55
280
     0
102
RTVSPost2010PropOp55
 70
     1
102
RTVSPost2010Prop56
140
1.0
102
RTVSPost2010PropOp56
 70
     1
102
RTVSPost2010Prop57
140
1.0
102
RTVSPost2010PropOp57
 70
     1
  0
XRECORD
  5
10002EC
102
{ACAD_REACTORS
330
10002EB
102
}
330
10002EB
100
AcDbXrecord
280
     1
102
RTVSPropertyOp0
 70
     1
102
RTVSPropertyOp1
 70
     1
102
RTVSPropertyOp2
 70
     1
102
RTVSPropertyOp3
 70
     1
102
RTVSPropertyOp4
 70
     1
102
RTVSPropertyOp5
 70
     1
102
RTVSPropertyOp6
 70
     1
102
RTVSPropertyOp7
 70
     1
102
RTVSPropertyOp8
 70
     1
102
RTVSPropertyOp9
 70
     1
102
RTVSPropertyOp10
 70
     1
102
RTVSPropertyOp11
 70
     1
102
RTVSPropertyOp12
 70
     1
102
RTVSPropertyOp13
 70
     1
102
RTVSPropertyOp14
 70
     1
102
RTVSPropertyOp15
 70
     1
102
RTVSPropertyOp16
 70
     1
102
RTVSPropertyOp17
 70
     1
102
RTVSPropertyOp18
 70
     1
102
RTVSPropertyOp19
 70
     1
102
RTVSPropertyOp20
 70
     1
102
RTVSPropertyOp21
 70
     1
102
RTVSPropertyOp22
 70
     1
102
RTVSPropertyOp23
 70
     1
102
RTVSPropertyOp24
 70
     1
102
RTVSPropertyOp25
 70
     1
102
RTVSPropertyOp26
 70
     1
102
RTVSPropertyOp27
 70
     1
102
RTVSPropertyOp28
 70
     1
102
RTVSPropertyOp29
 70
     1
102
RTVSPropertyOp30
 70
     1
102
RTVSPropertyOp31
 70
     1
102
RTVSPropertyOp32
 70
     1
102
RTVSPropertyOp33
 70
     1
102
RTVSPropertyOp34
 70
     1
102
RTVSPropertyOp35
 70
     1
102
RTVSPropertyOp36
 70
     1
102
RTVSPropertyOp37
 70
     1
102
RTVSPropertyOp38
 70
     1
102
RTVSPropertyOp39
 70
     1
102
RTVSPropertyOp40
 70
     1
102
RTVSPropertyOp41
 70
     1
102
RTVSPropertyOp42
 70
     1
102
RTVSPropertyOp43
 70
     1
102
RTVSPropertyOp44
 70
     1
102
RTVSPropertyOp45
 70
     1
102
RTVSPropertyOp46
 70
     1
102
RTVSPropertyOp47
 70
     1
102
RTVSPropertyOp48
 70
     1
102
RTVSPropertyOp49
 70
     1
102
RTVSPropertyOp50
 70
     1
102
RTVSPropertyOp51
 70
     0
102
RTVSPropertyOp52
 70
     0
102
RTVSPropertyOp53
 70
     1
102
RTVSPropertyOp54
 70
     1
102
RTVSPropertyOp55
 70
     1
102
RTVSPropertyOp56
 70
     1
102
RTVSPropertyOp57
 70
     1
102
RTVSPost2010Prop28
280
     0
102
RTVSPost2010PropOp28
 70
     1
102
RTVSPost2010Prop29
280
     1
102
RTVSPost2010PropOp29
 70
     1
102
RTVSPost2010Prop30
280
     1
102
RTVSPost2010PropOp30
 70
     1
102
RTVSPost2010Prop31
280
     0
102
RTVSPost2010PropOp31
 70
     1
102
RTVSPost2010Prop32
280
     0
102
RTVSPost2010PropOp32
 70
     1
102
RTVSPost2010Prop33
280
     0
102
RTVSPost2010PropOp33
 70
     1
102
RTVSPost2010Prop34
280
     0
102
RTVSPost2010PropOp34
 70
     1
102
RTVSPost2010Prop35
280
     0
102
RTVSPost2010PropOp35
 70
     1
102
RTVSPost2010Prop36
280
     0
102
RTVSPost2010PropOp36
 70
     1
102
RTVSPost2010Prop37
 90
       50
102
RTVSPost2010PropOp37
 70
     1
102
RTVSPost2010Prop38
140
0.0
102
RTVSPost2010PropOp38
 70
     1
102
RTVSPost2010Prop39
140
1.0
102
RTVSPost2010PropOp39
 70
     1
102
RTVSPost2010Prop40
 90
        0
102
RTVSPost2010PropOp40
 70
     1
102
RTVSPost2010Prop41ColorIndex
 90
       18
102
RTVSPost2010Prop41ColorRGB
 90
        0
102
RTVSPost2010PropOp41
 70
     1
102
RTVSPost2010Prop42
 90
       50
102
RTVSPost2010PropOp42
 70
     1
102
RTVSPost2010Prop43
 90
        3
102
RTVSPost2010PropOp43
 70
     1
102
RTVSPost2010Prop44ColorIndex
 90
        5
102
RTVSPost2010Prop44ColorRGB
 90
      255
102
RTVSPost2010PropOp44
 70
     1
102
RTVSPost2010Prop45
280
     0
102
RTVSPost2010PropOp45
 70
     1
102
RTVSPost2010Prop46
 90
       50
102
RTVSPost2010PropOp46
 70
     1
102
RTVSPost2010Prop47
 90
       50
102
RTVSPost2010PropOp47
 70
     1
102
RTVSPost2010Prop48
 90
       50
102
RTVSPost2010PropOp48
 70
     1
102
RTVSPost2010Prop49
280
     0
102
RTVSPost2010PropOp49
 70
     1
102
RTVSPost2010Prop50
 90
       50
102
RTVSPost2010PropOp50
 70
     1
102
RTVSPost2010Prop51ColorIndex
 90
      256
102
RTVSPost2010Prop51ColorRGB
 90
-16777216
102
RTVSPost2010PropOp51
 70
     0
102
RTVSPost2010Prop52
140
1.0
102
RTVSPost2010PropOp52
 70
     0
102
RTVSPost2010Prop53
 90
        2
102
RTVSPost2010PropOp53
 70
     1
102
RTVSPost2010Prop54
  1
strokes_ogs.tif
102
RTVSPost2010PropOp54
 70
     1
102
RTVSPost2010Prop55
280
     0
102
RTVSPost2010PropOp55
 70
     1
102
RTVSPost2010Prop56
140
1.0
102
RTVSPost2010PropOp56
 70
     1
102
RTVSPost2010Prop57
140
1.0
102
RTVSPost2010PropOp57
 70
     1
  0
XRECORD
  5
10002EE
102
{ACAD_REACTORS
330
10002ED
102
}
330
10002ED
100
AcDbXrecord
280
     1
102
RTVSPropertyOp0
 70
     0
102
RTVSPropertyOp1
 70
     0
102
RTVSPropertyOp2
 70
     0
102
RTVSPropertyOp3
 70
     0
102
RTVSPropertyOp4
 70
     0
102
RTVSPropertyOp5
 70
     0
102
RTVSPropertyOp6
 70
     0
102
RTVSPropertyOp7
 70
     0
102
RTVSPropertyOp8
 70
     0
102
RTVSPropertyOp9
 70
     0
102
RTVSPropertyOp10
 70
     0
102
RTVSPropertyOp11
 70
     0
102
RTVSPropertyOp12
 70
     0
102
RTVSPropertyOp13
 70
     0
102
RTVSPropertyOp14
 70
     2
102
RTVSPropertyOp15
 70
     0
102
RTVSPropertyOp16
 70
     0
102
RTVSPropertyOp17
 70
     0
102
RTVSPropertyOp18
 70
     0
102
RTVSPropertyOp19
 70
     0
102
RTVSPropertyOp20
 70
     0
102
RTVSPropertyOp21
 70
     0
102
RTVSPropertyOp22
 70
     0
102
RTVSPropertyOp23
 70
     0
102
RTVSPropertyOp24
 70
     0
102
RTVSPropertyOp25
 70
     0
102
RTVSPropertyOp26
 70
     0
102
RTVSPropertyOp27
 70
     0
102
RTVSPropertyOp28
 70
     0
102
RTVSPropertyOp29
 70
     0
102
RTVSPropertyOp30
 70
     0
102
RTVSPropertyOp31
 70
     0
102
RTVSPropertyOp32
 70
     0
102
RTVSPropertyOp33
 70
     0
102
RTVSPropertyOp34
 70
     0
102
RTVSPropertyOp35
 70
     0
102
RTVSPropertyOp36
 70
     0
102
RTVSPropertyOp37
 70
     0
102
RTVSPropertyOp38
 70
     0
102
RTVSPropertyOp39
 70
     0
102
RTVSPropertyOp40
 70
     0
102
RTVSPropertyOp41
 70
     0
102
RTVSPropertyOp42
 70
     0
102
RTVSPropertyOp43
 70
     0
102
RTVSPropertyOp44
 70
     0
102
RTVSPropertyOp45
 70
     0
102
RTVSPropertyOp46
 70
     0
102
RTVSPropertyOp47
 70
     0
102
RTVSPropertyOp48
 70
     0
102
RTVSPropertyOp49
 70
     0
102
RTVSPropertyOp50
 70
     0
102
RTVSPropertyOp51
 70
     0
102
RTVSPropertyOp52
 70
     0
102
RTVSPropertyOp53
 70
     0
102
RTVSPropertyOp54
 70
     0
102
RTVSPropertyOp55
 70
     0
102
RTVSPropertyOp56
 70
     0
102
RTVSPropertyOp57
 70
     0
102
RTVSPost2010Prop28
280
     0
102
RTVSPost2010PropOp28
 70
     0
102
RTVSPost2010Prop29
280
     1
102
RTVSPost2010PropOp29
 70
     0
102
RTVSPost2010Prop30
280
     1
102
RTVSPost2010PropOp30
 70
     0
102
RTVSPost2010Prop31
280
     0
102
RTVSPost2010PropOp31
 70
     0
102
RTVSPost2010Prop32
280
     0
102
RTVSPost2010PropOp32
 70
     0
102
RTVSPost2010Prop33
280
     0
102
RTVSPost2010PropOp33
 70
     0
102
RTVSPost2010Prop34
280
     0
102
RTVSPost2010PropOp34
 70
     0
102
RTVSPost2010Prop35
280
     0
102
RTVSPost2010PropOp35
 70
     0
102
RTVSPost2010Prop36
280
     0
102
RTVSPost2010PropOp36
 70
     0
102
RTVSPost2010Prop37
 90
       50
102
RTVSPost2010PropOp37
 70
     0
102
RTVSPost2010Prop38
140
0.0
102
RTVSPost2010PropOp38
 70
     0
102
RTVSPost2010Prop39
140
1.0
102
RTVSPost2010PropOp39
 70
     0
102
RTVSPost2010Prop40
 90
        0
102
RTVSPost2010PropOp40
 70
     0
102
RTVSPost2010Prop41ColorIndex
 90
       18
102
RTVSPost2010Prop41ColorRGB
 90
        0
102
RTVSPost2010PropOp41
 70
     0
102
RTVSPost2010Prop42
 90
       50
102
RTVSPost2010PropOp42
 70
     0
102
RTVSPost2010Prop43
 90
        3
102
RTVSPost2010PropOp43
 70
     0
102
RTVSPost2010Prop44ColorIndex
 90
        5
102
RTVSPost2010Prop44ColorRGB
 90
      255
102
RTVSPost2010PropOp44
 70
     0
102
RTVSPost2010Prop45
280
     0
102
RTVSPost2010PropOp45
 70
     0
102
RTVSPost2010Prop46
 90
       50
102
RTVSPost2010PropOp46
 70
     0
102
RTVSPost2010Prop47
 90
       50
102
RTVSPost2010PropOp47
 70
     0
102
RTVSPost2010Prop48
 90
       50
102
RTVSPost2010PropOp48
 70
     0
102
RTVSPost2010Prop49
280
     0
102
RTVSPost2010PropOp49
 70
     0
102
RTVSPost2010Prop50
 90
       50
102
RTVSPost2010PropOp50
 70
     0
102
RTVSPost2010Prop51ColorIndex
 90
      256
102
RTVSPost2010Prop51ColorRGB
 90
-16777216
102
RTVSPost2010PropOp51
 70
     0
102
RTVSPost2010Prop52
140
1.0
102
RTVSPost2010PropOp52
 70
     0
102
RTVSPost2010Prop53
 90
        2
102
RTVSPost2010PropOp53
 70
     0
102
RTVSPost2010Prop54
  1
strokes_ogs.tif
102
RTVSPost2010PropOp54
 70
     0
102
RTVSPost2010Prop55
280
     0
102
RTVSPost2010PropOp55
 70
     0
102
RTVSPost2010Prop56
140
1.0
102
RTVSPost2010PropOp56
 70
     0
102
RTVSPost2010Prop57
140
1.0
102
RTVSPost2010PropOp57
 70
     0
  0
XRECORD
  5
10002F0
102
{ACAD_REACTORS
330
10002EF
102
}
330
10002EF
100
AcDbXrecord
280
     1
102
RTVSPropertyOp0
 70
     1
102
RTVSPropertyOp1
 70
     1
102
RTVSPropertyOp2
 70
     1
102
RTVSPropertyOp3
 70
     1
102
RTVSPropertyOp4
 70
     1
102
RTVSPropertyOp5
 70
     1
102
RTVSPropertyOp6
 70
     1
102
RTVSPropertyOp7
 70
     1
102
RTVSPropertyOp8
 70
     1
102
RTVSPropertyOp9
 70
     1
102
RTVSPropertyOp10
 70
     1
102
RTVSPropertyOp11
 70
     1
102
RTVSPropertyOp12
 70
     1
102
RTVSPropertyOp13
 70
     1
102
RTVSPropertyOp14
 70
     1
102
RTVSPropertyOp15
 70
     1
102
RTVSPropertyOp16
 70
     1
102
RTVSPropertyOp17
 70
     1
102
RTVSPropertyOp18
 70
     1
102
RTVSPropertyOp19
 70
     1
102
RTVSPropertyOp20
 70
     1
102
RTVSPropertyOp21
 70
     1
102
RTVSPropertyOp22
 70
     1
102
RTVSPropertyOp23
 70
     1
102
RTVSPropertyOp24
 70
     1
102
RTVSPropertyOp25
 70
     1
102
RTVSPropertyOp26
 70
     1
102
RTVSPropertyOp27
 70
     1
102
RTVSPropertyOp28
 70
     1
102
RTVSPropertyOp29
 70
     1
102
RTVSPropertyOp30
 70
     1
102
RTVSPropertyOp31
 70
     1
102
RTVSPropertyOp32
 70
     1
102
RTVSPropertyOp33
 70
     1
102
RTVSPropertyOp34
 70
     1
102
RTVSPropertyOp35
 70
     1
102
RTVSPropertyOp36
 70
     1
102
RTVSPropertyOp37
 70
     1
102
RTVSPropertyOp38
 70
     1
102
RTVSPropertyOp39
 70
     1
102
RTVSPropertyOp40
 70
     1
102
RTVSPropertyOp41
 70
     1
102
RTVSPropertyOp42
 70
     1
102
RTVSPropertyOp43
 70
     1
102
RTVSPropertyOp44
 70
     1
102
RTVSPropertyOp45
 70
     1
102
RTVSPropertyOp46
 70
     1
102
RTVSPropertyOp47
 70
     1
102
RTVSPropertyOp48
 70
     1
102
RTVSPropertyOp49
 70
     1
102
RTVSPropertyOp50
 70
     1
102
RTVSPropertyOp51
 70
     0
102
RTVSPropertyOp52
 70
     0
102
RTVSPropertyOp53
 70
     1
102
RTVSPropertyOp54
 70
     1
102
RTVSPropertyOp55
 70
     1
102
RTVSPropertyOp56
 70
     1
102
RTVSPropertyOp57
 70
     1
102
RTVSPost2010Prop28
280
     0
102
RTVSPost2010PropOp28
 70
     1
102
RTVSPost2010Prop29
280
     1
102
RTVSPost2010PropOp29
 70
     1
102
RTVSPost2010Prop30
280
     1
102
RTVSPost2010PropOp30
 70
     1
102
RTVSPost2010Prop31
280
     0
102
RTVSPost2010PropOp31
 70
     1
102
RTVSPost2010Prop32
280
     0
102
RTVSPost2010PropOp32
 70
     1
102
RTVSPost2010Prop33
280
     0
102
RTVSPost2010PropOp33
 70
     1
102
RTVSPost2010Prop34
280
     0
102
RTVSPost2010PropOp34
 70
     1
102
RTVSPost2010Prop35
280
     0
102
RTVSPost2010PropOp35
 70
     1
102
RTVSPost2010Prop36
280
     0
102
RTVSPost2010PropOp36
 70
     1
102
RTVSPost2010Prop37
 90
       50
102
RTVSPost2010PropOp37
 70
     1
102
RTVSPost2010Prop38
140
0.0
102
RTVSPost2010PropOp38
 70
     1
102
RTVSPost2010Prop39
140
1.0
102
RTVSPost2010PropOp39
 70
     1
102
RTVSPost2010Prop40
 90
        0
102
RTVSPost2010PropOp40
 70
     1
102
RTVSPost2010Prop41ColorIndex
 90
       18
102
RTVSPost2010Prop41ColorRGB
 90
        0
102
RTVSPost2010PropOp41
 70
     1
102
RTVSPost2010Prop42
 90
       50
102
RTVSPost2010PropOp42
 70
     1
102
RTVSPost2010Prop43
 90
        3
102
RTVSPost2010PropOp43
 70
     1
102
RTVSPost2010Prop44ColorIndex
 90
        5
102
RTVSPost2010Prop44ColorRGB
 90
      255
102
RTVSPost2010PropOp44
 70
     1
102
RTVSPost2010Prop45
280
     0
102
RTVSPost2010PropOp45
 70
     1
102
RTVSPost2010Prop46
 90
       50
102
RTVSPost2010PropOp46
 70
     1
102
RTVSPost2010Prop47
 90
       50
102
RTVSPost2010PropOp47
 70
     1
102
RTVSPost2010Prop48
 90
       50
102
RTVSPost2010PropOp48
 70
     1
102
RTVSPost2010Prop49
280
     0
102
RTVSPost2010PropOp49
 70
     1
102
RTVSPost2010Prop50
 90
       50
102
RTVSPost2010PropOp50
 70
     1
102
RTVSPost2010Prop51ColorIndex
 90
      256
102
RTVSPost2010Prop51ColorRGB
 90
-16777216
102
RTVSPost2010PropOp51
 70
     0
102
RTVSPost2010Prop52
140
1.0
102
RTVSPost2010PropOp52
 70
     0
102
RTVSPost2010Prop53
 90
        2
102
RTVSPost2010PropOp53
 70
     1
102
RTVSPost2010Prop54
  1
strokes_ogs.tif
102
RTVSPost2010PropOp54
 70
     1
102
RTVSPost2010Prop55
280
     0
102
RTVSPost2010PropOp55
 70
     1
102
RTVSPost2010Prop56
140
1.0
102
RTVSPost2010PropOp56
 70
     1
102
RTVSPost2010Prop57
140
1.0
102
RTVSPost2010PropOp57
 70
     1
  0
XRECORD
  5
10002F2
102
{ACAD_REACTORS
330
10002F1
102
}
330
10002F1
100
AcDbXrecord
280
     1
102
RTVSPropertyOp0
 70
     0
102
RTVSPropertyOp1
 70
     0
102
RTVSPropertyOp2
 70
     0
102
RTVSPropertyOp3
 70
     0
102
RTVSPropertyOp4
 70
     0
102
RTVSPropertyOp5
 70
     0
102
RTVSPropertyOp6
 70
     0
102
RTVSPropertyOp7
 70
     0
102
RTVSPropertyOp8
 70
     0
102
RTVSPropertyOp9
 70
     0
102
RTVSPropertyOp10
 70
     0
102
RTVSPropertyOp11
 70
     0
102
RTVSPropertyOp12
 70
     0
102
RTVSPropertyOp13
 70
     0
102
RTVSPropertyOp14
 70
     2
102
RTVSPropertyOp15
 70
     0
102
RTVSPropertyOp16
 70
     0
102
RTVSPropertyOp17
 70
     0
102
RTVSPropertyOp18
 70
     0
102
RTVSPropertyOp19
 70
     0
102
RTVSPropertyOp20
 70
     0
102
RTVSPropertyOp21
 70
     0
102
RTVSPropertyOp22
 70
     0
102
RTVSPropertyOp23
 70
     0
102
RTVSPropertyOp24
 70
     0
102
RTVSPropertyOp25
 70
     0
102
RTVSPropertyOp26
 70
     0
102
RTVSPropertyOp27
 70
     0
102
RTVSPropertyOp28
 70
     0
102
RTVSPropertyOp29
 70
     0
102
RTVSPropertyOp30
 70
     0
102
RTVSPropertyOp31
 70
     0
102
RTVSPropertyOp32
 70
     0
102
RTVSPropertyOp33
 70
     0
102
RTVSPropertyOp34
 70
     0
102
RTVSPropertyOp35
 70
     0
102
RTVSPropertyOp36
 70
     0
102
RTVSPropertyOp37
 70
     0
102
RTVSPropertyOp38
 70
     0
102
RTVSPropertyOp39
 70
     0
102
RTVSPropertyOp40
 70
     0
102
RTVSPropertyOp41
 70
     0
102
RTVSPropertyOp42
 70
     0
102
RTVSPropertyOp43
 70
     0
102
RTVSPropertyOp44
 70
     0
102
RTVSPropertyOp45
 70
     0
102
RTVSPropertyOp46
 70
     0
102
RTVSPropertyOp47
 70
     0
102
RTVSPropertyOp48
 70
     0
102
RTVSPropertyOp49
 70
     0
102
RTVSPropertyOp50
 70
     0
102
RTVSPropertyOp51
 70
     0
102
RTVSPropertyOp52
 70
     0
102
RTVSPropertyOp53
 70
     0
102
RTVSPropertyOp54
 70
     0
102
RTVSPropertyOp55
 70
     0
102
RTVSPropertyOp56
 70
     0
102
RTVSPropertyOp57
 70
     0
102
RTVSPost2010Prop28
280
     0
102
RTVSPost2010PropOp28
 70
     0
102
RTVSPost2010Prop29
280
     1
102
RTVSPost2010PropOp29
 70
     0
102
RTVSPost2010Prop30
280
     1
102
RTVSPost2010PropOp30
 70
     0
102
RTVSPost2010Prop31
280
     0
102
RTVSPost2010PropOp31
 70
     0
102
RTVSPost2010Prop32
280
     0
102
RTVSPost2010PropOp32
 70
     0
102
RTVSPost2010Prop33
280
     0
102
RTVSPost2010PropOp33
 70
     0
102
RTVSPost2010Prop34
280
     0
102
RTVSPost2010PropOp34
 70
     0
102
RTVSPost2010Prop35
280
     0
102
RTVSPost2010PropOp35
 70
     0
102
RTVSPost2010Prop36
280
     0
102
RTVSPost2010PropOp36
 70
     0
102
RTVSPost2010Prop37
 90
       50
102
RTVSPost2010PropOp37
 70
     0
102
RTVSPost2010Prop38
140
0.0
102
RTVSPost2010PropOp38
 70
     0
102
RTVSPost2010Prop39
140
1.0
102
RTVSPost2010PropOp39
 70
     0
102
RTVSPost2010Prop40
 90
        0
102
RTVSPost2010PropOp40
 70
     0
102
RTVSPost2010Prop41ColorIndex
 90
       18
102
RTVSPost2010Prop41ColorRGB
 90
        0
102
RTVSPost2010PropOp41
 70
     0
102
RTVSPost2010Prop42
 90
       50
102
RTVSPost2010PropOp42
 70
     0
102
RTVSPost2010Prop43
 90
        3
102
RTVSPost2010PropOp43
 70
     0
102
RTVSPost2010Prop44ColorIndex
 90
        5
102
RTVSPost2010Prop44ColorRGB
 90
      255
102
RTVSPost2010PropOp44
 70
     0
102
RTVSPost2010Prop45
280
     0
102
RTVSPost2010PropOp45
 70
     0
102
RTVSPost2010Prop46
 90
       50
102
RTVSPost2010PropOp46
 70
     0
102
RTVSPost2010Prop47
 90
       50
102
RTVSPost2010PropOp47
 70
     0
102
RTVSPost2010Prop48
 90
       50
102
RTVSPost2010PropOp48
 70
     0
102
RTVSPost2010Prop49
280
     0
102
RTVSPost2010PropOp49
 70
     0
102
RTVSPost2010Prop50
 90
       50
102
RTVSPost2010PropOp50
 70
     0
102
RTVSPost2010Prop51ColorIndex
 90
      256
102
RTVSPost2010Prop51ColorRGB
 90
-16777216
102
RTVSPost2010PropOp51
 70
     0
102
RTVSPost2010Prop52
140
1.0
102
RTVSPost2010PropOp52
 70
     0
102
RTVSPost2010Prop53
 90
        2
102
RTVSPost2010PropOp53
 70
     0
102
RTVSPost2010Prop54
  1
strokes_ogs.tif
102
RTVSPost2010PropOp54
 70
     0
102
RTVSPost2010Prop55
280
     0
102
RTVSPost2010PropOp55
 70
     0
102
RTVSPost2010Prop56
140
1.0
102
RTVSPost2010PropOp56
 70
     0
102
RTVSPost2010Prop57
140
1.0
102
RTVSPost2010PropOp57
 70
     0
  0
XRECORD
  5
10002F4
102
{ACAD_REACTORS
330
10002F3
102
}
330
10002F3
100
AcDbXrecord
280
     1
102
RTVSPropertyOp0
 70
     1
102
RTVSPropertyOp1
 70
     1
102
RTVSPropertyOp2
 70
     1
102
RTVSPropertyOp3
 70
     1
102
RTVSPropertyOp4
 70
     1
102
RTVSPropertyOp5
 70
     1
102
RTVSPropertyOp6
 70
     1
102
RTVSPropertyOp7
 70
     1
102
RTVSPropertyOp8
 70
     1
102
RTVSPropertyOp9
 70
     1
102
RTVSPropertyOp10
 70
     1
102
RTVSPropertyOp11
 70
     1
102
RTVSPropertyOp12
 70
     1
102
RTVSPropertyOp13
 70
     1
102
RTVSPropertyOp14
 70
     1
102
RTVSPropertyOp15
 70
     1
102
RTVSPropertyOp16
 70
     1
102
RTVSPropertyOp17
 70
     1
102
RTVSPropertyOp18
 70
     1
102
RTVSPropertyOp19
 70
     1
102
RTVSPropertyOp20
 70
     1
102
RTVSPropertyOp21
 70
     1
102
RTVSPropertyOp22
 70
     1
102
RTVSPropertyOp23
 70
     1
102
RTVSPropertyOp24
 70
     1
102
RTVSPropertyOp25
 70
     1
102
RTVSPropertyOp26
 70
     1
102
RTVSPropertyOp27
 70
     1
102
RTVSPropertyOp28
 70
     1
102
RTVSPropertyOp29
 70
     1
102
RTVSPropertyOp30
 70
     1
102
RTVSPropertyOp31
 70
     1
102
RTVSPropertyOp32
 70
     1
102
RTVSPropertyOp33
 70
     1
102
RTVSPropertyOp34
 70
     1
102
RTVSPropertyOp35
 70
     1
102
RTVSPropertyOp36
 70
     1
102
RTVSPropertyOp37
 70
     1
102
RTVSPropertyOp38
 70
     1
102
RTVSPropertyOp39
 70
     1
102
RTVSPropertyOp40
 70
     1
102
RTVSPropertyOp41
 70
     1
102
RTVSPropertyOp42
 70
     1
102
RTVSPropertyOp43
 70
     1
102
RTVSPropertyOp44
 70
     1
102
RTVSPropertyOp45
 70
     1
102
RTVSPropertyOp46
 70
     1
102
RTVSPropertyOp47
 70
     1
102
RTVSPropertyOp48
 70
     1
102
RTVSPropertyOp49
 70
     1
102
RTVSPropertyOp50
 70
     1
102
RTVSPropertyOp51
 70
     0
102
RTVSPropertyOp52
 70
     0
102
RTVSPropertyOp53
 70
     1
102
RTVSPropertyOp54
 70
     1
102
RTVSPropertyOp55
 70
     1
102
RTVSPropertyOp56
 70
     1
102
RTVSPropertyOp57
 70
     1
102
RTVSPost2010Prop28
280
     0
102
RTVSPost2010PropOp28
 70
     1
102
RTVSPost2010Prop29
280
     1
102
RTVSPost2010PropOp29
 70
     1
102
RTVSPost2010Prop30
280
     1
102
RTVSPost2010PropOp30
 70
     1
102
RTVSPost2010Prop31
280
     0
102
RTVSPost2010PropOp31
 70
     1
102
RTVSPost2010Prop32
280
     0
102
RTVSPost2010PropOp32
 70
     1
102
RTVSPost2010Prop33
280
     0
102
RTVSPost2010PropOp33
 70
     1
102
RTVSPost2010Prop34
280
     0
102
RTVSPost2010PropOp34
 70
     1
102
RTVSPost2010Prop35
280
     0
102
RTVSPost2010PropOp35
 70
     1
102
RTVSPost2010Prop36
280
     0
102
RTVSPost2010PropOp36
 70
     1
102
RTVSPost2010Prop37
 90
       50
102
RTVSPost2010PropOp37
 70
     1
102
RTVSPost2010Prop38
140
0.0
102
RTVSPost2010PropOp38
 70
     1
102
RTVSPost2010Prop39
140
1.0
102
RTVSPost2010PropOp39
 70
     1
102
RTVSPost2010Prop40
 90
        0
102
RTVSPost2010PropOp40
 70
     1
102
RTVSPost2010Prop41ColorIndex
 90
       18
102
RTVSPost2010Prop41ColorRGB
 90
        0
102
RTVSPost2010PropOp41
 70
     1
102
RTVSPost2010Prop42
 90
       50
102
RTVSPost2010PropOp42
 70
     1
102
RTVSPost2010Prop43
 90
        3
102
RTVSPost2010PropOp43
 70
     1
102
RTVSPost2010Prop44ColorIndex
 90
        5
102
RTVSPost2010Prop44ColorRGB
 90
      255
102
RTVSPost2010PropOp44
 70
     1
102
RTVSPost2010Prop45
280
     0
102
RTVSPost2010PropOp45
 70
     1
102
RTVSPost2010Prop46
 90
       50
102
RTVSPost2010PropOp46
 70
     1
102
RTVSPost2010Prop47
 90
       50
102
RTVSPost2010PropOp47
 70
     1
102
RTVSPost2010Prop48
 90
       50
102
RTVSPost2010PropOp48
 70
     1
102
RTVSPost2010Prop49
280
     0
102
RTVSPost2010PropOp49
 70
     1
102
RTVSPost2010Prop50
 90
       50
102
RTVSPost2010PropOp50
 70
     1
102
RTVSPost2010Prop51ColorIndex
 90
      256
102
RTVSPost2010Prop51ColorRGB
 90
-16777216
102
RTVSPost2010PropOp51
 70
     0
102
RTVSPost2010Prop52
140
1.0
102
RTVSPost2010PropOp52
 70
     0
102
RTVSPost2010Prop53
 90
        2
102
RTVSPost2010PropOp53
 70
     1
102
RTVSPost2010Prop54
  1
strokes_ogs.tif
102
RTVSPost2010PropOp54
 70
     1
102
RTVSPost2010Prop55
280
     0
102
RTVSPost2010PropOp55
 70
     1
102
RTVSPost2010Prop56
140
1.0
102
RTVSPost2010PropOp56
 70
     1
102
RTVSPost2010Prop57
140
1.0
102
RTVSPost2010PropOp57
 70
     1
  0
XRECORD
  5
10002F6
102
{ACAD_REACTORS
330
10002F5
102
}
330
10002F5
100
AcDbXrecord
280
     1
102
RTVSPropertyOp0
 70
     1
102
RTVSPropertyOp1
 70
     1
102
RTVSPropertyOp2
 70
     1
102
RTVSPropertyOp3
 70
     1
102
RTVSPropertyOp4
 70
     1
102
RTVSPropertyOp5
 70
     1
102
RTVSPropertyOp6
 70
     1
102
RTVSPropertyOp7
 70
     1
102
RTVSPropertyOp8
 70
     1
102
RTVSPropertyOp9
 70
     1
102
RTVSPropertyOp10
 70
     1
102
RTVSPropertyOp11
 70
     1
102
RTVSPropertyOp12
 70
     1
102
RTVSPropertyOp13
 70
     1
102
RTVSPropertyOp14
 70
     1
102
RTVSPropertyOp15
 70
     1
102
RTVSPropertyOp16
 70
     1
102
RTVSPropertyOp17
 70
     1
102
RTVSPropertyOp18
 70
     1
102
RTVSPropertyOp19
 70
     1
102
RTVSPropertyOp20
 70
     1
102
RTVSPropertyOp21
 70
     1
102
RTVSPropertyOp22
 70
     1
102
RTVSPropertyOp23
 70
     1
102
RTVSPropertyOp24
 70
     1
102
RTVSPropertyOp25
 70
     1
102
RTVSPropertyOp26
 70
     1
102
RTVSPropertyOp27
 70
     1
102
RTVSPropertyOp28
 70
     1
102
RTVSPropertyOp29
 70
     1
102
RTVSPropertyOp30
 70
     1
102
RTVSPropertyOp31
 70
     1
102
RTVSPropertyOp32
 70
     1
102
RTVSPropertyOp33
 70
     1
102
RTVSPropertyOp34
 70
     1
102
RTVSPropertyOp35
 70
     1
102
RTVSPropertyOp36
 70
     1
102
RTVSPropertyOp37
 70
     1
102
RTVSPropertyOp38
 70
     1
102
RTVSPropertyOp39
 70
     1
102
RTVSPropertyOp40
 70
     1
102
RTVSPropertyOp41
 70
     1
102
RTVSPropertyOp42
 70
     1
102
RTVSPropertyOp43
 70
     1
102
RTVSPropertyOp44
 70
     1
102
RTVSPropertyOp45
 70
     1
102
RTVSPropertyOp46
 70
     1
102
RTVSPropertyOp47
 70
     1
102
RTVSPropertyOp48
 70
     1
102
RTVSPropertyOp49
 70
     1
102
RTVSPropertyOp50
 70
     1
102
RTVSPropertyOp51
 70
     0
102
RTVSPropertyOp52
 70
     0
102
RTVSPropertyOp53
 70
     1
102
RTVSPropertyOp54
 70
     1
102
RTVSPropertyOp55
 70
     1
102
RTVSPropertyOp56
 70
     1
102
RTVSPropertyOp57
 70
     1
102
RTVSPost2010Prop28
280
     0
102
RTVSPost2010PropOp28
 70
     1
102
RTVSPost2010Prop29
280
     1
102
RTVSPost2010PropOp29
 70
     1
102
RTVSPost2010Prop30
280
     1
102
RTVSPost2010PropOp30
 70
     1
102
RTVSPost2010Prop31
280
     0
102
RTVSPost2010PropOp31
 70
     1
102
RTVSPost2010Prop32
280
     0
102
RTVSPost2010PropOp32
 70
     1
102
RTVSPost2010Prop33
280
     0
102
RTVSPost2010PropOp33
 70
     1
102
RTVSPost2010Prop34
280
     0
102
RTVSPost2010PropOp34
 70
     1
102
RTVSPost2010Prop35
280
     0
102
RTVSPost2010PropOp35
 70
     1
102
RTVSPost2010Prop36
280
     0
102
RTVSPost2010PropOp36
 70
     1
102
RTVSPost2010Prop37
 90
       50
102
RTVSPost2010PropOp37
 70
     1
102
RTVSPost2010Prop38
140
0.0
102
RTVSPost2010PropOp38
 70
     1
102
RTVSPost2010Prop39
140
1.0
102
RTVSPost2010PropOp39
 70
     1
102
RTVSPost2010Prop40
 90
        0
102
RTVSPost2010PropOp40
 70
     1
102
RTVSPost2010Prop41ColorIndex
 90
       18
102
RTVSPost2010Prop41ColorRGB
 90
        0
102
RTVSPost2010PropOp41
 70
     1
102
RTVSPost2010Prop42
 90
       50
102
RTVSPost2010PropOp42
 70
     1
102
RTVSPost2010Prop43
 90
        3
102
RTVSPost2010PropOp43
 70
     1
102
RTVSPost2010Prop44ColorIndex
 90
        5
102
RTVSPost2010Prop44ColorRGB
 90
      255
102
RTVSPost2010PropOp44
 70
     1
102
RTVSPost2010Prop45
280
     0
102
RTVSPost2010PropOp45
 70
     1
102
RTVSPost2010Prop46
 90
       50
102
RTVSPost2010PropOp46
 70
     1
102
RTVSPost2010Prop47
 90
       50
102
RTVSPost2010PropOp47
 70
     1
102
RTVSPost2010Prop48
 90
       50
102
RTVSPost2010PropOp48
 70
     1
102
RTVSPost2010Prop49
280
     0
102
RTVSPost2010PropOp49
 70
     1
102
RTVSPost2010Prop50
 90
       50
102
RTVSPost2010PropOp50
 70
     1
102
RTVSPost2010Prop51ColorIndex
 90
      256
102
RTVSPost2010Prop51ColorRGB
 90
-16777216
102
RTVSPost2010PropOp51
 70
     0
102
RTVSPost2010Prop52
140
1.0
102
RTVSPost2010PropOp52
 70
     0
102
RTVSPost2010Prop53
 90
        2
102
RTVSPost2010PropOp53
 70
     1
102
RTVSPost2010Prop54
  1
strokes_ogs.tif
102
RTVSPost2010PropOp54
 70
     1
102
RTVSPost2010Prop55
280
     0
102
RTVSPost2010PropOp55
 70
     1
102
RTVSPost2010Prop56
140
1.0
102
RTVSPost2010PropOp56
 70
     1
102
RTVSPost2010Prop57
140
1.0
102
RTVSPost2010PropOp57
 70
     1
  0
XRECORD
  5
10002F8
102
{ACAD_REACTORS
330
10002F7
102
}
330
10002F7
100
AcDbXrecord
280
     1
102
RTVSPropertyOp0
 70
     1
102
RTVSPropertyOp1
 70
     1
102
RTVSPropertyOp2
 70
     1
102
RTVSPropertyOp3
 70
     1
102
RTVSPropertyOp4
 70
     1
102
RTVSPropertyOp5
 70
     1
102
RTVSPropertyOp6
 70
     1
102
RTVSPropertyOp7
 70
     1
102
RTVSPropertyOp8
 70
     1
102
RTVSPropertyOp9
 70
     1
102
RTVSPropertyOp10
 70
     1
102
RTVSPropertyOp11
 70
     1
102
RTVSPropertyOp12
 70
     1
102
RTVSPropertyOp13
 70
     1
102
RTVSPropertyOp14
 70
     1
102
RTVSPropertyOp15
 70
     1
102
RTVSPropertyOp16
 70
     1
102
RTVSPropertyOp17
 70
     1
102
RTVSPropertyOp18
 70
     1
102
RTVSPropertyOp19
 70
     1
102
RTVSPropertyOp20
 70
     1
102
RTVSPropertyOp21
 70
     1
102
RTVSPropertyOp22
 70
     1
102
RTVSPropertyOp23
 70
     1
102
RTVSPropertyOp24
 70
     1
102
RTVSPropertyOp25
 70
     1
102
RTVSPropertyOp26
 70
     1
102
RTVSPropertyOp27
 70
     1
102
RTVSPropertyOp28
 70
     1
102
RTVSPropertyOp29
 70
     1
102
RTVSPropertyOp30
 70
     1
102
RTVSPropertyOp31
 70
     1
102
RTVSPropertyOp32
 70
     1
102
RTVSPropertyOp33
 70
     1
102
RTVSPropertyOp34
 70
     1
102
RTVSPropertyOp35
 70
     1
102
RTVSPropertyOp36
 70
     1
102
RTVSPropertyOp37
 70
     1
102
RTVSPropertyOp38
 70
     1
102
RTVSPropertyOp39
 70
     1
102
RTVSPropertyOp40
 70
     1
102
RTVSPropertyOp41
 70
     1
102
RTVSPropertyOp42
 70
     1
102
RTVSPropertyOp43
 70
     1
102
RTVSPropertyOp44
 70
     1
102
RTVSPropertyOp45
 70
     1
102
RTVSPropertyOp46
 70
     1
102
RTVSPropertyOp47
 70
     1
102
RTVSPropertyOp48
 70
     1
102
RTVSPropertyOp49
 70
     1
102
RTVSPropertyOp50
 70
     1
102
RTVSPropertyOp51
 70
     0
102
RTVSPropertyOp52
 70
     0
102
RTVSPropertyOp53
 70
     1
102
RTVSPropertyOp54
 70
     1
102
RTVSPropertyOp55
 70
     1
102
RTVSPropertyOp56
 70
     1
102
RTVSPropertyOp57
 70
     1
102
RTVSPost2010Prop28
280
     0
102
RTVSPost2010PropOp28
 70
     1
102
RTVSPost2010Prop29
280
     1
102
RTVSPost2010PropOp29
 70
     1
102
RTVSPost2010Prop30
280
     1
102
RTVSPost2010PropOp30
 70
     1
102
RTVSPost2010Prop31
280
     0
102
RTVSPost2010PropOp31
 70
     1
102
RTVSPost2010Prop32
280
     0
102
RTVSPost2010PropOp32
 70
     1
102
RTVSPost2010Prop33
280
     0
102
RTVSPost2010PropOp33
 70
     1
102
RTVSPost2010Prop34
280
     0
102
RTVSPost2010PropOp34
 70
     1
102
RTVSPost2010Prop35
280
     0
102
RTVSPost2010PropOp35
 70
     1
102
RTVSPost2010Prop36
280
     0
102
RTVSPost2010PropOp36
 70
     1
102
RTVSPost2010Prop37
 90
       50
102
RTVSPost2010PropOp37
 70
     1
102
RTVSPost2010Prop38
140
0.0
102
RTVSPost2010PropOp38
 70
     1
102
RTVSPost2010Prop39
140
1.0
102
RTVSPost2010PropOp39
 70
     1
102
RTVSPost2010Prop40
 90
        0
102
RTVSPost2010PropOp40
 70
     1
102
RTVSPost2010Prop41ColorIndex
 90
       18
102
RTVSPost2010Prop41ColorRGB
 90
        0
102
RTVSPost2010PropOp41
 70
     1
102
RTVSPost2010Prop42
 90
       50
102
RTVSPost2010PropOp42
 70
     1
102
RTVSPost2010Prop43
 90
        3
102
RTVSPost2010PropOp43
 70
     1
102
RTVSPost2010Prop44ColorIndex
 90
        5
102
RTVSPost2010Prop44ColorRGB
 90
      255
102
RTVSPost2010PropOp44
 70
     1
102
RTVSPost2010Prop45
280
     0
102
RTVSPost2010PropOp45
 70
     1
102
RTVSPost2010Prop46
 90
       50
102
RTVSPost2010PropOp46
 70
     1
102
RTVSPost2010Prop47
 90
       50
102
RTVSPost2010PropOp47
 70
     1
102
RTVSPost2010Prop48
 90
       50
102
RTVSPost2010PropOp48
 70
     1
102
RTVSPost2010Prop49
280
     0
102
RTVSPost2010PropOp49
 70
     1
102
RTVSPost2010Prop50
 90
       50
102
RTVSPost2010PropOp50
 70
     1
102
RTVSPost2010Prop51ColorIndex
 90
      256
102
RTVSPost2010Prop51ColorRGB
 90
-16777216
102
RTVSPost2010PropOp51
 70
     0
102
RTVSPost2010Prop52
140
1.0
102
RTVSPost2010PropOp52
 70
     0
102
RTVSPost2010Prop53
 90
        2
102
RTVSPost2010PropOp53
 70
     1
102
RTVSPost2010Prop54
  1
strokes_ogs.tif
102
RTVSPost2010PropOp54
 70
     1
102
RTVSPost2010Prop55
280
     0
102
RTVSPost2010PropOp55
 70
     1
102
RTVSPost2010Prop56
140
1.0
102
RTVSPost2010PropOp56
 70
     1
102
RTVSPost2010Prop57
140
1.0
102
RTVSPost2010PropOp57
 70
     1
  0
XRECORD
  5
10002FA
102
{ACAD_REACTORS
330
10002F9
102
}
330
10002F9
100
AcDbXrecord
280
     1
102
RTVSPropertyOp0
 70
     1
102
RTVSPropertyOp1
 70
     1
102
RTVSPropertyOp2
 70
     1
102
RTVSPropertyOp3
 70
     1
102
RTVSPropertyOp4
 70
     1
102
RTVSPropertyOp5
 70
     1
102
RTVSPropertyOp6
 70
     1
102
RTVSPropertyOp7
 70
     1
102
RTVSPropertyOp8
 70
     1
102
RTVSPropertyOp9
 70
     1
102
RTVSPropertyOp10
 70
     1
102
RTVSPropertyOp11
 70
     1
102
RTVSPropertyOp12
 70
     1
102
RTVSPropertyOp13
 70
     1
102
RTVSPropertyOp14
 70
     1
102
RTVSPropertyOp15
 70
     1
102
RTVSPropertyOp16
 70
     1
102
RTVSPropertyOp17
 70
     1
102
RTVSPropertyOp18
 70
     1
102
RTVSPropertyOp19
 70
     1
102
RTVSPropertyOp20
 70
     1
102
RTVSPropertyOp21
 70
     1
102
RTVSPropertyOp22
 70
     1
102
RTVSPropertyOp23
 70
     1
102
RTVSPropertyOp24
 70
     1
102
RTVSPropertyOp25
 70
     1
102
RTVSPropertyOp26
 70
     1
102
RTVSPropertyOp27
 70
     1
102
RTVSPropertyOp28
 70
     1
102
RTVSPropertyOp29
 70
     1
102
RTVSPropertyOp30
 70
     1
102
RTVSPropertyOp31
 70
     1
102
RTVSPropertyOp32
 70
     1
102
RTVSPropertyOp33
 70
     1
102
RTVSPropertyOp34
 70
     1
102
RTVSPropertyOp35
 70
     1
102
RTVSPropertyOp36
 70
     1
102
RTVSPropertyOp37
 70
     1
102
RTVSPropertyOp38
 70
     1
102
RTVSPropertyOp39
 70
     1
102
RTVSPropertyOp40
 70
     1
102
RTVSPropertyOp41
 70
     1
102
RTVSPropertyOp42
 70
     1
102
RTVSPropertyOp43
 70
     1
102
RTVSPropertyOp44
 70
     1
102
RTVSPropertyOp45
 70
     1
102
RTVSPropertyOp46
 70
     1
102
RTVSPropertyOp47
 70
     1
102
RTVSPropertyOp48
 70
     1
102
RTVSPropertyOp49
 70
     1
102
RTVSPropertyOp50
 70
     1
102
RTVSPropertyOp51
 70
     0
102
RTVSPropertyOp52
 70
     0
102
RTVSPropertyOp53
 70
     1
102
RTVSPropertyOp54
 70
     1
102
RTVSPropertyOp55
 70
     1
102
RTVSPropertyOp56
 70
     1
102
RTVSPropertyOp57
 70
     1
102
RTVSPost2010Prop28
280
     0
102
RTVSPost2010PropOp28
 70
     1
102
RTVSPost2010Prop29
280
     1
102
RTVSPost2010PropOp29
 70
     1
102
RTVSPost2010Prop30
280
     1
102
RTVSPost2010PropOp30
 70
     1
102
RTVSPost2010Prop31
280
     0
102
RTVSPost2010PropOp31
 70
     1
102
RTVSPost2010Prop32
280
     0
102
RTVSPost2010PropOp32
 70
     1
102
RTVSPost2010Prop33
280
     0
102
RTVSPost2010PropOp33
 70
     1
102
RTVSPost2010Prop34
280
     0
102
RTVSPost2010PropOp34
 70
     1
102
RTVSPost2010Prop35
280
     0
102
RTVSPost2010PropOp35
 70
     1
102
RTVSPost2010Prop36
280
     0
102
RTVSPost2010PropOp36
 70
     1
102
RTVSPost2010Prop37
 90
       50
102
RTVSPost2010PropOp37
 70
     1
102
RTVSPost2010Prop38
140
0.0
102
RTVSPost2010PropOp38
 70
     1
102
RTVSPost2010Prop39
140
1.0
102
RTVSPost2010PropOp39
 70
     1
102
RTVSPost2010Prop40
 90
        0
102
RTVSPost2010PropOp40
 70
     1
102
RTVSPost2010Prop41ColorIndex
 90
       18
102
RTVSPost2010Prop41ColorRGB
 90
        0
102
RTVSPost2010PropOp41
 70
     1
102
RTVSPost2010Prop42
 90
       50
102
RTVSPost2010PropOp42
 70
     1
102
RTVSPost2010Prop43
 90
        3
102
RTVSPost2010PropOp43
 70
     1
102
RTVSPost2010Prop44ColorIndex
 90
        5
102
RTVSPost2010Prop44ColorRGB
 90
      255
102
RTVSPost2010PropOp44
 70
     1
102
RTVSPost2010Prop45
280
     0
102
RTVSPost2010PropOp45
 70
     1
102
RTVSPost2010Prop46
 90
       50
102
RTVSPost2010PropOp46
 70
     1
102
RTVSPost2010Prop47
 90
       50
102
RTVSPost2010PropOp47
 70
     1
102
RTVSPost2010Prop48
 90
       50
102
RTVSPost2010PropOp48
 70
     1
102
RTVSPost2010Prop49
280
     0
102
RTVSPost2010PropOp49
 70
     1
102
RTVSPost2010Prop50
 90
       50
102
RTVSPost2010PropOp50
 70
     1
102
RTVSPost2010Prop51ColorIndex
 90
      256
102
RTVSPost2010Prop51ColorRGB
 90
-16777216
102
RTVSPost2010PropOp51
 70
     0
102
RTVSPost2010Prop52
140
1.0
102
RTVSPost2010PropOp52
 70
     0
102
RTVSPost2010Prop53
 90
        2
102
RTVSPost2010PropOp53
 70
     1
102
RTVSPost2010Prop54
  1
strokes_ogs.tif
102
RTVSPost2010PropOp54
 70
     1
102
RTVSPost2010Prop55
280
     0
102
RTVSPost2010PropOp55
 70
     1
102
RTVSPost2010Prop56
140
1.0
102
RTVSPost2010PropOp56
 70
     1
102
RTVSPost2010Prop57
140
1.0
102
RTVSPost2010PropOp57
 70
     1
  0
XRECORD
  5
10002FC
102
{ACAD_REACTORS
330
10002FB
102
}
330
10002FB
100
AcDbXrecord
280
     1
102
RTVSPropertyOp0
 70
     1
102
RTVSPropertyOp1
 70
     1
102
RTVSPropertyOp2
 70
     1
102
RTVSPropertyOp3
 70
     1
102
RTVSPropertyOp4
 70
     1
102
RTVSPropertyOp5
 70
     1
102
RTVSPropertyOp6
 70
     1
102
RTVSPropertyOp7
 70
     1
102
RTVSPropertyOp8
 70
     1
102
RTVSPropertyOp9
 70
     1
102
RTVSPropertyOp10
 70
     1
102
RTVSPropertyOp11
 70
     1
102
RTVSPropertyOp12
 70
     1
102
RTVSPropertyOp13
 70
     1
102
RTVSPropertyOp14
 70
     1
102
RTVSPropertyOp15
 70
     1
102
RTVSPropertyOp16
 70
     1
102
RTVSPropertyOp17
 70
     1
102
RTVSPropertyOp18
 70
     1
102
RTVSPropertyOp19
 70
     1
102
RTVSPropertyOp20
 70
     1
102
RTVSPropertyOp21
 70
     1
102
RTVSPropertyOp22
 70
     1
102
RTVSPropertyOp23
 70
     1
102
RTVSPropertyOp24
 70
     1
102
RTVSPropertyOp25
 70
     1
102
RTVSPropertyOp26
 70
     1
102
RTVSPropertyOp27
 70
     1
102
RTVSPropertyOp28
 70
     1
102
RTVSPropertyOp29
 70
     1
102
RTVSPropertyOp30
 70
     1
102
RTVSPropertyOp31
 70
     1
102
RTVSPropertyOp32
 70
     1
102
RTVSPropertyOp33
 70
     1
102
RTVSPropertyOp34
 70
     1
102
RTVSPropertyOp35
 70
     1
102
RTVSPropertyOp36
 70
     1
102
RTVSPropertyOp37
 70
     1
102
RTVSPropertyOp38
 70
     1
102
RTVSPropertyOp39
 70
     1
102
RTVSPropertyOp40
 70
     1
102
RTVSPropertyOp41
 70
     1
102
RTVSPropertyOp42
 70
     1
102
RTVSPropertyOp43
 70
     1
102
RTVSPropertyOp44
 70
     1
102
RTVSPropertyOp45
 70
     1
102
RTVSPropertyOp46
 70
     1
102
RTVSPropertyOp47
 70
     1
102
RTVSPropertyOp48
 70
     1
102
RTVSPropertyOp49
 70
     1
102
RTVSPropertyOp50
 70
     1
102
RTVSPropertyOp51
 70
     0
102
RTVSPropertyOp52
 70
     0
102
RTVSPropertyOp53
 70
     1
102
RTVSPropertyOp54
 70
     1
102
RTVSPropertyOp55
 70
     1
102
RTVSPropertyOp56
 70
     1
102
RTVSPropertyOp57
 70
     1
102
RTVSPost2010Prop28
280
     0
102
RTVSPost2010PropOp28
 70
     1
102
RTVSPost2010Prop29
280
     1
102
RTVSPost2010PropOp29
 70
     1
102
RTVSPost2010Prop30
280
     1
102
RTVSPost2010PropOp30
 70
     1
102
RTVSPost2010Prop31
280
     0
102
RTVSPost2010PropOp31
 70
     1
102
RTVSPost2010Prop32
280
     0
102
RTVSPost2010PropOp32
 70
     1
102
RTVSPost2010Prop33
280
     0
102
RTVSPost2010PropOp33
 70
     1
102
RTVSPost2010Prop34
280
     0
102
RTVSPost2010PropOp34
 70
     1
102
RTVSPost2010Prop35
280
     0
102
RTVSPost2010PropOp35
 70
     1
102
RTVSPost2010Prop36
280
     0
102
RTVSPost2010PropOp36
 70
     1
102
RTVSPost2010Prop37
 90
       50
102
RTVSPost2010PropOp37
 70
     1
102
RTVSPost2010Prop38
140
0.0
102
RTVSPost2010PropOp38
 70
     1
102
RTVSPost2010Prop39
140
1.0
102
RTVSPost2010PropOp39
 70
     1
102
RTVSPost2010Prop40
 90
        0
102
RTVSPost2010PropOp40
 70
     1
102
RTVSPost2010Prop41ColorIndex
 90
       18
102
RTVSPost2010Prop41ColorRGB
 90
        0
102
RTVSPost2010PropOp41
 70
     1
102
RTVSPost2010Prop42
 90
       50
102
RTVSPost2010PropOp42
 70
     1
102
RTVSPost2010Prop43
 90
        3
102
RTVSPost2010PropOp43
 70
     1
102
RTVSPost2010Prop44ColorIndex
 90
        5
102
RTVSPost2010Prop44ColorRGB
 90
      255
102
RTVSPost2010PropOp44
 70
     1
102
RTVSPost2010Prop45
280
     0
102
RTVSPost2010PropOp45
 70
     1
102
RTVSPost2010Prop46
 90
       50
102
RTVSPost2010PropOp46
 70
     1
102
RTVSPost2010Prop47
 90
       50
102
RTVSPost2010PropOp47
 70
     1
102
RTVSPost2010Prop48
 90
       50
102
RTVSPost2010PropOp48
 70
     1
102
RTVSPost2010Prop49
280
     0
102
RTVSPost2010PropOp49
 70
     1
102
RTVSPost2010Prop50
 90
       50
102
RTVSPost2010PropOp50
 70
     1
102
RTVSPost2010Prop51ColorIndex
 90
      256
102
RTVSPost2010Prop51ColorRGB
 90
-16777216
102
RTVSPost2010PropOp51
 70
     0
102
RTVSPost2010Prop52
140
1.0
102
RTVSPost2010PropOp52
 70
     0
102
RTVSPost2010Prop53
 90
        2
102
RTVSPost2010PropOp53
 70
     1
102
RTVSPost2010Prop54
  1
strokes_ogs.tif
102
RTVSPost2010PropOp54
 70
     1
102
RTVSPost2010Prop55
280
     0
102
RTVSPost2010PropOp55
 70
     1
102
RTVSPost2010Prop56
140
1.0
102
RTVSPost2010PropOp56
 70
     1
102
RTVSPost2010Prop57
140
1.0
102
RTVSPost2010PropOp57
 70
     1
  0
XRECORD
  5
10002FE
102
{ACAD_REACTORS
330
10002FD
102
}
330
10002FD
100
AcDbXrecord
280
     1
102
RTVSPropertyOp0
 70
     1
102
RTVSPropertyOp1
 70
     1
102
RTVSPropertyOp2
 70
     1
102
RTVSPropertyOp3
 70
     1
102
RTVSPropertyOp4
 70
     1
102
RTVSPropertyOp5
 70
     1
102
RTVSPropertyOp6
 70
     1
102
RTVSPropertyOp7
 70
     1
102
RTVSPropertyOp8
 70
     1
102
RTVSPropertyOp9
 70
     1
102
RTVSPropertyOp10
 70
     1
102
RTVSPropertyOp11
 70
     1
102
RTVSPropertyOp12
 70
     1
102
RTVSPropertyOp13
 70
     1
102
RTVSPropertyOp14
 70
     1
102
RTVSPropertyOp15
 70
     1
102
RTVSPropertyOp16
 70
     1
102
RTVSPropertyOp17
 70
     1
102
RTVSPropertyOp18
 70
     1
102
RTVSPropertyOp19
 70
     1
102
RTVSPropertyOp20
 70
     1
102
RTVSPropertyOp21
 70
     1
102
RTVSPropertyOp22
 70
     1
102
RTVSPropertyOp23
 70
     1
102
RTVSPropertyOp24
 70
     1
102
RTVSPropertyOp25
 70
     1
102
RTVSPropertyOp26
 70
     1
102
RTVSPropertyOp27
 70
     1
102
RTVSPropertyOp28
 70
     1
102
RTVSPropertyOp29
 70
     1
102
RTVSPropertyOp30
 70
     1
102
RTVSPropertyOp31
 70
     1
102
RTVSPropertyOp32
 70
     1
102
RTVSPropertyOp33
 70
     1
102
RTVSPropertyOp34
 70
     1
102
RTVSPropertyOp35
 70
     1
102
RTVSPropertyOp36
 70
     1
102
RTVSPropertyOp37
 70
     1
102
RTVSPropertyOp38
 70
     1
102
RTVSPropertyOp39
 70
     1
102
RTVSPropertyOp40
 70
     1
102
RTVSPropertyOp41
 70
     1
102
RTVSPropertyOp42
 70
     1
102
RTVSPropertyOp43
 70
     1
102
RTVSPropertyOp44
 70
     1
102
RTVSPropertyOp45
 70
     1
102
RTVSPropertyOp46
 70
     1
102
RTVSPropertyOp47
 70
     1
102
RTVSPropertyOp48
 70
     1
102
RTVSPropertyOp49
 70
     1
102
RTVSPropertyOp50
 70
     1
102
RTVSPropertyOp51
 70
     0
102
RTVSPropertyOp52
 70
     0
102
RTVSPropertyOp53
 70
     1
102
RTVSPropertyOp54
 70
     1
102
RTVSPropertyOp55
 70
     1
102
RTVSPropertyOp56
 70
     1
102
RTVSPropertyOp57
 70
     1
102
RTVSPost2010Prop28
280
     0
102
RTVSPost2010PropOp28
 70
     1
102
RTVSPost2010Prop29
280
     1
102
RTVSPost2010PropOp29
 70
     1
102
RTVSPost2010Prop30
280
     1
102
RTVSPost2010PropOp30
 70
     1
102
RTVSPost2010Prop31
280
     0
102
RTVSPost2010PropOp31
 70
     1
102
RTVSPost2010Prop32
280
     0
102
RTVSPost2010PropOp32
 70
     1
102
RTVSPost2010Prop33
280
     0
102
RTVSPost2010PropOp33
 70
     1
102
RTVSPost2010Prop34
280
     0
102
RTVSPost2010PropOp34
 70
     1
102
RTVSPost2010Prop35
280
     0
102
RTVSPost2010PropOp35
 70
     1
102
RTVSPost2010Prop36
280
     0
102
RTVSPost2010PropOp36
 70
     1
102
RTVSPost2010Prop37
 90
       50
102
RTVSPost2010PropOp37
 70
     1
102
RTVSPost2010Prop38
140
0.0
102
RTVSPost2010PropOp38
 70
     1
102
RTVSPost2010Prop39
140
1.0
102
RTVSPost2010PropOp39
 70
     1
102
RTVSPost2010Prop40
 90
        0
102
RTVSPost2010PropOp40
 70
     1
102
RTVSPost2010Prop41ColorIndex
 90
       18
102
RTVSPost2010Prop41ColorRGB
 90
        0
102
RTVSPost2010PropOp41
 70
     1
102
RTVSPost2010Prop42
 90
       50
102
RTVSPost2010PropOp42
 70
     1
102
RTVSPost2010Prop43
 90
        3
102
RTVSPost2010PropOp43
 70
     1
102
RTVSPost2010Prop44ColorIndex
 90
        5
102
RTVSPost2010Prop44ColorRGB
 90
      255
102
RTVSPost2010PropOp44
 70
     1
102
RTVSPost2010Prop45
280
     0
102
RTVSPost2010PropOp45
 70
     1
102
RTVSPost2010Prop46
 90
       50
102
RTVSPost2010PropOp46
 70
     1
102
RTVSPost2010Prop47
 90
       50
102
RTVSPost2010PropOp47
 70
     1
102
RTVSPost2010Prop48
 90
       50
102
RTVSPost2010PropOp48
 70
     1
102
RTVSPost2010Prop49
280
     0
102
RTVSPost2010PropOp49
 70
     1
102
RTVSPost2010Prop50
 90
       50
102
RTVSPost2010PropOp50
 70
     1
102
RTVSPost2010Prop51ColorIndex
 90
      256
102
RTVSPost2010Prop51ColorRGB
 90
-16777216
102
RTVSPost2010PropOp51
 70
     0
102
RTVSPost2010Prop52
140
1.0
102
RTVSPost2010PropOp52
 70
     0
102
RTVSPost2010Prop53
 90
        2
102
RTVSPost2010PropOp53
 70
     1
102
RTVSPost2010Prop54
  1
strokes_ogs.tif
102
RTVSPost2010PropOp54
 70
     1
102
RTVSPost2010Prop55
280
     0
102
RTVSPost2010PropOp55
 70
     1
102
RTVSPost2010Prop56
140
1.0
102
RTVSPost2010PropOp56
 70
     1
102
RTVSPost2010Prop57
140
1.0
102
RTVSPost2010PropOp57
 70
     1
  0
XRECORD
  5
1000300
102
{ACAD_REACTORS
330
10002FF
102
}
330
10002FF
100
AcDbXrecord
280
     1
102
RTVSPropertyOp0
 70
     1
102
RTVSPropertyOp1
 70
     1
102
RTVSPropertyOp2
 70
     1
102
RTVSPropertyOp3
 70
     1
102
RTVSPropertyOp4
 70
     1
102
RTVSPropertyOp5
 70
     1
102
RTVSPropertyOp6
 70
     1
102
RTVSPropertyOp7
 70
     1
102
RTVSPropertyOp8
 70
     1
102
RTVSPropertyOp9
 70
     1
102
RTVSPropertyOp10
 70
     1
102
RTVSPropertyOp11
 70
     1
102
RTVSPropertyOp12
 70
     1
102
RTVSPropertyOp13
 70
     1
102
RTVSPropertyOp14
 70
     1
102
RTVSPropertyOp15
 70
     1
102
RTVSPropertyOp16
 70
     1
102
RTVSPropertyOp17
 70
     1
102
RTVSPropertyOp18
 70
     1
102
RTVSPropertyOp19
 70
     1
102
RTVSPropertyOp20
 70
     1
102
RTVSPropertyOp21
 70
     1
102
RTVSPropertyOp22
 70
     1
102
RTVSPropertyOp23
 70
     1
102
RTVSPropertyOp24
 70
     1
102
RTVSPropertyOp25
 70
     1
102
RTVSPropertyOp26
 70
     1
102
RTVSPropertyOp27
 70
     1
102
RTVSPropertyOp28
 70
     1
102
RTVSPropertyOp29
 70
     1
102
RTVSPropertyOp30
 70
     1
102
RTVSPropertyOp31
 70
     1
102
RTVSPropertyOp32
 70
     1
102
RTVSPropertyOp33
 70
     1
102
RTVSPropertyOp34
 70
     1
102
RTVSPropertyOp35
 70
     1
102
RTVSPropertyOp36
 70
     1
102
RTVSPropertyOp37
 70
     1
102
RTVSPropertyOp38
 70
     1
102
RTVSPropertyOp39
 70
     1
102
RTVSPropertyOp40
 70
     1
102
RTVSPropertyOp41
 70
     1
102
RTVSPropertyOp42
 70
     1
102
RTVSPropertyOp43
 70
     1
102
RTVSPropertyOp44
 70
     1
102
RTVSPropertyOp45
 70
     1
102
RTVSPropertyOp46
 70
     1
102
RTVSPropertyOp47
 70
     1
102
RTVSPropertyOp48
 70
     1
102
RTVSPropertyOp49
 70
     1
102
RTVSPropertyOp50
 70
     1
102
RTVSPropertyOp51
 70
     0
102
RTVSPropertyOp52
 70
     0
102
RTVSPropertyOp53
 70
     1
102
RTVSPropertyOp54
 70
     1
102
RTVSPropertyOp55
 70
     1
102
RTVSPropertyOp56
 70
     1
102
RTVSPropertyOp57
 70
     1
102
RTVSPost2010Prop28
280
     0
102
RTVSPost2010PropOp28
 70
     1
102
RTVSPost2010Prop29
280
     1
102
RTVSPost2010PropOp29
 70
     1
102
RTVSPost2010Prop30
280
     1
102
RTVSPost2010PropOp30
 70
     1
102
RTVSPost2010Prop31
280
     0
102
RTVSPost2010PropOp31
 70
     1
102
RTVSPost2010Prop32
280
     0
102
RTVSPost2010PropOp32
 70
     1
102
RTVSPost2010Prop33
280
     0
102
RTVSPost2010PropOp33
 70
     1
102
RTVSPost2010Prop34
280
     0
102
RTVSPost2010PropOp34
 70
     1
102
RTVSPost2010Prop35
280
     0
102
RTVSPost2010PropOp35
 70
     1
102
RTVSPost2010Prop36
280
     0
102
RTVSPost2010PropOp36
 70
     1
102
RTVSPost2010Prop37
 90
       50
102
RTVSPost2010PropOp37
 70
     1
102
RTVSPost2010Prop38
140
0.0
102
RTVSPost2010PropOp38
 70
     1
102
RTVSPost2010Prop39
140
1.0
102
RTVSPost2010PropOp39
 70
     1
102
RTVSPost2010Prop40
 90
        0
102
RTVSPost2010PropOp40
 70
     1
102
RTVSPost2010Prop41ColorIndex
 90
       18
102
RTVSPost2010Prop41ColorRGB
 90
        0
102
RTVSPost2010PropOp41
 70
     1
102
RTVSPost2010Prop42
 90
       50
102
RTVSPost2010PropOp42
 70
     1
102
RTVSPost2010Prop43
 90
        3
102
RTVSPost2010PropOp43
 70
     1
102
RTVSPost2010Prop44ColorIndex
 90
        5
102
RTVSPost2010Prop44ColorRGB
 90
      255
102
RTVSPost2010PropOp44
 70
     1
102
RTVSPost2010Prop45
280
     0
102
RTVSPost2010PropOp45
 70
     1
102
RTVSPost2010Prop46
 90
       50
102
RTVSPost2010PropOp46
 70
     1
102
RTVSPost2010Prop47
 90
       50
102
RTVSPost2010PropOp47
 70
     1
102
RTVSPost2010Prop48
 90
       50
102
RTVSPost2010PropOp48
 70
     1
102
RTVSPost2010Prop49
280
     0
102
RTVSPost2010PropOp49
 70
     1
102
RTVSPost2010Prop50
 90
       50
102
RTVSPost2010PropOp50
 70
     1
102
RTVSPost2010Prop51ColorIndex
 90
      256
102
RTVSPost2010Prop51ColorRGB
 90
-16777216
102
RTVSPost2010PropOp51
 70
     0
102
RTVSPost2010Prop52
140
1.0
102
RTVSPost2010PropOp52
 70
     0
102
RTVSPost2010Prop53
 90
        2
102
RTVSPost2010PropOp53
 70
     1
102
RTVSPost2010Prop54
  1
strokes_ogs.tif
102
RTVSPost2010PropOp54
 70
     1
102
RTVSPost2010Prop55
280
     0
102
RTVSPost2010PropOp55
 70
     1
102
RTVSPost2010Prop56
140
1.0
102
RTVSPost2010PropOp56
 70
     1
102
RTVSPost2010Prop57
140
1.0
102
RTVSPost2010PropOp57
 70
     1
  0
XRECORD
  5
1000302
102
{ACAD_REACTORS
330
1000301
102
}
330
1000301
100
AcDbXrecord
280
     1
102
RTVSPropertyOp0
 70
     1
102
RTVSPropertyOp1
 70
     1
102
RTVSPropertyOp2
 70
     1
102
RTVSPropertyOp3
 70
     1
102
RTVSPropertyOp4
 70
     1
102
RTVSPropertyOp5
 70
     1
102
RTVSPropertyOp6
 70
     1
102
RTVSPropertyOp7
 70
     1
102
RTVSPropertyOp8
 70
     1
102
RTVSPropertyOp9
 70
     1
102
RTVSPropertyOp10
 70
     1
102
RTVSPropertyOp11
 70
     1
102
RTVSPropertyOp12
 70
     1
102
RTVSPropertyOp13
 70
     1
102
RTVSPropertyOp14
 70
     1
102
RTVSPropertyOp15
 70
     1
102
RTVSPropertyOp16
 70
     1
102
RTVSPropertyOp17
 70
     1
102
RTVSPropertyOp18
 70
     1
102
RTVSPropertyOp19
 70
     1
102
RTVSPropertyOp20
 70
     1
102
RTVSPropertyOp21
 70
     1
102
RTVSPropertyOp22
 70
     1
102
RTVSPropertyOp23
 70
     1
102
RTVSPropertyOp24
 70
     1
102
RTVSPropertyOp25
 70
     1
102
RTVSPropertyOp26
 70
     1
102
RTVSPropertyOp27
 70
     1
102
RTVSPropertyOp28
 70
     1
102
RTVSPropertyOp29
 70
     1
102
RTVSPropertyOp30
 70
     1
102
RTVSPropertyOp31
 70
     1
102
RTVSPropertyOp32
 70
     1
102
RTVSPropertyOp33
 70
     1
102
RTVSPropertyOp34
 70
     1
102
RTVSPropertyOp35
 70
     1
102
RTVSPropertyOp36
 70
     1
102
RTVSPropertyOp37
 70
     1
102
RTVSPropertyOp38
 70
     1
102
RTVSPropertyOp39
 70
     1
102
RTVSPropertyOp40
 70
     1
102
RTVSPropertyOp41
 70
     1
102
RTVSPropertyOp42
 70
     1
102
RTVSPropertyOp43
 70
     1
102
RTVSPropertyOp44
 70
     1
102
RTVSPropertyOp45
 70
     1
102
RTVSPropertyOp46
 70
     1
102
RTVSPropertyOp47
 70
     1
102
RTVSPropertyOp48
 70
     1
102
RTVSPropertyOp49
 70
     1
102
RTVSPropertyOp50
 70
     1
102
RTVSPropertyOp51
 70
     0
102
RTVSPropertyOp52
 70
     0
102
RTVSPropertyOp53
 70
     1
102
RTVSPropertyOp54
 70
     1
102
RTVSPropertyOp55
 70
     1
102
RTVSPropertyOp56
 70
     1
102
RTVSPropertyOp57
 70
     1
102
RTVSPost2010Prop28
280
     0
102
RTVSPost2010PropOp28
 70
     1
102
RTVSPost2010Prop29
280
     1
102
RTVSPost2010PropOp29
 70
     1
102
RTVSPost2010Prop30
280
     1
102
RTVSPost2010PropOp30
 70
     1
102
RTVSPost2010Prop31
280
     0
102
RTVSPost2010PropOp31
 70
     1
102
RTVSPost2010Prop32
280
     0
102
RTVSPost2010PropOp32
 70
     1
102
RTVSPost2010Prop33
280
     0
102
RTVSPost2010PropOp33
 70
     1
102
RTVSPost2010Prop34
280
     0
102
RTVSPost2010PropOp34
 70
     1
102
RTVSPost2010Prop35
280
     0
102
RTVSPost2010PropOp35
 70
     1
102
RTVSPost2010Prop36
280
     0
102
RTVSPost2010PropOp36
 70
     1
102
RTVSPost2010Prop37
 90
       50
102
RTVSPost2010PropOp37
 70
     1
102
RTVSPost2010Prop38
140
0.0
102
RTVSPost2010PropOp38
 70
     1
102
RTVSPost2010Prop39
140
1.0
102
RTVSPost2010PropOp39
 70
     1
102
RTVSPost2010Prop40
 90
        0
102
RTVSPost2010PropOp40
 70
     1
102
RTVSPost2010Prop41ColorIndex
 90
       18
102
RTVSPost2010Prop41ColorRGB
 90
        0
102
RTVSPost2010PropOp41
 70
     1
102
RTVSPost2010Prop42
 90
       50
102
RTVSPost2010PropOp42
 70
     1
102
RTVSPost2010Prop43
 90
        3
102
RTVSPost2010PropOp43
 70
     1
102
RTVSPost2010Prop44ColorIndex
 90
        5
102
RTVSPost2010Prop44ColorRGB
 90
      255
102
RTVSPost2010PropOp44
 70
     1
102
RTVSPost2010Prop45
280
     0
102
RTVSPost2010PropOp45
 70
     1
102
RTVSPost2010Prop46
 90
       50
102
RTVSPost2010PropOp46
 70
     1
102
RTVSPost2010Prop47
 90
       50
102
RTVSPost2010PropOp47
 70
     1
102
RTVSPost2010Prop48
 90
       50
102
RTVSPost2010PropOp48
 70
     1
102
RTVSPost2010Prop49
280
     0
102
RTVSPost2010PropOp49
 70
     1
102
RTVSPost2010Prop50
 90
       50
102
RTVSPost2010PropOp50
 70
     1
102
RTVSPost2010Prop51ColorIndex
 90
      256
102
RTVSPost2010Prop51ColorRGB
 90
-16777216
102
RTVSPost2010PropOp51
 70
     0
102
RTVSPost2010Prop52
140
1.0
102
RTVSPost2010PropOp52
 70
     0
102
RTVSPost2010Prop53
 90
        2
102
RTVSPost2010PropOp53
 70
     1
102
RTVSPost2010Prop54
  1
strokes_ogs.tif
102
RTVSPost2010PropOp54
 70
     1
102
RTVSPost2010Prop55
280
     0
102
RTVSPost2010PropOp55
 70
     1
102
RTVSPost2010Prop56
140
1.0
102
RTVSPost2010PropOp56
 70
     1
102
RTVSPost2010Prop57
140
1.0
102
RTVSPost2010PropOp57
 70
     1
  0
ENDSEC
  0
EOF
