  0
SECTION
  2
HEADER
  9
$ACADVER
  1
AC1027
  9
$ACADMAINTVER
 70
     8
  9
$DWGCODEPAGE
  3
ANSI_1250
  9
$REQUIREDVERSIONS
160
                 0
  9
$INSBASE
 10
0.0
 20
0.0
 30
0.0
  9
$EXTMIN
 10
7583928.130260993
 20
5724617.934493002
 30
0.0
  9
$EXTMAX
 10
7584985.250001798
 20
5725903.959999779
 30
0.0
  9
$LIMMIN
 10
7583897.219999998
 20
5724617.929999999
  9
$LIMMAX
 10
7584985.25
 20
5725903.960000001
  9
$ORTHOMODE
 70
     0
  9
$REGENMODE
 70
     1
  9
$FILLMODE
 70
     1
  9
$QTEXTMODE
 70
     0
  9
$MIRRTEXT
 70
     0
  9
$LTSCALE
 40
1.0
  9
$ATTMODE
 70
     1
  9
$TEXTSIZE
 40
0.2
  9
$TRACEWID
 40
0.05
  9
$TEXTSTYLE
  7
STANDARD
  9
$CLAYER
  8
0
  9
$CELTYPE
  6
CONTINUOUS
  9
$CECOLOR
 62
   256
  9
$CELTSCALE
 40
1.0
  9
$DISPSILH
 70
     0
  9
$DIMSCALE
 40
1.0
  9
$DIMASZ
 40
2.5
  9
$DIMEXO
 40
0.625
  9
$DIMDLI
 40
0.38
  9
$DIMRND
 40
0.0
  9
$DIMDLE
 40
0.0
  9
$DIMEXE
 40
1.25
  9
$DIMTP
 40
0.0
  9
$DIMTM
 40
0.0
  9
$DIMTXT
 40
2.5
  9
$DIMCEN
 40
0.09
  9
$DIMTSZ
 40
0.0
  9
$DIMTOL
 70
     0
  9
$DIMLIM
 70
     0
  9
$DIMTIH
 70
     1
  9
$DIMTOH
 70
     1
  9
$DIMSE1
 70
     0
  9
$DIMSE2
 70
     0
  9
$DIMTAD
 70
     0
  9
$DIMZIN
 70
     0
  9
$DIMBLK
  1

  9
$DIMASO
 70
     1
  9
$DIMSHO
 70
     1
  9
$DIMPOST
  1

  9
$DIMAPOST
  1

  9
$DIMALT
 70
     0
  9
$DIMALTD
 70
     2
  9
$DIMALTF
 40
25.4
  9
$DIMLFAC
 40
1.0
  9
$DIMTOFL
 70
     0
  9
$DIMTVP
 40
0.0
  9
$DIMTIX
 70
     0
  9
$DIMSOXD
 70
     0
  9
$DIMSAH
 70
     0
  9
$DIMBLK1
  1

  9
$DIMBLK2
  1

  9
$DIMSTYLE
  2
Standard
  9
$DIMCLRD
 70
     0
  9
$DIMCLRE
 70
     0
  9
$DIMCLRT
 70
     0
  9
$DIMTFAC
 40
1.0
  9
$DIMGAP
 40
0.625
  9
$DIMJUST
 70
     0
  9
$DIMSD1
 70
     0
  9
$DIMSD2
 70
     0
  9
$DIMTOLJ
 70
     1
  9
$DIMTZIN
 70
     0
  9
$DIMALTZ
 70
     0
  9
$DIMALTTZ
 70
     0
  9
$DIMUPT
 70
     0
  9
$DIMDEC
 70
     4
  9
$DIMTDEC
 70
     4
  9
$DIMALTU
 70
     2
  9
$DIMALTTD
 70
     2
  9
$DIMTXSTY
  7
STANDARD
  9
$DIMAUNIT
 70
     0
  9
$DIMADEC
 70
     0
  9
$DIMALTRND
 40
0.0
  9
$DIMAZIN
 70
     0
  9
$DIMDSEP
 70
    46
  9
$DIMATFIT
 70
     3
  9
$DIMFRAC
 70
     0
  9
$DIMLDRBLK
  1

  9
$DIMLUNIT
 70
     2
  9
$DIMLWD
 70
    -2
  9
$DIMLWE
 70
    -2
  9
$DIMTMOVE
 70
     0
  9
$DIMFXL
 40
1.0
  9
$DIMFXLON
 70
     0
  9
$DIMJOGANG
 40
0.7853981633974483
  9
$DIMTFILL
 70
     0
  9
$DIMTFILLCLR
 70
     0
  9
$DIMARCSYM
 70
     0
  9
$DIMLTYPE
  6

  9
$DIMLTEX1
  6

  9
$DIMLTEX2
  6

  9
$DIMTXTDIRECTION
 70
     0
  9
$LUNITS
 70
     2
  9
$LUPREC
 70
     4
  9
$SKETCHINC
 40
0.1
  9
$FILLETRAD
 40
0.0
  9
$AUNITS
 70
     0
  9
$AUPREC
 70
     0
  9
$MENU
  1

  9
$ELEVATION
 40
0.0
  9
$PELEVATION
 40
0.0
  9
$THICKNESS
 40
0.0
  9
$LIMCHECK
 70
     0
  9
$CHAMFERA
 40
0.0
  9
$CHAMFERB
 40
0.0
  9
$CHAMFERC
 40
0.0
  9
$CHAMFERD
 40
0.0
  9
$SKPOLY
 70
     0
  9
$TDCREATE
 40
2305814.456205498
  9
$TDUCREATE
 40
45373.414538831
  9
$TDUPDATE
 40
2460392.456677419
  9
$TDUUPDATE
 40
2460392.415010752
  9
$TDINDWG
 40
0.000368750
  9
$TDUSRTIMER
 40
0.000368623
  9
$USRTIMER
 70
     1
  9
$ANGBASE
 50
0.0
  9
$ANGDIR
 70
     0
  9
$PDMODE
 70
     0
  9
$PDSIZE
 40
0.0
  9
$PLINEWID
 40
0.0
  9
$SPLFRAME
 70
     0
  9
$SPLINETYPE
 70
     6
  9
$SPLINESEGS
 70
     8
  9
$HANDSEED
  5
1000261
  9
$SURFTAB1
 70
     6
  9
$SURFTAB2
 70
     6
  9
$SURFTYPE
 70
     6
  9
$SURFU
 70
     6
  9
$SURFV
 70
     6
  9
$UCSBASE
  2

  9
$UCSNAME
  2

  9
$UCSORG
 10
0.0
 20
0.0
 30
0.0
  9
$UCSXDIR
 10
1.0
 20
0.0
 30
0.0
  9
$UCSYDIR
 10
0.0
 20
1.0
 30
0.0
  9
$UCSORTHOREF
  2

  9
$UCSORTHOVIEW
 70
     0
  9
$UCSORGTOP
 10
0.0
 20
0.0
 30
0.0
  9
$UCSORGBOTTOM
 10
0.0
 20
0.0
 30
0.0
  9
$UCSORGLEFT
 10
0.0
 20
0.0
 30
0.0
  9
$UCSORGRIGHT
 10
0.0
 20
0.0
 30
0.0
  9
$UCSORGFRONT
 10
0.0
 20
0.0
 30
0.0
  9
$UCSORGBACK
 10
0.0
 20
0.0
 30
0.0
  9
$PUCSBASE
  2

  9
$PUCSNAME
  2

  9
$PUCSORG
 10
0.0
 20
0.0
 30
0.0
  9
$PUCSXDIR
 10
1.0
 20
0.0
 30
0.0
  9
$PUCSYDIR
 10
0.0
 20
1.0
 30
0.0
  9
$PUCSORTHOREF
  2

  9
$PUCSORTHOVIEW
 70
     0
  9
$PUCSORGTOP
 10
0.0
 20
0.0
 30
0.0
  9
$PUCSORGBOTTOM
 10
0.0
 20
0.0
 30
0.0
  9
$PUCSORGLEFT
 10
0.0
 20
0.0
 30
0.0
  9
$PUCSORGRIGHT
 10
0.0
 20
0.0
 30
0.0
  9
$PUCSORGFRONT
 10
0.0
 20
0.0
 30
0.0
  9
$PUCSORGBACK
 10
0.0
 20
0.0
 30
0.0
  9
$USERI1
 70
     0
  9
$USERI2
 70
     0
  9
$USERI3
 70
     0
  9
$USERI4
 70
     0
  9
$USERI5
 70
     0
  9
$USERR1
 40
0.0
  9
$USERR2
 40
0.0
  9
$USERR3
 40
0.0
  9
$USERR4
 40
0.0
  9
$USERR5
 40
0.0
  9
$WORLDVIEW
 70
     1
  9
$SHADEDGE
 70
     3
  9
$SHADEDIF
 70
    70
  9
$TILEMODE
 70
     1
  9
$MAXACTVP
 70
    64
  9
$PINSBASE
 10
0.0
 20
0.0
 30
0.0
  9
$PLIMCHECK
 70
     0
  9
$PEXTMIN
 10
1.000000000000000E+20
 20
1.000000000000000E+20
 30
1.000000000000000E+20
  9
$PEXTMAX
 10
-1.000000000000000E+20
 20
-1.000000000000000E+20
 30
-1.000000000000000E+20
  9
$PLIMMIN
 10
0.0
 20
0.0
  9
$PLIMMAX
 10
210.0
 20
297.0
  9
$UNITMODE
 70
     0
  9
$VISRETAIN
 70
     1
  9
$PLINEGEN
 70
     0
  9
$PSLTSCALE
 70
     1
  9
$TREEDEPTH
 70
  3020
  9
$CMLSTYLE
  2
Standard
  9
$CMLJUST
 70
     0
  9
$CMLSCALE
 40
1.0
  9
$PROXYGRAPHICS
 70
     1
  9
$MEASUREMENT
 70
     1
  9
$CELWEIGHT
370
    -1
  9
$ENDCAPS
280
     0
  9
$JOINSTYLE
280
     0
  9
$LWDISPLAY
290
     1
  9
$INSUNITS
 70
     6
  9
$HYPERLINKBASE
  1

  9
$STYLESHEET
  1

  9
$XEDIT
290
     0
  9
$CEPSNTYPE
380
     0
  9
$PSTYLEMODE
290
     1
  9
$FINGERPRINTGUID
  2
{CAB2BAEB-921E-4CF1-8DCE-D81F53C2C1EB}
  9
$VERSIONGUID
  2
{43EF1F5B-2D73-4D6A-8436-874AEB7D83C0}
  9
$EXTNAMES
290
     1
  9
$PSVPSCALE
 40
0.0
  9
$OLESTARTUP
290
     0
  9
$SORTENTS
280
   127
  9
$INDEXCTL
280
     0
  9
$HIDETEXT
280
     1
  9
$XCLIPFRAME
280
     2
  9
$HALOGAP
280
     0
  9
$OBSCOLOR
 70
   257
  9
$OBSLTYPE
280
     0
  9
$INTERSECTIONDISPLAY
280
     0
  9
$INTERSECTIONCOLOR
 70
   257
  9
$DIMASSOC
280
     2
  9
$PROJECTNAME
  1

  9
$CAMERADISPLAY
290
     0
  9
$LENSLENGTH
 40
50.0
  9
$CAMERAHEIGHT
 40
0.0
  9
$STEPSPERSEC
 40
2.0
  9
$STEPSIZE
 40
6.0
  9
$3DDWFPREC
 40
2.0
  9
$PSOLWIDTH
 40
0.25
  9
$PSOLHEIGHT
 40
4.0
  9
$LOFTANG1
 40
1.570796326794896
  9
$LOFTANG2
 40
1.570796326794896
  9
$LOFTMAG1
 40
0.0
  9
$LOFTMAG2
 40
0.0
  9
$LOFTPARAM
 70
     7
  9
$LOFTNORMALS
280
     1
  9
$LATITUDE
 40
0.0
  9
$LONGITUDE
 40
0.0
  9
$NORTHDIRECTION
 40
0.0
  9
$TIMEZONE
 70
 -8000
  9
$LIGHTGLYPHDISPLAY
280
     1
  9
$TILEMODELIGHTSYNCH
280
     1
  9
$CMATERIAL
347
1000000
  9
$SOLIDHIST
280
     1
  9
$SHOWHIST
280
     1
  9
$DWFFRAME
280
     2
  9
$DGNFRAME
280
     0
  9
$REALWORLDSCALE
290
     1
  9
$INTERFERECOLOR
 62
     1
  9
$CSHADOW
280
     0
  9
$SHADOWPLANELOCATION
 40
0.0
  0
ENDSEC
  0
SECTION
  2
CLASSES
  0
CLASS
  1
WIPEOUT
  2
AcDbWipeout
  3
WipeOut
 90
      127
 91
        0
280
     0
281
     1
  0
CLASS
  1
WIPEOUTVARIABLES
  2
AcDbWipeoutVariables
  3
WipeOut
 90
        0
 91
        0
280
     0
281
     0
  0
CLASS
  1
ACDBDICTIONARYWDFLT
  2
AcDbDictionaryWithDefault
  3
ObjectDBX Classes
 90
    32768
 91
        1
280
     0
281
     0
  0
CLASS
  1
MATERIAL
  2
AcDbMaterial
  3
ObjectDBX Classes
 90
        0
 91
        3
280
     0
281
     0
  0
CLASS
  1
VISUALSTYLE
  2
AcDbVisualStyle
  3
ObjectDBX Classes
 90
     4095
 91
       24
280
     0
281
     0
  0
CLASS
  1
TABLESTYLE
  2
AcDbTableStyle
  3
ObjectDBX Classes
 90
     2047
 91
        1
280
     0
281
     0
  0
CLASS
  1
MLEADERSTYLE
  2
AcDbMLeaderStyle
  3
ACDB_MLEADERSTYLE_CLASS
 90
     4095
 91
        1
280
     0
281
     0
  0
CLASS
  1
SCALE
  2
AcDbScale
  3
ObjectDBX Classes
 90
     1153
 91
       17
280
     0
281
     0
  0
CLASS
  1
SORTENTSTABLE
  2
AcDbSortentsTable
  3
ObjectDBX Classes
 90
        0
 91
        1
280
     0
281
     0
  0
CLASS
  1
DICTIONARYVAR
  2
AcDbDictionaryVar
  3
ObjectDBX Classes
 90
        0
 91
        4
280
     0
281
     0
  0
ENDSEC
  0
SECTION
  2
TABLES
  0
TABLE
  2
VPORT
  5
1
330
0
100
AcDbSymbolTable
 70
     1
  0
VPORT
  5
2
330
1
100
AcDbSymbolTableRecord
100
AcDbViewportTableRecord
  2
*ACTIVE
 70
     0
 10
0.0
 20
0.0
 11
1.0
 21
1.0
 12
7584074.135981098
 22
5724831.546606176
 13
0.0
 23
0.0
 14
1.0
 24
1.0
 15
0.0
 25
0.0
 16
0.0
 26
0.0
 36
1.0
 17
0.0
 27
0.0
 37
0.0
 40
266.4348226747736
 41
1.496522948539638
 42
50.0
 43
0.0
 44
0.0
 50
0.0
 51
0.0
 71
     0
 72
   100
 73
     1
 74
     1
 75
     0
 76
     0
 77
     0
 78
     0
281
     0
 65
     1
110
0.0
120
0.0
130
0.0
111
1.0
121
0.0
131
0.0
112
0.0
122
1.0
132
0.0
 79
     0
146
0.0
348
1000008
 60
     3
 61
     5
292
     1
282
     1
141
0.0
142
0.0
 63
   256
  0
ENDTAB
  0
TABLE
  2
LTYPE
  5
3
330
0
100
AcDbSymbolTable
 70
     5
  0
LTYPE
  5
4
330
3
100
AcDbSymbolTableRecord
100
AcDbLinetypeTableRecord
  2
ByBlock
 70
     0
  3

 72
    65
 73
     0
 40
0.0
  0
LTYPE
  5
5
330
3
100
AcDbSymbolTableRecord
100
AcDbLinetypeTableRecord
  2
ByLayer
 70
     0
  3

 72
    65
 73
     0
 40
0.0
  0
LTYPE
  5
6
330
3
100
AcDbSymbolTableRecord
100
AcDbLinetypeTableRecord
  2
CONTINUOUS
 70
     0
  3
Solid line
 72
    65
 73
     0
 40
0.0
  0
LTYPE
  5
8
330
3
100
AcDbSymbolTableRecord
100
AcDbLinetypeTableRecord
  2
L_0_02
 70
     0
  3
Dzialka_ewidencyjna (MLineStyle)
 72
    65
 73
     0
 40
0.0
  0
LTYPE
  5
9
330
3
100
AcDbSymbolTableRecord
100
AcDbLinetypeTableRecord
  2
L_0_03
 70
     0
  3
Uzytek_gruntowy
 72
    65
 73
     2
 40
4.0
 49
2.0
 74
     0
 49
-2.0
 74
     0
  0
LTYPE
  5
A
330
3
100
AcDbSymbolTableRecord
100
AcDbLinetypeTableRecord
  2
L_0_06
 70
     0
  3
Granica_konturu_klasyfikacyjnego_Krawedz_chodnika
 72
    65
 73
     2
 40
8.0
 49
6.0
 74
     0
 49
-2.0
 74
     0
  0
LTYPE
  5
B
330
3
100
AcDbSymbolTableRecord
100
AcDbLinetypeTableRecord
  2
L_0_4A
 70
     0
  3
L_0_4A
 72
    65
 73
     4
 40
8.599999999999999
 49
5.799999999999999
 74
     0
 49
-1.399999999999999
 74
     0
 49
0.0
 74
     0
 49
-1.399999999999999
 74
     0
  0
ENDTAB
  0
TABLE
  2
LAYER
  5
C
330
0
100
AcDbSymbolTable
 70
     5
  0
LAYER
  5
D
330
C
100
AcDbSymbolTableRecord
100
AcDbLayerTableRecord
  2
0
 70
     0
 62
     7
  6
CONTINUOUS
370
    18
390
E
347
1000002
348
0
  0
LAYER
  5
F
330
C
100
AcDbSymbolTableRecord
100
AcDbLayerTableRecord
  2
Dzialki
 70
     0
 62
     7
  6
CONTINUOUS
370
    18
390
E
347
1000002
348
0
  0
LAYER
  5
10
330
C
100
AcDbSymbolTableRecord
100
AcDbLayerTableRecord
  2
granica_powiatow
 70
     0
 62
     7
  6
L_0_4A
370
    35
390
E
347
1000002
348
0
  0
LAYER
  5
11
330
C
100
AcDbSymbolTableRecord
100
AcDbLayerTableRecord
  2
pkt_robocze
 70
     0
 62
     7
  6
CONTINUOUS
370
    18
390
E
347
1000002
348
0
  0
LAYER
  5
12
330
C
100
AcDbSymbolTableRecord
100
AcDbLayerTableRecord
  2
szrafura
 70
     0
 62
    53
  6
CONTINUOUS
370
    18
390
E
347
1000002
348
0
  0
ENDTAB
  0
TABLE
  2
STYLE
  5
13
330
0
100
AcDbSymbolTable
 70
     2
  0
STYLE
  5
14
330
13
100
AcDbSymbolTableRecord
100
AcDbTextStyleTableRecord
  2
STANDARD
 70
     0
 40
0.0
 41
1.0
 50
0.0
 71
     0
 42
0.2
  3
simplex.shx
  4

  0
STYLE
  5
15
330
13
100
AcDbSymbolTableRecord
100
AcDbTextStyleTableRecord
  2
STANDARD_ITALIC
 70
     0
 40
0.0
 41
1.0
 50
15.0
 71
     0
 42
0.2
  3
simplex.shx
  4

  0
ENDTAB
  0
TABLE
  2
VIEW
  5
16
330
0
100
AcDbSymbolTable
 70
     0
  0
ENDTAB
  0
TABLE
  2
UCS
  5
17
330
0
100
AcDbSymbolTable
 70
     0
  0
ENDTAB
  0
TABLE
  2
APPID
  5
18
330
0
100
AcDbSymbolTable
 70
     1
  0
APPID
  5
19
330
18
100
AcDbSymbolTableRecord
100
AcDbRegAppTableRecord
  2
ACAD
 70
     0
  0
ENDTAB
  0
TABLE
  2
DIMSTYLE
  5
1A
330
0
100
AcDbSymbolTable
 70
     1
100
AcDbDimStyleTable
 71
     0
  0
DIMSTYLE
105
1B
330
1A
100
AcDbSymbolTableRecord
100
AcDbDimStyleTableRecord
  2
Standard
 70
     0
340
14
  0
ENDTAB
  0
TABLE
  2
BLOCK_RECORD
  5
1C
330
0
100
AcDbSymbolTable
 70
     2
  0
BLOCK_RECORD
  5
1D
102
{ACAD_XDICTIONARY
360
1000034
102
}
330
1C
100
AcDbSymbolTableRecord
100
AcDbBlockTableRecord
  2
*MODEL_SPACE
340
1E
 70
     0
280
     1
281
     0
  0
BLOCK_RECORD
  5
1F
330
1C
100
AcDbSymbolTableRecord
100
AcDbBlockTableRecord
  2
*PAPER_SPACE
340
20
 70
     0
280
     1
281
     0
  0
BLOCK_RECORD
  5
21
330
1C
100
AcDbSymbolTableRecord
100
AcDbBlockTableRecord
  2
L_0_02_1
340
0
 70
     0
280
     1
281
     0
  0
BLOCK_RECORD
  5
23
330
1C
100
AcDbSymbolTableRecord
100
AcDbBlockTableRecord
  2
L_0_02_2
340
0
 70
     0
280
     1
281
     0
  0
ENDTAB
  0
ENDSEC
  0
SECTION
  2
BLOCKS
  0
BLOCK
  5
25
330
1D
100
AcDbEntity
  8
0
100
AcDbBlockBegin
  2
*MODEL_SPACE
 70
     0
 10
0.0
 20
0.0
 30
0.0
  3
*MODEL_SPACE
  1

  0
ENDBLK
  5
26
330
1D
100
AcDbEntity
  8
0
100
AcDbBlockEnd
  0
BLOCK
  5
27
330
1F
100
AcDbEntity
 67
     1
  8
0
100
AcDbBlockBegin
  2
*PAPER_SPACE
 70
     0
 10
0.0
 20
0.0
 30
0.0
  3
*PAPER_SPACE
  1

  0
ENDBLK
  5
28
330
1F
100
AcDbEntity
 67
     1
  8
0
100
AcDbBlockEnd
  0
BLOCK
  5
22
330
21
100
AcDbEntity
  8
0
 62
     0
370
    13
100
AcDbBlockBegin
  2
L_0_02_1
 70
     0
 10
0.0
 20
0.0
 30
0.0
  3
L_0_02_1
  1

  0
POINT
  5
29
330
21
100
AcDbEntity
  8
0
 62
     0
100
AcDbPoint
 10
0.0
 20
0.0
 30
0.0
  0
ENDBLK
  5
2A
330
21
100
AcDbEntity
  8
0
100
AcDbBlockEnd
  0
BLOCK
  5
24
330
23
100
AcDbEntity
  8
0
 62
     0
370
    13
100
AcDbBlockBegin
  2
L_0_02_2
 70
     0
 10
0.0
 20
0.0
 30
0.0
  3
L_0_02_2
  1

  0
POINT
  5
2B
330
23
100
AcDbEntity
  8
0
 62
     0
100
AcDbPoint
 10
0.0
 20
0.0
 30
0.0
  0
ENDBLK
  5
2C
330
23
100
AcDbEntity
  8
0
100
AcDbBlockEnd
  0
ENDSEC
  0
SECTION
  2
ENTITIES
  0
HATCH
  5
23D
330
1D
100
AcDbEntity
  8
szrafura
  6
Continuous
370
    18
100
AcDbHatch
 10
0.0
 20
0.0
 30
0.0
210
0.0
220
0.0
230
1.0
  2
SOLID
 70
     1
 71
     1
 91
        1
 92
        3
 72
     0
 73
     1
 93
        5
 10
7584007.020001759
 20
5724846.589999779
 10
7584003.980001758
 20
5724807.829999778
 10
7584001.34000176
 20
5724808.979999779
 10
7583994.200001758
 20
5724812.089999776
 10
7584007.41000176
 20
5724857.81999978
 97
        0
 75
     0
 76
     1
 98
        1
 10
0.0
 20
0.0
  0
HATCH
  5
245
330
1D
100
AcDbEntity
  8
szrafura
  6
Continuous
370
    18
100
AcDbHatch
 10
0.0
 20
0.0
 30
0.0
210
0.0
220
0.0
230
1.0
  2
SOLID
 70
     1
 71
     1
 91
        1
 92
        3
 72
     0
 73
     1
 93
        5
 10
7584008.480001759
 20
5724889.729999781
 10
7583986.880001759
 20
5724815.279999778
 10
7583982.56000176
 20
5724817.169999782
 10
7583979.730001759
 20
5724818.399999777
 10
7584009.560001759
 20
5724921.789999779
 97
        0
 75
     0
 76
     1
 98
        1
 10
0.0
 20
0.0
  0
HATCH
  5
24D
330
1D
100
AcDbEntity
  8
szrafura
  6
Continuous
370
    18
100
AcDbHatch
 10
0.0
 20
0.0
 30
0.0
210
0.0
220
0.0
230
1.0
  2
SOLID
 70
     1
 71
     1
 91
        1
 92
        3
 72
     0
 73
     1
 93
        4
 10
7584122.240001764
 20
5725312.53999978
 10
7584129.790001764
 20
5725307.919999779
 10
7584110.550001764
 20
5725241.569999781
 10
7584089.020001762
 20
5725197.349999779
 97
        0
 75
     0
 76
     1
 98
        1
 10
0.0
 20
0.0
  0
HATCH
  5
254
330
1D
100
AcDbEntity
  8
szrafura
  6
Continuous
370
    18
100
AcDbHatch
 10
0.0
 20
0.0
 30
0.0
210
0.0
220
0.0
230
1.0
  2
SOLID
 70
     1
 71
     1
 91
        1
 92
        3
 72
     0
 73
     1
 93
        5
 10
7584014.05000176
 20
5724936.329999777
 10
7584014.390001759
 20
5724938.539999778
 10
7584082.950001763
 20
5725176.27999978
 10
7584103.630001764
 20
5725217.689999782
 10
7584013.01000176
 20
5724905.339999776
 97
        0
 75
     0
 76
     1
 98
        1
 10
0.0
 20
0.0
  0
HATCH
  5
25C
330
1D
100
AcDbEntity
  8
szrafura
  6
Continuous
370
    18
100
AcDbHatch
 10
0.0
 20
0.0
 30
0.0
210
0.0
220
0.0
230
1.0
  2
SOLID
 70
     1
 71
     1
 91
        1
 92
        3
 72
     0
 73
     1
 93
        6
 10
7584011.00000176
 20
5724846.269999776
 10
7584011.93000176
 20
5724873.47999978
 10
7584121.800001764
 20
5725254.10999978
 10
7584136.660001766
 20
5725283.859999781
 10
7584139.200001764
 20
5725286.459999778
 10
7584008.76000176
 20
5724820.149999778
 97
        0
 75
     0
 76
     1
 98
        1
 10
0.0
 20
0.0
  0
HATCH
  5
265
330
1D
100
AcDbEntity
  8
szrafura
  6
Continuous
370
    18
100
AcDbHatch
 10
0.0
 20
0.0
 30
0.0
210
0.0
220
0.0
230
1.0
  2
SOLID
 70
     1
 71
     1
 91
        1
 92
        3
 72
     0
 73
     1
 93
        4
 10
7584153.920001764
 20
5725339.049999781
 10
7584145.200001765
 20
5725307.889999777
 10
7584138.510001763
 20
5725311.96999978
 10
7584146.930001764
 20
5725341.149999782
 97
        0
 75
     0
 76
     1
 98
        1
 10
0.0
 20
0.0
  0
HATCH
  5
26C
330
1D
100
AcDbEntity
  8
szrafura
  6
Continuous
370
    18
100
AcDbHatch
 10
0.0
 20
0.0
 30
0.0
210
0.0
220
0.0
230
1.0
  2
SOLID
 70
     1
 71
     1
 91
        1
 92
        3
 72
     0
 73
     1
 93
        6
 10
7584136.210001765
 20
5725304.009999779
 10
7584142.960001765
 20
5725299.889999781
 10
7584144.450001764
 20
5725298.979999775
 10
7584142.000001764
 20
5725296.429999779
 10
7584132.460001764
 20
5725286.579999779
 10
7584129.320001764
 20
5725280.119999778
 97
        0
 75
     0
 76
     1
 98
        1
 10
0.0
 20
0.0
  0
HATCH
  5
275
330
1D
100
AcDbEntity
  8
szrafura
  6
Continuous
370
    18
100
AcDbHatch
 10
0.0
 20
0.0
 30
0.0
210
0.0
220
0.0
230
1.0
  2
SOLID
 70
     1
 71
     1
 91
        1
 92
        3
 72
     0
 73
     1
 93
        4
 10
7584140.040001765
 20
5725343.229999781
 10
7584132.110001763
 20
5725315.879999778
 10
7584124.540001766
 20
5725320.499999781
 10
7584131.810001763
 20
5725345.70999978
 97
        0
 75
     0
 76
     1
 98
        1
 10
0.0
 20
0.0
  0
LINE
  5
1000036
330
1D
100
AcDbEntity
  8
Dzialki
  6
Continuous
370
    18
100
AcDbLine
 10
7584007.41000176
 20
5724857.81999978
 30
0.0
 11
7583994.200001758
 21
5724812.089999776
 31
0.0
  0
LINE
  5
1000037
330
1D
100
AcDbEntity
  8
Dzialki
  6
Continuous
370
    18
100
AcDbLine
 10
7583994.200001758
 20
5724812.089999776
 30
0.0
 11
7583990.540001758
 21
5724813.679999776
 31
0.0
  0
LINE
  5
1000038
330
1D
100
AcDbEntity
  8
Dzialki
  6
Continuous
370
    18
100
AcDbLine
 10
7583990.540001758
 20
5724813.679999776
 30
0.0
 11
7584007.940001758
 21
5724873.789999777
 31
0.0
  0
LINE
  5
1000039
330
1D
100
AcDbEntity
  8
Dzialki
  6
Continuous
370
    18
100
AcDbLine
 10
7584007.940001758
 20
5724873.789999777
 30
0.0
 11
7584007.41000176
 21
5724857.81999978
 31
0.0
  0
LINE
  5
100003A
330
1D
100
AcDbEntity
  8
Dzialki
  6
Continuous
370
    18
100
AcDbLine
 10
7584007.940001758
 20
5724873.789999777
 30
0.0
 11
7583990.540001758
 21
5724813.679999776
 31
0.0
  0
LINE
  5
100003B
330
1D
100
AcDbEntity
  8
Dzialki
  6
Continuous
370
    18
100
AcDbLine
 10
7583990.540001758
 20
5724813.679999776
 30
0.0
 11
7583987.770001756
 21
5724814.889999776
 31
0.0
  0
LINE
  5
100003C
330
1D
100
AcDbEntity
  8
Dzialki
  6
Continuous
370
    18
100
AcDbLine
 10
7583987.770001756
 20
5724814.889999776
 30
0.0
 11
7583986.880001759
 21
5724815.279999778
 31
0.0
  0
LINE
  5
100003D
330
1D
100
AcDbEntity
  8
Dzialki
  6
Continuous
370
    18
100
AcDbLine
 10
7583986.880001759
 20
5724815.279999778
 30
0.0
 11
7584008.480001759
 21
5724889.729999781
 31
0.0
  0
LINE
  5
100003E
330
1D
100
AcDbEntity
  8
Dzialki
  6
Continuous
370
    18
100
AcDbLine
 10
7584008.480001759
 20
5724889.729999781
 30
0.0
 11
7584007.940001758
 21
5724873.789999777
 31
0.0
  0
LINE
  5
100003F
330
1D
100
AcDbEntity
  8
Dzialki
  6
Continuous
370
    18
100
AcDbLine
 10
7584153.920001764
 20
5725339.049999781
 30
0.0
 11
7584145.200001765
 21
5725307.889999777
 31
0.0
  0
LINE
  5
1000040
330
1D
100
AcDbEntity
  8
Dzialki
  6
Continuous
370
    18
100
AcDbLine
 10
7584145.200001765
 20
5725307.889999777
 30
0.0
 11
7584138.510001763
 21
5725311.96999978
 31
0.0
  0
LINE
  5
1000041
330
1D
100
AcDbEntity
  8
Dzialki
  6
Continuous
370
    18
100
AcDbLine
 10
7584138.510001763
 20
5725311.96999978
 30
0.0
 11
7584146.930001764
 21
5725341.149999782
 31
0.0
  0
LINE
  5
1000042
330
1D
100
AcDbEntity
  8
Dzialki
  6
Continuous
370
    18
100
AcDbLine
 10
7584146.930001764
 20
5725341.149999782
 30
0.0
 11
7584153.920001764
 21
5725339.049999781
 31
0.0
  0
LINE
  5
1000043
330
1D
100
AcDbEntity
  8
Dzialki
  6
Continuous
370
    18
100
AcDbLine
 10
7584136.210001765
 20
5725304.009999779
 30
0.0
 11
7584142.960001765
 21
5725299.889999781
 31
0.0
  0
LINE
  5
1000044
330
1D
100
AcDbEntity
  8
Dzialki
  6
Continuous
370
    18
100
AcDbLine
 10
7584142.960001765
 20
5725299.889999781
 30
0.0
 11
7584144.450001764
 21
5725298.979999775
 31
0.0
  0
LINE
  5
1000045
330
1D
100
AcDbEntity
  8
Dzialki
  6
Continuous
370
    18
100
AcDbLine
 10
7584144.450001764
 20
5725298.979999775
 30
0.0
 11
7584142.000001764
 21
5725296.429999779
 31
0.0
  0
LINE
  5
1000046
330
1D
100
AcDbEntity
  8
Dzialki
  6
Continuous
370
    18
100
AcDbLine
 10
7584142.000001764
 20
5725296.429999779
 30
0.0
 11
7584132.460001764
 21
5725286.579999779
 31
0.0
  0
LINE
  5
1000047
330
1D
100
AcDbEntity
  8
Dzialki
  6
Continuous
370
    18
100
AcDbLine
 10
7584132.460001764
 20
5725286.579999779
 30
0.0
 11
7584129.320001764
 21
5725280.119999778
 31
0.0
  0
LINE
  5
1000048
330
1D
100
AcDbEntity
  8
Dzialki
  6
Continuous
370
    18
100
AcDbLine
 10
7584129.320001764
 20
5725280.119999778
 30
0.0
 11
7584136.210001765
 21
5725304.009999779
 31
0.0
  0
LINE
  5
1000049
330
1D
100
AcDbEntity
  8
Dzialki
  6
Continuous
370
    18
100
AcDbLine
 10
7584139.200001764
 20
5725286.459999778
 30
0.0
 11
7584148.860001765
 21
5725296.309999779
 31
0.0
  0
LINE
  5
100004A
330
1D
100
AcDbEntity
  8
Dzialki
  6
Continuous
370
    18
100
AcDbLine
 10
7584148.860001765
 20
5725296.309999779
 30
0.0
 11
7584170.680001765
 21
5725283.229999779
 31
0.0
  0
LINE
  5
100004B
330
1D
100
AcDbEntity
  8
Dzialki
  6
Continuous
370
    18
100
AcDbLine
 10
7584170.680001765
 20
5725283.229999779
 30
0.0
 11
7584141.780001765
 21
5725182.27999978
 31
0.0
  0
LINE
  5
100004C
330
1D
100
AcDbEntity
  8
Dzialki
  6
Continuous
370
    18
100
AcDbLine
 10
7584141.780001765
 20
5725182.27999978
 30
0.0
 11
7584031.19000176
 21
5724795.959999775
 31
0.0
  0
LINE
  5
100004D
330
1D
100
AcDbEntity
  8
Dzialki
  6
Continuous
370
    18
100
AcDbLine
 10
7584031.19000176
 20
5724795.959999775
 30
0.0
 11
7584024.33000176
 21
5724798.949999776
 31
0.0
  0
LINE
  5
100004E
330
1D
100
AcDbEntity
  8
Dzialki
  6
Continuous
370
    18
100
AcDbLine
 10
7584024.33000176
 20
5724798.949999776
 30
0.0
 11
7584014.26000176
 21
5724803.349999777
 31
0.0
  0
LINE
  5
100004F
330
1D
100
AcDbEntity
  8
Dzialki
  6
Continuous
370
    18
100
AcDbLine
 10
7584014.26000176
 20
5724803.349999777
 30
0.0
 11
7584010.22000176
 21
5724805.099999776
 31
0.0
  0
LINE
  5
1000050
330
1D
100
AcDbEntity
  8
Dzialki
  6
Continuous
370
    18
100
AcDbLine
 10
7584010.22000176
 20
5724805.099999776
 30
0.0
 11
7584007.55000176
 21
5724806.269999779
 31
0.0
  0
LINE
  5
1000051
330
1D
100
AcDbEntity
  8
Dzialki
  6
Continuous
370
    18
100
AcDbLine
 10
7584007.55000176
 20
5724806.269999779
 30
0.0
 11
7584008.76000176
 21
5724820.149999778
 31
0.0
  0
LINE
  5
1000052
330
1D
100
AcDbEntity
  8
Dzialki
  6
Continuous
370
    18
100
AcDbLine
 10
7584008.76000176
 20
5724820.149999778
 30
0.0
 11
7584139.200001764
 21
5725286.459999778
 31
0.0
  0
LINE
  5
1000053
330
1D
100
AcDbEntity
  8
Dzialki
  6
Continuous
370
    18
100
AcDbLine
 10
7584012.460001759
 20
5724889.429999779
 30
0.0
 11
7584112.740001764
 21
5725235.94999978
 31
0.0
  0
LINE
  5
1000054
330
1D
100
AcDbEntity
  8
Dzialki
  6
Continuous
370
    18
100
AcDbLine
 10
7584112.740001764
 20
5725235.94999978
 30
0.0
 11
7584121.800001764
 21
5725254.10999978
 31
0.0
  0
LINE
  5
1000055
330
1D
100
AcDbEntity
  8
Dzialki
  6
Continuous
370
    18
100
AcDbLine
 10
7584121.800001764
 20
5725254.10999978
 30
0.0
 11
7584011.93000176
 21
5724873.47999978
 31
0.0
  0
LINE
  5
1000056
330
1D
100
AcDbEntity
  8
Dzialki
  6
Continuous
370
    18
100
AcDbLine
 10
7584011.93000176
 20
5724873.47999978
 30
0.0
 11
7584012.460001759
 21
5724889.429999779
 31
0.0
  0
LINE
  5
1000057
330
1D
100
AcDbEntity
  8
Dzialki
  6
Continuous
370
    18
100
AcDbLine
 10
7584013.01000176
 20
5724905.339999776
 30
0.0
 11
7584103.630001764
 21
5725217.689999782
 31
0.0
  0
LINE
  5
1000058
330
1D
100
AcDbEntity
  8
Dzialki
  6
Continuous
370
    18
100
AcDbLine
 10
7584103.630001764
 20
5725217.689999782
 30
0.0
 11
7584112.740001764
 21
5725235.94999978
 31
0.0
  0
LINE
  5
1000059
330
1D
100
AcDbEntity
  8
Dzialki
  6
Continuous
370
    18
100
AcDbLine
 10
7584112.740001764
 20
5725235.94999978
 30
0.0
 11
7584012.460001759
 21
5724889.429999779
 31
0.0
  0
LINE
  5
100005A
330
1D
100
AcDbEntity
  8
Dzialki
  6
Continuous
370
    18
100
AcDbLine
 10
7584012.460001759
 20
5724889.429999779
 30
0.0
 11
7584013.01000176
 21
5724905.339999776
 31
0.0
  0
LINE
  5
100005B
330
1D
100
AcDbEntity
  8
Dzialki
  6
Continuous
370
    18
100
AcDbLine
 10
7584030.72000176
 20
5725365.679999781
 30
0.0
 11
7584032.280001759
 21
5725361.23999978
 31
0.0
  0
LINE
  5
100005C
330
1D
100
AcDbEntity
  8
Dzialki
  6
Continuous
370
    18
100
AcDbLine
 10
7584032.280001759
 20
5725361.23999978
 30
0.0
 11
7584033.14000176
 21
5725350.509999779
 31
0.0
  0
LINE
  5
100005D
330
1D
100
AcDbEntity
  8
Dzialki
  6
Continuous
370
    18
100
AcDbLine
 10
7584033.14000176
 20
5725350.509999779
 30
0.0
 11
7584033.490001758
 21
5725346.259999779
 31
0.0
  0
LINE
  5
100005E
330
1D
100
AcDbEntity
  8
Dzialki
  6
Continuous
370
    18
100
AcDbLine
 10
7584033.490001758
 20
5725346.259999779
 30
0.0
 11
7584033.810001759
 21
5725324.329999778
 31
0.0
  0
LINE
  5
100005F
330
1D
100
AcDbEntity
  8
Dzialki
  6
Continuous
370
    18
100
AcDbLine
 10
7584033.810001759
 20
5725324.329999778
 30
0.0
 11
7584033.92000176
 21
5725316.259999779
 31
0.0
  0
LINE
  5
1000060
330
1D
100
AcDbEntity
  8
Dzialki
  6
Continuous
370
    18
100
AcDbLine
 10
7584033.92000176
 20
5725316.259999779
 30
0.0
 11
7584037.40000176
 21
5725281.299999779
 31
0.0
  0
LINE
  5
1000061
330
1D
100
AcDbEntity
  8
Dzialki
  6
Continuous
370
    18
100
AcDbLine
 10
7584037.40000176
 20
5725281.299999779
 30
0.0
 11
7584037.53000176
 21
5725280.809999778
 31
0.0
  0
LINE
  5
1000062
330
1D
100
AcDbEntity
  8
Dzialki
  6
Continuous
370
    18
100
AcDbLine
 10
7584037.53000176
 20
5725280.809999778
 30
0.0
 11
7584041.49000176
 21
5725266.20999978
 31
0.0
  0
LINE
  5
1000063
330
1D
100
AcDbEntity
  8
Dzialki
  6
Continuous
370
    18
100
AcDbLine
 10
7584041.49000176
 20
5725266.20999978
 30
0.0
 11
7584043.88000176
 21
5725257.369999779
 31
0.0
  0
LINE
  5
1000064
330
1D
100
AcDbEntity
  8
Dzialki
  6
Continuous
370
    18
100
AcDbLine
 10
7584043.88000176
 20
5725257.369999779
 30
0.0
 11
7584045.65000176
 21
5725252.32999978
 31
0.0
  0
LINE
  5
1000065
330
1D
100
AcDbEntity
  8
Dzialki
  6
Continuous
370
    18
100
AcDbLine
 10
7584045.65000176
 20
5725252.32999978
 30
0.0
 11
7584054.430001759
 21
5725227.239999782
 31
0.0
  0
LINE
  5
1000066
330
1D
100
AcDbEntity
  8
Dzialki
  6
Continuous
370
    18
100
AcDbLine
 10
7584054.430001759
 20
5725227.239999782
 30
0.0
 11
7584055.440001762
 21
5725224.339999778
 31
0.0
  0
LINE
  5
1000067
330
1D
100
AcDbEntity
  8
Dzialki
  6
Continuous
370
    18
100
AcDbLine
 10
7584055.440001762
 20
5725224.339999778
 30
0.0
 11
7584063.450001762
 21
5725197.62999978
 31
0.0
  0
LINE
  5
1000068
330
1D
100
AcDbEntity
  8
Dzialki
  6
Continuous
370
    18
100
AcDbLine
 10
7584063.450001762
 20
5725197.62999978
 30
0.0
 11
7584068.020001762
 21
5725182.389999775
 31
0.0
  0
LINE
  5
1000069
330
1D
100
AcDbEntity
  8
Dzialki
  6
Continuous
370
    18
100
AcDbLine
 10
7584068.020001762
 20
5725182.389999775
 30
0.0
 11
7584068.090001764
 21
5725182.149999782
 31
0.0
  0
LINE
  5
100006A
330
1D
100
AcDbEntity
  8
Dzialki
  6
Continuous
370
    18
100
AcDbLine
 10
7584068.090001764
 20
5725182.149999782
 30
0.0
 11
7584067.560001759
 21
5725163.979999778
 31
0.0
  0
LINE
  5
100006B
330
1D
100
AcDbEntity
  8
Dzialki
  6
Continuous
370
    18
100
AcDbLine
 10
7584067.560001759
 20
5725163.979999778
 30
0.0
 11
7584067.230001761
 21
5725152.579999777
 31
0.0
  0
LINE
  5
100006C
330
1D
100
AcDbEntity
  8
Dzialki
  6
Continuous
370
    18
100
AcDbLine
 10
7584067.230001761
 20
5725152.579999777
 30
0.0
 11
7584066.990001762
 21
5725144.339999777
 31
0.0
  0
LINE
  5
100006D
330
1D
100
AcDbEntity
  8
Dzialki
  6
Continuous
370
    18
100
AcDbLine
 10
7584066.990001762
 20
5725144.339999777
 30
0.0
 11
7584048.620001762
 21
5725078.88999978
 31
0.0
  0
LINE
  5
100006E
330
1D
100
AcDbEntity
  8
Dzialki
  6
Continuous
370
    18
100
AcDbLine
 10
7584048.620001762
 20
5725078.88999978
 30
0.0
 11
7584038.760001761
 21
5725040.119999778
 31
0.0
  0
LINE
  5
100006F
330
1D
100
AcDbEntity
  8
Dzialki
  6
Continuous
370
    18
100
AcDbLine
 10
7584038.760001761
 20
5725040.119999778
 30
0.0
 11
7584036.980001761
 21
5725033.469999778
 31
0.0
  0
LINE
  5
1000070
330
1D
100
AcDbEntity
  8
Dzialki
  6
Continuous
370
    18
100
AcDbLine
 10
7584036.980001761
 20
5725033.469999778
 30
0.0
 11
7584018.100001761
 21
5724962.859999777
 31
0.0
  0
LINE
  5
1000071
330
1D
100
AcDbEntity
  8
Dzialki
  6
Continuous
370
    18
100
AcDbLine
 10
7584018.100001761
 20
5724962.859999777
 30
0.0
 11
7584014.390001759
 21
5724938.539999778
 31
0.0
  0
LINE
  5
1000072
330
1D
100
AcDbEntity
  8
Dzialki
  6
Continuous
370
    18
100
AcDbLine
 10
7584014.390001759
 20
5724938.539999778
 30
0.0
 11
7584014.05000176
 21
5724936.329999777
 31
0.0
  0
LINE
  5
1000073
330
1D
100
AcDbEntity
  8
Dzialki
  6
Continuous
370
    18
100
AcDbLine
 10
7584014.05000176
 20
5724936.329999777
 30
0.0
 11
7584013.01000176
 21
5724905.339999776
 31
0.0
  0
LINE
  5
1000074
330
1D
100
AcDbEntity
  8
Dzialki
  6
Continuous
370
    18
100
AcDbLine
 10
7584013.01000176
 20
5724905.339999776
 30
0.0
 11
7584012.460001759
 21
5724889.429999779
 31
0.0
  0
LINE
  5
1000075
330
1D
100
AcDbEntity
  8
Dzialki
  6
Continuous
370
    18
100
AcDbLine
 10
7584012.460001759
 20
5724889.429999779
 30
0.0
 11
7584011.93000176
 21
5724873.47999978
 31
0.0
  0
LINE
  5
1000076
330
1D
100
AcDbEntity
  8
Dzialki
  6
Continuous
370
    18
100
AcDbLine
 10
7584011.93000176
 20
5724873.47999978
 30
0.0
 11
7584011.00000176
 21
5724846.269999776
 31
0.0
  0
LINE
  5
1000077
330
1D
100
AcDbEntity
  8
Dzialki
  6
Continuous
370
    18
100
AcDbLine
 10
7584011.00000176
 20
5724846.269999776
 30
0.0
 11
7584008.76000176
 21
5724820.149999778
 31
0.0
  0
LINE
  5
1000078
330
1D
100
AcDbEntity
  8
Dzialki
  6
Continuous
370
    18
100
AcDbLine
 10
7584008.76000176
 20
5724820.149999778
 30
0.0
 11
7584007.55000176
 21
5724806.269999779
 31
0.0
  0
LINE
  5
1000079
330
1D
100
AcDbEntity
  8
Dzialki
  6
Continuous
370
    18
100
AcDbLine
 10
7584007.55000176
 20
5724806.269999779
 30
0.0
 11
7584005.460001758
 21
5724807.179999777
 31
0.0
  0
LINE
  5
100007A
330
1D
100
AcDbEntity
  8
Dzialki
  6
Continuous
370
    18
100
AcDbLine
 10
7584005.460001758
 20
5724807.179999777
 30
0.0
 11
7584003.980001758
 21
5724807.829999778
 31
0.0
  0
LINE
  5
100007B
330
1D
100
AcDbEntity
  8
Dzialki
  6
Continuous
370
    18
100
AcDbLine
 10
7584003.980001758
 20
5724807.829999778
 30
0.0
 11
7584007.020001759
 21
5724846.589999779
 31
0.0
  0
LINE
  5
100007C
330
1D
100
AcDbEntity
  8
Dzialki
  6
Continuous
370
    18
100
AcDbLine
 10
7584007.020001759
 20
5724846.589999779
 30
0.0
 11
7584007.41000176
 21
5724857.81999978
 31
0.0
  0
LINE
  5
100007D
330
1D
100
AcDbEntity
  8
Dzialki
  6
Continuous
370
    18
100
AcDbLine
 10
7584007.41000176
 20
5724857.81999978
 30
0.0
 11
7584007.940001758
 21
5724873.789999777
 31
0.0
  0
LINE
  5
100007E
330
1D
100
AcDbEntity
  8
Dzialki
  6
Continuous
370
    18
100
AcDbLine
 10
7584007.940001758
 20
5724873.789999777
 30
0.0
 11
7584008.480001759
 21
5724889.729999781
 31
0.0
  0
LINE
  5
100007F
330
1D
100
AcDbEntity
  8
Dzialki
  6
Continuous
370
    18
100
AcDbLine
 10
7584008.480001759
 20
5724889.729999781
 30
0.0
 11
7584009.560001759
 21
5724921.789999779
 31
0.0
  0
LINE
  5
1000080
330
1D
100
AcDbEntity
  8
Dzialki
  6
Continuous
370
    18
100
AcDbLine
 10
7584009.560001759
 20
5724921.789999779
 30
0.0
 11
7584010.06000176
 21
5724936.599999777
 31
0.0
  0
LINE
  5
1000081
330
1D
100
AcDbEntity
  8
Dzialki
  6
Continuous
370
    18
100
AcDbLine
 10
7584010.06000176
 20
5724936.599999777
 30
0.0
 11
7584012.610001758
 21
5724953.219999779
 31
0.0
  0
LINE
  5
1000082
330
1D
100
AcDbEntity
  8
Dzialki
  6
Continuous
370
    18
100
AcDbLine
 10
7584012.610001758
 20
5724953.219999779
 30
0.0
 11
7584014.260001758
 21
5724963.93999978
 31
0.0
  0
LINE
  5
1000083
330
1D
100
AcDbEntity
  8
Dzialki
  6
Continuous
370
    18
100
AcDbLine
 10
7584014.260001758
 20
5724963.93999978
 30
0.0
 11
7584026.79000176
 21
5725010.819999782
 31
0.0
  0
LINE
  5
1000084
330
1D
100
AcDbEntity
  8
Dzialki
  6
Continuous
370
    18
100
AcDbLine
 10
7584026.79000176
 20
5725010.819999782
 30
0.0
 11
7584034.91000176
 21
5725041.20999978
 31
0.0
  0
LINE
  5
1000085
330
1D
100
AcDbEntity
  8
Dzialki
  6
Continuous
370
    18
100
AcDbLine
 10
7584034.91000176
 20
5725041.20999978
 30
0.0
 11
7584044.76000176
 21
5725079.979999782
 31
0.0
  0
LINE
  5
1000086
330
1D
100
AcDbEntity
  8
Dzialki
  6
Continuous
370
    18
100
AcDbLine
 10
7584044.76000176
 20
5725079.979999782
 30
0.0
 11
7584063.140001761
 21
5725145.409999778
 31
0.0
  0
LINE
  5
1000087
330
1D
100
AcDbEntity
  8
Dzialki
  6
Continuous
370
    18
100
AcDbLine
 10
7584063.140001761
 20
5725145.409999778
 30
0.0
 11
7584063.27000176
 21
5725149.80999978
 31
0.0
  0
LINE
  5
1000088
330
1D
100
AcDbEntity
  8
Dzialki
  6
Continuous
370
    18
100
AcDbLine
 10
7584063.27000176
 20
5725149.80999978
 30
0.0
 11
7584063.380001764
 21
5725153.64999978
 31
0.0
  0
LINE
  5
1000089
330
1D
100
AcDbEntity
  8
Dzialki
  6
Continuous
370
    18
100
AcDbLine
 10
7584063.380001764
 20
5725153.64999978
 30
0.0
 11
7584063.870001762
 21
5725168.059999779
 31
0.0
  0
LINE
  5
100008A
330
1D
100
AcDbEntity
  8
Dzialki
  6
Continuous
370
    18
100
AcDbLine
 10
7584063.870001762
 20
5725168.059999779
 30
0.0
 11
7584064.320001762
 21
5725180.82999978
 31
0.0
  0
LINE
  5
100008B
330
1D
100
AcDbEntity
  8
Dzialki
  6
Continuous
370
    18
100
AcDbLine
 10
7584064.320001762
 20
5725180.82999978
 30
0.0
 11
7584061.410001761
 21
5725190.53999978
 31
0.0
  0
LINE
  5
100008C
330
1D
100
AcDbEntity
  8
Dzialki
  6
Continuous
370
    18
100
AcDbLine
 10
7584061.410001761
 20
5725190.53999978
 30
0.0
 11
7584052.450001761
 21
5725220.389999779
 31
0.0
  0
LINE
  5
100008D
330
1D
100
AcDbEntity
  8
Dzialki
  6
Continuous
370
    18
100
AcDbLine
 10
7584052.450001761
 20
5725220.389999779
 30
0.0
 11
7584051.660001761
 21
5725223.019999781
 31
0.0
  0
LINE
  5
100008E
330
1D
100
AcDbEntity
  8
Dzialki
  6
Continuous
370
    18
100
AcDbLine
 10
7584051.660001761
 20
5725223.019999781
 30
0.0
 11
7584043.74000176
 21
5725245.66999978
 31
0.0
  0
LINE
  5
100008F
330
1D
100
AcDbEntity
  8
Dzialki
  6
Continuous
370
    18
100
AcDbLine
 10
7584043.74000176
 20
5725245.66999978
 30
0.0
 11
7584040.10000176
 21
5725256.039999777
 31
0.0
  0
LINE
  5
1000090
330
1D
100
AcDbEntity
  8
Dzialki
  6
Continuous
370
    18
100
AcDbLine
 10
7584040.10000176
 20
5725256.039999777
 30
0.0
 11
7584039.37000176
 21
5725258.799999779
 31
0.0
  0
LINE
  5
1000091
330
1D
100
AcDbEntity
  8
Dzialki
  6
Continuous
370
    18
100
AcDbLine
 10
7584039.37000176
 20
5725258.799999779
 30
0.0
 11
7584035.450001758
 21
5725273.519999777
 31
0.0
  0
LINE
  5
1000092
330
1D
100
AcDbEntity
  8
Dzialki
  6
Continuous
370
    18
100
AcDbLine
 10
7584035.450001758
 20
5725273.519999777
 30
0.0
 11
7584033.400001759
 21
5725281.24999978
 31
0.0
  0
LINE
  5
1000093
330
1D
100
AcDbEntity
  8
Dzialki
  6
Continuous
370
    18
100
AcDbLine
 10
7584033.400001759
 20
5725281.24999978
 30
0.0
 11
7584030.320001759
 21
5725312.09999978
 31
0.0
  0
LINE
  5
1000094
330
1D
100
AcDbEntity
  8
Dzialki
  6
Continuous
370
    18
100
AcDbLine
 10
7584030.320001759
 20
5725312.09999978
 30
0.0
 11
7584029.920001759
 21
5725316.20999978
 31
0.0
  0
LINE
  5
1000095
330
1D
100
AcDbEntity
  8
Dzialki
  6
Continuous
370
    18
100
AcDbLine
 10
7584029.920001759
 20
5725316.20999978
 30
0.0
 11
7584029.61000176
 21
5725338.019999782
 31
0.0
  0
LINE
  5
1000096
330
1D
100
AcDbEntity
  8
Dzialki
  6
Continuous
370
    18
100
AcDbLine
 10
7584029.61000176
 20
5725338.019999782
 30
0.0
 11
7584029.490001759
 21
5725346.209999778
 31
0.0
  0
LINE
  5
1000097
330
1D
100
AcDbEntity
  8
Dzialki
  6
Continuous
370
    18
100
AcDbLine
 10
7584029.490001759
 20
5725346.209999778
 30
0.0
 11
7584028.280001761
 21
5725361.189999781
 31
0.0
  0
LINE
  5
1000098
330
1D
100
AcDbEntity
  8
Dzialki
  6
Continuous
370
    18
100
AcDbLine
 10
7584028.280001761
 20
5725361.189999781
 30
0.0
 11
7584028.11000176
 21
5725361.64999978
 31
0.0
  0
LINE
  5
1000099
330
1D
100
AcDbEntity
  8
Dzialki
  6
Continuous
370
    18
100
AcDbLine
 10
7584028.11000176
 20
5725361.64999978
 30
0.0
 11
7584026.100001759
 21
5725367.069999781
 31
0.0
  0
LINE
  5
100009A
330
1D
100
AcDbEntity
  8
Dzialki
  6
Continuous
370
    18
100
AcDbLine
 10
7584026.100001759
 20
5725367.069999781
 30
0.0
 11
7584030.72000176
 21
5725365.679999781
 31
0.0
  0
LINE
  5
100009B
330
1D
100
AcDbEntity
  8
Dzialki
  6
Continuous
370
    18
100
AcDbLine
 10
7584140.040001765
 20
5725343.229999781
 30
0.0
 11
7584132.110001763
 21
5725315.879999778
 31
0.0
  0
LINE
  5
100009C
330
1D
100
AcDbEntity
  8
Dzialki
  6
Continuous
370
    18
100
AcDbLine
 10
7584132.110001763
 20
5725315.879999778
 30
0.0
 11
7584124.540001766
 21
5725320.499999781
 31
0.0
  0
LINE
  5
100009D
330
1D
100
AcDbEntity
  8
Dzialki
  6
Continuous
370
    18
100
AcDbLine
 10
7584124.540001766
 20
5725320.499999781
 30
0.0
 11
7584131.810001763
 21
5725345.70999978
 31
0.0
  0
LINE
  5
100009E
330
1D
100
AcDbEntity
  8
Dzialki
  6
Continuous
370
    18
100
AcDbLine
 10
7584131.810001763
 20
5725345.70999978
 30
0.0
 11
7584140.040001765
 21
5725343.229999781
 31
0.0
  0
LINE
  5
100009F
330
1D
100
AcDbEntity
  8
Dzialki
  6
Continuous
370
    18
100
AcDbLine
 10
7584129.790001764
 20
5725307.919999779
 30
0.0
 11
7584133.000001765
 21
5725305.959999783
 31
0.0
  0
LINE
  5
10000A0
330
1D
100
AcDbEntity
  8
Dzialki
  6
Continuous
370
    18
100
AcDbLine
 10
7584133.000001765
 20
5725305.959999783
 30
0.0
 11
7584119.960001763
 21
5725260.909999779
 31
0.0
  0
LINE
  5
10000A1
330
1D
100
AcDbEntity
  8
Dzialki
  6
Continuous
370
    18
100
AcDbLine
 10
7584119.960001763
 20
5725260.909999779
 30
0.0
 11
7584110.550001764
 21
5725241.569999781
 31
0.0
  0
LINE
  5
10000A2
330
1D
100
AcDbEntity
  8
Dzialki
  6
Continuous
370
    18
100
AcDbLine
 10
7584110.550001764
 20
5725241.569999781
 30
0.0
 11
7584129.790001764
 21
5725307.919999779
 31
0.0
  0
LINE
  5
10000A3
330
1D
100
AcDbEntity
  8
Dzialki
  6
Continuous
370
    18
100
AcDbLine
 10
7584133.000001765
 20
5725305.959999783
 30
0.0
 11
7584136.210001765
 21
5725304.009999779
 31
0.0
  0
LINE
  5
10000A4
330
1D
100
AcDbEntity
  8
Dzialki
  6
Continuous
370
    18
100
AcDbLine
 10
7584136.210001765
 20
5725304.009999779
 30
0.0
 11
7584129.320001764
 21
5725280.119999778
 31
0.0
  0
LINE
  5
10000A5
330
1D
100
AcDbEntity
  8
Dzialki
  6
Continuous
370
    18
100
AcDbLine
 10
7584129.320001764
 20
5725280.119999778
 30
0.0
 11
7584119.960001763
 21
5725260.909999779
 31
0.0
  0
LINE
  5
10000A6
330
1D
100
AcDbEntity
  8
Dzialki
  6
Continuous
370
    18
100
AcDbLine
 10
7584119.960001763
 20
5725260.909999779
 30
0.0
 11
7584133.000001765
 21
5725305.959999783
 31
0.0
  0
LINE
  5
10000A7
330
1D
100
AcDbEntity
  8
Dzialki
  6
Continuous
370
    18
100
AcDbLine
 10
7584114.510001763
 20
5725317.25999978
 30
0.0
 11
7584122.240001764
 21
5725312.53999978
 31
0.0
  0
LINE
  5
10000A8
330
1D
100
AcDbEntity
  8
Dzialki
  6
Continuous
370
    18
100
AcDbLine
 10
7584122.240001764
 20
5725312.53999978
 30
0.0
 11
7584089.020001762
 21
5725197.349999779
 31
0.0
  0
LINE
  5
10000A9
330
1D
100
AcDbEntity
  8
Dzialki
  6
Continuous
370
    18
100
AcDbLine
 10
7584089.020001762
 20
5725197.349999779
 30
0.0
 11
7584082.990001761
 21
5725184.939999782
 31
0.0
  0
LINE
  5
10000AA
330
1D
100
AcDbEntity
  8
Dzialki
  6
Continuous
370
    18
100
AcDbLine
 10
7584082.990001761
 20
5725184.939999782
 30
0.0
 11
7584067.560001759
 21
5725153.259999781
 31
0.0
  0
LINE
  5
10000AB
330
1D
100
AcDbEntity
  8
Dzialki
  6
Continuous
370
    18
100
AcDbLine
 10
7584067.560001759
 20
5725153.259999781
 30
0.0
 11
7584114.510001763
 21
5725317.25999978
 31
0.0
  0
LINE
  5
10000AC
330
1D
100
AcDbEntity
  8
Dzialki
  6
Continuous
370
    18
100
AcDbLine
 10
7584067.230001761
 20
5725152.579999777
 30
0.0
 11
7584067.560001759
 21
5725153.259999781
 31
0.0
  0
LINE
  5
10000AD
330
1D
100
AcDbEntity
  8
Dzialki
  6
Continuous
370
    18
100
AcDbLine
 10
7584067.560001759
 20
5725153.259999781
 30
0.0
 11
7584082.990001761
 21
5725184.939999782
 31
0.0
  0
LINE
  5
10000AE
330
1D
100
AcDbEntity
  8
Dzialki
  6
Continuous
370
    18
100
AcDbLine
 10
7584082.990001761
 20
5725184.939999782
 30
0.0
 11
7584089.020001762
 21
5725197.349999779
 31
0.0
  0
LINE
  5
10000AF
330
1D
100
AcDbEntity
  8
Dzialki
  6
Continuous
370
    18
100
AcDbLine
 10
7584089.020001762
 20
5725197.349999779
 30
0.0
 11
7584110.550001764
 21
5725241.569999781
 31
0.0
  0
LINE
  5
10000B0
330
1D
100
AcDbEntity
  8
Dzialki
  6
Continuous
370
    18
100
AcDbLine
 10
7584110.550001764
 20
5725241.569999781
 30
0.0
 11
7584119.960001763
 21
5725260.909999779
 31
0.0
  0
LINE
  5
10000B1
330
1D
100
AcDbEntity
  8
Dzialki
  6
Continuous
370
    18
100
AcDbLine
 10
7584119.960001763
 20
5725260.909999779
 30
0.0
 11
7584129.320001764
 21
5725280.119999778
 31
0.0
  0
LINE
  5
10000B2
330
1D
100
AcDbEntity
  8
Dzialki
  6
Continuous
370
    18
100
AcDbLine
 10
7584129.320001764
 20
5725280.119999778
 30
0.0
 11
7584132.460001764
 21
5725286.579999779
 31
0.0
  0
LINE
  5
10000B3
330
1D
100
AcDbEntity
  8
Dzialki
  6
Continuous
370
    18
100
AcDbLine
 10
7584132.460001764
 20
5725286.579999779
 30
0.0
 11
7584142.000001764
 21
5725296.429999779
 31
0.0
  0
LINE
  5
10000B4
330
1D
100
AcDbEntity
  8
Dzialki
  6
Continuous
370
    18
100
AcDbLine
 10
7584142.000001764
 20
5725296.429999779
 30
0.0
 11
7584144.450001764
 21
5725298.979999775
 31
0.0
  0
LINE
  5
10000B5
330
1D
100
AcDbEntity
  8
Dzialki
  6
Continuous
370
    18
100
AcDbLine
 10
7584144.450001764
 20
5725298.979999775
 30
0.0
 11
7584146.760001764
 21
5725297.569999781
 31
0.0
  0
LINE
  5
10000B6
330
1D
100
AcDbEntity
  8
Dzialki
  6
Continuous
370
    18
100
AcDbLine
 10
7584146.760001764
 20
5725297.569999781
 30
0.0
 11
7584148.860001765
 21
5725296.309999779
 31
0.0
  0
LINE
  5
10000B7
330
1D
100
AcDbEntity
  8
Dzialki
  6
Continuous
370
    18
100
AcDbLine
 10
7584148.860001765
 20
5725296.309999779
 30
0.0
 11
7584139.200001764
 21
5725286.459999778
 31
0.0
  0
LINE
  5
10000B8
330
1D
100
AcDbEntity
  8
Dzialki
  6
Continuous
370
    18
100
AcDbLine
 10
7584139.200001764
 20
5725286.459999778
 30
0.0
 11
7584136.660001766
 21
5725283.859999781
 31
0.0
  0
LINE
  5
10000B9
330
1D
100
AcDbEntity
  8
Dzialki
  6
Continuous
370
    18
100
AcDbLine
 10
7584136.660001766
 20
5725283.859999781
 30
0.0
 11
7584121.800001764
 21
5725254.10999978
 31
0.0
  0
LINE
  5
10000BA
330
1D
100
AcDbEntity
  8
Dzialki
  6
Continuous
370
    18
100
AcDbLine
 10
7584121.800001764
 20
5725254.10999978
 30
0.0
 11
7584112.740001764
 21
5725235.94999978
 31
0.0
  0
LINE
  5
10000BB
330
1D
100
AcDbEntity
  8
Dzialki
  6
Continuous
370
    18
100
AcDbLine
 10
7584112.740001764
 20
5725235.94999978
 30
0.0
 11
7584103.630001764
 21
5725217.689999782
 31
0.0
  0
LINE
  5
10000BC
330
1D
100
AcDbEntity
  8
Dzialki
  6
Continuous
370
    18
100
AcDbLine
 10
7584103.630001764
 20
5725217.689999782
 30
0.0
 11
7584082.950001763
 21
5725176.27999978
 31
0.0
  0
LINE
  5
10000BD
330
1D
100
AcDbEntity
  8
Dzialki
  6
Continuous
370
    18
100
AcDbLine
 10
7584082.950001763
 20
5725176.27999978
 30
0.0
 11
7584076.340001764
 21
5725163.049999779
 31
0.0
  0
LINE
  5
10000BE
330
1D
100
AcDbEntity
  8
Dzialki
  6
Continuous
370
    18
100
AcDbLine
 10
7584076.340001764
 20
5725163.049999779
 30
0.0
 11
7584066.990001762
 21
5725144.339999777
 31
0.0
  0
LINE
  5
10000BF
330
1D
100
AcDbEntity
  8
Dzialki
  6
Continuous
370
    18
100
AcDbLine
 10
7584066.990001762
 20
5725144.339999777
 30
0.0
 11
7584067.230001761
 21
5725152.579999777
 31
0.0
  0
LINE
  5
10000C0
330
1D
100
AcDbEntity
  8
Dzialki
  6
Continuous
370
    18
100
AcDbLine
 10
7584036.980001761
 20
5725033.469999778
 30
0.0
 11
7584038.760001761
 21
5725040.119999778
 31
0.0
  0
LINE
  5
10000C1
330
1D
100
AcDbEntity
  8
Dzialki
  6
Continuous
370
    18
100
AcDbLine
 10
7584038.760001761
 20
5725040.119999778
 30
0.0
 11
7584048.620001762
 21
5725078.88999978
 31
0.0
  0
LINE
  5
10000C2
330
1D
100
AcDbEntity
  8
Dzialki
  6
Continuous
370
    18
100
AcDbLine
 10
7584048.620001762
 20
5725078.88999978
 30
0.0
 11
7584066.990001762
 21
5725144.339999777
 31
0.0
  0
LINE
  5
10000C3
330
1D
100
AcDbEntity
  8
Dzialki
  6
Continuous
370
    18
100
AcDbLine
 10
7584066.990001762
 20
5725144.339999777
 30
0.0
 11
7584076.340001764
 21
5725163.049999779
 31
0.0
  0
LINE
  5
10000C4
330
1D
100
AcDbEntity
  8
Dzialki
  6
Continuous
370
    18
100
AcDbLine
 10
7584076.340001764
 20
5725163.049999779
 30
0.0
 11
7584082.950001763
 21
5725176.27999978
 31
0.0
  0
LINE
  5
10000C5
330
1D
100
AcDbEntity
  8
Dzialki
  6
Continuous
370
    18
100
AcDbLine
 10
7584082.950001763
 20
5725176.27999978
 30
0.0
 11
7584014.390001759
 21
5724938.539999778
 31
0.0
  0
LINE
  5
10000C6
330
1D
100
AcDbEntity
  8
Dzialki
  6
Continuous
370
    18
100
AcDbLine
 10
7584014.390001759
 20
5724938.539999778
 30
0.0
 11
7584018.100001761
 21
5724962.859999777
 31
0.0
  0
LINE
  5
10000C7
330
1D
100
AcDbEntity
  8
Dzialki
  6
Continuous
370
    18
100
AcDbLine
 10
7584018.100001761
 20
5724962.859999777
 30
0.0
 11
7584036.980001761
 21
5725033.469999778
 31
0.0
  0
LINE
  5
10000C8
330
1D
100
AcDbEntity
  8
Dzialki
  6
Continuous
370
    18
100
AcDbLine
 10
7584032.08000176
 20
5725375.709999781
 30
0.0
 11
7584039.16000176
 21
5725371.699999779
 31
0.0
  0
LINE
  5
10000C9
330
1D
100
AcDbEntity
  8
Dzialki
  6
Continuous
370
    18
100
AcDbLine
 10
7584039.16000176
 20
5725371.699999779
 30
0.0
 11
7584046.13000176
 21
5725367.74999978
 31
0.0
  0
LINE
  5
10000CA
330
1D
100
AcDbEntity
  8
Dzialki
  6
Continuous
370
    18
100
AcDbLine
 10
7584046.13000176
 20
5725367.74999978
 30
0.0
 11
7584060.080001761
 21
5725359.849999781
 31
0.0
  0
LINE
  5
10000CB
330
1D
100
AcDbEntity
  8
Dzialki
  6
Continuous
370
    18
100
AcDbLine
 10
7584060.080001761
 20
5725359.849999781
 30
0.0
 11
7584060.620001761
 21
5725359.53999978
 31
0.0
  0
LINE
  5
10000CC
330
1D
100
AcDbEntity
  8
Dzialki
  6
Continuous
370
    18
100
AcDbLine
 10
7584060.620001761
 20
5725359.53999978
 30
0.0
 11
7584067.070001761
 21
5725355.599999781
 31
0.0
  0
LINE
  5
10000CD
330
1D
100
AcDbEntity
  8
Dzialki
  6
Continuous
370
    18
100
AcDbLine
 10
7584067.070001761
 20
5725355.599999781
 30
0.0
 11
7584074.06000176
 21
5725351.329999779
 31
0.0
  0
LINE
  5
10000CE
330
1D
100
AcDbEntity
  8
Dzialki
  6
Continuous
370
    18
100
AcDbLine
 10
7584074.06000176
 20
5725351.329999779
 30
0.0
 11
7584087.760001764
 21
5725342.969999781
 31
0.0
  0
LINE
  5
10000CF
330
1D
100
AcDbEntity
  8
Dzialki
  6
Continuous
370
    18
100
AcDbLine
 10
7584087.760001764
 20
5725342.969999781
 30
0.0
 11
7584102.700001764
 21
5725333.839999779
 31
0.0
  0
LINE
  5
10000D0
330
1D
100
AcDbEntity
  8
Dzialki
  6
Continuous
370
    18
100
AcDbLine
 10
7584102.700001764
 20
5725333.839999779
 30
0.0
 11
7584110.390001764
 21
5725329.149999779
 31
0.0
  0
LINE
  5
10000D1
330
1D
100
AcDbEntity
  8
Dzialki
  6
Continuous
370
    18
100
AcDbLine
 10
7584110.390001764
 20
5725329.149999779
 30
0.0
 11
7584116.800001764
 21
5725325.239999781
 31
0.0
  0
LINE
  5
10000D2
330
1D
100
AcDbEntity
  8
Dzialki
  6
Continuous
370
    18
100
AcDbLine
 10
7584116.800001764
 20
5725325.239999781
 30
0.0
 11
7584124.540001766
 21
5725320.499999781
 31
0.0
  0
LINE
  5
10000D3
330
1D
100
AcDbEntity
  8
Dzialki
  6
Continuous
370
    18
100
AcDbLine
 10
7584124.540001766
 20
5725320.499999781
 30
0.0
 11
7584132.110001763
 21
5725315.879999778
 31
0.0
  0
LINE
  5
10000D4
330
1D
100
AcDbEntity
  8
Dzialki
  6
Continuous
370
    18
100
AcDbLine
 10
7584132.110001763
 20
5725315.879999778
 30
0.0
 11
7584135.310001763
 21
5725313.929999781
 31
0.0
  0
LINE
  5
10000D5
330
1D
100
AcDbEntity
  8
Dzialki
  6
Continuous
370
    18
100
AcDbLine
 10
7584135.310001763
 20
5725313.929999781
 30
0.0
 11
7584138.510001763
 21
5725311.96999978
 31
0.0
  0
LINE
  5
10000D6
330
1D
100
AcDbEntity
  8
Dzialki
  6
Continuous
370
    18
100
AcDbLine
 10
7584138.510001763
 20
5725311.96999978
 30
0.0
 11
7584145.200001765
 21
5725307.889999777
 31
0.0
  0
LINE
  5
10000D7
330
1D
100
AcDbEntity
  8
Dzialki
  6
Continuous
370
    18
100
AcDbLine
 10
7584145.200001765
 20
5725307.889999777
 30
0.0
 11
7584150.150001765
 21
5725304.87999978
 31
0.0
  0
LINE
  5
10000D8
330
1D
100
AcDbEntity
  8
Dzialki
  6
Continuous
370
    18
100
AcDbLine
 10
7584150.150001765
 20
5725304.87999978
 30
0.0
 11
7584154.610001766
 21
5725302.18999978
 31
0.0
  0
LINE
  5
10000D9
330
1D
100
AcDbEntity
  8
Dzialki
  6
Continuous
370
    18
100
AcDbLine
 10
7584154.610001766
 20
5725302.18999978
 30
0.0
 11
7584172.960001763
 21
5725291.189999783
 31
0.0
  0
LINE
  5
10000DA
330
1D
100
AcDbEntity
  8
Dzialki
  6
Continuous
370
    18
100
AcDbLine
 10
7584172.960001763
 20
5725291.189999783
 30
0.0
 11
7584189.350001765
 21
5725281.359999781
 31
0.0
  0
LINE
  5
10000DB
330
1D
100
AcDbEntity
  8
Dzialki
  6
Continuous
370
    18
100
AcDbLine
 10
7584189.350001765
 20
5725281.359999781
 30
0.0
 11
7584197.660001766
 21
5725276.379999777
 31
0.0
  0
LINE
  5
10000DC
330
1D
100
AcDbEntity
  8
Dzialki
  6
Continuous
370
    18
100
AcDbLine
 10
7584197.660001766
 20
5725276.379999777
 30
0.0
 11
7584205.510001766
 21
5725271.67999978
 31
0.0
  0
LINE
  5
10000DD
330
1D
100
AcDbEntity
  8
Dzialki
  6
Continuous
370
    18
100
AcDbLine
 10
7584205.510001766
 20
5725271.67999978
 30
0.0
 11
7584214.330001766
 21
5725266.389999781
 31
0.0
  0
LINE
  5
10000DE
330
1D
100
AcDbEntity
  8
Dzialki
  6
Continuous
370
    18
100
AcDbLine
 10
7584214.330001766
 20
5725266.389999781
 30
0.0
 11
7584221.130001767
 21
5725262.31999978
 31
0.0
  0
LINE
  5
10000DF
330
1D
100
AcDbEntity
  8
Dzialki
  6
Continuous
370
    18
100
AcDbLine
 10
7584221.130001767
 20
5725262.31999978
 30
0.0
 11
7584223.110001767
 21
5725261.08999978
 31
0.0
  0
LINE
  5
10000E0
330
1D
100
AcDbEntity
  8
Dzialki
  6
Continuous
370
    18
100
AcDbLine
 10
7584223.110001767
 20
5725261.08999978
 30
0.0
 11
7584228.400001767
 21
5725257.81999978
 31
0.0
  0
LINE
  5
10000E1
330
1D
100
AcDbEntity
  8
Dzialki
  6
Continuous
370
    18
100
AcDbLine
 10
7584228.400001767
 20
5725257.81999978
 30
0.0
 11
7584233.690001767
 21
5725254.539999777
 31
0.0
  0
LINE
  5
10000E2
330
1D
100
AcDbEntity
  8
Dzialki
  6
Continuous
370
    18
100
AcDbLine
 10
7584233.690001767
 20
5725254.539999777
 30
0.0
 11
7584238.980001767
 21
5725251.259999779
 31
0.0
  0
LINE
  5
10000E3
330
1D
100
AcDbEntity
  8
Dzialki
  6
Continuous
370
    18
100
AcDbLine
 10
7584238.980001767
 20
5725251.259999779
 30
0.0
 11
7584244.270001767
 21
5725247.979999776
 31
0.0
  0
LINE
  5
10000E4
330
1D
100
AcDbEntity
  8
Dzialki
  6
Continuous
370
    18
100
AcDbLine
 10
7584244.270001767
 20
5725247.979999776
 30
0.0
 11
7584249.470001767
 21
5725244.74999978
 31
0.0
  0
LINE
  5
10000E5
330
1D
100
AcDbEntity
  8
Dzialki
  6
Continuous
370
    18
100
AcDbLine
 10
7584249.470001767
 20
5725244.74999978
 30
0.0
 11
7584275.250001771
 21
5725228.779999779
 31
0.0
  0
LINE
  5
10000E6
330
1D
100
AcDbEntity
  8
Dzialki
  6
Continuous
370
    18
100
AcDbLine
 10
7584275.250001771
 20
5725228.779999779
 30
0.0
 11
7584283.650001769
 21
5725223.569999778
 31
0.0
  0
LINE
  5
10000E7
330
1D
100
AcDbEntity
  8
Dzialki
  6
Continuous
370
    18
100
AcDbLine
 10
7584283.650001769
 20
5725223.569999778
 30
0.0
 11
7584292.14000177
 21
5725218.309999779
 31
0.0
  0
LINE
  5
10000E8
330
1D
100
AcDbEntity
  8
Dzialki
  6
Continuous
370
    18
100
AcDbLine
 10
7584292.14000177
 20
5725218.309999779
 30
0.0
 11
7584300.64000177
 21
5725213.039999781
 31
0.0
  0
LINE
  5
10000E9
330
1D
100
AcDbEntity
  8
Dzialki
  6
Continuous
370
    18
100
AcDbLine
 10
7584300.64000177
 20
5725213.039999781
 30
0.0
 11
7584322.910001773
 21
5725199.229999782
 31
0.0
  0
LINE
  5
10000EA
330
1D
100
AcDbEntity
  8
Dzialki
  6
Continuous
370
    18
100
AcDbLine
 10
7584322.910001773
 20
5725199.229999782
 30
0.0
 11
7584324.360001772
 21
5725198.339999779
 31
0.0
  0
LINE
  5
10000EB
330
1D
100
AcDbEntity
  8
Dzialki
  6
Continuous
370
    18
100
AcDbLine
 10
7584324.360001772
 20
5725198.339999779
 30
0.0
 11
7584347.940001773
 21
5725184.769999779
 31
0.0
  0
LINE
  5
10000EC
330
1D
100
AcDbEntity
  8
Dzialki
  6
Continuous
370
    18
100
AcDbLine
 10
7584347.940001773
 20
5725184.769999779
 30
0.0
 11
7584359.480001772
 21
5725178.139999777
 31
0.0
  0
LINE
  5
10000ED
330
1D
100
AcDbEntity
  8
Dzialki
  6
Continuous
370
    18
100
AcDbLine
 10
7584359.480001772
 20
5725178.139999777
 30
0.0
 11
7584360.750001772
 21
5725177.409999777
 31
0.0
  0
LINE
  5
10000EE
330
1D
100
AcDbEntity
  8
Dzialki
  6
Continuous
370
    18
100
AcDbLine
 10
7584360.750001772
 20
5725177.409999777
 30
0.0
 11
7584370.270001772
 21
5725170.97999978
 31
0.0
  0
LINE
  5
10000EF
330
1D
100
AcDbEntity
  8
Dzialki
  6
Continuous
370
    18
100
AcDbLine
 10
7584370.270001772
 20
5725170.97999978
 30
0.0
 11
7584379.290001775
 21
5725164.889999779
 31
0.0
  0
LINE
  5
10000F0
330
1D
100
AcDbEntity
  8
Dzialki
  6
Continuous
370
    18
100
AcDbLine
 10
7584379.290001775
 20
5725164.889999779
 30
0.0
 11
7584388.310001773
 21
5725158.789999778
 31
0.0
  0
LINE
  5
10000F1
330
1D
100
AcDbEntity
  8
Dzialki
  6
Continuous
370
    18
100
AcDbLine
 10
7584388.310001773
 20
5725158.789999778
 30
0.0
 11
7584391.260001775
 21
5725156.80999978
 31
0.0
  0
LINE
  5
10000F2
330
1D
100
AcDbEntity
  8
Dzialki
  6
Continuous
370
    18
100
AcDbLine
 10
7584391.260001775
 20
5725156.80999978
 30
0.0
 11
7584397.410001776
 21
5725152.879999781
 31
0.0
  0
LINE
  5
10000F3
330
1D
100
AcDbEntity
  8
Dzialki
  6
Continuous
370
    18
100
AcDbLine
 10
7584397.410001776
 20
5725152.879999781
 30
0.0
 11
7584400.640001774
 21
5725150.839999777
 31
0.0
  0
LINE
  5
10000F4
330
1D
100
AcDbEntity
  8
Dzialki
  6
Continuous
370
    18
100
AcDbLine
 10
7584400.640001774
 20
5725150.839999777
 30
0.0
 11
7584403.860001775
 21
5725148.789999781
 31
0.0
  0
LINE
  5
10000F5
330
1D
100
AcDbEntity
  8
Dzialki
  6
Continuous
370
    18
100
AcDbLine
 10
7584403.860001775
 20
5725148.789999781
 30
0.0
 11
7584407.080001775
 21
5725146.729999776
 31
0.0
  0
LINE
  5
10000F6
330
1D
100
AcDbEntity
  8
Dzialki
  6
Continuous
370
    18
100
AcDbLine
 10
7584407.080001775
 20
5725146.729999776
 30
0.0
 11
7584422.660001777
 21
5725136.80999978
 31
0.0
  0
LINE
  5
10000F7
330
1D
100
AcDbEntity
  8
Dzialki
  6
Continuous
370
    18
100
AcDbLine
 10
7584422.660001777
 20
5725136.80999978
 30
0.0
 11
7584435.520001776
 21
5725128.62999978
 31
0.0
  0
LINE
  5
10000F8
330
1D
100
AcDbEntity
  8
Dzialki
  6
Continuous
370
    18
100
AcDbLine
 10
7584435.520001776
 20
5725128.62999978
 30
0.0
 11
7584448.370001776
 21
5725120.439999779
 31
0.0
  0
LINE
  5
10000F9
330
1D
100
AcDbEntity
  8
Dzialki
  6
Continuous
370
    18
100
AcDbLine
 10
7584448.370001776
 20
5725120.439999779
 30
0.0
 11
7584458.740001778
 21
5725113.849999779
 31
0.0
  0
LINE
  5
10000FA
330
1D
100
AcDbEntity
  8
Dzialki
  6
Continuous
370
    18
100
AcDbLine
 10
7584458.740001778
 20
5725113.849999779
 30
0.0
 11
7584473.410001777
 21
5725104.839999779
 31
0.0
  0
LINE
  5
10000FB
330
1D
100
AcDbEntity
  8
Dzialki
  6
Continuous
370
    18
100
AcDbLine
 10
7584473.410001777
 20
5725104.839999779
 30
0.0
 11
7584484.560001778
 21
5725098.009999777
 31
0.0
  0
LINE
  5
10000FC
330
1D
100
AcDbEntity
  8
Dzialki
  6
Continuous
370
    18
100
AcDbLine
 10
7584484.560001778
 20
5725098.009999777
 30
0.0
 11
7584490.160001777
 21
5725094.559999778
 31
0.0
  0
LINE
  5
10000FD
330
1D
100
AcDbEntity
  8
Dzialki
  6
Continuous
370
    18
100
AcDbLine
 10
7584490.160001777
 20
5725094.559999778
 30
0.0
 11
7584495.770001778
 21
5725091.129999777
 31
0.0
  0
LINE
  5
10000FE
330
1D
100
AcDbEntity
  8
Dzialki
  6
Continuous
370
    18
100
AcDbLine
 10
7584495.770001778
 20
5725091.129999777
 30
0.0
 11
7584498.560001777
 21
5725089.409999778
 31
0.0
  0
LINE
  5
10000FF
330
1D
100
AcDbEntity
  8
Dzialki
  6
Continuous
370
    18
100
AcDbLine
 10
7584498.560001777
 20
5725089.409999778
 30
0.0
 11
7584501.360001779
 21
5725087.699999778
 31
0.0
  0
LINE
  5
1000100
330
1D
100
AcDbEntity
  8
Dzialki
  6
Continuous
370
    18
100
AcDbLine
 10
7584501.360001779
 20
5725087.699999778
 30
0.0
 11
7584504.180001778
 21
5725085.969999777
 31
0.0
  0
LINE
  5
1000101
330
1D
100
AcDbEntity
  8
Dzialki
  6
Continuous
370
    18
100
AcDbLine
 10
7584504.180001778
 20
5725085.969999777
 30
0.0
 11
7584506.960001777
 21
5725084.249999778
 31
0.0
  0
LINE
  5
1000102
330
1D
100
AcDbEntity
  8
Dzialki
  6
Continuous
370
    18
100
AcDbLine
 10
7584506.960001777
 20
5725084.249999778
 30
0.0
 11
7584509.880001778
 21
5725082.46999978
 31
0.0
  0
LINE
  5
1000103
330
1D
100
AcDbEntity
  8
Dzialki
  6
Continuous
370
    18
100
AcDbLine
 10
7584509.880001778
 20
5725082.46999978
 30
0.0
 11
7584512.57000178
 21
5725080.84999978
 31
0.0
  0
LINE
  5
1000104
330
1D
100
AcDbEntity
  8
Dzialki
  6
Continuous
370
    18
100
AcDbLine
 10
7584512.57000178
 20
5725080.84999978
 30
0.0
 11
7584518.120001779
 21
5725077.50999978
 31
0.0
  0
LINE
  5
1000105
330
1D
100
AcDbEntity
  8
Dzialki
  6
Continuous
370
    18
100
AcDbLine
 10
7584518.120001779
 20
5725077.50999978
 30
0.0
 11
7584529.570001781
 21
5725070.609999778
 31
0.0
  0
LINE
  5
1000106
330
1D
100
AcDbEntity
  8
Dzialki
  6
Continuous
370
    18
100
AcDbLine
 10
7584529.570001781
 20
5725070.609999778
 30
0.0
 11
7584538.100001779
 21
5725065.47999978
 31
0.0
  0
LINE
  5
1000107
330
1D
100
AcDbEntity
  8
Dzialki
  6
Continuous
370
    18
100
AcDbLine
 10
7584538.100001779
 20
5725065.47999978
 30
0.0
 11
7584540.950001779
 21
5725063.769999776
 31
0.0
  0
LINE
  5
1000108
330
1D
100
AcDbEntity
  8
Dzialki
  6
Continuous
370
    18
100
AcDbLine
 10
7584540.950001779
 20
5725063.769999776
 30
0.0
 11
7584544.160001779
 21
5725061.829999778
 31
0.0
  0
LINE
  5
1000109
330
1D
100
AcDbEntity
  8
Dzialki
  6
Continuous
370
    18
100
AcDbLine
 10
7584544.160001779
 20
5725061.829999778
 30
0.0
 11
7584545.960001779
 21
5725060.679999776
 31
0.0
  0
LINE
  5
100010A
330
1D
100
AcDbEntity
  8
Dzialki
  6
Continuous
370
    18
100
AcDbLine
 10
7584545.960001779
 20
5725060.679999776
 30
0.0
 11
7584551.040001779
 21
5725057.449999779
 31
0.0
  0
LINE
  5
100010B
330
1D
100
AcDbEntity
  8
Dzialki
  6
Continuous
370
    18
100
AcDbLine
 10
7584551.040001779
 20
5725057.449999779
 30
0.0
 11
7584556.100001779
 21
5725054.219999777
 31
0.0
  0
LINE
  5
100010C
330
1D
100
AcDbEntity
  8
Dzialki
  6
Continuous
370
    18
100
AcDbLine
 10
7584556.100001779
 20
5725054.219999777
 30
0.0
 11
7584561.190001781
 21
5725050.979999779
 31
0.0
  0
LINE
  5
100010D
330
1D
100
AcDbEntity
  8
Dzialki
  6
Continuous
370
    18
100
AcDbLine
 10
7584561.190001781
 20
5725050.979999779
 30
0.0
 11
7584570.62000178
 21
5725044.969999777
 31
0.0
  0
LINE
  5
100010E
330
1D
100
AcDbEntity
  8
Dzialki
  6
Continuous
370
    18
100
AcDbLine
 10
7584570.62000178
 20
5725044.969999777
 30
0.0
 11
7584573.890001782
 21
5725042.899999778
 31
0.0
  0
LINE
  5
100010F
330
1D
100
AcDbEntity
  8
Dzialki
  6
Continuous
370
    18
100
AcDbLine
 10
7584573.890001782
 20
5725042.899999778
 30
0.0
 11
7584577.700001783
 21
5725040.469999777
 31
0.0
  0
LINE
  5
1000110
330
1D
100
AcDbEntity
  8
Dzialki
  6
Continuous
370
    18
100
AcDbLine
 10
7584577.700001783
 20
5725040.469999777
 30
0.0
 11
7584586.620001781
 21
5725035.41999978
 31
0.0
  0
LINE
  5
1000111
330
1D
100
AcDbEntity
  8
Dzialki
  6
Continuous
370
    18
100
AcDbLine
 10
7584586.620001781
 20
5725035.41999978
 30
0.0
 11
7584591.660001781
 21
5725032.569999781
 31
0.0
  0
LINE
  5
1000112
330
1D
100
AcDbEntity
  8
Dzialki
  6
Continuous
370
    18
100
AcDbLine
 10
7584591.660001781
 20
5725032.569999781
 30
0.0
 11
7584596.650001785
 21
5725029.729999781
 31
0.0
  0
LINE
  5
1000113
330
1D
100
AcDbEntity
  8
Dzialki
  6
Continuous
370
    18
100
AcDbLine
 10
7584596.650001785
 20
5725029.729999781
 30
0.0
 11
7584601.600001782
 21
5725026.929999776
 31
0.0
  0
LINE
  5
1000114
330
1D
100
AcDbEntity
  8
Dzialki
  6
Continuous
370
    18
100
AcDbLine
 10
7584601.600001782
 20
5725026.929999776
 30
0.0
 11
7584606.580001783
 21
5725024.099999776
 31
0.0
  0
LINE
  5
1000115
330
1D
100
AcDbEntity
  8
Dzialki
  6
Continuous
370
    18
100
AcDbLine
 10
7584606.580001783
 20
5725024.099999776
 30
0.0
 11
7584611.550001782
 21
5725021.289999777
 31
0.0
  0
LINE
  5
1000116
330
1D
100
AcDbEntity
  8
Dzialki
  6
Continuous
370
    18
100
AcDbLine
 10
7584611.550001782
 20
5725021.289999777
 30
0.0
 11
7584616.360001783
 21
5725018.569999778
 31
0.0
  0
LINE
  5
1000117
330
1D
100
AcDbEntity
  8
Dzialki
  6
Continuous
370
    18
100
AcDbLine
 10
7584616.360001783
 20
5725018.569999778
 30
0.0
 11
7584618.830001783
 21
5725017.169999777
 31
0.0
  0
LINE
  5
1000118
330
1D
100
AcDbEntity
  8
Dzialki
  6
Continuous
370
    18
100
AcDbLine
 10
7584618.830001783
 20
5725017.169999777
 30
0.0
 11
7584621.310001782
 21
5725015.769999779
 31
0.0
  0
LINE
  5
1000119
330
1D
100
AcDbEntity
  8
Dzialki
  6
Continuous
370
    18
100
AcDbLine
 10
7584621.310001782
 20
5725015.769999779
 30
0.0
 11
7584623.810001784
 21
5725014.35999978
 31
0.0
  0
LINE
  5
100011A
330
1D
100
AcDbEntity
  8
Dzialki
  6
Continuous
370
    18
100
AcDbLine
 10
7584623.810001784
 20
5725014.35999978
 30
0.0
 11
7584635.890001784
 21
5725007.499999779
 31
0.0
  0
LINE
  5
100011B
330
1D
100
AcDbEntity
  8
Dzialki
  6
Continuous
370
    18
100
AcDbLine
 10
7584635.890001784
 20
5725007.499999779
 30
0.0
 11
7584641.460001783
 21
5725004.349999777
 31
0.0
  0
LINE
  5
100011C
330
1D
100
AcDbEntity
  8
Dzialki
  6
Continuous
370
    18
100
AcDbLine
 10
7584641.460001783
 20
5725004.349999777
 30
0.0
 11
7584647.900001783
 21
5725000.699999778
 31
0.0
  0
LINE
  5
100011D
330
1D
100
AcDbEntity
  8
Dzialki
  6
Continuous
370
    18
100
AcDbLine
 10
7584647.900001783
 20
5725000.699999778
 30
0.0
 11
7584653.880001785
 21
5724997.309999779
 31
0.0
  0
LINE
  5
100011E
330
1D
100
AcDbEntity
  8
Dzialki
  6
Continuous
370
    18
100
AcDbLine
 10
7584653.880001785
 20
5724997.309999779
 30
0.0
 11
7584659.930001788
 21
5724993.889999775
 31
0.0
  0
LINE
  5
100011F
330
1D
100
AcDbEntity
  8
Dzialki
  6
Continuous
370
    18
100
AcDbLine
 10
7584659.930001788
 20
5724993.889999775
 30
0.0
 11
7584668.590001785
 21
5724988.979999778
 31
0.0
  0
LINE
  5
1000120
330
1D
100
AcDbEntity
  8
Dzialki
  6
Continuous
370
    18
100
AcDbLine
 10
7584668.590001785
 20
5724988.979999778
 30
0.0
 11
7584684.150001785
 21
5724979.969999777
 31
0.0
  0
LINE
  5
1000121
330
1D
100
AcDbEntity
  8
Dzialki
  6
Continuous
370
    18
100
AcDbLine
 10
7584684.150001785
 20
5724979.969999777
 30
0.0
 11
7584691.950001787
 21
5724975.449999781
 31
0.0
  0
LINE
  5
1000122
330
1D
100
AcDbEntity
  8
Dzialki
  6
Continuous
370
    18
100
AcDbLine
 10
7584691.950001787
 20
5724975.449999781
 30
0.0
 11
7584700.630001785
 21
5724970.429999777
 31
0.0
  0
LINE
  5
1000123
330
1D
100
AcDbEntity
  8
Dzialki
  6
Continuous
370
    18
100
AcDbLine
 10
7584700.630001785
 20
5724970.429999777
 30
0.0
 11
7584708.280001787
 21
5724965.999999779
 31
0.0
  0
LINE
  5
1000124
330
1D
100
AcDbEntity
  8
Dzialki
  6
Continuous
370
    18
100
AcDbLine
 10
7584708.280001787
 20
5724965.999999779
 30
0.0
 11
7584732.840001789
 21
5724951.769999775
 31
0.0
  0
LINE
  5
1000125
330
1D
100
AcDbEntity
  8
Dzialki
  6
Continuous
370
    18
100
AcDbLine
 10
7584732.840001789
 20
5724951.769999775
 30
0.0
 11
7584758.680001789
 21
5724936.809999776
 31
0.0
  0
LINE
  5
1000126
330
1D
100
AcDbEntity
  8
Dzialki
  6
Continuous
370
    18
100
AcDbLine
 10
7584758.680001789
 20
5724936.809999776
 30
0.0
 11
7584772.440001791
 21
5724928.829999777
 31
0.0
  0
LINE
  5
1000127
330
1D
100
AcDbEntity
  8
Dzialki
  6
Continuous
370
    18
100
AcDbLine
 10
7584772.440001791
 20
5724928.829999777
 30
0.0
 11
7584778.220001789
 21
5724925.679999777
 31
0.0
  0
LINE
  5
1000128
330
1D
100
AcDbEntity
  8
Dzialki
  6
Continuous
370
    18
100
AcDbLine
 10
7584778.220001789
 20
5724925.679999777
 30
0.0
 11
7584799.35000179
 21
5724914.169999778
 31
0.0
  0
LINE
  5
1000129
330
1D
100
AcDbEntity
  8
Dzialki
  6
Continuous
370
    18
100
AcDbLine
 10
7584799.35000179
 20
5724914.169999778
 30
0.0
 11
7584801.56000179
 21
5724912.659999778
 31
0.0
  0
LINE
  5
100012A
330
1D
100
AcDbEntity
  8
Dzialki
  6
Continuous
370
    18
100
AcDbLine
 10
7584801.56000179
 20
5724912.659999778
 30
0.0
 11
7584824.93000179
 21
5724896.729999779
 31
0.0
  0
LINE
  5
100012B
330
1D
100
AcDbEntity
  8
Dzialki
  6
Continuous
370
    18
100
AcDbLine
 10
7584824.93000179
 20
5724896.729999779
 30
0.0
 11
7584847.240001794
 21
5724884.299999777
 31
0.0
  0
LINE
  5
100012C
330
1D
100
AcDbEntity
  8
Dzialki
  6
Continuous
370
    18
100
AcDbLine
 10
7584847.240001794
 20
5724884.299999777
 30
0.0
 11
7584865.670001794
 21
5724874.039999776
 31
0.0
  0
LINE
  5
100012D
330
1D
100
AcDbEntity
  8
Dzialki
  6
Continuous
370
    18
100
AcDbLine
 10
7584865.670001794
 20
5724874.039999776
 30
0.0
 11
7584873.330001794
 21
5724869.769999778
 31
0.0
  0
LINE
  5
100012E
330
1D
100
AcDbEntity
  8
Dzialki
  6
Continuous
370
    18
100
AcDbLine
 10
7584873.330001794
 20
5724869.769999778
 30
0.0
 11
7584880.280001795
 21
5724865.889999779
 31
0.0
  0
LINE
  5
100012F
330
1D
100
AcDbEntity
  8
Dzialki
  6
Continuous
370
    18
100
AcDbLine
 10
7584880.280001795
 20
5724865.889999779
 30
0.0
 11
7584887.080001793
 21
5724862.099999779
 31
0.0
  0
LINE
  5
1000130
330
1D
100
AcDbEntity
  8
Dzialki
  6
Continuous
370
    18
100
AcDbLine
 10
7584887.080001793
 20
5724862.099999779
 30
0.0
 11
7584893.990001795
 21
5724858.259999776
 31
0.0
  0
LINE
  5
1000131
330
1D
100
AcDbEntity
  8
Dzialki
  6
Continuous
370
    18
100
AcDbLine
 10
7584893.990001795
 20
5724858.259999776
 30
0.0
 11
7584901.900001795
 21
5724853.849999776
 31
0.0
  0
LINE
  5
1000132
330
1D
100
AcDbEntity
  8
Dzialki
  6
Continuous
370
    18
100
AcDbLine
 10
7584901.900001795
 20
5724853.849999776
 30
0.0
 11
7584908.920001795
 21
5724849.939999775
 31
0.0
  0
LINE
  5
1000133
330
1D
100
AcDbEntity
  8
Dzialki
  6
Continuous
370
    18
100
AcDbLine
 10
7584908.920001795
 20
5724849.939999775
 30
0.0
 11
7584917.490001795
 21
5724845.169999777
 31
0.0
  0
LINE
  5
1000134
330
1D
100
AcDbEntity
  8
Dzialki
  6
Continuous
370
    18
100
AcDbLine
 10
7584917.490001795
 20
5724845.169999777
 30
0.0
 11
7584921.510001795
 21
5724842.839999776
 31
0.0
  0
LINE
  5
1000135
330
1D
100
AcDbEntity
  8
Dzialki
  6
Continuous
370
    18
100
AcDbLine
 10
7584921.510001795
 20
5724842.839999776
 30
0.0
 11
7584925.620001795
 21
5724840.469999777
 31
0.0
  0
LINE
  5
1000136
330
1D
100
AcDbEntity
  8
Dzialki
  6
Continuous
370
    18
100
AcDbLine
 10
7584925.620001795
 20
5724840.469999777
 30
0.0
 11
7584934.770001795
 21
5724835.179999777
 31
0.0
  0
LINE
  5
1000137
330
1D
100
AcDbEntity
  8
Dzialki
  6
Continuous
370
    18
100
AcDbLine
 10
7584934.770001795
 20
5724835.179999777
 30
0.0
 11
7584952.380001797
 21
5724825.009999777
 31
0.0
  0
LINE
  5
1000138
330
1D
100
AcDbEntity
  8
Dzialki
  6
Continuous
370
    18
100
AcDbLine
 10
7584952.380001797
 20
5724825.009999777
 30
0.0
 11
7584969.330001797
 21
5724815.219999776
 31
0.0
  0
LINE
  5
1000139
330
1D
100
AcDbEntity
  8
Dzialki
  6
Continuous
370
    18
100
AcDbLine
 10
7584969.330001797
 20
5724815.219999776
 30
0.0
 11
7584973.940001799
 21
5724812.549999776
 31
0.0
  0
LINE
  5
100013A
330
1D
100
AcDbEntity
  8
Dzialki
  6
Continuous
370
    18
100
AcDbLine
 10
7584973.940001799
 20
5724812.549999776
 30
0.0
 11
7584979.430001799
 21
5724809.379999776
 31
0.0
  0
LINE
  5
100013B
330
1D
100
AcDbEntity
  8
Dzialki
  6
Continuous
370
    18
100
AcDbLine
 10
7584979.430001799
 20
5724809.379999776
 30
0.0
 11
7584985.250001798
 21
5724806.019999776
 31
0.0
  0
LINE
  5
100013C
330
1D
100
AcDbEntity
  8
Dzialki
  6
Continuous
370
    18
100
AcDbLine
 10
7584985.250001798
 20
5724806.019999776
 30
0.0
 11
7584983.780001798
 21
5724802.299999776
 31
0.0
  0
LINE
  5
100013D
330
1D
100
AcDbEntity
  8
Dzialki
  6
Continuous
370
    18
100
AcDbLine
 10
7584983.780001798
 20
5724802.299999776
 30
0.0
 11
7584977.990001799
 21
5724805.639999775
 31
0.0
  0
LINE
  5
100013E
330
1D
100
AcDbEntity
  8
Dzialki
  6
Continuous
370
    18
100
AcDbLine
 10
7584977.990001799
 20
5724805.639999775
 30
0.0
 11
7584972.520001799
 21
5724808.809999777
 31
0.0
  0
LINE
  5
100013F
330
1D
100
AcDbEntity
  8
Dzialki
  6
Continuous
370
    18
100
AcDbLine
 10
7584972.520001799
 20
5724808.809999777
 30
0.0
 11
7584967.910001796
 21
5724811.489999776
 31
0.0
  0
LINE
  5
1000140
330
1D
100
AcDbEntity
  8
Dzialki
  6
Continuous
370
    18
100
AcDbLine
 10
7584967.910001796
 20
5724811.489999776
 30
0.0
 11
7584951.060001795
 21
5724821.249999776
 31
0.0
  0
LINE
  5
1000141
330
1D
100
AcDbEntity
  8
Dzialki
  6
Continuous
370
    18
100
AcDbLine
 10
7584951.060001795
 20
5724821.249999776
 30
0.0
 11
7584933.560001795
 21
5724831.379999776
 31
0.0
  0
LINE
  5
1000142
330
1D
100
AcDbEntity
  8
Dzialki
  6
Continuous
370
    18
100
AcDbLine
 10
7584933.560001795
 20
5724831.379999776
 30
0.0
 11
7584924.460001794
 21
5724836.649999779
 31
0.0
  0
LINE
  5
1000143
330
1D
100
AcDbEntity
  8
Dzialki
  6
Continuous
370
    18
100
AcDbLine
 10
7584924.460001794
 20
5724836.649999779
 30
0.0
 11
7584920.380001794
 21
5724839.009999778
 31
0.0
  0
LINE
  5
1000144
330
1D
100
AcDbEntity
  8
Dzialki
  6
Continuous
370
    18
100
AcDbLine
 10
7584920.380001794
 20
5724839.009999778
 30
0.0
 11
7584916.380001795
 21
5724841.329999779
 31
0.0
  0
LINE
  5
1000145
330
1D
100
AcDbEntity
  8
Dzialki
  6
Continuous
370
    18
100
AcDbLine
 10
7584916.380001795
 20
5724841.329999779
 30
0.0
 11
7584907.820001794
 21
5724846.099999776
 31
0.0
  0
LINE
  5
1000146
330
1D
100
AcDbEntity
  8
Dzialki
  6
Continuous
370
    18
100
AcDbLine
 10
7584907.820001794
 20
5724846.099999776
 30
0.0
 11
7584900.810001795
 21
5724849.999999777
 31
0.0
  0
LINE
  5
1000147
330
1D
100
AcDbEntity
  8
Dzialki
  6
Continuous
370
    18
100
AcDbLine
 10
7584900.810001795
 20
5724849.999999777
 30
0.0
 11
7584892.900001794
 21
5724854.409999776
 31
0.0
  0
LINE
  5
1000148
330
1D
100
AcDbEntity
  8
Dzialki
  6
Continuous
370
    18
100
AcDbLine
 10
7584892.900001794
 20
5724854.409999776
 30
0.0
 11
7584886.000001794
 21
5724858.249999778
 31
0.0
  0
LINE
  5
1000149
330
1D
100
AcDbEntity
  8
Dzialki
  6
Continuous
370
    18
100
AcDbLine
 10
7584886.000001794
 20
5724858.249999778
 30
0.0
 11
7584879.190001795
 21
5724862.039999777
 31
0.0
  0
LINE
  5
100014A
330
1D
100
AcDbEntity
  8
Dzialki
  6
Continuous
370
    18
100
AcDbLine
 10
7584879.190001795
 20
5724862.039999777
 30
0.0
 11
7584872.250001794
 21
5724865.909999778
 31
0.0
  0
LINE
  5
100014B
330
1D
100
AcDbEntity
  8
Dzialki
  6
Continuous
370
    18
100
AcDbLine
 10
7584872.250001794
 20
5724865.909999778
 30
0.0
 11
7584864.570001794
 21
5724870.179999776
 31
0.0
  0
LINE
  5
100014C
330
1D
100
AcDbEntity
  8
Dzialki
  6
Continuous
370
    18
100
AcDbLine
 10
7584864.570001794
 20
5724870.179999776
 30
0.0
 11
7584846.180001792
 21
5724880.429999776
 31
0.0
  0
LINE
  5
100014D
330
1D
100
AcDbEntity
  8
Dzialki
  6
Continuous
370
    18
100
AcDbLine
 10
7584846.180001792
 20
5724880.429999776
 30
0.0
 11
7584823.840001789
 21
5724892.879999777
 31
0.0
  0
LINE
  5
100014E
330
1D
100
AcDbEntity
  8
Dzialki
  6
Continuous
370
    18
100
AcDbLine
 10
7584823.840001789
 20
5724892.879999777
 30
0.0
 11
7584800.400001791
 21
5724908.659999776
 31
0.0
  0
LINE
  5
100014F
330
1D
100
AcDbEntity
  8
Dzialki
  6
Continuous
370
    18
100
AcDbLine
 10
7584800.400001791
 20
5724908.659999776
 30
0.0
 11
7584797.430001789
 21
5724910.649999778
 31
0.0
  0
LINE
  5
1000150
330
1D
100
AcDbEntity
  8
Dzialki
  6
Continuous
370
    18
100
AcDbLine
 10
7584797.430001789
 20
5724910.649999778
 30
0.0
 11
7584777.08000179
 21
5724921.749999777
 31
0.0
  0
LINE
  5
1000151
330
1D
100
AcDbEntity
  8
Dzialki
  6
Continuous
370
    18
100
AcDbLine
 10
7584777.08000179
 20
5724921.749999777
 30
0.0
 11
7584770.430001789
 21
5724925.369999778
 31
0.0
  0
LINE
  5
1000152
330
1D
100
AcDbEntity
  8
Dzialki
  6
Continuous
370
    18
100
AcDbLine
 10
7584770.430001789
 20
5724925.369999778
 30
0.0
 11
7584757.530001788
 21
5724932.849999781
 31
0.0
  0
LINE
  5
1000153
330
1D
100
AcDbEntity
  8
Dzialki
  6
Continuous
370
    18
100
AcDbLine
 10
7584757.530001788
 20
5724932.849999781
 30
0.0
 11
7584731.700001788
 21
5724947.799999776
 31
0.0
  0
LINE
  5
1000154
330
1D
100
AcDbEntity
  8
Dzialki
  6
Continuous
370
    18
100
AcDbLine
 10
7584731.700001788
 20
5724947.799999776
 30
0.0
 11
7584707.130001788
 21
5724962.039999777
 31
0.0
  0
LINE
  5
1000155
330
1D
100
AcDbEntity
  8
Dzialki
  6
Continuous
370
    18
100
AcDbLine
 10
7584707.130001788
 20
5724962.039999777
 30
0.0
 11
7584699.480001788
 21
5724966.469999777
 31
0.0
  0
LINE
  5
1000156
330
1D
100
AcDbEntity
  8
Dzialki
  6
Continuous
370
    18
100
AcDbLine
 10
7584699.480001788
 20
5724966.469999777
 30
0.0
 11
7584690.810001785
 21
5724971.489999778
 31
0.0
  0
LINE
  5
1000157
330
1D
100
AcDbEntity
  8
Dzialki
  6
Continuous
370
    18
100
AcDbLine
 10
7584690.810001785
 20
5724971.489999778
 30
0.0
 11
7584683.000001786
 21
5724976.009999776
 31
0.0
  0
LINE
  5
1000158
330
1D
100
AcDbEntity
  8
Dzialki
  6
Continuous
370
    18
100
AcDbLine
 10
7584683.000001786
 20
5724976.009999776
 30
0.0
 11
7584666.590001785
 21
5724985.519999779
 31
0.0
  0
LINE
  5
1000159
330
1D
100
AcDbEntity
  8
Dzialki
  6
Continuous
370
    18
100
AcDbLine
 10
7584666.590001785
 20
5724985.519999779
 30
0.0
 11
7584658.780001785
 21
5724989.939999779
 31
0.0
  0
LINE
  5
100015A
330
1D
100
AcDbEntity
  8
Dzialki
  6
Continuous
370
    18
100
AcDbLine
 10
7584658.780001785
 20
5724989.939999779
 30
0.0
 11
7584652.740001784
 21
5724993.369999777
 31
0.0
  0
LINE
  5
100015B
330
1D
100
AcDbEntity
  8
Dzialki
  6
Continuous
370
    18
100
AcDbLine
 10
7584652.740001784
 20
5724993.369999777
 30
0.0
 11
7584646.760001785
 21
5724996.749999782
 31
0.0
  0
LINE
  5
100015C
330
1D
100
AcDbEntity
  8
Dzialki
  6
Continuous
370
    18
100
AcDbLine
 10
7584646.760001785
 20
5724996.749999782
 30
0.0
 11
7584640.320001784
 21
5725000.399999778
 31
0.0
  0
LINE
  5
100015D
330
1D
100
AcDbEntity
  8
Dzialki
  6
Continuous
370
    18
100
AcDbLine
 10
7584640.320001784
 20
5725000.399999778
 30
0.0
 11
7584634.750001783
 21
5725003.559999779
 31
0.0
  0
LINE
  5
100015E
330
1D
100
AcDbEntity
  8
Dzialki
  6
Continuous
370
    18
100
AcDbLine
 10
7584634.750001783
 20
5725003.559999779
 30
0.0
 11
7584622.660001782
 21
5725010.399999781
 31
0.0
  0
LINE
  5
100015F
330
1D
100
AcDbEntity
  8
Dzialki
  6
Continuous
370
    18
100
AcDbLine
 10
7584622.660001782
 20
5725010.399999781
 30
0.0
 11
7584620.160001783
 21
5725011.81999978
 31
0.0
  0
LINE
  5
1000160
330
1D
100
AcDbEntity
  8
Dzialki
  6
Continuous
370
    18
100
AcDbLine
 10
7584620.160001783
 20
5725011.81999978
 30
0.0
 11
7584617.700001782
 21
5725013.219999778
 31
0.0
  0
LINE
  5
1000161
330
1D
100
AcDbEntity
  8
Dzialki
  6
Continuous
370
    18
100
AcDbLine
 10
7584617.700001782
 20
5725013.219999778
 30
0.0
 11
7584615.230001784
 21
5725014.609999777
 31
0.0
  0
LINE
  5
1000162
330
1D
100
AcDbEntity
  8
Dzialki
  6
Continuous
370
    18
100
AcDbLine
 10
7584615.230001784
 20
5725014.609999777
 30
0.0
 11
7584610.410001783
 21
5725017.339999777
 31
0.0
  0
LINE
  5
1000163
330
1D
100
AcDbEntity
  8
Dzialki
  6
Continuous
370
    18
100
AcDbLine
 10
7584610.410001783
 20
5725017.339999777
 30
0.0
 11
7584605.440001783
 21
5725020.159999781
 31
0.0
  0
LINE
  5
1000164
330
1D
100
AcDbEntity
  8
Dzialki
  6
Continuous
370
    18
100
AcDbLine
 10
7584605.440001783
 20
5725020.159999781
 30
0.0
 11
7584600.460001783
 21
5725022.989999781
 31
0.0
  0
LINE
  5
1000165
330
1D
100
AcDbEntity
  8
Dzialki
  6
Continuous
370
    18
100
AcDbLine
 10
7584600.460001783
 20
5725022.989999781
 30
0.0
 11
7584595.500001783
 21
5725025.789999777
 31
0.0
  0
LINE
  5
1000166
330
1D
100
AcDbEntity
  8
Dzialki
  6
Continuous
370
    18
100
AcDbLine
 10
7584595.500001783
 20
5725025.789999777
 30
0.0
 11
7584590.510001783
 21
5725028.619999777
 31
0.0
  0
LINE
  5
1000167
330
1D
100
AcDbEntity
  8
Dzialki
  6
Continuous
370
    18
100
AcDbLine
 10
7584590.510001783
 20
5725028.619999777
 30
0.0
 11
7584585.450001783
 21
5725031.479999781
 31
0.0
  0
LINE
  5
1000168
330
1D
100
AcDbEntity
  8
Dzialki
  6
Continuous
370
    18
100
AcDbLine
 10
7584585.450001783
 20
5725031.479999781
 30
0.0
 11
7584575.710001781
 21
5725037.009999775
 31
0.0
  0
LINE
  5
1000169
330
1D
100
AcDbEntity
  8
Dzialki
  6
Continuous
370
    18
100
AcDbLine
 10
7584575.710001781
 20
5725037.009999775
 30
0.0
 11
7584572.720001779
 21
5725038.899999779
 31
0.0
  0
LINE
  5
100016A
330
1D
100
AcDbEntity
  8
Dzialki
  6
Continuous
370
    18
100
AcDbLine
 10
7584572.720001779
 20
5725038.899999779
 30
0.0
 11
7584569.470001781
 21
5725040.969999777
 31
0.0
  0
LINE
  5
100016B
330
1D
100
AcDbEntity
  8
Dzialki
  6
Continuous
370
    18
100
AcDbLine
 10
7584569.470001781
 20
5725040.969999777
 30
0.0
 11
7584560.050001782
 21
5725046.979999778
 31
0.0
  0
LINE
  5
100016C
330
1D
100
AcDbEntity
  8
Dzialki
  6
Continuous
370
    18
100
AcDbLine
 10
7584560.050001782
 20
5725046.979999778
 30
0.0
 11
7584554.96000178
 21
5725050.219999777
 31
0.0
  0
LINE
  5
100016D
330
1D
100
AcDbEntity
  8
Dzialki
  6
Continuous
370
    18
100
AcDbLine
 10
7584554.96000178
 20
5725050.219999777
 30
0.0
 11
7584549.880001778
 21
5725053.449999778
 31
0.0
  0
LINE
  5
100016E
330
1D
100
AcDbEntity
  8
Dzialki
  6
Continuous
370
    18
100
AcDbLine
 10
7584549.880001778
 20
5725053.449999778
 30
0.0
 11
7584544.810001779
 21
5725056.679999775
 31
0.0
  0
LINE
  5
100016F
330
1D
100
AcDbEntity
  8
Dzialki
  6
Continuous
370
    18
100
AcDbLine
 10
7584544.810001779
 20
5725056.679999775
 30
0.0
 11
7584542.020001779
 21
5725058.459999781
 31
0.0
  0
LINE
  5
1000170
330
1D
100
AcDbEntity
  8
Dzialki
  6
Continuous
370
    18
100
AcDbLine
 10
7584542.020001779
 20
5725058.459999781
 30
0.0
 11
7584539.790001779
 21
5725059.789999777
 31
0.0
  0
LINE
  5
1000171
330
1D
100
AcDbEntity
  8
Dzialki
  6
Continuous
370
    18
100
AcDbLine
 10
7584539.790001779
 20
5725059.789999777
 30
0.0
 11
7584536.940001782
 21
5725061.509999776
 31
0.0
  0
LINE
  5
1000172
330
1D
100
AcDbEntity
  8
Dzialki
  6
Continuous
370
    18
100
AcDbLine
 10
7584536.940001782
 20
5725061.509999776
 30
0.0
 11
7584528.41000178
 21
5725066.639999777
 31
0.0
  0
LINE
  5
1000173
330
1D
100
AcDbEntity
  8
Dzialki
  6
Continuous
370
    18
100
AcDbLine
 10
7584528.41000178
 20
5725066.639999777
 30
0.0
 11
7584516.960001779
 21
5725073.539999779
 31
0.0
  0
LINE
  5
1000174
330
1D
100
AcDbEntity
  8
Dzialki
  6
Continuous
370
    18
100
AcDbLine
 10
7584516.960001779
 20
5725073.539999779
 30
0.0
 11
7584511.420001778
 21
5725076.879999777
 31
0.0
  0
LINE
  5
1000175
330
1D
100
AcDbEntity
  8
Dzialki
  6
Continuous
370
    18
100
AcDbLine
 10
7584511.420001778
 20
5725076.879999777
 30
0.0
 11
7584507.740001781
 21
5725079.089999777
 31
0.0
  0
LINE
  5
1000176
330
1D
100
AcDbEntity
  8
Dzialki
  6
Continuous
370
    18
100
AcDbLine
 10
7584507.740001781
 20
5725079.089999777
 30
0.0
 11
7584505.810001778
 21
5725080.269999778
 31
0.0
  0
LINE
  5
1000177
330
1D
100
AcDbEntity
  8
Dzialki
  6
Continuous
370
    18
100
AcDbLine
 10
7584505.810001778
 20
5725080.269999778
 30
0.0
 11
7584503.020001777
 21
5725081.989999778
 31
0.0
  0
LINE
  5
1000178
330
1D
100
AcDbEntity
  8
Dzialki
  6
Continuous
370
    18
100
AcDbLine
 10
7584503.020001777
 20
5725081.989999778
 30
0.0
 11
7584500.210001777
 21
5725083.70999978
 31
0.0
  0
LINE
  5
1000179
330
1D
100
AcDbEntity
  8
Dzialki
  6
Continuous
370
    18
100
AcDbLine
 10
7584500.210001777
 20
5725083.70999978
 30
0.0
 11
7584497.410001777
 21
5725085.429999779
 31
0.0
  0
LINE
  5
100017A
330
1D
100
AcDbEntity
  8
Dzialki
  6
Continuous
370
    18
100
AcDbLine
 10
7584497.410001777
 20
5725085.429999779
 30
0.0
 11
7584494.61000178
 21
5725087.139999779
 31
0.0
  0
LINE
  5
100017B
330
1D
100
AcDbEntity
  8
Dzialki
  6
Continuous
370
    18
100
AcDbLine
 10
7584494.61000178
 20
5725087.139999779
 30
0.0
 11
7584489.010001777
 21
5725090.579999778
 31
0.0
  0
LINE
  5
100017C
330
1D
100
AcDbEntity
  8
Dzialki
  6
Continuous
370
    18
100
AcDbLine
 10
7584489.010001777
 20
5725090.579999778
 30
0.0
 11
7584483.420001779
 21
5725094.019999781
 31
0.0
  0
LINE
  5
100017D
330
1D
100
AcDbEntity
  8
Dzialki
  6
Continuous
370
    18
100
AcDbLine
 10
7584483.420001779
 20
5725094.019999781
 30
0.0
 11
7584472.270001778
 21
5725100.859999778
 31
0.0
  0
LINE
  5
100017E
330
1D
100
AcDbEntity
  8
Dzialki
  6
Continuous
370
    18
100
AcDbLine
 10
7584472.270001778
 20
5725100.859999778
 30
0.0
 11
7584456.590001776
 21
5725110.469999779
 31
0.0
  0
LINE
  5
100017F
330
1D
100
AcDbEntity
  8
Dzialki
  6
Continuous
370
    18
100
AcDbLine
 10
7584456.590001776
 20
5725110.469999779
 30
0.0
 11
7584447.240001777
 21
5725116.419999777
 31
0.0
  0
LINE
  5
1000180
330
1D
100
AcDbEntity
  8
Dzialki
  6
Continuous
370
    18
100
AcDbLine
 10
7584447.240001777
 20
5725116.419999777
 30
0.0
 11
7584434.380001775
 21
5725124.609999779
 31
0.0
  0
LINE
  5
1000181
330
1D
100
AcDbEntity
  8
Dzialki
  6
Continuous
370
    18
100
AcDbLine
 10
7584434.380001775
 20
5725124.609999779
 30
0.0
 11
7584421.520001775
 21
5725132.799999779
 31
0.0
  0
LINE
  5
1000182
330
1D
100
AcDbEntity
  8
Dzialki
  6
Continuous
370
    18
100
AcDbLine
 10
7584421.520001775
 20
5725132.799999779
 30
0.0
 11
7584405.940001775
 21
5725142.719999777
 31
0.0
  0
LINE
  5
1000183
330
1D
100
AcDbEntity
  8
Dzialki
  6
Continuous
370
    18
100
AcDbLine
 10
7584405.940001775
 20
5725142.719999777
 30
0.0
 11
7584402.700001775
 21
5725144.779999779
 31
0.0
  0
LINE
  5
1000184
330
1D
100
AcDbEntity
  8
Dzialki
  6
Continuous
370
    18
100
AcDbLine
 10
7584402.700001775
 20
5725144.779999779
 30
0.0
 11
7584399.480001775
 21
5725146.819999779
 31
0.0
  0
LINE
  5
1000185
330
1D
100
AcDbEntity
  8
Dzialki
  6
Continuous
370
    18
100
AcDbLine
 10
7584399.480001775
 20
5725146.819999779
 30
0.0
 11
7584396.260001776
 21
5725148.879999779
 31
0.0
  0
LINE
  5
1000186
330
1D
100
AcDbEntity
  8
Dzialki
  6
Continuous
370
    18
100
AcDbLine
 10
7584396.260001776
 20
5725148.879999779
 30
0.0
 11
7584389.110001775
 21
5725153.429999776
 31
0.0
  0
LINE
  5
1000187
330
1D
100
AcDbEntity
  8
Dzialki
  6
Continuous
370
    18
100
AcDbLine
 10
7584389.110001775
 20
5725153.429999776
 30
0.0
 11
7584387.140001773
 21
5725154.759999777
 31
0.0
  0
LINE
  5
1000188
330
1D
100
AcDbEntity
  8
Dzialki
  6
Continuous
370
    18
100
AcDbLine
 10
7584387.140001773
 20
5725154.759999777
 30
0.0
 11
7584378.110001775
 21
5725160.85999978
 31
0.0
  0
LINE
  5
1000189
330
1D
100
AcDbEntity
  8
Dzialki
  6
Continuous
370
    18
100
AcDbLine
 10
7584378.110001775
 20
5725160.85999978
 30
0.0
 11
7584369.080001772
 21
5725166.959999777
 31
0.0
  0
LINE
  5
100018A
330
1D
100
AcDbEntity
  8
Dzialki
  6
Continuous
370
    18
100
AcDbLine
 10
7584369.080001772
 20
5725166.959999777
 30
0.0
 11
7584358.600001772
 21
5725174.039999781
 31
0.0
  0
LINE
  5
100018B
330
1D
100
AcDbEntity
  8
Dzialki
  6
Continuous
370
    18
100
AcDbLine
 10
7584358.600001772
 20
5725174.039999781
 30
0.0
 11
7584358.320001772
 21
5725174.199999778
 31
0.0
  0
LINE
  5
100018C
330
1D
100
AcDbEntity
  8
Dzialki
  6
Continuous
370
    18
100
AcDbLine
 10
7584358.320001772
 20
5725174.199999778
 30
0.0
 11
7584346.790001773
 21
5725180.819999779
 31
0.0
  0
LINE
  5
100018D
330
1D
100
AcDbEntity
  8
Dzialki
  6
Continuous
370
    18
100
AcDbLine
 10
7584346.790001773
 20
5725180.819999779
 30
0.0
 11
7584322.370001772
 21
5725194.869999777
 31
0.0
  0
LINE
  5
100018E
330
1D
100
AcDbEntity
  8
Dzialki
  6
Continuous
370
    18
100
AcDbLine
 10
7584322.370001772
 20
5725194.869999777
 30
0.0
 11
7584321.760001772
 21
5725195.219999778
 31
0.0
  0
LINE
  5
100018F
330
1D
100
AcDbEntity
  8
Dzialki
  6
Continuous
370
    18
100
AcDbLine
 10
7584321.760001772
 20
5725195.219999778
 30
0.0
 11
7584299.240001771
 21
5725208.179999778
 31
0.0
  0
LINE
  5
1000190
330
1D
100
AcDbEntity
  8
Dzialki
  6
Continuous
370
    18
100
AcDbLine
 10
7584299.240001771
 20
5725208.179999778
 30
0.0
 11
7584290.65000177
 21
5725213.10999978
 31
0.0
  0
LINE
  5
1000191
330
1D
100
AcDbEntity
  8
Dzialki
  6
Continuous
370
    18
100
AcDbLine
 10
7584290.65000177
 20
5725213.10999978
 30
0.0
 11
7584282.07000177
 21
5725218.039999779
 31
0.0
  0
LINE
  5
1000192
330
1D
100
AcDbEntity
  8
Dzialki
  6
Continuous
370
    18
100
AcDbLine
 10
7584282.07000177
 20
5725218.039999779
 30
0.0
 11
7584273.57000177
 21
5725222.929999776
 31
0.0
  0
LINE
  5
1000193
330
1D
100
AcDbEntity
  8
Dzialki
  6
Continuous
370
    18
100
AcDbLine
 10
7584273.57000177
 20
5725222.929999776
 30
0.0
 11
7584247.500001768
 21
5725237.919999777
 31
0.0
  0
LINE
  5
1000194
330
1D
100
AcDbEntity
  8
Dzialki
  6
Continuous
370
    18
100
AcDbLine
 10
7584247.500001768
 20
5725237.919999777
 30
0.0
 11
7584242.23000177
 21
5725240.95999978
 31
0.0
  0
LINE
  5
1000195
330
1D
100
AcDbEntity
  8
Dzialki
  6
Continuous
370
    18
100
AcDbLine
 10
7584242.23000177
 20
5725240.95999978
 30
0.0
 11
7584236.880001768
 21
5725244.029999782
 31
0.0
  0
LINE
  5
1000196
330
1D
100
AcDbEntity
  8
Dzialki
  6
Continuous
370
    18
100
AcDbLine
 10
7584236.880001768
 20
5725244.029999782
 30
0.0
 11
7584231.540001766
 21
5725247.099999777
 31
0.0
  0
LINE
  5
1000197
330
1D
100
AcDbEntity
  8
Dzialki
  6
Continuous
370
    18
100
AcDbLine
 10
7584231.540001766
 20
5725247.099999777
 30
0.0
 11
7584226.190001767
 21
5725250.189999782
 31
0.0
  0
LINE
  5
1000198
330
1D
100
AcDbEntity
  8
Dzialki
  6
Continuous
370
    18
100
AcDbLine
 10
7584226.190001767
 20
5725250.189999782
 30
0.0
 11
7584220.840001766
 21
5725253.259999777
 31
0.0
  0
LINE
  5
1000199
330
1D
100
AcDbEntity
  8
Dzialki
  6
Continuous
370
    18
100
AcDbLine
 10
7584220.840001766
 20
5725253.259999777
 30
0.0
 11
7584217.140001766
 21
5725255.389999781
 31
0.0
  0
LINE
  5
100019A
330
1D
100
AcDbEntity
  8
Dzialki
  6
Continuous
370
    18
100
AcDbLine
 10
7584217.140001766
 20
5725255.389999781
 30
0.0
 11
7584212.040001766
 21
5725258.439999779
 31
0.0
  0
LINE
  5
100019B
330
1D
100
AcDbEntity
  8
Dzialki
  6
Continuous
370
    18
100
AcDbLine
 10
7584212.040001766
 20
5725258.439999779
 30
0.0
 11
7584203.230001766
 21
5725263.729999779
 31
0.0
  0
LINE
  5
100019C
330
1D
100
AcDbEntity
  8
Dzialki
  6
Continuous
370
    18
100
AcDbLine
 10
7584203.230001766
 20
5725263.729999779
 30
0.0
 11
7584195.370001766
 21
5725268.429999779
 31
0.0
  0
LINE
  5
100019D
330
1D
100
AcDbEntity
  8
Dzialki
  6
Continuous
370
    18
100
AcDbLine
 10
7584195.370001766
 20
5725268.429999779
 30
0.0
 11
7584187.070001766
 21
5725273.40999978
 31
0.0
  0
LINE
  5
100019E
330
1D
100
AcDbEntity
  8
Dzialki
  6
Continuous
370
    18
100
AcDbLine
 10
7584187.070001766
 20
5725273.40999978
 30
0.0
 11
7584170.680001765
 21
5725283.229999779
 31
0.0
  0
LINE
  5
100019F
330
1D
100
AcDbEntity
  8
Dzialki
  6
Continuous
370
    18
100
AcDbLine
 10
7584170.680001765
 20
5725283.229999779
 30
0.0
 11
7584148.860001765
 21
5725296.309999779
 31
0.0
  0
LINE
  5
10001A0
330
1D
100
AcDbEntity
  8
Dzialki
  6
Continuous
370
    18
100
AcDbLine
 10
7584148.860001765
 20
5725296.309999779
 30
0.0
 11
7584146.760001764
 21
5725297.569999781
 31
0.0
  0
LINE
  5
10001A1
330
1D
100
AcDbEntity
  8
Dzialki
  6
Continuous
370
    18
100
AcDbLine
 10
7584146.760001764
 20
5725297.569999781
 30
0.0
 11
7584144.450001764
 21
5725298.979999775
 31
0.0
  0
LINE
  5
10001A2
330
1D
100
AcDbEntity
  8
Dzialki
  6
Continuous
370
    18
100
AcDbLine
 10
7584144.450001764
 20
5725298.979999775
 30
0.0
 11
7584142.960001765
 21
5725299.889999781
 31
0.0
  0
LINE
  5
10001A3
330
1D
100
AcDbEntity
  8
Dzialki
  6
Continuous
370
    18
100
AcDbLine
 10
7584142.960001765
 20
5725299.889999781
 30
0.0
 11
7584136.210001765
 21
5725304.009999779
 31
0.0
  0
LINE
  5
10001A4
330
1D
100
AcDbEntity
  8
Dzialki
  6
Continuous
370
    18
100
AcDbLine
 10
7584136.210001765
 20
5725304.009999779
 30
0.0
 11
7584133.000001765
 21
5725305.959999783
 31
0.0
  0
LINE
  5
10001A5
330
1D
100
AcDbEntity
  8
Dzialki
  6
Continuous
370
    18
100
AcDbLine
 10
7584133.000001765
 20
5725305.959999783
 30
0.0
 11
7584129.790001764
 21
5725307.919999779
 31
0.0
  0
LINE
  5
10001A6
330
1D
100
AcDbEntity
  8
Dzialki
  6
Continuous
370
    18
100
AcDbLine
 10
7584129.790001764
 20
5725307.919999779
 30
0.0
 11
7584122.240001764
 21
5725312.53999978
 31
0.0
  0
LINE
  5
10001A7
330
1D
100
AcDbEntity
  8
Dzialki
  6
Continuous
370
    18
100
AcDbLine
 10
7584122.240001764
 20
5725312.53999978
 30
0.0
 11
7584114.510001763
 21
5725317.25999978
 31
0.0
  0
LINE
  5
10001A8
330
1D
100
AcDbEntity
  8
Dzialki
  6
Continuous
370
    18
100
AcDbLine
 10
7584114.510001763
 20
5725317.25999978
 30
0.0
 11
7584108.090001763
 21
5725321.179999781
 31
0.0
  0
LINE
  5
10001A9
330
1D
100
AcDbEntity
  8
Dzialki
  6
Continuous
370
    18
100
AcDbLine
 10
7584108.090001763
 20
5725321.179999781
 30
0.0
 11
7584100.400001764
 21
5725325.879999781
 31
0.0
  0
LINE
  5
10001AA
330
1D
100
AcDbEntity
  8
Dzialki
  6
Continuous
370
    18
100
AcDbLine
 10
7584100.400001764
 20
5725325.879999781
 30
0.0
 11
7584085.470001764
 21
5725334.999999778
 31
0.0
  0
LINE
  5
10001AB
330
1D
100
AcDbEntity
  8
Dzialki
  6
Continuous
370
    18
100
AcDbLine
 10
7584085.470001764
 20
5725334.999999778
 30
0.0
 11
7584071.780001761
 21
5725343.359999782
 31
0.0
  0
LINE
  5
10001AC
330
1D
100
AcDbEntity
  8
Dzialki
  6
Continuous
370
    18
100
AcDbLine
 10
7584071.780001761
 20
5725343.359999782
 30
0.0
 11
7584064.790001762
 21
5725347.619999781
 31
0.0
  0
LINE
  5
10001AD
330
1D
100
AcDbEntity
  8
Dzialki
  6
Continuous
370
    18
100
AcDbLine
 10
7584064.790001762
 20
5725347.619999781
 30
0.0
 11
7584057.81000176
 21
5725351.879999781
 31
0.0
  0
LINE
  5
10001AE
330
1D
100
AcDbEntity
  8
Dzialki
  6
Continuous
370
    18
100
AcDbLine
 10
7584057.81000176
 20
5725351.879999781
 30
0.0
 11
7584056.26000176
 21
5725352.82999978
 31
0.0
  0
LINE
  5
10001AF
330
1D
100
AcDbEntity
  8
Dzialki
  6
Continuous
370
    18
100
AcDbLine
 10
7584056.26000176
 20
5725352.82999978
 30
0.0
 11
7584043.91000176
 21
5725359.94999978
 31
0.0
  0
LINE
  5
10001B0
330
1D
100
AcDbEntity
  8
Dzialki
  6
Continuous
370
    18
100
AcDbLine
 10
7584043.91000176
 20
5725359.94999978
 30
0.0
 11
7584037.42000176
 21
5725363.689999782
 31
0.0
  0
LINE
  5
10001B1
330
1D
100
AcDbEntity
  8
Dzialki
  6
Continuous
370
    18
100
AcDbLine
 10
7584037.42000176
 20
5725363.689999782
 30
0.0
 11
7584036.930001761
 21
5725363.83999978
 31
0.0
  0
LINE
  5
10001B2
330
1D
100
AcDbEntity
  8
Dzialki
  6
Continuous
370
    18
100
AcDbLine
 10
7584036.930001761
 20
5725363.83999978
 30
0.0
 11
7584030.72000176
 21
5725365.679999781
 31
0.0
  0
LINE
  5
10001B3
330
1D
100
AcDbEntity
  8
Dzialki
  6
Continuous
370
    18
100
AcDbLine
 10
7584030.72000176
 20
5725365.679999781
 30
0.0
 11
7584032.08000176
 21
5725375.709999781
 31
0.0
  0
LINE
  5
10001B4
330
1D
100
AcDbEntity
  8
Dzialki
  6
Continuous
370
    18
100
AcDbLine
 10
7584014.260001758
 20
5724963.93999978
 30
0.0
 11
7584012.610001758
 21
5724953.219999779
 31
0.0
  0
LINE
  5
10001B5
330
1D
100
AcDbEntity
  8
Dzialki
  6
Continuous
370
    18
100
AcDbLine
 10
7584012.610001758
 20
5724953.219999779
 30
0.0
 11
7584010.06000176
 21
5724936.599999777
 31
0.0
  0
LINE
  5
10001B6
330
1D
100
AcDbEntity
  8
Dzialki
  6
Continuous
370
    18
100
AcDbLine
 10
7584010.06000176
 20
5724936.599999777
 30
0.0
 11
7584009.560001759
 21
5724921.789999779
 31
0.0
  0
LINE
  5
10001B7
330
1D
100
AcDbEntity
  8
Dzialki
  6
Continuous
370
    18
100
AcDbLine
 10
7584009.560001759
 20
5724921.789999779
 30
0.0
 11
7583979.730001759
 21
5724818.399999777
 31
0.0
  0
LINE
  5
10001B8
330
1D
100
AcDbEntity
  8
Dzialki
  6
Continuous
370
    18
100
AcDbLine
 10
7583979.730001759
 20
5724818.399999777
 30
0.0
 11
7583972.590001759
 21
5724821.509999777
 31
0.0
  0
LINE
  5
10001B9
330
1D
100
AcDbEntity
  8
Dzialki
  6
Continuous
370
    18
100
AcDbLine
 10
7583972.590001759
 20
5724821.509999777
 30
0.0
 11
7584026.79000176
 21
5725010.819999782
 31
0.0
  0
LINE
  5
10001BA
330
1D
100
AcDbEntity
  8
Dzialki
  6
Continuous
370
    18
100
AcDbLine
 10
7584026.79000176
 20
5725010.819999782
 30
0.0
 11
7584014.260001758
 21
5724963.93999978
 31
0.0
  0
LINE
  5
10001BB
330
1D
100
AcDbEntity
  8
Dzialki
  6
Continuous
370
    18
100
AcDbLine
 10
7584131.810001763
 20
5725345.70999978
 30
0.0
 11
7584124.540001766
 21
5725320.499999781
 31
0.0
  0
LINE
  5
10001BC
330
1D
100
AcDbEntity
  8
Dzialki
  6
Continuous
370
    18
100
AcDbLine
 10
7584124.540001766
 20
5725320.499999781
 30
0.0
 11
7584116.800001764
 21
5725325.239999781
 31
0.0
  0
LINE
  5
10001BD
330
1D
100
AcDbEntity
  8
Dzialki
  6
Continuous
370
    18
100
AcDbLine
 10
7584116.800001764
 20
5725325.239999781
 30
0.0
 11
7584123.380001764
 21
5725348.239999779
 31
0.0
  0
LINE
  5
10001BE
330
1D
100
AcDbEntity
  8
Dzialki
  6
Continuous
370
    18
100
AcDbLine
 10
7584123.380001764
 20
5725348.239999779
 30
0.0
 11
7584131.810001763
 21
5725345.70999978
 31
0.0
  0
LINE
  5
10001BF
330
1D
100
AcDbEntity
  8
Dzialki
  6
Continuous
370
    18
100
AcDbLine
 10
7584123.380001764
 20
5725348.239999779
 30
0.0
 11
7584116.800001764
 21
5725325.239999781
 31
0.0
  0
LINE
  5
10001C0
330
1D
100
AcDbEntity
  8
Dzialki
  6
Continuous
370
    18
100
AcDbLine
 10
7584116.800001764
 20
5725325.239999781
 30
0.0
 11
7584110.390001764
 21
5725329.149999779
 31
0.0
  0
LINE
  5
10001C1
330
1D
100
AcDbEntity
  8
Dzialki
  6
Continuous
370
    18
100
AcDbLine
 10
7584110.390001764
 20
5725329.149999779
 30
0.0
 11
7584116.490001764
 21
5725350.309999778
 31
0.0
  0
LINE
  5
10001C2
330
1D
100
AcDbEntity
  8
Dzialki
  6
Continuous
370
    18
100
AcDbLine
 10
7584116.490001764
 20
5725350.309999778
 30
0.0
 11
7584123.380001764
 21
5725348.239999779
 31
0.0
  0
LINE
  5
10001C3
330
1D
100
AcDbEntity
  8
Dzialki
  6
Continuous
370
    18
100
AcDbLine
 10
7584146.930001764
 20
5725341.149999782
 30
0.0
 11
7584138.510001763
 21
5725311.96999978
 31
0.0
  0
LINE
  5
10001C4
330
1D
100
AcDbEntity
  8
Dzialki
  6
Continuous
370
    18
100
AcDbLine
 10
7584138.510001763
 20
5725311.96999978
 30
0.0
 11
7584135.310001763
 21
5725313.929999781
 31
0.0
  0
LINE
  5
10001C5
330
1D
100
AcDbEntity
  8
Dzialki
  6
Continuous
370
    18
100
AcDbLine
 10
7584135.310001763
 20
5725313.929999781
 30
0.0
 11
7584143.480001763
 21
5725342.189999779
 31
0.0
  0
LINE
  5
10001C6
330
1D
100
AcDbEntity
  8
Dzialki
  6
Continuous
370
    18
100
AcDbLine
 10
7584143.480001763
 20
5725342.189999779
 30
0.0
 11
7584146.930001764
 21
5725341.149999782
 31
0.0
  0
LINE
  5
10001C7
330
1D
100
AcDbEntity
  8
Dzialki
  6
Continuous
370
    18
100
AcDbLine
 10
7584160.330001765
 20
5725337.119999781
 30
0.0
 11
7584176.600001764
 21
5725332.21999978
 31
0.0
  0
LINE
  5
10001C8
330
1D
100
AcDbEntity
  8
Dzialki
  6
Continuous
370
    18
100
AcDbLine
 10
7584176.600001764
 20
5725332.21999978
 30
0.0
 11
7584150.150001765
 21
5725304.87999978
 31
0.0
  0
LINE
  5
10001C9
330
1D
100
AcDbEntity
  8
Dzialki
  6
Continuous
370
    18
100
AcDbLine
 10
7584150.150001765
 20
5725304.87999978
 30
0.0
 11
7584145.200001765
 21
5725307.889999777
 31
0.0
  0
LINE
  5
10001CA
330
1D
100
AcDbEntity
  8
Dzialki
  6
Continuous
370
    18
100
AcDbLine
 10
7584145.200001765
 20
5725307.889999777
 30
0.0
 11
7584153.920001764
 21
5725339.049999781
 31
0.0
  0
LINE
  5
10001CB
330
1D
100
AcDbEntity
  8
Dzialki
  6
Continuous
370
    18
100
AcDbLine
 10
7584153.920001764
 20
5725339.049999781
 30
0.0
 11
7584154.540001764
 21
5725338.859999782
 31
0.0
  0
LINE
  5
10001CC
330
1D
100
AcDbEntity
  8
Dzialki
  6
Continuous
370
    18
100
AcDbLine
 10
7584154.540001764
 20
5725338.859999782
 30
0.0
 11
7584160.330001765
 21
5725337.119999781
 31
0.0
  0
LINE
  5
10001CD
330
1D
100
AcDbEntity
  8
Dzialki
  6
Continuous
370
    18
100
AcDbLine
 10
7584341.340001771
 20
5725896.259999781
 30
0.0
 11
7584352.430001771
 21
5725892.099999781
 31
0.0
  0
LINE
  5
10001CE
330
1D
100
AcDbEntity
  8
Dzialki
  6
Continuous
370
    18
100
AcDbLine
 10
7584352.430001771
 20
5725892.099999781
 30
0.0
 11
7584366.570001772
 21
5725886.78999978
 31
0.0
  0
LINE
  5
10001CF
330
1D
100
AcDbEntity
  8
Dzialki
  6
Continuous
370
    18
100
AcDbLine
 10
7584366.570001772
 20
5725886.78999978
 30
0.0
 11
7584154.540001764
 21
5725338.859999782
 31
0.0
  0
LINE
  5
10001D0
330
1D
100
AcDbEntity
  8
Dzialki
  6
Continuous
370
    18
100
AcDbLine
 10
7584154.540001764
 20
5725338.859999782
 30
0.0
 11
7584153.920001764
 21
5725339.049999781
 31
0.0
  0
LINE
  5
10001D1
330
1D
100
AcDbEntity
  8
Dzialki
  6
Continuous
370
    18
100
AcDbLine
 10
7584153.920001764
 20
5725339.049999781
 30
0.0
 11
7584146.930001764
 21
5725341.149999782
 31
0.0
  0
LINE
  5
10001D2
330
1D
100
AcDbEntity
  8
Dzialki
  6
Continuous
370
    18
100
AcDbLine
 10
7584146.930001764
 20
5725341.149999782
 30
0.0
 11
7584143.480001763
 21
5725342.189999779
 31
0.0
  0
LINE
  5
10001D3
330
1D
100
AcDbEntity
  8
Dzialki
  6
Continuous
370
    18
100
AcDbLine
 10
7584143.480001763
 20
5725342.189999779
 30
0.0
 11
7584140.040001765
 21
5725343.229999781
 31
0.0
  0
LINE
  5
10001D4
330
1D
100
AcDbEntity
  8
Dzialki
  6
Continuous
370
    18
100
AcDbLine
 10
7584140.040001765
 20
5725343.229999781
 30
0.0
 11
7584131.810001763
 21
5725345.70999978
 31
0.0
  0
LINE
  5
10001D5
330
1D
100
AcDbEntity
  8
Dzialki
  6
Continuous
370
    18
100
AcDbLine
 10
7584131.810001763
 20
5725345.70999978
 30
0.0
 11
7584123.380001764
 21
5725348.239999779
 31
0.0
  0
LINE
  5
10001D6
330
1D
100
AcDbEntity
  8
Dzialki
  6
Continuous
370
    18
100
AcDbLine
 10
7584123.380001764
 20
5725348.239999779
 30
0.0
 11
7584116.490001764
 21
5725350.309999778
 31
0.0
  0
LINE
  5
10001D7
330
1D
100
AcDbEntity
  8
Dzialki
  6
Continuous
370
    18
100
AcDbLine
 10
7584116.490001764
 20
5725350.309999778
 30
0.0
 11
7584108.620001764
 21
5725352.67999978
 31
0.0
  0
LINE
  5
10001D8
330
1D
100
AcDbEntity
  8
Dzialki
  6
Continuous
370
    18
100
AcDbLine
 10
7584108.620001764
 20
5725352.67999978
 30
0.0
 11
7584320.85000177
 21
5725903.959999779
 31
0.0
  0
LINE
  5
10001D9
330
1D
100
AcDbEntity
  8
Dzialki
  6
Continuous
370
    18
100
AcDbLine
 10
7584320.85000177
 20
5725903.959999779
 30
0.0
 11
7584341.340001771
 21
5725896.259999781
 31
0.0
  0
LINE
  5
10001DA
330
1D
100
AcDbEntity
  8
Dzialki
  6
Continuous
370
    18
100
AcDbLine
 10
7583991.366585897
 20
5724732.535272929
 30
0.0
 11
7583989.85043556
 21
5724747.514138297
 31
0.0
  0
LINE
  5
10001DB
330
1D
100
AcDbEntity
  8
Dzialki
  6
Continuous
370
    18
100
AcDbLine
 10
7583989.85043556
 20
5724747.514138297
 30
0.0
 11
7584005.460001758
 21
5724807.179999777
 31
0.0
  0
LINE
  5
10001DC
330
1D
100
AcDbEntity
  8
Dzialki
  6
Continuous
370
    18
100
AcDbLine
 10
7584005.460001758
 20
5724807.179999777
 30
0.0
 11
7584010.22000176
 21
5724805.099999776
 31
0.0
  0
LINE
  5
10001DD
330
1D
100
AcDbEntity
  8
Dzialki
  6
Continuous
370
    18
100
AcDbLine
 10
7584010.22000176
 20
5724805.099999776
 30
0.0
 11
7583991.366585897
 21
5724732.535272929
 31
0.0
  0
LINE
  5
10001DE
330
1D
100
AcDbEntity
  8
Dzialki
  6
Continuous
370
    18
100
AcDbLine
 10
7583974.697130218
 20
5724620.917999321
 30
0.0
 11
7583976.920699561
 21
5724629.395588082
 31
0.0
  0
LINE
  5
10001DF
330
1D
100
AcDbEntity
  8
Dzialki
  6
Continuous
370
    18
100
AcDbLine
 10
7583976.920699561
 20
5724629.395588082
 30
0.0
 11
7583977.430504262
 21
5724631.357976473
 31
0.0
  0
LINE
  5
10001E0
330
1D
100
AcDbEntity
  8
Dzialki
  6
Continuous
370
    18
100
AcDbLine
 10
7583977.430504262
 20
5724631.357976473
 30
0.0
 11
7583992.112597948
 21
5724687.832724297
 31
0.0
  0
LINE
  5
10001E1
330
1D
100
AcDbEntity
  8
Dzialki
  6
Continuous
370
    18
100
AcDbLine
 10
7583992.112597948
 20
5724687.832724297
 30
0.0
 11
7583989.913023133
 21
5724708.72792009
 31
0.0
  0
LINE
  5
10001E2
330
1D
100
AcDbEntity
  8
Dzialki
  6
Continuous
370
    18
100
AcDbLine
 10
7583989.913023133
 20
5724708.72792009
 30
0.0
 11
7583988.549731844
 21
5724721.691565993
 31
0.0
  0
LINE
  5
10001E3
330
1D
100
AcDbEntity
  8
Dzialki
  6
Continuous
370
    18
100
AcDbLine
 10
7583988.549731844
 20
5724721.691565993
 30
0.0
 11
7583986.988145185
 21
5724736.558482495
 31
0.0
  0
LINE
  5
10001E4
330
1D
100
AcDbEntity
  8
Dzialki
  6
Continuous
370
    18
100
AcDbLine
 10
7583986.988145185
 20
5724736.558482495
 30
0.0
 11
7583985.790029188
 21
5724747.937734205
 31
0.0
  0
LINE
  5
10001E5
330
1D
100
AcDbEntity
  8
Dzialki
  6
Continuous
370
    18
100
AcDbLine
 10
7583985.790029188
 20
5724747.937734205
 30
0.0
 11
7584001.34000176
 21
5724808.979999779
 31
0.0
  0
LINE
  5
10001E6
330
1D
100
AcDbEntity
  8
Dzialki
  6
Continuous
370
    18
100
AcDbLine
 10
7584001.34000176
 20
5724808.979999779
 30
0.0
 11
7584005.460001758
 21
5724807.179999777
 31
0.0
  0
LINE
  5
10001E7
330
1D
100
AcDbEntity
  8
Dzialki
  6
Continuous
370
    18
100
AcDbLine
 10
7584005.460001758
 20
5724807.179999777
 30
0.0
 11
7583989.85043556
 21
5724747.514138297
 31
0.0
  0
LINE
  5
10001E8
330
1D
100
AcDbEntity
  8
Dzialki
  6
Continuous
370
    18
100
AcDbLine
 10
7583989.85043556
 20
5724747.514138297
 30
0.0
 11
7583991.366585897
 21
5724732.535272929
 31
0.0
  0
LINE
  5
10001E9
330
1D
100
AcDbEntity
  8
Dzialki
  6
Continuous
370
    18
100
AcDbLine
 10
7583991.366585897
 20
5724732.535272929
 30
0.0
 11
7583992.682798699
 21
5724719.499640424
 31
0.0
  0
LINE
  5
10001EA
330
1D
100
AcDbEntity
  8
Dzialki
  6
Continuous
370
    18
100
AcDbLine
 10
7583992.682798699
 20
5724719.499640424
 30
0.0
 11
7583995.999876206
 21
5724686.75153053
 31
0.0
  0
LINE
  5
10001EB
330
1D
100
AcDbEntity
  8
Dzialki
  6
Continuous
370
    18
100
AcDbLine
 10
7583995.999876206
 20
5724686.75153053
 30
0.0
 11
7583981.557550632
 21
5724629.556091482
 31
0.0
  0
LINE
  5
10001EC
330
1D
100
AcDbEntity
  8
Dzialki
  6
Continuous
370
    18
100
AcDbLine
 10
7583981.557550632
 20
5724629.556091482
 30
0.0
 11
7583981.047745901
 21
5724627.593703053
 31
0.0
  0
LINE
  5
10001ED
330
1D
100
AcDbEntity
  8
Dzialki
  6
Continuous
370
    18
100
AcDbLine
 10
7583981.047745901
 20
5724627.593703053
 30
0.0
 11
7583978.562498302
 21
5724617.934493002
 31
0.0
  0
LINE
  5
10001EE
330
1D
100
AcDbEntity
  8
Dzialki
  6
Continuous
370
    18
100
AcDbLine
 10
7583978.562498302
 20
5724617.934493002
 30
0.0
 11
7583974.697130218
 21
5724620.917999321
 31
0.0
  0
LINE
  5
10001EF
330
1D
100
AcDbEntity
  8
Dzialki
  6
Continuous
370
    18
100
AcDbLine
 10
7583953.880913306
 20
5724641.638682796
 30
0.0
 11
7583945.820336713
 21
5724645.160336288
 31
0.0
  0
LINE
  5
10001F0
330
1D
100
AcDbEntity
  8
Dzialki
  6
Continuous
370
    18
100
AcDbLine
 10
7583945.820336713
 20
5724645.160336288
 30
0.0
 11
7583987.770001756
 21
5724814.889999776
 31
0.0
  0
LINE
  5
10001F1
330
1D
100
AcDbEntity
  8
Dzialki
  6
Continuous
370
    18
100
AcDbLine
 10
7583987.770001756
 20
5724814.889999776
 30
0.0
 11
7584001.34000176
 21
5724808.979999779
 31
0.0
  0
LINE
  5
10001F2
330
1D
100
AcDbEntity
  8
Dzialki
  6
Continuous
370
    18
100
AcDbLine
 10
7584001.34000176
 20
5724808.979999779
 30
0.0
 11
7583985.790029188
 21
5724747.937734205
 31
0.0
  0
LINE
  5
10001F3
330
1D
100
AcDbEntity
  8
Dzialki
  6
Continuous
370
    18
100
AcDbLine
 10
7583985.790029188
 20
5724747.937734205
 30
0.0
 11
7583986.988145185
 21
5724736.558482495
 31
0.0
  0
LINE
  5
10001F4
330
1D
100
AcDbEntity
  8
Dzialki
  6
Continuous
370
    18
100
AcDbLine
 10
7583986.988145185
 20
5724736.558482495
 30
0.0
 11
7583961.309349817
 21
5724638.401284887
 31
0.0
  0
LINE
  5
10001F5
330
1D
100
AcDbEntity
  8
Dzialki
  6
Continuous
370
    18
100
AcDbLine
 10
7583961.309349817
 20
5724638.401284887
 30
0.0
 11
7583953.880913306
 21
5724641.638682796
 31
0.0
  0
LINE
  5
10001F6
330
1D
100
AcDbEntity
  8
Dzialki
  6
Continuous
370
    18
100
AcDbLine
 10
7583940.959603038
 20
5724647.282333575
 30
0.0
 11
7583982.56000176
 21
5724817.169999782
 31
0.0
  0
LINE
  5
10001F7
330
1D
100
AcDbEntity
  8
Dzialki
  6
Continuous
370
    18
100
AcDbLine
 10
7583982.56000176
 20
5724817.169999782
 30
0.0
 11
7583987.770001756
 21
5724814.889999776
 31
0.0
  0
LINE
  5
10001F8
330
1D
100
AcDbEntity
  8
Dzialki
  6
Continuous
370
    18
100
AcDbLine
 10
7583987.770001756
 20
5724814.889999776
 30
0.0
 11
7583945.820336713
 21
5724645.160336288
 31
0.0
  0
LINE
  5
10001F9
330
1D
100
AcDbEntity
  8
Dzialki
  6
Continuous
370
    18
100
AcDbLine
 10
7583945.820336713
 20
5724645.160336288
 30
0.0
 11
7583945.086648805
 21
5724645.48044927
 31
0.0
  0
LINE
  5
10001FA
330
1D
100
AcDbEntity
  8
Dzialki
  6
Continuous
370
    18
100
AcDbLine
 10
7583945.086648805
 20
5724645.48044927
 30
0.0
 11
7583940.959603038
 21
5724647.282333575
 31
0.0
  0
LINE
  5
10001FB
330
1D
100
AcDbEntity
  8
Dzialki
  6
Continuous
370
    18
100
AcDbLine
 10
7583982.56000176
 20
5724817.169999782
 30
0.0
 11
7583940.959603038
 21
5724647.282333575
 31
0.0
  0
LINE
  5
10001FC
330
1D
100
AcDbEntity
  8
Dzialki
  6
Continuous
370
    18
100
AcDbLine
 10
7583940.959603038
 20
5724647.282333575
 30
0.0
 11
7583937.484678738
 21
5724648.800783019
 31
0.0
  0
LINE
  5
10001FD
330
1D
100
AcDbEntity
  8
Dzialki
  6
Continuous
370
    18
100
AcDbLine
 10
7583937.484678738
 20
5724648.800783019
 30
0.0
 11
7583928.771981298
 21
5724652.605870674
 31
0.0
  0
LINE
  5
10001FE
330
1D
100
AcDbEntity
  8
Dzialki
  6
Continuous
370
    18
100
AcDbLine
 10
7583928.771981298
 20
5724652.605870674
 30
0.0
 11
7583928.130260993
 21
5724652.879725385
 31
0.0
  0
LINE
  5
10001FF
330
1D
100
AcDbEntity
  8
Dzialki
  6
Continuous
370
    18
100
AcDbLine
 10
7583928.130260993
 20
5724652.879725385
 30
0.0
 11
7583972.201918681
 21
5724821.684543671
 31
0.0
  0
LINE
  5
1000200
330
1D
100
AcDbEntity
  8
Dzialki
  6
Continuous
370
    18
100
AcDbLine
 10
7583972.201918681
 20
5724821.684543671
 30
0.0
 11
7583982.56000176
 21
5724817.169999782
 31
0.0
  0
LINE
  5
1000201
330
1D
100
AcDbEntity
  8
granica_powiatow
370
    35
100
AcDbLine
 10
7583929.925242078
 20
5724840.110724519
 30
0.0
 11
7583972.201918681
 21
5724821.684543671
 31
0.0
  0
LINE
  5
1000202
330
1D
100
AcDbEntity
  8
granica_powiatow
370
    35
100
AcDbLine
 10
7583972.201918681
 20
5724821.684543671
 30
0.0
 11
7583979.730001759
 21
5724818.399999777
 31
0.0
  0
LINE
  5
1000203
330
1D
100
AcDbEntity
  8
granica_powiatow
370
    35
100
AcDbLine
 10
7583979.730001759
 20
5724818.399999777
 30
0.0
 11
7583982.56000176
 21
5724817.169999782
 31
0.0
  0
LINE
  5
1000204
330
1D
100
AcDbEntity
  8
granica_powiatow
370
    35
100
AcDbLine
 10
7583982.56000176
 20
5724817.169999782
 30
0.0
 11
7583986.880001759
 21
5724815.279999778
 31
0.0
  0
LINE
  5
1000205
330
1D
100
AcDbEntity
  8
granica_powiatow
370
    35
100
AcDbLine
 10
7583986.880001759
 20
5724815.279999778
 30
0.0
 11
7583987.770001756
 21
5724814.889999776
 31
0.0
  0
LINE
  5
1000206
330
1D
100
AcDbEntity
  8
granica_powiatow
370
    35
100
AcDbLine
 10
7583987.770001756
 20
5724814.889999776
 30
0.0
 11
7583990.540001758
 21
5724813.679999776
 31
0.0
  0
LINE
  5
1000207
330
1D
100
AcDbEntity
  8
granica_powiatow
370
    35
100
AcDbLine
 10
7583990.540001758
 20
5724813.679999776
 30
0.0
 11
7583994.200001758
 21
5724812.089999776
 31
0.0
  0
LINE
  5
1000208
330
1D
100
AcDbEntity
  8
granica_powiatow
370
    35
100
AcDbLine
 10
7583994.200001758
 20
5724812.089999776
 30
0.0
 11
7584001.34000176
 21
5724808.979999779
 31
0.0
  0
LINE
  5
1000209
330
1D
100
AcDbEntity
  8
granica_powiatow
370
    35
100
AcDbLine
 10
7584001.34000176
 20
5724808.979999779
 30
0.0
 11
7584003.980001758
 21
5724807.829999778
 31
0.0
  0
LINE
  5
100020A
330
1D
100
AcDbEntity
  8
granica_powiatow
370
    35
100
AcDbLine
 10
7584003.980001758
 20
5724807.829999778
 30
0.0
 11
7584005.460001758
 21
5724807.179999777
 31
0.0
  0
LINE
  5
100020B
330
1D
100
AcDbEntity
  8
granica_powiatow
370
    35
100
AcDbLine
 10
7584005.460001758
 20
5724807.179999777
 30
0.0
 11
7584007.55000176
 21
5724806.269999779
 31
0.0
  0
LINE
  5
100020C
330
1D
100
AcDbEntity
  8
granica_powiatow
370
    35
100
AcDbLine
 10
7584007.55000176
 20
5724806.269999779
 30
0.0
 11
7584010.22000176
 21
5724805.099999776
 31
0.0
  0
LINE
  5
100020D
330
1D
100
AcDbEntity
  8
granica_powiatow
370
    35
100
AcDbLine
 10
7584010.22000176
 20
5724805.099999776
 30
0.0
 11
7584031.19000176
 21
5724795.959999775
 31
0.0
  0
LINE
  5
100020E
330
1D
100
AcDbEntity
  8
granica_powiatow
370
    35
100
AcDbLine
 10
7584031.19000176
 20
5724795.959999775
 30
0.0
 11
7584060.998689663
 21
5724782.967562608
 31
0.0
  0
LINE
  5
100020F
330
1D
100
AcDbEntity
  8
szrafura
  6
Continuous
370
    18
100
AcDbLine
 10
7584007.020001759
 20
5724846.589999779
 30
0.0
 11
7584003.980001758
 21
5724807.829999778
 31
0.0
  0
LINE
  5
1000210
330
1D
100
AcDbEntity
  8
szrafura
  6
Continuous
370
    18
100
AcDbLine
 10
7584003.980001758
 20
5724807.829999778
 30
0.0
 11
7584001.34000176
 21
5724808.979999779
 31
0.0
  0
LINE
  5
1000211
330
1D
100
AcDbEntity
  8
szrafura
  6
Continuous
370
    18
100
AcDbLine
 10
7584001.34000176
 20
5724808.979999779
 30
0.0
 11
7583994.200001758
 21
5724812.089999776
 31
0.0
  0
LINE
  5
1000212
330
1D
100
AcDbEntity
  8
szrafura
  6
Continuous
370
    18
100
AcDbLine
 10
7583994.200001758
 20
5724812.089999776
 30
0.0
 11
7584007.41000176
 21
5724857.81999978
 31
0.0
  0
LINE
  5
1000213
330
1D
100
AcDbEntity
  8
szrafura
  6
Continuous
370
    18
100
AcDbLine
 10
7584007.41000176
 20
5724857.81999978
 30
0.0
 11
7584007.020001759
 21
5724846.589999779
 31
0.0
  0
LINE
  5
1000214
330
1D
100
AcDbEntity
  8
szrafura
  6
Continuous
370
    18
100
AcDbLine
 10
7584008.480001759
 20
5724889.729999781
 30
0.0
 11
7583986.880001759
 21
5724815.279999778
 31
0.0
  0
LINE
  5
1000215
330
1D
100
AcDbEntity
  8
szrafura
  6
Continuous
370
    18
100
AcDbLine
 10
7583986.880001759
 20
5724815.279999778
 30
0.0
 11
7583982.56000176
 21
5724817.169999782
 31
0.0
  0
LINE
  5
1000216
330
1D
100
AcDbEntity
  8
szrafura
  6
Continuous
370
    18
100
AcDbLine
 10
7583982.56000176
 20
5724817.169999782
 30
0.0
 11
7583979.730001759
 21
5724818.399999777
 31
0.0
  0
LINE
  5
1000217
330
1D
100
AcDbEntity
  8
szrafura
  6
Continuous
370
    18
100
AcDbLine
 10
7583979.730001759
 20
5724818.399999777
 30
0.0
 11
7584009.560001759
 21
5724921.789999779
 31
0.0
  0
LINE
  5
1000218
330
1D
100
AcDbEntity
  8
szrafura
  6
Continuous
370
    18
100
AcDbLine
 10
7584009.560001759
 20
5724921.789999779
 30
0.0
 11
7584008.480001759
 21
5724889.729999781
 31
0.0
  0
LINE
  5
1000219
330
1D
100
AcDbEntity
  8
szrafura
  6
Continuous
370
    18
100
AcDbLine
 10
7584122.240001764
 20
5725312.53999978
 30
0.0
 11
7584129.790001764
 21
5725307.919999779
 31
0.0
  0
LINE
  5
100021A
330
1D
100
AcDbEntity
  8
szrafura
  6
Continuous
370
    18
100
AcDbLine
 10
7584129.790001764
 20
5725307.919999779
 30
0.0
 11
7584110.550001764
 21
5725241.569999781
 31
0.0
  0
LINE
  5
100021B
330
1D
100
AcDbEntity
  8
szrafura
  6
Continuous
370
    18
100
AcDbLine
 10
7584110.550001764
 20
5725241.569999781
 30
0.0
 11
7584089.020001762
 21
5725197.349999779
 31
0.0
  0
LINE
  5
100021C
330
1D
100
AcDbEntity
  8
szrafura
  6
Continuous
370
    18
100
AcDbLine
 10
7584089.020001762
 20
5725197.349999779
 30
0.0
 11
7584122.240001764
 21
5725312.53999978
 31
0.0
  0
LINE
  5
100021D
330
1D
100
AcDbEntity
  8
szrafura
  6
Continuous
370
    18
100
AcDbLine
 10
7584014.05000176
 20
5724936.329999777
 30
0.0
 11
7584014.390001759
 21
5724938.539999778
 31
0.0
  0
LINE
  5
100021E
330
1D
100
AcDbEntity
  8
szrafura
  6
Continuous
370
    18
100
AcDbLine
 10
7584014.390001759
 20
5724938.539999778
 30
0.0
 11
7584082.950001763
 21
5725176.27999978
 31
0.0
  0
LINE
  5
100021F
330
1D
100
AcDbEntity
  8
szrafura
  6
Continuous
370
    18
100
AcDbLine
 10
7584082.950001763
 20
5725176.27999978
 30
0.0
 11
7584103.630001764
 21
5725217.689999782
 31
0.0
  0
LINE
  5
1000220
330
1D
100
AcDbEntity
  8
szrafura
  6
Continuous
370
    18
100
AcDbLine
 10
7584103.630001764
 20
5725217.689999782
 30
0.0
 11
7584013.01000176
 21
5724905.339999776
 31
0.0
  0
LINE
  5
1000221
330
1D
100
AcDbEntity
  8
szrafura
  6
Continuous
370
    18
100
AcDbLine
 10
7584013.01000176
 20
5724905.339999776
 30
0.0
 11
7584014.05000176
 21
5724936.329999777
 31
0.0
  0
LINE
  5
1000222
330
1D
100
AcDbEntity
  8
szrafura
  6
Continuous
370
    18
100
AcDbLine
 10
7584011.00000176
 20
5724846.269999776
 30
0.0
 11
7584011.93000176
 21
5724873.47999978
 31
0.0
  0
LINE
  5
1000223
330
1D
100
AcDbEntity
  8
szrafura
  6
Continuous
370
    18
100
AcDbLine
 10
7584011.93000176
 20
5724873.47999978
 30
0.0
 11
7584121.800001764
 21
5725254.10999978
 31
0.0
  0
LINE
  5
1000224
330
1D
100
AcDbEntity
  8
szrafura
  6
Continuous
370
    18
100
AcDbLine
 10
7584121.800001764
 20
5725254.10999978
 30
0.0
 11
7584136.660001766
 21
5725283.859999781
 31
0.0
  0
LINE
  5
1000225
330
1D
100
AcDbEntity
  8
szrafura
  6
Continuous
370
    18
100
AcDbLine
 10
7584136.660001766
 20
5725283.859999781
 30
0.0
 11
7584139.200001764
 21
5725286.459999778
 31
0.0
  0
LINE
  5
1000226
330
1D
100
AcDbEntity
  8
szrafura
  6
Continuous
370
    18
100
AcDbLine
 10
7584139.200001764
 20
5725286.459999778
 30
0.0
 11
7584008.76000176
 21
5724820.149999778
 31
0.0
  0
LINE
  5
1000227
330
1D
100
AcDbEntity
  8
szrafura
  6
Continuous
370
    18
100
AcDbLine
 10
7584008.76000176
 20
5724820.149999778
 30
0.0
 11
7584011.00000176
 21
5724846.269999776
 31
0.0
  0
LINE
  5
1000228
330
1D
100
AcDbEntity
  8
szrafura
  6
Continuous
370
    18
100
AcDbLine
 10
7584153.920001764
 20
5725339.049999781
 30
0.0
 11
7584145.200001765
 21
5725307.889999777
 31
0.0
  0
LINE
  5
1000229
330
1D
100
AcDbEntity
  8
szrafura
  6
Continuous
370
    18
100
AcDbLine
 10
7584145.200001765
 20
5725307.889999777
 30
0.0
 11
7584138.510001763
 21
5725311.96999978
 31
0.0
  0
LINE
  5
100022A
330
1D
100
AcDbEntity
  8
szrafura
  6
Continuous
370
    18
100
AcDbLine
 10
7584138.510001763
 20
5725311.96999978
 30
0.0
 11
7584146.930001764
 21
5725341.149999782
 31
0.0
  0
LINE
  5
100022B
330
1D
100
AcDbEntity
  8
szrafura
  6
Continuous
370
    18
100
AcDbLine
 10
7584146.930001764
 20
5725341.149999782
 30
0.0
 11
7584153.920001764
 21
5725339.049999781
 31
0.0
  0
LINE
  5
100022C
330
1D
100
AcDbEntity
  8
szrafura
  6
Continuous
370
    18
100
AcDbLine
 10
7584136.210001765
 20
5725304.009999779
 30
0.0
 11
7584142.960001765
 21
5725299.889999781
 31
0.0
  0
LINE
  5
100022D
330
1D
100
AcDbEntity
  8
szrafura
  6
Continuous
370
    18
100
AcDbLine
 10
7584142.960001765
 20
5725299.889999781
 30
0.0
 11
7584144.450001764
 21
5725298.979999775
 31
0.0
  0
LINE
  5
100022E
330
1D
100
AcDbEntity
  8
szrafura
  6
Continuous
370
    18
100
AcDbLine
 10
7584144.450001764
 20
5725298.979999775
 30
0.0
 11
7584142.000001764
 21
5725296.429999779
 31
0.0
  0
LINE
  5
100022F
330
1D
100
AcDbEntity
  8
szrafura
  6
Continuous
370
    18
100
AcDbLine
 10
7584142.000001764
 20
5725296.429999779
 30
0.0
 11
7584132.460001764
 21
5725286.579999779
 31
0.0
  0
LINE
  5
1000230
330
1D
100
AcDbEntity
  8
szrafura
  6
Continuous
370
    18
100
AcDbLine
 10
7584132.460001764
 20
5725286.579999779
 30
0.0
 11
7584129.320001764
 21
5725280.119999778
 31
0.0
  0
LINE
  5
1000231
330
1D
100
AcDbEntity
  8
szrafura
  6
Continuous
370
    18
100
AcDbLine
 10
7584129.320001764
 20
5725280.119999778
 30
0.0
 11
7584136.210001765
 21
5725304.009999779
 31
0.0
  0
LINE
  5
1000232
330
1D
100
AcDbEntity
  8
szrafura
  6
Continuous
370
    18
100
AcDbLine
 10
7584140.040001765
 20
5725343.229999781
 30
0.0
 11
7584132.110001763
 21
5725315.879999778
 31
0.0
  0
LINE
  5
1000233
330
1D
100
AcDbEntity
  8
szrafura
  6
Continuous
370
    18
100
AcDbLine
 10
7584132.110001763
 20
5725315.879999778
 30
0.0
 11
7584124.540001766
 21
5725320.499999781
 31
0.0
  0
LINE
  5
1000234
330
1D
100
AcDbEntity
  8
szrafura
  6
Continuous
370
    18
100
AcDbLine
 10
7584124.540001766
 20
5725320.499999781
 30
0.0
 11
7584131.810001763
 21
5725345.70999978
 31
0.0
  0
LINE
  5
1000235
330
1D
100
AcDbEntity
  8
szrafura
  6
Continuous
370
    18
100
AcDbLine
 10
7584131.810001763
 20
5725345.70999978
 30
0.0
 11
7584140.040001765
 21
5725343.229999781
 31
0.0
  0
TEXT
  5
1000236
330
1D
100
AcDbEntity
  8
Dzialki
370
    18
100
AcDbText
 10
7583996.20227033
 20
5724839.339999777
 30
0.0
 40
3.6
  1
362
 41
0.6563
100
AcDbText
  0
TEXT
  5
1000237
330
1D
100
AcDbEntity
  8
Dzialki
370
    18
100
AcDbText
 10
7583995.148558902
 20
5724848.104999779
 30
0.0
 40
3.6
  1
361
 41
0.6563
100
AcDbText
  0
TEXT
  5
1000238
330
1D
100
AcDbEntity
  8
Dzialki
370
    18
100
AcDbText
 10
7584143.177270335
 20
5725320.919999781
 30
0.0
 40
3.6
  1
392
 41
0.6563
100
AcDbText
  0
TEXT
  5
1000239
330
1D
100
AcDbEntity
  8
Dzialki
370
    18
100
AcDbText
 10
7584131.484590336
 20
5725287.779285493
 30
0.0
 40
3.6
  1
487/2
 41
0.6563
100
AcDbText
  0
TEXT
  5
100023A
330
1D
100
AcDbEntity
  8
Dzialki
370
    18
100
AcDbText
 10
7584086.077270333
 20
5725042.534999778
 30
0.0
 40
3.6
  1
488
 41
0.6563
100
AcDbText
  0
TEXT
  5
100023B
330
1D
100
AcDbEntity
  8
Dzialki
370
    18
100
AcDbText
 10
7584064.928522853
 20
5725065.729999996
 30
0.0
 40
3.6
  1
486
 41
0.6563
100
AcDbText
  0
TEXT
  5
100023C
330
1D
100
AcDbEntity
  8
Dzialki
370
    18
100
AcDbText
 10
7584059.562270333
 20
5725059.08999978
 30
0.0
 40
3.6
  1
485
 41
0.6563
100
AcDbText
  0
TEXT
  5
100023D
330
1D
100
AcDbEntity
  8
Dzialki
370
    18
100
AcDbText
 10
7583997.767270332
 20
5724829.224999779
 30
0.0
 40
3.6
  1
363
 41
0.6563
100
AcDbText
  0
TEXT
  5
100023E
330
1D
100
AcDbEntity
  8
Dzialki
370
    18
100
AcDbText
 10
7584045.627478121
 20
5725083.069999781
 30
0.0
 40
3.6
  1
364
 41
0.6563
100
AcDbText
  0
TEXT
  5
100023F
330
1D
100
AcDbEntity
  8
Dzialki
370
    18
100
AcDbText
 10
7584129.308524621
 20
5725327.19499978
 30
0.0
 40
3.6
  1
389
 41
0.6563
100
AcDbText
  0
TEXT
  5
1000240
330
1D
100
AcDbEntity
  8
Dzialki
370
    18
100
AcDbText
 10
7583991.607270331
 20
5724864.934999778
 30
0.0
 40
3.6
  1
360
 41
0.6563
100
AcDbText
  0
TEXT
  5
1000241
330
1D
100
AcDbEntity
  8
Dzialki
370
    18
100
AcDbText
 10
7584106.367270333
 20
5725251.344999779
 30
0.0
 40
3.6
  1
375
 41
0.6563
100
AcDbText
  0
TEXT
  5
1000242
330
1D
100
AcDbEntity
  8
Dzialki
370
    18
100
AcDbText
 10
7584118.79352462
 20
5725271.144999778
 30
0.0
 40
3.6
  1
376
 41
0.6563
100
AcDbText
  0
TEXT
  5
1000243
330
1D
100
AcDbEntity
  8
Dzialki
370
    18
100
AcDbText
 10
7584125.047270336
 20
5725279.834999781
 30
0.0
 40
3.6
  1
377
 41
0.6563
100
AcDbText
  0
TEXT
  5
1000244
330
1D
100
AcDbEntity
  8
Dzialki
370
    18
100
AcDbText
 10
7584091.806016048
 20
5725231.659999781
 30
0.0
 40
3.6
  1
374
 41
0.6563
100
AcDbText
  0
TEXT
  5
1000245
330
1D
100
AcDbEntity
  8
Dzialki
370
    18
100
AcDbText
 10
7584100.19566832
 20
5725218.059999776
 30
0.0
 40
3.6
  1
378
 41
0.6563
100
AcDbText
  0
TEXT
  5
1000246
330
1D
100
AcDbEntity
  8
Dzialki
370
    18
100
AcDbText
 10
7584050.99292065
 20
5725057.914999778
 30
0.0
 40
3.6
  1
484
 41
0.6563
100
AcDbText
  0
TEXT
  5
1000247
330
1D
100
AcDbEntity
  8
Dzialki
370
    18
100
AcDbText
 10
7584042.875869766
 20
5725053.80999978
 30
0.0
 40
3.6
  1
483
 41
0.6563
100
AcDbText
  0
TEXT
  5
1000248
330
1D
100
AcDbEntity
  8
Dzialki
370
    18
100
AcDbText
 10
7584064.0143938
 20
5725049.019285491
 30
0.0
 40
3.6
  1
487/1
 41
0.6563
100
AcDbText
  0
TEXT
  5
1000249
330
1D
100
AcDbEntity
  8
Dzialki
370
    18
100
AcDbText
 10
7584122.46226857
 20
5725313.499999999
 30
0.0
 40
3.6
  1
482
 41
0.6563
100
AcDbText
  0
TEXT
  5
100024A
330
1D
100
AcDbEntity
  8
Dzialki
370
    18
100
AcDbText
 10
7583996.708524615
 20
5724911.00999978
 30
0.0
 40
3.6
  1
359
 41
0.6563
100
AcDbText
  0
TEXT
  5
100024B
330
1D
100
AcDbEntity
  8
Dzialki
370
    18
100
AcDbText
 10
7584121.267270335
 20
5725330.76999978
 30
0.0
 40
3.6
  1
388
 41
0.6563
100
AcDbText
  0
TEXT
  5
100024C
330
1D
100
AcDbEntity
  8
Dzialki
370
    18
100
AcDbText
 10
7584113.847270335
 20
5725334.17499978
 30
0.0
 40
3.6
  1
387
 41
0.6563
100
AcDbText
  0
TEXT
  5
100024D
330
1D
100
AcDbEntity
  8
Dzialki
370
    18
100
AcDbText
 10
7584139.528557138
 20
5725328.969999998
 30
0.0
 40
3.6
  1
391
 41
0.6563
100
AcDbText
  0
TEXT
  5
100024E
330
1D
100
AcDbEntity
  8
Dzialki
370
    18
100
AcDbText
 10
7584157.862270335
 20
5725318.364999781
 30
0.0
 40
3.6
  1
393
 41
0.6563
100
AcDbText
  0
TEXT
  5
100024F
330
1D
100
AcDbEntity
  8
Dzialki
370
    18
100
AcDbText
 10
7584136.36226857
 20
5725353.199999999
 30
0.0
 40
3.6
  1
482
 41
0.6563
100
AcDbText
  0
TEXT
  5
1000250
330
1D
100
AcDbEntity
  8
Dzialki
370
    18
100
AcDbText
 10
7583997.222504373
 20
5724766.257636353
 30
0.0
 40
3.6
  1
108
 41
0.6563
100
AcDbText
  0
TEXT
  5
1000251
330
1D
100
AcDbEntity
  8
Dzialki
370
    18
100
AcDbText
 10
7583987.04083456
 20
5724709.857246391
 30
0.0
 40
3.6
  1
892
 41
0.6563
100
AcDbText
  0
TEXT
  5
1000252
330
1D
100
AcDbEntity
  8
Dzialki
370
    18
100
AcDbText
 10
7583970.76745495
 20
5724723.045642329
 30
0.0
 40
3.6
  1
105
 41
0.6563
100
AcDbText
  0
TEXT
  5
1000253
330
1D
100
AcDbEntity
  8
Dzialki
370
    18
100
AcDbText
 10
7583961.552088112
 20
5724727.565168034
 30
0.0
 40
3.6
  1
103
 41
0.6563
100
AcDbText
  0
TEXT
  5
1000254
330
1D
100
AcDbEntity
  8
Dzialki
370
    18
100
AcDbText
 10
7583952.53241709
 20
5724730.883438622
 30
0.0
 40
3.6
  1
102
 41
0.6563
100
AcDbText
  0
TEXT
  5
1000255
330
1D
100
AcDbEntity
  8
Dzialki
370
    18
100
AcDbText
 10
7584133.452268567
 20
5725319.759999998
 30
0.0
 40
3.6
  1
390
 41
0.6563
100
AcDbText
  0
TEXT
  5
1000256
330
1D
100
AcDbEntity
  8
granica_powiatow
370
    18
100
AcDbText
 10
7583940.946546008
 20
5724852.921356584
 30
0.0
 40
3.6
  1
pow. łukowski
 50
336.7000001044327
 41
0.6563
100
AcDbText
  0
TEXT
  5
1000257
330
1D
100
AcDbEntity
  8
granica_powiatow
370
    18
100
AcDbText
 10
7583938.810600304
 20
5724847.961746119
 30
0.0
 40
3.6
  1
gm. Adamów
 50
336.7000001044327
 41
0.6563
100
AcDbText
  0
TEXT
  5
1000258
330
1D
100
AcDbEntity
  8
granica_powiatow
370
    18
100
AcDbText
 10
7583936.674654599
 20
5724843.002135656
 30
0.0
 40
3.6
  1
obr. Ferdynandów
 50
336.7000001044327
 41
0.6563
100
AcDbText
  0
TEXT
  5
1000259
330
1D
100
AcDbEntity
  8
granica_powiatow
370
    18
100
AcDbText
 10
7583934.150187082
 20
5724831.862357801
 30
0.0
 40
3.6
  1
pow. lubartowski
 50
337.1999997773346
 41
0.6563
100
AcDbText
  0
TEXT
  5
100025A
330
1D
100
AcDbEntity
  8
granica_powiatow
370
    18
100
AcDbText
 10
7583932.057602894
 20
5724826.884296789
 30
0.0
 40
3.6
  1
gm. Jeziorzany
 50
337.1999997773346
 41
0.6563
100
AcDbText
  0
TEXT
  5
100025B
330
1D
100
AcDbEntity
  8
granica_powiatow
370
    18
100
AcDbText
 10
7583929.965018707
 20
5724821.906235779
 30
0.0
 40
3.6
  1
obr. Walentynów
 50
337.1999997773346
 41
0.6563
100
AcDbText
  0
ENDSEC
  0
SECTION
  2
OBJECTS
  0
DICTIONARY
  5
29E
330
0
100
AcDbDictionary
281
     1
  3
ACAD_COLOR
350
100001C
  3
ACAD_GROUP
350
29F
  3
ACAD_LAYOUT
350
2A0
  3
ACAD_MATERIAL
350
FFFFFF
  3
ACAD_MLEADERSTYLE
350
100001F
  3
ACAD_MLINESTYLE
350
2A1
  3
ACAD_PLOTSETTINGS
350
2A2
  3
ACAD_PLOTSTYLENAME
350
2A3
  3
ACAD_SCALELIST
350
1000021
  3
ACAD_TABLESTYLE
350
100001D
  3
ACAD_VISUALSTYLE
350
1000003
  3
AcDbVariableDictionary
350
100025C
  0
DICTIONARY
  5
1000034
330
1D
100
AcDbDictionary
280
     1
281
     1
  3
ACAD_SORTENTS
360
1000035
  0
DICTIONARY
  5
100001C
102
{ACAD_REACTORS
330
29E
102
}
330
29E
100
AcDbDictionary
281
     1
  0
DICTIONARY
  5
29F
102
{ACAD_REACTORS
330
29E
102
}
330
29E
100
AcDbDictionary
281
     1
  0
DICTIONARY
  5
2A0
102
{ACAD_REACTORS
330
29E
102
}
330
29E
100
AcDbDictionary
281
     1
  3
Layout
350
20
  3
Model
350
1E
  0
DICTIONARY
  5
FFFFFF
102
{ACAD_REACTORS
330
29E
102
}
330
29E
100
AcDbDictionary
281
     1
  3
ByBlock
350
1000001
  3
ByLayer
350
1000000
  3
Global
350
1000002
  0
DICTIONARY
  5
100001F
102
{ACAD_REACTORS
330
29E
102
}
330
29E
100
AcDbDictionary
281
     1
  3
Standard
350
1000020
  0
DICTIONARY
  5
2A1
102
{ACAD_REACTORS
330
29E
102
}
330
29E
100
AcDbDictionary
281
     1
  3
L_0_02
350
7
  3
Standard
350
2A4
  0
DICTIONARY
  5
2A2
102
{ACAD_REACTORS
330
29E
102
}
330
29E
100
AcDbDictionary
281
     1
  0
ACDBDICTIONARYWDFLT
  5
2A3
102
{ACAD_REACTORS
330
29E
102
}
330
29E
100
AcDbDictionary
281
     1
  3
Normal
350
E
100
AcDbDictionaryWithDefault
340
E
  0
DICTIONARY
  5
1000021
102
{ACAD_REACTORS
330
29E
102
}
330
29E
100
AcDbDictionary
281
     1
  3
A0
350
1000022
  3
A1
350
1000023
  3
A2
350
1000024
  3
A3
350
1000025
  3
A4
350
1000026
  3
A5
350
1000027
  3
A6
350
1000028
  3
A7
350
1000029
  3
A8
350
100002A
  3
A9
350
100002B
  3
B0
350
100002C
  3
B1
350
100002D
  3
B2
350
100002E
  3
B3
350
100002F
  3
B4
350
1000030
  3
B5
350
1000031
  3
B6
350
1000032
  0
DICTIONARY
  5
100001D
102
{ACAD_REACTORS
330
29E
102
}
330
29E
100
AcDbDictionary
281
     1
  3
Standard
350
100001E
  0
DICTIONARY
  5
1000003
102
{ACAD_REACTORS
330
29E
102
}
330
29E
100
AcDbDictionary
281
     1
  3
2dWireframe
350
1000008
  3
Basic
350
100000B
  3
Brighten
350
100000F
  3
ColorChange
350
1000013
  3
Conceptual
350
100000D
  3
Dim
350
100000E
  3
EdgeColorOff
350
1000016
  3
Facepattern
350
1000012
  3
Flat
350
1000004
  3
FlatWithEdges
350
1000005
  3
Gouraud
350
1000006
  3
GouraudWithEdges
350
1000007
  3
Hidden
350
100000A
  3
JitterOff
350
1000014
  3
Linepattern
350
1000011
  3
OverhangOff
350
1000015
  3
Realistic
350
100000C
  3
Shaded
350
100001B
  3
Shaded with edges
350
100001A
  3
Shades of Gray
350
1000017
  3
Sketchy
350
1000018
  3
Thicken
350
1000010
  3
Wireframe
350
1000009
  3
X-Ray
350
1000019
  0
DICTIONARY
  5
100025C
102
{ACAD_REACTORS
330
29E
102
}
330
29E
100
AcDbDictionary
281
     1
  3
CANNOSCALE
350
1000260
  3
CMLEADERSTYLE
350
100025E
  3
CTABLESTYLE
350
100025D
  3
MSLTSCALE
350
100025F
  0
SORTENTSTABLE
  5
1000035
102
{ACAD_REACTORS
330
1000034
102
}
330
1000034
100
AcDbSortentsTable
330
1D
331
23D
  5
1000207
331
245
  5
100020D
331
24D
  5
1000213
331
254
  5
1000218
331
25C
  5
100021E
331
265
  5
1000225
331
26C
  5
100022A
331
275
  5
1000231
331
1000036
  5
23D
331
1000037
  5
245
331
1000038
  5
24D
331
1000039
  5
254
331
100003A
  5
25C
331
100003B
  5
265
331
100003C
  5
26C
331
100003D
  5
275
331
100003E
  5
1000036
331
100003F
  5
1000037
331
1000040
  5
1000038
331
1000041
  5
1000039
331
1000042
  5
100003A
331
1000043
  5
100003B
331
1000044
  5
100003C
331
1000045
  5
100003D
331
1000046
  5
100003E
331
1000047
  5
100003F
331
1000048
  5
1000040
331
1000049
  5
1000041
331
100004A
  5
1000042
331
100004B
  5
1000043
331
100004C
  5
1000044
331
100004D
  5
1000045
331
100004E
  5
1000046
331
100004F
  5
1000047
331
1000050
  5
1000048
331
1000051
  5
1000049
331
1000052
  5
100004A
331
1000053
  5
100004B
331
1000054
  5
100004C
331
1000055
  5
100004D
331
1000056
  5
100004E
331
1000057
  5
100004F
331
1000058
  5
1000050
331
1000059
  5
1000051
331
100005A
  5
1000052
331
100005B
  5
1000053
331
100005C
  5
1000054
331
100005D
  5
1000055
331
100005E
  5
1000056
331
100005F
  5
1000057
331
1000060
  5
1000058
331
1000061
  5
1000059
331
1000062
  5
100005A
331
1000063
  5
100005B
331
1000064
  5
100005C
331
1000065
  5
100005D
331
1000066
  5
100005E
331
1000067
  5
100005F
331
1000068
  5
1000060
331
1000069
  5
1000061
331
100006A
  5
1000062
331
100006B
  5
1000063
331
100006C
  5
1000064
331
100006D
  5
1000065
331
100006E
  5
1000066
331
100006F
  5
1000067
331
1000070
  5
1000068
331
1000071
  5
1000069
331
1000072
  5
100006A
331
1000073
  5
100006B
331
1000074
  5
100006C
331
1000075
  5
100006D
331
1000076
  5
100006E
331
1000077
  5
100006F
331
1000078
  5
1000070
331
1000079
  5
1000071
331
100007A
  5
1000072
331
100007B
  5
1000073
331
100007C
  5
1000074
331
100007D
  5
1000075
331
100007E
  5
1000076
331
100007F
  5
1000077
331
1000080
  5
1000078
331
1000081
  5
1000079
331
1000082
  5
100007A
331
1000083
  5
100007B
331
1000084
  5
100007C
331
1000085
  5
100007D
331
1000086
  5
100007E
331
1000087
  5
100007F
331
1000088
  5
1000080
331
1000089
  5
1000081
331
100008A
  5
1000082
331
100008B
  5
1000083
331
100008C
  5
1000084
331
100008D
  5
1000085
331
100008E
  5
1000086
331
100008F
  5
1000087
331
1000090
  5
1000088
331
1000091
  5
1000089
331
1000092
  5
100008A
331
1000093
  5
100008B
331
1000094
  5
100008C
331
1000095
  5
100008D
331
1000096
  5
100008E
331
1000097
  5
100008F
331
1000098
  5
1000090
331
1000099
  5
1000091
331
100009A
  5
1000092
331
100009B
  5
1000093
331
100009C
  5
1000094
331
100009D
  5
1000095
331
100009E
  5
1000096
331
100009F
  5
1000097
331
10000A0
  5
1000098
331
10000A1
  5
1000099
331
10000A2
  5
100009A
331
10000A3
  5
100009B
331
10000A4
  5
100009C
331
10000A5
  5
100009D
331
10000A6
  5
100009E
331
10000A7
  5
100009F
331
10000A8
  5
10000A0
331
10000A9
  5
10000A1
331
10000AA
  5
10000A2
331
10000AB
  5
10000A3
331
10000AC
  5
10000A4
331
10000AD
  5
10000A5
331
10000AE
  5
10000A6
331
10000AF
  5
10000A7
331
10000B0
  5
10000A8
331
10000B1
  5
10000A9
331
10000B2
  5
10000AA
331
10000B3
  5
10000AB
331
10000B4
  5
10000AC
331
10000B5
  5
10000AD
331
10000B6
  5
10000AE
331
10000B7
  5
10000AF
331
10000B8
  5
10000B0
331
10000B9
  5
10000B1
331
10000BA
  5
10000B2
331
10000BB
  5
10000B3
331
10000BC
  5
10000B4
331
10000BD
  5
10000B5
331
10000BE
  5
10000B6
331
10000BF
  5
10000B7
331
10000C0
  5
10000B8
331
10000C1
  5
10000B9
331
10000C2
  5
10000BA
331
10000C3
  5
10000BB
331
10000C4
  5
10000BC
331
10000C5
  5
10000BD
331
10000C6
  5
10000BE
331
10000C7
  5
10000BF
331
10000C8
  5
10000C0
331
10000C9
  5
10000C1
331
10000CA
  5
10000C2
331
10000CB
  5
10000C3
331
10000CC
  5
10000C4
331
10000CD
  5
10000C5
331
10000CE
  5
10000C6
331
10000CF
  5
10000C7
331
10000D0
  5
10000C8
331
10000D1
  5
10000C9
331
10000D2
  5
10000CA
331
10000D3
  5
10000CB
331
10000D4
  5
10000CC
331
10000D5
  5
10000CD
331
10000D6
  5
10000CE
331
10000D7
  5
10000CF
331
10000D8
  5
10000D0
331
10000D9
  5
10000D1
331
10000DA
  5
10000D2
331
10000DB
  5
10000D3
331
10000DC
  5
10000D4
331
10000DD
  5
10000D5
331
10000DE
  5
10000D6
331
10000DF
  5
10000D7
331
10000E0
  5
10000D8
331
10000E1
  5
10000D9
331
10000E2
  5
10000DA
331
10000E3
  5
10000DB
331
10000E4
  5
10000DC
331
10000E5
  5
10000DD
331
10000E6
  5
10000DE
331
10000E7
  5
10000DF
331
10000E8
  5
10000E0
331
10000E9
  5
10000E1
331
10000EA
  5
10000E2
331
10000EB
  5
10000E3
331
10000EC
  5
10000E4
331
10000ED
  5
10000E5
331
10000EE
  5
10000E6
331
10000EF
  5
10000E7
331
10000F0
  5
10000E8
331
10000F1
  5
10000E9
331
10000F2
  5
10000EA
331
10000F3
  5
10000EB
331
10000F4
  5
10000EC
331
10000F5
  5
10000ED
331
10000F6
  5
10000EE
331
10000F7
  5
10000EF
331
10000F8
  5
10000F0
331
10000F9
  5
10000F1
331
10000FA
  5
10000F2
331
10000FB
  5
10000F3
331
10000FC
  5
10000F4
331
10000FD
  5
10000F5
331
10000FE
  5
10000F6
331
10000FF
  5
10000F7
331
1000100
  5
10000F8
331
1000101
  5
10000F9
331
1000102
  5
10000FA
331
1000103
  5
10000FB
331
1000104
  5
10000FC
331
1000105
  5
10000FD
331
1000106
  5
10000FE
331
1000107
  5
10000FF
331
1000108
  5
1000100
331
1000109
  5
1000101
331
100010A
  5
1000102
331
100010B
  5
1000103
331
100010C
  5
1000104
331
100010D
  5
1000105
331
100010E
  5
1000106
331
100010F
  5
1000107
331
1000110
  5
1000108
331
1000111
  5
1000109
331
1000112
  5
100010A
331
1000113
  5
100010B
331
1000114
  5
100010C
331
1000115
  5
100010D
331
1000116
  5
100010E
331
1000117
  5
100010F
331
1000118
  5
1000110
331
1000119
  5
1000111
331
100011A
  5
1000112
331
100011B
  5
1000113
331
100011C
  5
1000114
331
100011D
  5
1000115
331
100011E
  5
1000116
331
100011F
  5
1000117
331
1000120
  5
1000118
331
1000121
  5
1000119
331
1000122
  5
100011A
331
1000123
  5
100011B
331
1000124
  5
100011C
331
1000125
  5
100011D
331
1000126
  5
100011E
331
1000127
  5
100011F
331
1000128
  5
1000120
331
1000129
  5
1000121
331
100012A
  5
1000122
331
100012B
  5
1000123
331
100012C
  5
1000124
331
100012D
  5
1000125
331
100012E
  5
1000126
331
100012F
  5
1000127
331
1000130
  5
1000128
331
1000131
  5
1000129
331
1000132
  5
100012A
331
1000133
  5
100012B
331
1000134
  5
100012C
331
1000135
  5
100012D
331
1000136
  5
100012E
331
1000137
  5
100012F
331
1000138
  5
1000130
331
1000139
  5
1000131
331
100013A
  5
1000132
331
100013B
  5
1000133
331
100013C
  5
1000134
331
100013D
  5
1000135
331
100013E
  5
1000136
331
100013F
  5
1000137
331
1000140
  5
1000138
331
1000141
  5
1000139
331
1000142
  5
100013A
331
1000143
  5
100013B
331
1000144
  5
100013C
331
1000145
  5
100013D
331
1000146
  5
100013E
331
1000147
  5
100013F
331
1000148
  5
1000140
331
1000149
  5
1000141
331
100014A
  5
1000142
331
100014B
  5
1000143
331
100014C
  5
1000144
331
100014D
  5
1000145
331
100014E
  5
1000146
331
100014F
  5
1000147
331
1000150
  5
1000148
331
1000151
  5
1000149
331
1000152
  5
100014A
331
1000153
  5
100014B
331
1000154
  5
100014C
331
1000155
  5
100014D
331
1000156
  5
100014E
331
1000157
  5
100014F
331
1000158
  5
1000150
331
1000159
  5
1000151
331
100015A
  5
1000152
331
100015B
  5
1000153
331
100015C
  5
1000154
331
100015D
  5
1000155
331
100015E
  5
1000156
331
100015F
  5
1000157
331
1000160
  5
1000158
331
1000161
  5
1000159
331
1000162
  5
100015A
331
1000163
  5
100015B
331
1000164
  5
100015C
331
1000165
  5
100015D
331
1000166
  5
100015E
331
1000167
  5
100015F
331
1000168
  5
1000160
331
1000169
  5
1000161
331
100016A
  5
1000162
331
100016B
  5
1000163
331
100016C
  5
1000164
331
100016D
  5
1000165
331
100016E
  5
1000166
331
100016F
  5
1000167
331
1000170
  5
1000168
331
1000171
  5
1000169
331
1000172
  5
100016A
331
1000173
  5
100016B
331
1000174
  5
100016C
331
1000175
  5
100016D
331
1000176
  5
100016E
331
1000177
  5
100016F
331
1000178
  5
1000170
331
1000179
  5
1000171
331
100017A
  5
1000172
331
100017B
  5
1000173
331
100017C
  5
1000174
331
100017D
  5
1000175
331
100017E
  5
1000176
331
100017F
  5
1000177
331
1000180
  5
1000178
331
1000181
  5
1000179
331
1000182
  5
100017A
331
1000183
  5
100017B
331
1000184
  5
100017C
331
1000185
  5
100017D
331
1000186
  5
100017E
331
1000187
  5
100017F
331
1000188
  5
1000180
331
1000189
  5
1000181
331
100018A
  5
1000182
331
100018B
  5
1000183
331
100018C
  5
1000184
331
100018D
  5
1000185
331
100018E
  5
1000186
331
100018F
  5
1000187
331
1000190
  5
1000188
331
1000191
  5
1000189
331
1000192
  5
100018A
331
1000193
  5
100018B
331
1000194
  5
100018C
331
1000195
  5
100018D
331
1000196
  5
100018E
331
1000197
  5
100018F
331
1000198
  5
1000190
331
1000199
  5
1000191
331
100019A
  5
1000192
331
100019B
  5
1000193
331
100019C
  5
1000194
331
100019D
  5
1000195
331
100019E
  5
1000196
331
100019F
  5
1000197
331
10001A0
  5
1000198
331
10001A1
  5
1000199
331
10001A2
  5
100019A
331
10001A3
  5
100019B
331
10001A4
  5
100019C
331
10001A5
  5
100019D
331
10001A6
  5
100019E
331
10001A7
  5
100019F
331
10001A8
  5
10001A0
331
10001A9
  5
10001A1
331
10001AA
  5
10001A2
331
10001AB
  5
10001A3
331
10001AC
  5
10001A4
331
10001AD
  5
10001A5
331
10001AE
  5
10001A6
331
10001AF
  5
10001A7
331
10001B0
  5
10001A8
331
10001B1
  5
10001A9
331
10001B2
  5
10001AA
331
10001B3
  5
10001AB
331
10001B4
  5
10001AC
331
10001B5
  5
10001AD
331
10001B6
  5
10001AE
331
10001B7
  5
10001AF
331
10001B8
  5
10001B0
331
10001B9
  5
10001B1
331
10001BA
  5
10001B2
331
10001BB
  5
10001B3
331
10001BC
  5
10001B4
331
10001BD
  5
10001B5
331
10001BE
  5
10001B6
331
10001BF
  5
10001B7
331
10001C0
  5
10001B8
331
10001C1
  5
10001B9
331
10001C2
  5
10001BA
331
10001C3
  5
10001BB
331
10001C4
  5
10001BC
331
10001C5
  5
10001BD
331
10001C6
  5
10001BE
331
10001C7
  5
10001BF
331
10001C8
  5
10001C0
331
10001C9
  5
10001C1
331
10001CA
  5
10001C2
331
10001CB
  5
10001C3
331
10001CC
  5
10001C4
331
10001CD
  5
10001C5
331
10001CE
  5
10001C6
331
10001CF
  5
10001C7
331
10001D0
  5
10001C8
331
10001D1
  5
10001C9
331
10001D2
  5
10001CA
331
10001D3
  5
10001CB
331
10001D4
  5
10001CC
331
10001D5
  5
10001CD
331
10001D6
  5
10001CE
331
10001D7
  5
10001CF
331
10001D8
  5
10001D0
331
10001D9
  5
10001D1
331
10001DA
  5
10001D2
331
10001DB
  5
10001D3
331
10001DC
  5
10001D4
331
10001DD
  5
10001D5
331
10001DE
  5
10001D6
331
10001DF
  5
10001D7
331
10001E0
  5
10001D8
331
10001E1
  5
10001D9
331
10001E2
  5
10001DA
331
10001E3
  5
10001DB
331
10001E4
  5
10001DC
331
10001E5
  5
10001DD
331
10001E6
  5
10001DE
331
10001E7
  5
10001DF
331
10001E8
  5
10001E0
331
10001E9
  5
10001E1
331
10001EA
  5
10001E2
331
10001EB
  5
10001E3
331
10001EC
  5
10001E4
331
10001ED
  5
10001E5
331
10001EE
  5
10001E6
331
10001EF
  5
10001E7
331
10001F0
  5
10001E8
331
10001F1
  5
10001E9
331
10001F2
  5
10001EA
331
10001F3
  5
10001EB
331
10001F4
  5
10001EC
331
10001F5
  5
10001ED
331
10001F6
  5
10001EE
331
10001F7
  5
10001EF
331
10001F8
  5
10001F0
331
10001F9
  5
10001F1
331
10001FA
  5
10001F2
331
10001FB
  5
10001F3
331
10001FC
  5
10001F4
331
10001FD
  5
10001F5
331
10001FE
  5
10001F6
331
10001FF
  5
10001F7
331
1000200
  5
10001F8
331
1000201
  5
10001F9
331
1000202
  5
10001FA
331
1000203
  5
10001FB
331
1000204
  5
10001FC
331
1000205
  5
10001FD
331
1000206
  5
10001FE
331
1000207
  5
10001FF
331
1000208
  5
1000200
331
1000209
  5
1000201
331
100020A
  5
1000202
331
100020B
  5
1000203
331
100020C
  5
1000204
331
100020D
  5
1000205
331
100020E
  5
1000206
331
100020F
  5
1000208
331
1000210
  5
1000209
331
1000211
  5
100020A
331
1000212
  5
100020B
331
1000213
  5
100020C
331
1000214
  5
100020E
331
1000215
  5
100020F
331
1000216
  5
1000210
331
1000217
  5
1000211
331
1000218
  5
1000212
331
1000219
  5
1000214
331
100021A
  5
1000215
331
100021B
  5
1000216
331
100021C
  5
1000217
331
100021D
  5
1000219
331
100021E
  5
100021A
331
100021F
  5
100021B
331
1000220
  5
100021C
331
1000221
  5
100021D
331
1000222
  5
100021F
331
1000223
  5
1000220
331
1000224
  5
1000221
331
1000225
  5
1000222
331
1000226
  5
1000223
331
1000227
  5
1000224
331
1000228
  5
1000226
331
1000229
  5
1000227
331
100022A
  5
1000228
331
100022B
  5
1000229
331
100022C
  5
100022B
331
100022D
  5
100022C
331
100022E
  5
100022D
331
100022F
  5
100022E
331
1000230
  5
100022F
331
1000231
  5
1000230
  0
LAYOUT
  5
20
330
2A0
100
AcDbPlotSettings
  1

  2

  4

  6

 40
0.0
 41
0.0
 42
0.0
 43
0.0
 44
0.0
 45
0.0
 46
0.0
 47
0.0
 48
0.0
 49
0.0
140
0.0
141
0.0
142
1.0
143
1.0
 70
   688
 72
     1
 73
     0
 74
     5
  7

 75
     0
 76
     0
 77
     2
 78
   300
147
1.0
148
0.0
149
0.0
100
AcDbLayout
  1
Layout
 70
     1
 71
     1
 10
0.0
 20
0.0
 11
420.0
 21
297.0
 12
0.0
 22
0.0
 32
0.0
 14
1.000000000000000E+20
 24
1.000000000000000E+20
 34
1.000000000000000E+20
 15
-1.000000000000000E+20
 25
-1.000000000000000E+20
 35
-1.000000000000000E+20
146
0.0
 13
0.0
 23
0.0
 33
0.0
 16
1.0
 26
0.0
 36
0.0
 17
0.0
 27
1.0
 37
0.0
 76
     0
330
1F
  0
LAYOUT
  5
1E
330
2A0
100
AcDbPlotSettings
  1

  2

  4

  6

 40
0.0
 41
0.0
 42
0.0
 43
0.0
 44
0.0
 45
0.0
 46
0.0
 47
0.0
 48
0.0
 49
0.0
140
0.0
141
0.0
142
1.0
143
1.0
 70
  1712
 72
     1
 73
     0
 74
     0
  7

 75
     0
 76
     0
 77
     2
 78
   300
147
1.0
148
0.0
149
0.0
100
AcDbLayout
  1
Model
 70
     1
 71
     0
 10
0.0
 20
0.0
 11
12.0
 21
9.0
 12
0.0
 22
0.0
 32
0.0
 14
0.0
 24
0.0
 34
0.0
 15
0.0
 25
0.0
 35
0.0
146
0.0
 13
0.0
 23
0.0
 33
0.0
 16
1.0
 26
0.0
 36
0.0
 17
0.0
 27
1.0
 37
0.0
 76
     0
330
1D
331
2
  0
MATERIAL
  5
1000001
102
{ACAD_REACTORS
330
FFFFFF
102
}
330
FFFFFF
100
AcDbMaterial
  1
ByBlock
 72
     0
 73
     2
 77
     0
 78
     2
171
     0
172
     2
175
     0
176
     2
179
     0
270
     2
274
     2
 94
      127
  0
MATERIAL
  5
1000000
102
{ACAD_REACTORS
330
FFFFFF
102
}
330
FFFFFF
100
AcDbMaterial
  1
ByLayer
 72
     0
 73
     2
 77
     0
 78
     2
171
     0
172
     2
175
     0
176
     2
179
     0
270
     2
274
     2
 94
      127
  0
MATERIAL
  5
1000002
102
{ACAD_REACTORS
330
FFFFFF
102
}
330
FFFFFF
100
AcDbMaterial
  1
Global
 72
     0
 73
     2
 77
     0
 78
     2
171
     0
172
     2
175
     0
176
     2
179
     0
270
     2
274
     2
 94
      127
  0
MLEADERSTYLE
  5
1000020
102
{ACAD_REACTORS
330
100001F
102
}
330
100001F
100
AcDbMLeaderStyle
179
     2
170
     2
171
     1
172
     0
 90
        2
 40
0.0
 41
0.0
173
     1
 91
-1056964608
340
4
 92
       -2
290
     1
 42
0.4
291
     1
 43
2.0
  3
Standard
 44
0.18
300

342
14
174
     1
178
     1
175
     1
176
     0
 93
-1056964608
 45
0.2
292
     0
297
     0
 46
5.0
 94
-1056964608
 47
1.0
 49
1.0
140
1.0
293
     1
141
0.0
294
     1
177
     0
142
1.0
295
     0
296
     0
143
0.125
271
     0
272
     9
273
     9
298
     0
  0
MLINESTYLE
  5
7
330
2A1
100
AcDbMlineStyle
  2
L_0_02
 70
     0
  3

 62
   256
 51
90.0
 52
90.0
 71
     1
 49
0.0
 62
   256
  6
CONTINUOUS
  0
MLINESTYLE
  5
2A4
102
{ACAD_REACTORS
330
2A1
102
}
330
2A1
100
AcDbMlineStyle
  2
Standard
 70
     0
  3

 62
   256
 51
90.0
 52
90.0
 71
     2
 49
0.5
 62
   256
  6
BYLAYER
 49
-0.5
 62
   256
  6
BYLAYER
  0
ACDBPLACEHOLDER
  5
E
330
2A3
  0
SCALE
  5
1000022
102
{ACAD_REACTORS
330
1000021
102
}
330
1000021
100
AcDbScale
 70
     0
300
1:1
140
1.0
141
1.0
290
     1
  0
SCALE
  5
1000023
102
{ACAD_REACTORS
330
1000021
102
}
330
1000021
100
AcDbScale
 70
     0
300
1:2
140
1.0
141
2.0
290
     0
  0
SCALE
  5
1000024
102
{ACAD_REACTORS
330
1000021
102
}
330
1000021
100
AcDbScale
 70
     0
300
1:4
140
1.0
141
4.0
290
     0
  0
SCALE
  5
1000025
102
{ACAD_REACTORS
330
1000021
102
}
330
1000021
100
AcDbScale
 70
     0
300
1:5
140
1.0
141
5.0
290
     0
  0
SCALE
  5
1000026
102
{ACAD_REACTORS
330
1000021
102
}
330
1000021
100
AcDbScale
 70
     0
300
1:8
140
1.0
141
8.0
290
     0
  0
SCALE
  5
1000027
102
{ACAD_REACTORS
330
1000021
102
}
330
1000021
100
AcDbScale
 70
     0
300
1:10
140
1.0
141
10.0
290
     0
  0
SCALE
  5
1000028
102
{ACAD_REACTORS
330
1000021
102
}
330
1000021
100
AcDbScale
 70
     0
300
1:16
140
1.0
141
16.0
290
     0
  0
SCALE
  5
1000029
102
{ACAD_REACTORS
330
1000021
102
}
330
1000021
100
AcDbScale
 70
     0
300
1:20
140
1.0
141
20.0
290
     0
  0
SCALE
  5
100002A
102
{ACAD_REACTORS
330
1000021
102
}
330
1000021
100
AcDbScale
 70
     0
300
1:30
140
1.0
141
30.0
290
     0
  0
SCALE
  5
100002B
102
{ACAD_REACTORS
330
1000021
102
}
330
1000021
100
AcDbScale
 70
     0
300
1:40
140
1.0
141
40.0
290
     0
  0
SCALE
  5
100002C
102
{ACAD_REACTORS
330
1000021
102
}
330
1000021
100
AcDbScale
 70
     0
300
1:50
140
1.0
141
50.0
290
     0
  0
SCALE
  5
100002D
102
{ACAD_REACTORS
330
1000021
102
}
330
1000021
100
AcDbScale
 70
     0
300
1:100
140
1.0
141
100.0
290
     0
  0
SCALE
  5
100002E
102
{ACAD_REACTORS
330
1000021
102
}
330
1000021
100
AcDbScale
 70
     0
300
2:1
140
2.0
141
1.0
290
     0
  0
SCALE
  5
100002F
102
{ACAD_REACTORS
330
1000021
102
}
330
1000021
100
AcDbScale
 70
     0
300
4:1
140
4.0
141
1.0
290
     0
  0
SCALE
  5
1000030
102
{ACAD_REACTORS
330
1000021
102
}
330
1000021
100
AcDbScale
 70
     0
300
8:1
140
8.0
141
1.0
290
     0
  0
SCALE
  5
1000031
102
{ACAD_REACTORS
330
1000021
102
}
330
1000021
100
AcDbScale
 70
     0
300
10:1
140
10.0
141
1.0
290
     0
  0
SCALE
  5
1000032
102
{ACAD_REACTORS
330
1000021
102
}
330
1000021
100
AcDbScale
 70
     0
300
100:1
140
100.0
141
1.0
290
     0
  0
TABLESTYLE
  5
100001E
102
{ACAD_REACTORS
330
100001D
102
}
330
100001D
100
AcDbTableStyle
  3
Standard
 70
     0
 71
     0
 40
1.5
 41
1.5
280
     0
281
     0
  7
STANDARD
140
4.5
170
     2
 62
     7
 63
   257
283
     0
 90
        4
 91
        0
  1

274
    -2
284
     1
 64
     0
275
    -2
285
     1
 65
     0
276
    -2
286
     1
 66
     0
277
    -2
287
     1
 67
     0
278
    -2
288
     1
 68
     0
279
    -2
289
     1
 69
     0
  7
STANDARD
140
6.0
170
     5
 62
     7
 63
   257
283
     0
 90
        4
 91
        0
  1

274
    -2
284
     1
 64
     0
275
    -2
285
     1
 65
     0
276
    -2
286
     1
 66
     0
277
    -2
287
     1
 67
     0
278
    -2
288
     1
 68
     0
279
    -2
289
     1
 69
     0
  7
STANDARD
140
4.5
170
     5
 62
     7
 63
   257
283
     0
 90
        4
 91
        0
  1

274
    -2
284
     1
 64
     0
275
    -2
285
     1
 65
     0
276
    -2
286
     1
 66
     0
277
    -2
287
     1
 67
     0
278
    -2
288
     1
 68
     0
279
    -2
289
     1
 69
     0
  0
VISUALSTYLE
  5
1000008
102
{ACAD_REACTORS
330
1000003
102
}
330
1000003
100
AcDbVisualStyle
  2
2dWireframe
 70
     4
177
     3
291
     0
 70
    58
 90
        0
176
     1
 90
        2
176
     1
 90
        0
176
     1
 90
        0
176
     1
 40
0.6
176
     1
 40
30.0
176
     1
 62
     7
420
 16777215
176
     1
 90
        1
176
     1
 90
        4
176
     1
 62
     7
176
     1
 62
   257
176
     1
 90
        1
176
     1
 90
        1
176
     1
 40
1.0
176
     1
 90
        0
176
     1
 62
   257
176
     1
 40
1.0
176
     1
 90
        1
176
     1
 90
        6
176
     1
 90
        2
176
     1
 62
     7
176
     1
 90
        5
176
     1
 90
        0
176
     1
 90
        0
176
     1
290
     0
176
     1
 90
        1
176
     1
 40
0.0
176
     1
 90
        0
176
     1
290
     1
176
     1
290
     1
176
     1
290
     0
176
     1
290
     0
176
     1
290
     0
176
     1
290
     0
176
     1
290
     0
176
     1
290
     0
176
     1
290
     0
176
     1
 90
       50
176
     1
 40
0.0
176
     1
 40
1.0
176
     1
 90
        0
176
     1
 62
    18
420
        0
176
     1
 90
       50
176
     1
 90
        3
176
     1
 62
     5
420
      255
176
     1
290
     0
176
     1
 90
       50
176
     1
 90
       50
176
     1
 90
       50
176
     1
290
     0
176
     1
 90
       50
176
     1
 62
   256
176
     0
 40
1.0
176
     0
 90
        2
176
     1
  1
strokes_ogs.tif
176
     1
290
     0
176
     1
 40
1.0
176
     1
 40
1.0
176
     1
  0
VISUALSTYLE
  5
100000B
102
{ACAD_REACTORS
330
1000003
102
}
330
1000003
100
AcDbVisualStyle
  2
Basic
 70
     7
177
     3
291
     1
 70
    58
 90
        1
176
     1
 90
        0
176
     1
 90
        1
176
     1
 90
        0
176
     1
 40
0.6
176
     1
 40
30.0
176
     1
 62
     7
420
 16777215
176
     1
 90
        0
176
     1
 90
        4
176
     1
 62
     7
176
     1
 62
   257
176
     1
 90
        1
176
     1
 90
        1
176
     1
 40
1.0
176
     1
 90
        8
176
     1
 62
     7
176
     1
 40
1.0
176
     1
 90
        1
176
     1
 90
        6
176
     1
 90
        2
176
     1
 62
     7
176
     1
 90
        5
176
     1
 90
        0
176
     1
 90
        0
176
     1
290
     0
176
     1
 90
        1
176
     1
 40
0.0
176
     1
 90
        0
176
     1
290
     0
176
     1
290
     1
176
     1
290
     1
176
     1
290
     0
176
     1
290
     0
176
     1
290
     0
176
     1
290
     0
176
     1
290
     0
176
     1
290
     0
176
     1
 90
       50
176
     1
 40
0.0
176
     1
 40
1.0
176
     1
 90
        0
176
     1
 62
    18
420
        0
176
     1
 90
       50
176
     1
 90
        3
176
     1
 62
     5
420
      255
176
     1
290
     0
176
     1
 90
       50
176
     1
 90
       50
176
     1
 90
       50
176
     1
290
     0
176
     1
 90
       50
176
     1
 62
   256
176
     0
 40
1.0
176
     0
 90
        2
176
     1
  1
strokes_ogs.tif
176
     1
290
     0
176
     1
 40
1.0
176
     1
 40
1.0
176
     1
  0
VISUALSTYLE
  5
100000F
102
{ACAD_REACTORS
330
1000003
102
}
330
1000003
100
AcDbVisualStyle
  2
Brighten
 70
    12
177
     3
291
     1
 70
    58
 90
        2
176
     1
 90
        2
176
     1
 90
        0
176
     1
 90
        0
176
     1
 40
0.6
176
     1
 40
30.0
176
     1
 62
     7
420
 16777215
176
     1
 90
        1
176
     1
 90
        4
176
     1
 62
     7
176
     1
 62
   257
176
     1
 90
        1
176
     1
 90
        1
176
     1
 40
1.0
176
     1
 90
        8
176
     1
 62
     7
176
     1
 40
1.0
176
     1
 90
        1
176
     1
 90
        6
176
     1
 90
        2
176
     1
 62
     7
176
     1
 90
        5
176
     1
 90
        0
176
     1
 90
        0
176
     1
290
     0
176
     1
 90
        1
176
     1
 40
50.0
176
     1
 90
        0
176
     1
290
     0
176
     1
290
     1
176
     1
290
     1
176
     1
290
     0
176
     1
290
     0
176
     1
290
     0
176
     1
290
     0
176
     1
290
     0
176
     1
290
     0
176
     1
 90
       50
176
     1
 40
0.0
176
     1
 40
1.0
176
     1
 90
        0
176
     1
 62
    18
420
        0
176
     1
 90
       50
176
     1
 90
        3
176
     1
 62
     5
420
      255
176
     1
290
     0
176
     1
 90
       50
176
     1
 90
       50
176
     1
 90
       50
176
     1
290
     0
176
     1
 90
       50
176
     1
 62
   256
176
     0
 40
1.0
176
     0
 90
        2
176
     1
  1
strokes_ogs.tif
176
     1
290
     0
176
     1
 40
1.0
176
     1
 40
1.0
176
     1
  0
VISUALSTYLE
  5
1000013
102
{ACAD_REACTORS
330
1000003
102
}
330
1000003
100
AcDbVisualStyle
  2
ColorChange
 70
    16
177
     3
291
     1
 70
    58
 90
        2
176
     1
 90
        2
176
     1
 90
        3
176
     1
 90
        0
176
     1
 40
0.6
176
     1
 40
30.0
176
     1
 62
     8
420
  8421504
176
     1
 90
        1
176
     1
 90
        4
176
     1
 62
     7
176
     1
 62
   257
176
     1
 90
        1
176
     1
 90
        1
176
     1
 40
1.0
176
     1
 90
        8
176
     1
 62
     8
420
  8421504
176
     1
 40
1.0
176
     1
 90
        1
176
     1
 90
        6
176
     1
 90
        2
176
     1
 62
     7
176
     1
 90
        5
176
     1
 90
        0
176
     1
 90
        0
176
     1
290
     0
176
     1
 90
        1
176
     1
 40
0.0
176
     1
 90
        0
176
     1
290
     0
176
     1
290
     1
176
     1
290
     1
176
     1
290
     0
176
     1
290
     0
176
     1
290
     0
176
     1
290
     0
176
     1
290
     0
176
     1
290
     0
176
     1
 90
       50
176
     1
 40
0.0
176
     1
 40
1.0
176
     1
 90
        0
176
     1
 62
    18
420
        0
176
     1
 90
       50
176
     1
 90
        3
176
     1
 62
     5
420
      255
176
     1
290
     0
176
     1
 90
       50
176
     1
 90
       50
176
     1
 90
       50
176
     1
290
     0
176
     1
 90
       50
176
     1
 62
   256
176
     0
 40
1.0
176
     0
 90
        2
176
     1
  1
strokes_ogs.tif
176
     1
290
     0
176
     1
 40
1.0
176
     1
 40
1.0
176
     1
  0
VISUALSTYLE
  5
100000D
102
{ACAD_REACTORS
330
1000003
102
}
330
1000003
100
AcDbVisualStyle
  2
Conceptual
 70
     9
177
     3
291
     0
 70
    58
 90
        3
176
     1
 90
        2
176
     1
 90
        0
176
     1
 90
        0
176
     1
 40
0.6
176
     1
 40
30.0
176
     1
 62
     7
420
 16777215
176
     1
 90
        2
176
     1
 90
        2
176
     1
 62
     7
176
     1
 62
   257
176
     1
 90
        1
176
     1
 90
        1
176
     1
 40
179.0
176
     1
 90
        8
176
     1
 62
     7
176
     1
 40
1.0
176
     1
 90
        1
176
     1
 90
        6
176
     1
 90
        2
176
     1
 62
     7
176
     1
 90
        3
176
     1
 90
        0
176
     1
 90
        0
176
     1
290
     0
176
     1
 90
        1
176
     1
 40
0.0
176
     1
 90
        0
176
     1
290
     0
176
     1
290
     1
176
     1
290
     1
176
     1
290
     0
176
     1
290
     0
176
     1
290
     0
176
     1
290
     0
176
     1
290
     0
176
     1
290
     0
176
     1
 90
       50
176
     1
 40
0.0
176
     1
 40
1.0
176
     1
 90
        0
176
     1
 62
    18
420
        0
176
     1
 90
       50
176
     1
 90
        3
176
     1
 62
     5
420
      255
176
     1
290
     0
176
     1
 90
       50
176
     1
 90
       50
176
     1
 90
       50
176
     1
290
     0
176
     1
 90
       50
176
     1
 62
   256
176
     0
 40
1.0
176
     0
 90
        2
176
     1
  1
strokes_ogs.tif
176
     1
290
     0
176
     1
 40
1.0
176
     1
 40
1.0
176
     1
  0
VISUALSTYLE
  5
100000E
102
{ACAD_REACTORS
330
1000003
102
}
330
1000003
100
AcDbVisualStyle
  2
Dim
 70
    11
177
     3
291
     1
 70
    58
 90
        2
176
     1
 90
        2
176
     1
 90
        0
176
     1
 90
        0
176
     1
 40
0.6
176
     1
 40
30.0
176
     1
 62
     7
420
 16777215
176
     1
 90
        1
176
     1
 90
        4
176
     1
 62
     7
176
     1
 62
   257
176
     1
 90
        1
176
     1
 90
        1
176
     1
 40
1.0
176
     1
 90
        8
176
     1
 62
     7
176
     1
 40
1.0
176
     1
 90
        1
176
     1
 90
        6
176
     1
 90
        2
176
     1
 62
     7
176
     1
 90
        5
176
     1
 90
        0
176
     1
 90
        0
176
     1
290
     0
176
     1
 90
        1
176
     1
 40
-50.0
176
     1
 90
        0
176
     1
290
     0
176
     1
290
     1
176
     1
290
     1
176
     1
290
     0
176
     1
290
     0
176
     1
290
     0
176
     1
290
     0
176
     1
290
     0
176
     1
290
     0
176
     1
 90
       50
176
     1
 40
0.0
176
     1
 40
1.0
176
     1
 90
        0
176
     1
 62
    18
420
        0
176
     1
 90
       50
176
     1
 90
        3
176
     1
 62
     5
420
      255
176
     1
290
     0
176
     1
 90
       50
176
     1
 90
       50
176
     1
 90
       50
176
     1
290
     0
176
     1
 90
       50
176
     1
 62
   256
176
     0
 40
1.0
176
     0
 90
        2
176
     1
  1
strokes_ogs.tif
176
     1
290
     0
176
     1
 40
1.0
176
     1
 40
1.0
176
     1
  0
VISUALSTYLE
  5
1000016
102
{ACAD_REACTORS
330
1000003
102
}
330
1000003
100
AcDbVisualStyle
  2
EdgeColorOff
 70
    22
177
     3
291
     1
 70
    58
 90
        2
176
     0
 90
        2
176
     0
 90
        0
176
     0
 90
        0
176
     0
 40
0.6
176
     0
 40
30.0
176
     0
 62
     7
420
 16777215
176
     0
 90
        1
176
     0
 90
        4
176
     0
 62
     7
176
     0
 62
   257
176
     0
 90
        1
176
     0
 90
        1
176
     0
 40
1.0
176
     0
 90
        8
176
     2
 62
     7
176
     0
 40
1.0
176
     0
 90
        1
176
     0
 90
        6
176
     0
 90
        2
176
     0
 62
     7
176
     0
 90
        5
176
     0
 90
        0
176
     0
 90
        0
176
     0
290
     0
176
     0
 90
        1
176
     0
 40
0.0
176
     0
 90
        0
176
     0
290
     0
176
     0
290
     1
176
     0
290
     1
176
     0
290
     0
176
     0
290
     0
176
     0
290
     0
176
     0
290
     0
176
     0
290
     0
176
     0
290
     0
176
     0
 90
       50
176
     0
 40
0.0
176
     0
 40
1.0
176
     0
 90
        0
176
     0
 62
    18
420
        0
176
     0
 90
       50
176
     0
 90
        3
176
     0
 62
     5
420
      255
176
     0
290
     0
176
     0
 90
       50
176
     0
 90
       50
176
     0
 90
       50
176
     0
290
     0
176
     0
 90
       50
176
     0
 62
   256
176
     0
 40
1.0
176
     0
 90
        2
176
     0
  1
strokes_ogs.tif
176
     0
290
     0
176
     0
 40
1.0
176
     0
 40
1.0
176
     0
  0
VISUALSTYLE
  5
1000012
102
{ACAD_REACTORS
330
1000003
102
}
330
1000003
100
AcDbVisualStyle
  2
Facepattern
 70
    15
177
     3
291
     1
 70
    58
 90
        2
176
     1
 90
        2
176
     1
 90
        0
176
     1
 90
        0
176
     1
 40
0.6
176
     1
 40
30.0
176
     1
 62
     7
420
 16777215
176
     1
 90
        1
176
     1
 90
        4
176
     1
 62
     7
176
     1
 62
   257
176
     1
 90
        1
176
     1
 90
        1
176
     1
 40
1.0
176
     1
 90
        8
176
     1
 62
     7
176
     1
 40
1.0
176
     1
 90
        1
176
     1
 90
        6
176
     1
 90
        2
176
     1
 62
     7
176
     1
 90
        5
176
     1
 90
        0
176
     1
 90
        0
176
     1
290
     0
176
     1
 90
        1
176
     1
 40
0.0
176
     1
 90
        0
176
     1
290
     0
176
     1
290
     1
176
     1
290
     1
176
     1
290
     0
176
     1
290
     0
176
     1
290
     0
176
     1
290
     0
176
     1
290
     0
176
     1
290
     0
176
     1
 90
       50
176
     1
 40
0.0
176
     1
 40
1.0
176
     1
 90
        0
176
     1
 62
    18
420
        0
176
     1
 90
       50
176
     1
 90
        3
176
     1
 62
     5
420
      255
176
     1
290
     0
176
     1
 90
       50
176
     1
 90
       50
176
     1
 90
       50
176
     1
290
     0
176
     1
 90
       50
176
     1
 62
   256
176
     0
 40
1.0
176
     0
 90
        2
176
     1
  1
strokes_ogs.tif
176
     1
290
     0
176
     1
 40
1.0
176
     1
 40
1.0
176
     1
  0
VISUALSTYLE
  5
1000004
102
{ACAD_REACTORS
330
1000003
102
}
330
1000003
100
AcDbVisualStyle
  2
Flat
 70
     0
177
     3
291
     1
 70
    58
 90
        2
176
     1
 90
        1
176
     1
 90
        1
176
     1
 90
        2
176
     1
 40
0.6
176
     1
 40
30.0
176
     1
 62
     7
420
 16777215
176
     1
 90
        0
176
     1
 90
        0
176
     1
 62
     7
176
     1
 62
   257
176
     1
 90
        1
176
     1
 90
        1
176
     1
 40
1.0
176
     1
 90
        8
176
     1
 62
     7
176
     1
 40
1.0
176
     1
 90
        1
176
     1
 90
        6
176
     1
 90
        2
176
     1
 62
     7
176
     1
 90
        5
176
     1
 90
        0
176
     1
 90
        0
176
     1
290
     0
176
     1
 90
       13
176
     1
 40
0.0
176
     1
 90
        0
176
     1
290
     0
176
     1
290
     1
176
     1
290
     1
176
     1
290
     0
176
     1
290
     0
176
     1
290
     0
176
     1
290
     0
176
     1
290
     0
176
     1
290
     0
176
     1
 90
       50
176
     1
 40
0.0
176
     1
 40
1.0
176
     1
 90
        0
176
     1
 62
    18
420
        0
176
     1
 90
       50
176
     1
 90
        3
176
     1
 62
     5
420
      255
176
     1
290
     0
176
     1
 90
       50
176
     1
 90
       50
176
     1
 90
       50
176
     1
290
     0
176
     1
 90
       50
176
     1
 62
   256
176
     0
 40
1.0
176
     0
 90
        2
176
     1
  1
strokes_ogs.tif
176
     1
290
     0
176
     1
 40
1.0
176
     1
 40
1.0
176
     1
  0
VISUALSTYLE
  5
1000005
102
{ACAD_REACTORS
330
1000003
102
}
330
1000003
100
AcDbVisualStyle
  2
FlatWithEdges
 70
     1
177
     3
291
     1
 70
    58
 90
        2
176
     1
 90
        1
176
     1
 90
        1
176
     1
 90
        2
176
     1
 40
0.6
176
     1
 40
30.0
176
     1
 62
     7
420
 16777215
176
     1
 90
        1
176
     1
 90
        0
176
     1
 62
     7
176
     1
 62
   257
176
     1
 90
        1
176
     1
 90
        1
176
     1
 40
1.0
176
     1
 90
        0
176
     1
 62
   257
176
     1
 40
1.0
176
     1
 90
        1
176
     1
 90
        6
176
     1
 90
        2
176
     1
 62
     7
176
     1
 90
        5
176
     1
 90
        0
176
     1
 90
        0
176
     1
290
     0
176
     1
 90
       13
176
     1
 40
0.0
176
     1
 90
        0
176
     1
290
     0
176
     1
290
     1
176
     1
290
     1
176
     1
290
     0
176
     1
290
     0
176
     1
290
     0
176
     1
290
     0
176
     1
290
     0
176
     1
290
     0
176
     1
 90
       50
176
     1
 40
0.0
176
     1
 40
1.0
176
     1
 90
        0
176
     1
 62
    18
420
        0
176
     1
 90
       50
176
     1
 90
        3
176
     1
 62
     5
420
      255
176
     1
290
     0
176
     1
 90
       50
176
     1
 90
       50
176
     1
 90
       50
176
     1
290
     0
176
     1
 90
       50
176
     1
 62
   256
176
     0
 40
1.0
176
     0
 90
        2
176
     1
  1
strokes_ogs.tif
176
     1
290
     0
176
     1
 40
1.0
176
     1
 40
1.0
176
     1
  0
VISUALSTYLE
  5
1000006
102
{ACAD_REACTORS
330
1000003
102
}
330
1000003
100
AcDbVisualStyle
  2
Gouraud
 70
     2
177
     3
291
     1
 70
    58
 90
        2
176
     1
 90
        2
176
     1
 90
        1
176
     1
 90
        2
176
     1
 40
0.6
176
     1
 40
30.0
176
     1
 62
     7
420
 16777215
176
     1
 90
        0
176
     1
 90
        0
176
     1
 62
     7
176
     1
 62
   257
176
     1
 90
        1
176
     1
 90
        1
176
     1
 40
1.0
176
     1
 90
        0
176
     1
 62
     7
176
     1
 40
1.0
176
     1
 90
        1
176
     1
 90
        6
176
     1
 90
        2
176
     1
 62
     7
176
     1
 90
        5
176
     1
 90
        0
176
     1
 90
        0
176
     1
290
     0
176
     1
 90
       13
176
     1
 40
0.0
176
     1
 90
        0
176
     1
290
     0
176
     1
290
     1
176
     1
290
     1
176
     1
290
     0
176
     1
290
     0
176
     1
290
     0
176
     1
290
     0
176
     1
290
     0
176
     1
290
     0
176
     1
 90
       50
176
     1
 40
0.0
176
     1
 40
1.0
176
     1
 90
        0
176
     1
 62
    18
420
        0
176
     1
 90
       50
176
     1
 90
        3
176
     1
 62
     5
420
      255
176
     1
290
     0
176
     1
 90
       50
176
     1
 90
       50
176
     1
 90
       50
176
     1
290
     0
176
     1
 90
       50
176
     1
 62
   256
176
     0
 40
1.0
176
     0
 90
        2
176
     1
  1
strokes_ogs.tif
176
     1
290
     0
176
     1
 40
1.0
176
     1
 40
1.0
176
     1
  0
VISUALSTYLE
  5
1000007
102
{ACAD_REACTORS
330
1000003
102
}
330
1000003
100
AcDbVisualStyle
  2
GouraudWithEdges
 70
     3
177
     3
291
     1
 70
    58
 90
        2
176
     1
 90
        2
176
     1
 90
        1
176
     1
 90
        2
176
     1
 40
0.6
176
     1
 40
30.0
176
     1
 62
     7
420
 16777215
176
     1
 90
        1
176
     1
 90
        0
176
     1
 62
     7
176
     1
 62
   257
176
     1
 90
        1
176
     1
 90
        1
176
     1
 40
1.0
176
     1
 90
        0
176
     1
 62
   257
176
     1
 40
1.0
176
     1
 90
        1
176
     1
 90
        6
176
     1
 90
        2
176
     1
 62
     7
176
     1
 90
        5
176
     1
 90
        0
176
     1
 90
        0
176
     1
290
     0
176
     1
 90
       13
176
     1
 40
0.0
176
     1
 90
        0
176
     1
290
     0
176
     1
290
     1
176
     1
290
     1
176
     1
290
     0
176
     1
290
     0
176
     1
290
     0
176
     1
290
     0
176
     1
290
     0
176
     1
290
     0
176
     1
 90
       50
176
     1
 40
0.0
176
     1
 40
1.0
176
     1
 90
        0
176
     1
 62
    18
420
        0
176
     1
 90
       50
176
     1
 90
        3
176
     1
 62
     5
420
      255
176
     1
290
     0
176
     1
 90
       50
176
     1
 90
       50
176
     1
 90
       50
176
     1
290
     0
176
     1
 90
       50
176
     1
 62
   256
176
     0
 40
1.0
176
     0
 90
        2
176
     1
  1
strokes_ogs.tif
176
     1
290
     0
176
     1
 40
1.0
176
     1
 40
1.0
176
     1
  0
VISUALSTYLE
  5
100000A
102
{ACAD_REACTORS
330
1000003
102
}
330
1000003
100
AcDbVisualStyle
  2
Hidden
 70
     6
177
     3
291
     0
 70
    58
 90
        1
176
     1
 90
        2
176
     1
 90
        2
176
     1
 90
        0
176
     1
 40
0.6
176
     1
 40
30.0
176
     1
 62
     7
420
 16777215
176
     1
 90
        2
176
     1
 90
        2
176
     1
 62
     7
176
     1
 62
   257
176
     1
 90
        2
176
     1
 90
        1
176
     1
 40
40.0
176
     1
 90
        0
176
     1
 62
   257
176
     1
 40
1.0
176
     1
 90
        1
176
     1
 90
        6
176
     1
 90
        2
176
     1
 62
     7
176
     1
 90
        3
176
     1
 90
        0
176
     1
 90
        0
176
     1
290
     0
176
     1
 90
        1
176
     1
 40
0.0
176
     1
 90
        0
176
     1
290
     0
176
     1
290
     1
176
     1
290
     1
176
     1
290
     0
176
     1
290
     0
176
     1
290
     0
176
     1
290
     0
176
     1
290
     0
176
     1
290
     0
176
     1
 90
       50
176
     1
 40
0.0
176
     1
 40
1.0
176
     1
 90
        0
176
     1
 62
    18
420
        0
176
     1
 90
       50
176
     1
 90
        3
176
     1
 62
     5
420
      255
176
     1
290
     0
176
     1
 90
       50
176
     1
 90
       50
176
     1
 90
       50
176
     1
290
     0
176
     1
 90
       50
176
     1
 62
   256
176
     0
 40
1.0
176
     0
 90
        2
176
     1
  1
strokes_ogs.tif
176
     1
290
     0
176
     1
 40
1.0
176
     1
 40
1.0
176
     1
  0
VISUALSTYLE
  5
1000014
102
{ACAD_REACTORS
330
1000003
102
}
330
1000003
100
AcDbVisualStyle
  2
JitterOff
 70
    20
177
     3
291
     1
 70
    58
 90
        2
176
     0
 90
        2
176
     0
 90
        0
176
     0
 90
        0
176
     0
 40
0.6
176
     0
 40
30.0
176
     0
 62
     7
420
 16777215
176
     0
 90
        1
176
     0
 90
        4
176
     0
 62
     7
176
     0
 62
   257
176
     0
 90
        1
176
     0
 90
        1
176
     0
 40
1.0
176
     0
 90
       10
176
     2
 62
     7
176
     0
 40
1.0
176
     0
 90
        1
176
     0
 90
        6
176
     0
 90
        2
176
     0
 62
     7
176
     0
 90
        5
176
     0
 90
        0
176
     0
 90
        0
176
     0
290
     0
176
     0
 90
        1
176
     0
 40
0.0
176
     0
 90
        0
176
     0
290
     0
176
     0
290
     1
176
     0
290
     1
176
     0
290
     0
176
     0
290
     0
176
     0
290
     0
176
     0
290
     0
176
     0
290
     0
176
     0
290
     0
176
     0
 90
       50
176
     0
 40
0.0
176
     0
 40
1.0
176
     0
 90
        0
176
     0
 62
    18
420
        0
176
     0
 90
       50
176
     0
 90
        3
176
     0
 62
     5
420
      255
176
     0
290
     0
176
     0
 90
       50
176
     0
 90
       50
176
     0
 90
       50
176
     0
290
     0
176
     0
 90
       50
176
     0
 62
   256
176
     0
 40
1.0
176
     0
 90
        2
176
     0
  1
strokes_ogs.tif
176
     0
290
     0
176
     0
 40
1.0
176
     0
 40
1.0
176
     0
  0
VISUALSTYLE
  5
1000011
102
{ACAD_REACTORS
330
1000003
102
}
330
1000003
100
AcDbVisualStyle
  2
Linepattern
 70
    14
177
     3
291
     1
 70
    58
 90
        2
176
     1
 90
        2
176
     1
 90
        0
176
     1
 90
        0
176
     1
 40
0.6
176
     1
 40
30.0
176
     1
 62
     7
420
 16777215
176
     1
 90
        1
176
     1
 90
        4
176
     1
 62
     7
176
     1
 62
   257
176
     1
 90
        7
176
     1
 90
        7
176
     1
 40
1.0
176
     1
 90
        8
176
     1
 62
     7
176
     1
 40
1.0
176
     1
 90
        1
176
     1
 90
        6
176
     1
 90
        2
176
     1
 62
     7
176
     1
 90
        5
176
     1
 90
        0
176
     1
 90
        0
176
     1
290
     0
176
     1
 90
        1
176
     1
 40
0.0
176
     1
 90
        0
176
     1
290
     0
176
     1
290
     1
176
     1
290
     1
176
     1
290
     0
176
     1
290
     0
176
     1
290
     0
176
     1
290
     0
176
     1
290
     0
176
     1
290
     0
176
     1
 90
       50
176
     1
 40
0.0
176
     1
 40
1.0
176
     1
 90
        0
176
     1
 62
    18
420
        0
176
     1
 90
       50
176
     1
 90
        3
176
     1
 62
     5
420
      255
176
     1
290
     0
176
     1
 90
       50
176
     1
 90
       50
176
     1
 90
       50
176
     1
290
     0
176
     1
 90
       50
176
     1
 62
   256
176
     0
 40
1.0
176
     0
 90
        2
176
     1
  1
strokes_ogs.tif
176
     1
290
     0
176
     1
 40
1.0
176
     1
 40
1.0
176
     1
  0
VISUALSTYLE
  5
1000015
102
{ACAD_REACTORS
330
1000003
102
}
330
1000003
100
AcDbVisualStyle
  2
OverhangOff
 70
    21
177
     3
291
     1
 70
    58
 90
        2
176
     0
 90
        2
176
     0
 90
        0
176
     0
 90
        0
176
     0
 40
0.6
176
     0
 40
30.0
176
     0
 62
     7
420
 16777215
176
     0
 90
        1
176
     0
 90
        4
176
     0
 62
     7
176
     0
 62
   257
176
     0
 90
        1
176
     0
 90
        1
176
     0
 40
1.0
176
     0
 90
        9
176
     2
 62
     7
176
     0
 40
1.0
176
     0
 90
        1
176
     0
 90
        6
176
     0
 90
        2
176
     0
 62
     7
176
     0
 90
        5
176
     0
 90
        0
176
     0
 90
        0
176
     0
290
     0
176
     0
 90
        1
176
     0
 40
0.0
176
     0
 90
        0
176
     0
290
     0
176
     0
290
     1
176
     0
290
     1
176
     0
290
     0
176
     0
290
     0
176
     0
290
     0
176
     0
290
     0
176
     0
290
     0
176
     0
290
     0
176
     0
 90
       50
176
     0
 40
0.0
176
     0
 40
1.0
176
     0
 90
        0
176
     0
 62
    18
420
        0
176
     0
 90
       50
176
     0
 90
        3
176
     0
 62
     5
420
      255
176
     0
290
     0
176
     0
 90
       50
176
     0
 90
       50
176
     0
 90
       50
176
     0
290
     0
176
     0
 90
       50
176
     0
 62
   256
176
     0
 40
1.0
176
     0
 90
        2
176
     0
  1
strokes_ogs.tif
176
     0
290
     0
176
     0
 40
1.0
176
     0
 40
1.0
176
     0
  0
VISUALSTYLE
  5
100000C
102
{ACAD_REACTORS
330
1000003
102
}
330
1000003
100
AcDbVisualStyle
  2
Realistic
 70
     8
177
     3
291
     0
 70
    58
 90
        2
176
     1
 90
        3
176
     1
 90
        0
176
     1
 90
        2
176
     1
 40
0.6
176
     1
 40
30.0
176
     1
 62
     7
420
 16777215
176
     1
 90
        0
176
     1
 90
        0
176
     1
 62
     7
176
     1
 62
   257
176
     1
 90
        1
176
     1
 90
        1
176
     1
 40
1.0
176
     1
 90
        8
176
     1
 62
   257
176
     1
 40
1.0
176
     1
 90
        1
176
     1
 90
        6
176
     1
 90
        2
176
     1
 62
     7
176
     1
 90
        3
176
     1
 90
        0
176
     1
 90
        0
176
     1
290
     0
176
     1
 90
       13
176
     1
 40
0.0
176
     1
 90
        0
176
     1
290
     0
176
     1
290
     1
176
     1
290
     1
176
     1
290
     0
176
     1
290
     0
176
     1
290
     0
176
     1
290
     0
176
     1
290
     0
176
     1
290
     0
176
     1
 90
       50
176
     1
 40
0.0
176
     1
 40
1.0
176
     1
 90
        0
176
     1
 62
    18
420
        0
176
     1
 90
       50
176
     1
 90
        3
176
     1
 62
     5
420
      255
176
     1
290
     0
176
     1
 90
       50
176
     1
 90
       50
176
     1
 90
       50
176
     1
290
     0
176
     1
 90
       50
176
     1
 62
   256
176
     0
 40
1.0
176
     0
 90
        2
176
     1
  1
strokes_ogs.tif
176
     1
290
     0
176
     1
 40
1.0
176
     1
 40
1.0
176
     1
  0
VISUALSTYLE
  5
100001B
102
{ACAD_REACTORS
330
1000003
102
}
330
1000003
100
AcDbVisualStyle
  2
Shaded
 70
    27
177
     3
291
     0
 70
    58
 90
        2
176
     1
 90
        2
176
     1
 90
        1
176
     1
 90
        2
176
     1
 40
0.6
176
     1
 40
30.0
176
     1
 62
     7
420
 16777215
176
     1
 90
        0
176
     1
 90
        4
176
     1
 62
     7
176
     1
 62
   257
176
     1
 90
        1
176
     1
 90
        1
176
     1
 40
1.0
176
     1
 90
        8
176
     1
 62
   257
176
     1
 40
1.0
176
     1
 90
        1
176
     1
 90
        6
176
     1
 90
        2
176
     1
 62
     8
420
  7895160
176
     1
 90
        3
176
     1
 90
        0
176
     1
 90
        0
176
     1
290
     0
176
     1
 90
        5
176
     1
 40
0.0
176
     1
 90
        0
176
     1
290
     0
176
     1
290
     1
176
     1
290
     1
176
     1
290
     0
176
     1
290
     0
176
     1
290
     0
176
     1
290
     0
176
     1
290
     0
176
     1
290
     0
176
     1
 90
       50
176
     1
 40
0.0
176
     1
 40
1.0
176
     1
 90
        0
176
     1
 62
    18
420
        0
176
     1
 90
       50
176
     1
 90
        3
176
     1
 62
     5
420
      255
176
     1
290
     0
176
     1
 90
       50
176
     1
 90
       50
176
     1
 90
       50
176
     1
290
     0
176
     1
 90
       50
176
     1
 62
   256
176
     0
 40
1.0
176
     0
 90
        2
176
     1
  1
strokes_ogs.tif
176
     1
290
     0
176
     1
 40
1.0
176
     1
 40
1.0
176
     1
  0
VISUALSTYLE
  5
100001A
102
{ACAD_REACTORS
330
1000003
102
}
330
1000003
100
AcDbVisualStyle
  2
Shaded with edges
 70
    26
177
     3
291
     0
 70
    58
 90
        2
176
     1
 90
        2
176
     1
 90
        1
176
     1
 90
        2
176
     1
 40
0.6
176
     1
 40
30.0
176
     1
 62
     7
420
 16777215
176
     1
 90
        1
176
     1
 90
       10
176
     1
 62
     7
176
     1
 62
   257
176
     1
 90
        2
176
     1
 90
        1
176
     1
 40
1.0
176
     1
 90
        8
176
     1
 62
   257
176
     1
 40
1.0
176
     1
 90
        1
176
     1
 90
        6
176
     1
 90
        2
176
     1
 62
     7
176
     1
 90
        3
176
     1
 90
        0
176
     1
 90
        0
176
     1
290
     0
176
     1
 90
        5
176
     1
 40
0.0
176
     1
 90
        0
176
     1
290
     0
176
     1
290
     1
176
     1
290
     1
176
     1
290
     0
176
     1
290
     0
176
     1
290
     0
176
     1
290
     0
176
     1
290
     0
176
     1
290
     0
176
     1
 90
       50
176
     1
 40
0.0
176
     1
 40
1.0
176
     1
 90
        0
176
     1
 62
    18
420
        0
176
     1
 90
       50
176
     1
 90
        3
176
     1
 62
     5
420
      255
176
     1
290
     0
176
     1
 90
       50
176
     1
 90
       50
176
     1
 90
       50
176
     1
290
     0
176
     1
 90
       50
176
     1
 62
   256
176
     0
 40
1.0
176
     0
 90
        2
176
     1
  1
strokes_ogs.tif
176
     1
290
     0
176
     1
 40
1.0
176
     1
 40
1.0
176
     1
  0
VISUALSTYLE
  5
1000017
102
{ACAD_REACTORS
330
1000003
102
}
330
1000003
100
AcDbVisualStyle
  2
Shades of Gray
 70
    23
177
     3
291
     0
 70
    58
 90
        2
176
     1
 90
        2
176
     1
 90
        3
176
     1
 90
        0
176
     1
 40
0.6
176
     1
 40
30.0
176
     1
 62
     7
420
 16777215
176
     1
 90
        2
176
     1
 90
        2
176
     1
 62
     7
176
     1
 62
     7
176
     1
 90
        1
176
     1
 90
        1
176
     1
 40
40.0
176
     1
 90
        8
176
     1
 62
     7
176
     1
 40
1.0
176
     1
 90
        1
176
     1
 90
        6
176
     1
 90
        2
176
     1
 62
     7
176
     1
 90
        3
176
     1
 90
        0
176
     1
 90
        0
176
     1
290
     0
176
     1
 90
        1
176
     1
 40
0.0
176
     1
 90
        0
176
     1
290
     0
176
     1
290
     1
176
     1
290
     1
176
     1
290
     0
176
     1
290
     0
176
     1
290
     0
176
     1
290
     0
176
     1
290
     0
176
     1
290
     0
176
     1
 90
       50
176
     1
 40
0.0
176
     1
 40
1.0
176
     1
 90
        0
176
     1
 62
    18
420
        0
176
     1
 90
       50
176
     1
 90
        3
176
     1
 62
     5
420
      255
176
     1
290
     0
176
     1
 90
       50
176
     1
 90
       50
176
     1
 90
       50
176
     1
290
     0
176
     1
 90
       50
176
     1
 62
   256
176
     0
 40
1.0
176
     0
 90
        2
176
     1
  1
strokes_ogs.tif
176
     1
290
     0
176
     1
 40
1.0
176
     1
 40
1.0
176
     1
  0
VISUALSTYLE
  5
1000018
102
{ACAD_REACTORS
330
1000003
102
}
330
1000003
100
AcDbVisualStyle
  2
Sketchy
 70
    24
177
     3
291
     0
 70
    58
 90
        1
176
     1
 90
        2
176
     1
 90
        2
176
     1
 90
        0
176
     1
 40
0.6
176
     1
 40
30.0
176
     1
 62
     7
420
 16777215
176
     1
 90
        2
176
     1
 90
        2
176
     1
 62
     7
176
     1
 62
     7
176
     1
 90
        1
176
     1
 90
        1
176
     1
 40
40.0
176
     1
 90
       11
176
     1
 62
     7
176
     1
 40
1.0
176
     1
 90
        1
176
     1
 90
        6
176
     1
 90
        2
176
     1
 62
     7
176
     1
 90
        6
176
     1
 90
        0
176
     1
 90
        0
176
     1
290
     0
176
     1
 90
        1
176
     1
 40
0.0
176
     1
 90
        0
176
     1
290
     0
176
     1
290
     1
176
     1
290
     1
176
     1
290
     0
176
     1
290
     0
176
     1
290
     0
176
     1
290
     0
176
     1
290
     0
176
     1
290
     0
176
     1
 90
       50
176
     1
 40
0.0
176
     1
 40
1.0
176
     1
 90
        0
176
     1
 62
    18
420
        0
176
     1
 90
       50
176
     1
 90
        3
176
     1
 62
     5
420
      255
176
     1
290
     0
176
     1
 90
       50
176
     1
 90
       50
176
     1
 90
       50
176
     1
290
     0
176
     1
 90
       50
176
     1
 62
   256
176
     0
 40
1.0
176
     0
 90
        2
176
     1
  1
strokes_ogs.tif
176
     1
290
     0
176
     1
 40
1.0
176
     1
 40
1.0
176
     1
  0
VISUALSTYLE
  5
1000010
102
{ACAD_REACTORS
330
1000003
102
}
330
1000003
100
AcDbVisualStyle
  2
Thicken
 70
    13
177
     3
291
     1
 70
    58
 90
        2
176
     1
 90
        2
176
     1
 90
        0
176
     1
 90
        0
176
     1
 40
0.6
176
     1
 40
30.0
176
     1
 62
     7
420
 16777215
176
     1
 90
        1
176
     1
 90
        4
176
     1
 62
     7
176
     1
 62
   257
176
     1
 90
        1
176
     1
 90
        1
176
     1
 40
1.0
176
     1
 90
       12
176
     1
 62
     7
176
     1
 40
1.0
176
     1
 90
        1
176
     1
 90
        6
176
     1
 90
        2
176
     1
 62
     7
176
     1
 90
        5
176
     1
 90
        0
176
     1
 90
        0
176
     1
290
     0
176
     1
 90
        1
176
     1
 40
0.0
176
     1
 90
        0
176
     1
290
     0
176
     1
290
     1
176
     1
290
     1
176
     1
290
     0
176
     1
290
     0
176
     1
290
     0
176
     1
290
     0
176
     1
290
     0
176
     1
290
     0
176
     1
 90
       50
176
     1
 40
0.0
176
     1
 40
1.0
176
     1
 90
        0
176
     1
 62
    18
420
        0
176
     1
 90
       50
176
     1
 90
        3
176
     1
 62
     5
420
      255
176
     1
290
     0
176
     1
 90
       50
176
     1
 90
       50
176
     1
 90
       50
176
     1
290
     0
176
     1
 90
       50
176
     1
 62
   256
176
     0
 40
1.0
176
     0
 90
        2
176
     1
  1
strokes_ogs.tif
176
     1
290
     0
176
     1
 40
1.0
176
     1
 40
1.0
176
     1
  0
VISUALSTYLE
  5
1000009
102
{ACAD_REACTORS
330
1000003
102
}
330
1000003
100
AcDbVisualStyle
  2
Wireframe
 70
     5
177
     3
291
     0
 70
    58
 90
        0
176
     1
 90
        2
176
     1
 90
        0
176
     1
 90
        0
176
     1
 40
0.6
176
     1
 40
30.0
176
     1
 62
     7
420
 16777215
176
     1
 90
        1
176
     1
 90
        4
176
     1
 62
     7
176
     1
 62
   257
176
     1
 90
        1
176
     1
 90
        1
176
     1
 40
1.0
176
     1
 90
        0
176
     1
 62
   257
176
     1
 40
1.0
176
     1
 90
        1
176
     1
 90
        6
176
     1
 90
        2
176
     1
 62
     7
176
     1
 90
        3
176
     1
 90
        0
176
     1
 90
        0
176
     1
290
     0
176
     1
 90
        1
176
     1
 40
0.0
176
     1
 90
        0
176
     1
290
     0
176
     1
290
     1
176
     1
290
     1
176
     1
290
     0
176
     1
290
     0
176
     1
290
     0
176
     1
290
     0
176
     1
290
     0
176
     1
290
     0
176
     1
 90
       50
176
     1
 40
0.0
176
     1
 40
1.0
176
     1
 90
        0
176
     1
 62
    18
420
        0
176
     1
 90
       50
176
     1
 90
        3
176
     1
 62
     5
420
      255
176
     1
290
     0
176
     1
 90
       50
176
     1
 90
       50
176
     1
 90
       50
176
     1
290
     0
176
     1
 90
       50
176
     1
 62
   256
176
     0
 40
1.0
176
     0
 90
        2
176
     1
  1
strokes_ogs.tif
176
     1
290
     0
176
     1
 40
1.0
176
     1
 40
1.0
176
     1
  0
VISUALSTYLE
  5
1000019
102
{ACAD_REACTORS
330
1000003
102
}
330
1000003
100
AcDbVisualStyle
  2
X-Ray
 70
    25
177
     3
291
     0
 70
    58
 90
        2
176
     1
 90
        2
176
     1
 90
        1
176
     1
 90
        1
176
     1
 40
0.5
176
     1
 40
30.0
176
     1
 62
     7
420
 16777215
176
     1
 90
        1
176
     1
 90
        0
176
     1
 62
     7
176
     1
 62
   257
176
     1
 90
        1
176
     1
 90
        1
176
     1
 40
1.0
176
     1
 90
        8
176
     1
 62
     7
176
     1
 40
1.0
176
     1
 90
        1
176
     1
 90
        6
176
     1
 90
        2
176
     1
 62
     7
176
     1
 90
        3
176
     1
 90
        0
176
     1
 90
        0
176
     1
290
     0
176
     1
 90
       13
176
     1
 40
0.0
176
     1
 90
        0
176
     1
290
     0
176
     1
290
     1
176
     1
290
     1
176
     1
290
     0
176
     1
290
     0
176
     1
290
     0
176
     1
290
     0
176
     1
290
     0
176
     1
290
     0
176
     1
 90
       50
176
     1
 40
0.0
176
     1
 40
1.0
176
     1
 90
        0
176
     1
 62
    18
420
        0
176
     1
 90
       50
176
     1
 90
        3
176
     1
 62
     5
420
      255
176
     1
290
     0
176
     1
 90
       50
176
     1
 90
       50
176
     1
 90
       50
176
     1
290
     0
176
     1
 90
       50
176
     1
 62
   256
176
     0
 40
1.0
176
     0
 90
        2
176
     1
  1
strokes_ogs.tif
176
     1
290
     0
176
     1
 40
1.0
176
     1
 40
1.0
176
     1
  0
DICTIONARYVAR
  5
1000260
102
{ACAD_REACTORS
330
100025C
102
}
330
100025C
100
DictionaryVariables
280
     0
  1
1:1
  0
DICTIONARYVAR
  5
100025E
102
{ACAD_REACTORS
330
100025C
102
}
330
100025C
100
DictionaryVariables
280
     0
  1
Standard
  0
DICTIONARYVAR
  5
100025D
102
{ACAD_REACTORS
330
100025C
102
}
330
100025C
100
DictionaryVariables
280
     0
  1
Standard
  0
DICTIONARYVAR
  5
100025F
102
{ACAD_REACTORS
330
100025C
102
}
330
100025C
100
DictionaryVariables
280
     0
  1
0
  0
ENDSEC
  0
SECTION
  2
ACDSDATA
 70
     2
 71
     2
  0
ACDSSCHEMA
 90
        0
  1
AcDb3DSolid_ASM_Data
  2
AcDbDs::ID
280
    10
 91
        0
  2
ASM_Data
280
    15
 91
        0
101
ACDSRECORD
 95
        0
 90
        1
  2
AcDbDs::TreatedAsObjectData
280
     1
291
     1
101
ACDSRECORD
 95
        0
 90
        2
  2
AcDbDs::Legacy
280
     1
291
     1
101
ACDSRECORD
  1
AcDbDs::ID
 90
        3
  2
AcDs:Indexable
280
     1
291
     1
101
ACDSRECORD
  1
AcDbDs::ID
 90
        4
  2
AcDbDs::HandleAttribute
280
     7
282
     1
  0
ACDSSCHEMA
 90
        1
  1
AcDbDs::TreatedAsObjectDataSchema
  2
AcDbDs::TreatedAsObjectData
280
     1
 91
        0
  0
ACDSSCHEMA
 90
        2
  1
AcDbDs::LegacySchema
  2
AcDbDs::Legacy
280
     1
 91
        0
  0
ACDSSCHEMA
 90
        3
  1
AcDbDs::IndexedPropertySchema
  2
AcDs:Indexable
280
     1
 91
        0
  0
ACDSSCHEMA
 90
        4
  1
AcDbDs::HandleAttributeSchema
  2
AcDbDs::HandleAttribute
280
     7
 91
        8
  0
ENDSEC
  0
EOF
