  0
SECTION
  2
HEADER
  9
$ACADVER
  1
AC1018
  9
$HANDSEED
  5
FFFFFF
  9
$EXTMAX
 10
7567977.78000000026
 20
5736880.44000000041
 30
1000000.00
  9
$EXTMIN
 10
7561557.04000000004
 20
5734782.75
 30
0.00
  9
$LIMMIN
 10
7561557.04000000004
 20
5734782.75
  9
$LIMMAX
 10
7567977.78000000026
 20
5736880.44000000041
  9
$DIMASZ
 40
2.5
  9
$DIMGAP
 40
0.625
  9
$INSUNITS
 70
6
  9
$DIMEXO
 40
0.625
  9
$DIMTXT
 40
2.5
  9
$DIMSTYLE
  2
Standard
  9
$PLIMMIN
 10
0.0
 20
0.0
  9
$PLIMMAX
 10
210.0
 20
297.0
  9
$DIMEXE
 40
1.25
  9
$TEXTSIZE
 40
2.5
  9
$TEXTSTYLE
  7
Standard
  9
$LWDISPLAY
290
1
  9
$TDCREATE
 40
44607.845713495
  9
$TDUCREATE
 40
44607.804046829
  9
$TDUPDATE
 40
44607.845713495
  9
$TDUUPDATE
 40
44607.804046829
  9
$TDINDWG
 40
0.0
  9
$TDUSRTIMER
 40
0.0
  9
$USRTIMER
 70
1
  0
ENDSEC
  0
SECTION
  2
CLASSES
  0
CLASS
  1
WIPEOUT
  2
AcDbWipeout
  3
WipeOut
 90
127
 91
1
280
0
281
1
  0
CLASS
  1
WIPEOUTVARIABLES
  2
AcDbWipeoutVariables
  3
WipeOut
 90
0
 91
1
280
0
281
0
  0
ENDSEC
  0
SECTION
  2
TABLES
  0
TABLE
  2
VPORT
  5
1
100
AcDbSymbolTable
 70
1
  0
VPORT
  5
2
100
AcDbSymbolTableRecord
100
AcDbViewportTableRecord
  2
*ACTIVE
 70
0
 10
0.0
 20
0.0
 11
1.0
 21
1.0
 12
7564767.41
 22
5735831.60
 13
0.0
 23
0.0
 14
1.0
 24
1.0
 15
0.0
 25
0.0
 16
0.0
 26
0.0
 36
1.0
 17
0.0
 27
0.0
 37
0.0
 40
2097.69
 41
3.06
 42
50.0
 43
0.0
 44
0.0
 50
0.0
 51
0.0
 71
0
 72
100
 73
1
 74
1
 75
0
 76
0
 77
0
 78
0
  0
ENDTAB
  0
TABLE
  2
LTYPE
  5
3
100
AcDbSymbolTable
 70
3
  0
LTYPE
  5
4
100
AcDbSymbolTableRecord
100
AcDbLinetypeTableRecord
  2
ByBlock
 70
0
  3

 72
65
 73
0
 40
0.0
  0
LTYPE
  5
5
100
AcDbSymbolTableRecord
100
AcDbLinetypeTableRecord
  2
ByLayer
 70
0
  3

 72
65
 73
0
 40
0.0
  0
LTYPE
  5
6
100
AcDbSymbolTableRecord
100
AcDbLinetypeTableRecord
  2
CONTINUOUS
 70
0
  3
Solid line
 72
65
 73
0
 40
0.0
  0
ENDTAB
  0
TABLE
  2
LAYER
  5
7
100
AcDbSymbolTable
 70
3
  0
LAYER
  5
8
100
AcDbSymbolTableRecord
100
AcDbLayerTableRecord
  2
0
 70
0
 62
7
  6
CONTINUOUS
370
18
390
9
  0
LAYER
  5
A
100
AcDbSymbolTableRecord
100
AcDbLayerTableRecord
  2
ewns_dzialki
 70
0
 62
7
  6
CONTINUOUS
370
18
390
9
  0
LAYER
  5
B
100
AcDbSymbolTableRecord
100
AcDbLayerTableRecord
  2
ewns_dzialki_shp
 70
0
 62
7
  6
CONTINUOUS
370
18
390
9
  0
ENDTAB
  0
TABLE
  2
STYLE
  5
C
100
AcDbSymbolTable
 70
2
  0
STYLE
  5
D
100
AcDbSymbolTableRecord
100
AcDbTextStyleTableRecord
  2
STANDARD
 70
0
 40
0.0
 41
1.0
 50
0.0
 71
0
  3
simplex.shx
  4

  0
STYLE
  5
E
100
AcDbSymbolTableRecord
100
AcDbTextStyleTableRecord
  2
STANDARD_ITALIC
 70
0
 40
0.0
 41
1.0
 50
15.0
 71
0
  3
simplex.shx
  4

  0
ENDTAB
  0
TABLE
  2
VIEW
  5
F
100
AcDbSymbolTable
 70
0
  0
ENDTAB
  0
TABLE
  2
UCS
  5
10
100
AcDbSymbolTable
 70
0
  0
ENDTAB
  0
TABLE
  2
APPID
  5
11
100
AcDbSymbolTable
 70
1
  0
APPID
  5
12
100
AcDbSymbolTableRecord
100
AcDbRegAppTableRecord
  2
ACAD
 70
0
  0
ENDTAB
  0
TABLE
  2
DIMSTYLE
  5
13
100
AcDbSymbolTable
 70
1
100
AcDbDimStyleTable
  0
DIMSTYLE
105
14
100
AcDbSymbolTableRecord
100
AcDbDimStyleTableRecord
  2
Standard
 70
0
340
D
  0
ENDTAB
  0
TABLE
  2
BLOCK_RECORD
  5
15
100
AcDbSymbolTable
 70
2
  0
BLOCK_RECORD
  5
16
100
AcDbSymbolTableRecord
100
AcDbBlockTableRecord
  2
*Model_Space
340
17
  0
BLOCK_RECORD
  5
18
100
AcDbSymbolTableRecord
100
AcDbBlockTableRecord
  2
*Paper_Space
340
19
  0
ENDTAB
  0
ENDSEC
  0
SECTION
  2
BLOCKS
  0
BLOCK
  5
1A
100
AcDbEntity
  8
0
100
AcDbBlockBegin
  2
*Model_Space
 70
0
 10
0.0
 20
0.0
 30
0.0
  3
*Model_Space
  1

  0
ENDBLK
  5
1B
100
AcDbEntity
  8
0
100
AcDbBlockEnd
  0
BLOCK
  5
1C
100
AcDbEntity
 67
1
  8
0
100
AcDbBlockBegin
  2
*Paper_Space
 70
0
 10
0.0
 20
0.0
 30
0.0
  3
*Paper_Space
  1

  0
ENDBLK
  5
1D
100
AcDbEntity
 67
1
  8
0
100
AcDbBlockEnd
  0
ENDSEC
  0
SECTION
  2
ENTITIES
  0
POLYLINE
  5
1E
100
AcDbEntity
  8
ewns_dzialki
  6
CONTINUOUS
370
18
100
AcDb2dPolyline
 66
1
 70
129
  0
VERTEX
  5
1F
100
AcDbEntity
  8
ewns_dzialki
100
AcDbVertex
100
AcDb2dVertex
 10
7561557.04000000004
 20
5735162.62000000011
  0
VERTEX
  5
20
100
AcDbEntity
  8
ewns_dzialki
100
AcDbVertex
100
AcDb2dVertex
 10
7561812.65000000037
 20
5735451.29999999981
  0
VERTEX
  5
21
100
AcDbEntity
  8
ewns_dzialki
100
AcDbVertex
100
AcDb2dVertex
 10
7561827.28000000026
 20
5735437.86000000034
  0
VERTEX
  5
22
100
AcDbEntity
  8
ewns_dzialki
100
AcDbVertex
100
AcDb2dVertex
 10
7561568.0700000003
 20
5735147.03000000026
  0
SEQEND
  5
23
100
AcDbEntity
  8
ewns_dzialki
  0
HATCH
  5
24
100
AcDbEntity
  8
ewns_dzialki
  6
CONTINUOUS
420
16776960
370
18
100
AcDbHatch
 10
0.0
 20
0.0
 30
0.0
210
0.0
220
0.0
230
1.0
  2
SOLID
 70
1
 71
1
 91
1
 92
3
 72
0
 73
1
 93
4
 10
7561557.04000000004
 20
5735162.62000000011
 10
7561812.65000000037
 20
5735451.29999999981
 10
7561827.28000000026
 20
5735437.86000000034
 10
7561568.0700000003
 20
5735147.03000000026
 97
0
 75
0
 76
1
 98
0
  0
POLYLINE
  5
25
100
AcDbEntity
  8
ewns_dzialki
  6
CONTINUOUS
370
18
100
AcDb2dPolyline
 66
1
 70
129
  0
VERTEX
  5
26
100
AcDbEntity
  8
ewns_dzialki
100
AcDbVertex
100
AcDb2dVertex
 10
7561769.83000000007
 20
5734908.08999999985
  0
VERTEX
  5
27
100
AcDbEntity
  8
ewns_dzialki
100
AcDbVertex
100
AcDb2dVertex
 10
7561770.62000000011
 20
5734908.54999999981
  0
VERTEX
  5
28
100
AcDbEntity
  8
ewns_dzialki
100
AcDbVertex
100
AcDb2dVertex
 10
7561776.98000000045
 20
5734909.88999999966
  0
VERTEX
  5
29
100
AcDbEntity
  8
ewns_dzialki
100
AcDbVertex
100
AcDb2dVertex
 10
7561755.12000000011
 20
5734782.75
  0
VERTEX
  5
2A
100
AcDbEntity
  8
ewns_dzialki
100
AcDbVertex
100
AcDb2dVertex
 10
7561749.37000000011
 20
5734785.16000000015
  0
SEQEND
  5
2B
100
AcDbEntity
  8
ewns_dzialki
  0
HATCH
  5
2C
100
AcDbEntity
  8
ewns_dzialki
  6
CONTINUOUS
420
16776960
370
18
100
AcDbHatch
 10
0.0
 20
0.0
 30
0.0
210
0.0
220
0.0
230
1.0
  2
SOLID
 70
1
 71
1
 91
1
 92
3
 72
0
 73
1
 93
5
 10
7561769.83000000007
 20
5734908.08999999985
 10
7561770.62000000011
 20
5734908.54999999981
 10
7561776.98000000045
 20
5734909.88999999966
 10
7561755.12000000011
 20
5734782.75
 10
7561749.37000000011
 20
5734785.16000000015
 97
0
 75
0
 76
1
 98
0
  0
POLYLINE
  5
2D
100
AcDbEntity
  8
ewns_dzialki
  6
CONTINUOUS
370
18
100
AcDb2dPolyline
 66
1
 70
129
  0
VERTEX
  5
2E
100
AcDbEntity
  8
ewns_dzialki
100
AcDbVertex
100
AcDb2dVertex
 10
7567406.45000000019
 20
5736880.44000000041
  0
VERTEX
  5
2F
100
AcDbEntity
  8
ewns_dzialki
100
AcDbVertex
100
AcDb2dVertex
 10
7567414.15000000037
 20
5736878.5
  0
VERTEX
  5
30
100
AcDbEntity
  8
ewns_dzialki
100
AcDbVertex
100
AcDb2dVertex
 10
7567397.11000000034
 20
5736659.12000000011
  0
VERTEX
  5
31
100
AcDbEntity
  8
ewns_dzialki
100
AcDbVertex
100
AcDb2dVertex
 10
7567303.33000000007
 20
5736254.3200000003
  0
VERTEX
  5
32
100
AcDbEntity
  8
ewns_dzialki
100
AcDbVertex
100
AcDb2dVertex
 10
7567297.58000000007
 20
5736258.37000000011
  0
VERTEX
  5
33
100
AcDbEntity
  8
ewns_dzialki
100
AcDbVertex
100
AcDb2dVertex
 10
7567390.28000000026
 20
5736659.04000000004
  0
SEQEND
  5
34
100
AcDbEntity
  8
ewns_dzialki
  0
HATCH
  5
35
100
AcDbEntity
  8
ewns_dzialki
  6
CONTINUOUS
420
65280
370
18
100
AcDbHatch
 10
0.0
 20
0.0
 30
0.0
210
0.0
220
0.0
230
1.0
  2
SOLID
 70
1
 71
1
 91
1
 92
3
 72
0
 73
1
 93
6
 10
7567406.45000000019
 20
5736880.44000000041
 10
7567414.15000000037
 20
5736878.5
 10
7567397.11000000034
 20
5736659.12000000011
 10
7567303.33000000007
 20
5736254.3200000003
 10
7567297.58000000007
 20
5736258.37000000011
 10
7567390.28000000026
 20
5736659.04000000004
 97
0
 75
0
 76
1
 98
0
  0
POLYLINE
  5
36
100
AcDbEntity
  8
ewns_dzialki
  6
CONTINUOUS
370
18
100
AcDb2dPolyline
 66
1
 70
129
  0
VERTEX
  5
37
100
AcDbEntity
  8
ewns_dzialki
100
AcDbVertex
100
AcDb2dVertex
 10
7567296.87999999989
 20
5736255.19000000041
  0
VERTEX
  5
38
100
AcDbEntity
  8
ewns_dzialki
100
AcDbVertex
100
AcDb2dVertex
 10
7567302.61000000034
 20
5736251.15000000037
  0
VERTEX
  5
39
100
AcDbEntity
  8
ewns_dzialki
100
AcDbVertex
100
AcDb2dVertex
 10
7567171.01999999955
 20
5735661.55999999959
  0
VERTEX
  5
3A
100
AcDbEntity
  8
ewns_dzialki
100
AcDbVertex
100
AcDb2dVertex
 10
7567165.36000000034
 20
5735664.94000000041
  0
SEQEND
  5
3B
100
AcDbEntity
  8
ewns_dzialki
  0
HATCH
  5
3C
100
AcDbEntity
  8
ewns_dzialki
  6
CONTINUOUS
420
65280
370
18
100
AcDbHatch
 10
0.0
 20
0.0
 30
0.0
210
0.0
220
0.0
230
1.0
  2
SOLID
 70
1
 71
1
 91
1
 92
3
 72
0
 73
1
 93
4
 10
7567296.87999999989
 20
5736255.19000000041
 10
7567302.61000000034
 20
5736251.15000000037
 10
7567171.01999999955
 20
5735661.55999999959
 10
7567165.36000000034
 20
5735664.94000000041
 97
0
 75
0
 76
1
 98
0
  0
POLYLINE
  5
3D
100
AcDbEntity
  8
ewns_dzialki
  6
CONTINUOUS
370
18
100
AcDb2dPolyline
 66
1
 70
129
  0
VERTEX
  5
3E
100
AcDbEntity
  8
ewns_dzialki
100
AcDbVertex
100
AcDb2dVertex
 10
7567588.90000000037
 20
5736242.11000000034
  0
VERTEX
  5
3F
100
AcDbEntity
  8
ewns_dzialki
100
AcDbVertex
100
AcDb2dVertex
 10
7567596.12999999989
 20
5736239.84999999963
  0
VERTEX
  5
40
100
AcDbEntity
  8
ewns_dzialki
100
AcDbVertex
100
AcDb2dVertex
 10
7567526.15000000037
 20
5736011.58999999985
  0
VERTEX
  5
41
100
AcDbEntity
  8
ewns_dzialki
100
AcDbVertex
100
AcDb2dVertex
 10
7567521.79999999981
 20
5736019.62000000011
  0
SEQEND
  5
42
100
AcDbEntity
  8
ewns_dzialki
  0
HATCH
  5
43
100
AcDbEntity
  8
ewns_dzialki
  6
CONTINUOUS
420
65280
370
18
100
AcDbHatch
 10
0.0
 20
0.0
 30
0.0
210
0.0
220
0.0
230
1.0
  2
SOLID
 70
1
 71
1
 91
1
 92
3
 72
0
 73
1
 93
4
 10
7567588.90000000037
 20
5736242.11000000034
 10
7567596.12999999989
 20
5736239.84999999963
 10
7567526.15000000037
 20
5736011.58999999985
 10
7567521.79999999981
 20
5736019.62000000011
 97
0
 75
0
 76
1
 98
0
  0
POLYLINE
  5
44
100
AcDbEntity
  8
ewns_dzialki
  6
CONTINUOUS
370
18
100
AcDb2dPolyline
 66
1
 70
129
  0
VERTEX
  5
45
100
AcDbEntity
  8
ewns_dzialki
100
AcDbVertex
100
AcDb2dVertex
 10
7567972.05999999959
 20
5736121.23000000045
  0
VERTEX
  5
46
100
AcDbEntity
  8
ewns_dzialki
100
AcDbVertex
100
AcDb2dVertex
 10
7567977.78000000026
 20
5736119.33000000007
  0
VERTEX
  5
47
100
AcDbEntity
  8
ewns_dzialki
100
AcDbVertex
100
AcDb2dVertex
 10
7567823.46999999974
 20
5735751.26999999955
  0
VERTEX
  5
48
100
AcDbEntity
  8
ewns_dzialki
100
AcDbVertex
100
AcDb2dVertex
 10
7567817.16999999993
 20
5735752.33000000007
  0
SEQEND
  5
49
100
AcDbEntity
  8
ewns_dzialki
  0
HATCH
  5
4A
100
AcDbEntity
  8
ewns_dzialki
  6
CONTINUOUS
420
65280
370
18
100
AcDbHatch
 10
0.0
 20
0.0
 30
0.0
210
0.0
220
0.0
230
1.0
  2
SOLID
 70
1
 71
1
 91
1
 92
3
 72
0
 73
1
 93
4
 10
7567972.05999999959
 20
5736121.23000000045
 10
7567977.78000000026
 20
5736119.33000000007
 10
7567823.46999999974
 20
5735751.26999999955
 10
7567817.16999999993
 20
5735752.33000000007
 97
0
 75
0
 76
1
 98
0
  0
POLYLINE
  5
4B
100
AcDbEntity
  8
ewns_dzialki
  6
CONTINUOUS
370
18
100
AcDb2dPolyline
 66
1
 70
129
  0
VERTEX
  5
4C
100
AcDbEntity
  8
ewns_dzialki
100
AcDbVertex
100
AcDb2dVertex
 10
7567520.61000000034
 20
5736015.65000000037
  0
VERTEX
  5
4D
100
AcDbEntity
  8
ewns_dzialki
100
AcDbVertex
100
AcDb2dVertex
 10
7567524.94000000041
 20
5736007.63999999966
  0
VERTEX
  5
4E
100
AcDbEntity
  8
ewns_dzialki
100
AcDbVertex
100
AcDb2dVertex
 10
7567382.74000000022
 20
5735543.8200000003
  0
VERTEX
  5
4F
100
AcDbEntity
  8
ewns_dzialki
100
AcDbVertex
100
AcDb2dVertex
 10
7567378.91000000015
 20
5735545.79999999981
  0
SEQEND
  5
50
100
AcDbEntity
  8
ewns_dzialki
  0
HATCH
  5
51
100
AcDbEntity
  8
ewns_dzialki
  6
CONTINUOUS
420
65280
370
18
100
AcDbHatch
 10
0.0
 20
0.0
 30
0.0
210
0.0
220
0.0
230
1.0
  2
SOLID
 70
1
 71
1
 91
1
 92
3
 72
0
 73
1
 93
4
 10
7567520.61000000034
 20
5736015.65000000037
 10
7567524.94000000041
 20
5736007.63999999966
 10
7567382.74000000022
 20
5735543.8200000003
 10
7567378.91000000015
 20
5735545.79999999981
 97
0
 75
0
 76
1
 98
0
  0
POINT
  5
52
100
AcDbEntity
  8
ewns_dzialki
100
AcDbPoint
 62
0
 10
7567406.45000000019
 20
5736880.44000000041
  0
POINT
  5
53
100
AcDbEntity
  8
ewns_dzialki
100
AcDbPoint
 62
0
 10
7567414.15000000037
 20
5736878.5
  0
POINT
  5
54
100
AcDbEntity
  8
ewns_dzialki
100
AcDbPoint
 62
0
 10
7567397.11000000034
 20
5736659.12000000011
  0
POINT
  5
55
100
AcDbEntity
  8
ewns_dzialki
100
AcDbPoint
 62
0
 10
7567303.33000000007
 20
5736254.3200000003
  0
POINT
  5
56
100
AcDbEntity
  8
ewns_dzialki
100
AcDbPoint
 62
0
 10
7567297.58000000007
 20
5736258.37000000011
  0
POINT
  5
57
100
AcDbEntity
  8
ewns_dzialki
100
AcDbPoint
 62
0
 10
7567390.28000000026
 20
5736659.04000000004
  0
POINT
  5
58
100
AcDbEntity
  8
ewns_dzialki
100
AcDbPoint
 62
0
 10
7567296.87999999989
 20
5736255.19000000041
  0
POINT
  5
59
100
AcDbEntity
  8
ewns_dzialki
100
AcDbPoint
 62
0
 10
7567302.61000000034
 20
5736251.15000000037
  0
POINT
  5
5A
100
AcDbEntity
  8
ewns_dzialki
100
AcDbPoint
 62
0
 10
7567171.01999999955
 20
5735661.55999999959
  0
POINT
  5
5B
100
AcDbEntity
  8
ewns_dzialki
100
AcDbPoint
 62
0
 10
7567165.36000000034
 20
5735664.94000000041
  0
POINT
  5
5C
100
AcDbEntity
  8
ewns_dzialki
100
AcDbPoint
 62
0
 10
7567520.61000000034
 20
5736015.65000000037
  0
POINT
  5
5D
100
AcDbEntity
  8
ewns_dzialki
100
AcDbPoint
 62
0
 10
7567524.94000000041
 20
5736007.63999999966
  0
POINT
  5
5E
100
AcDbEntity
  8
ewns_dzialki
100
AcDbPoint
 62
0
 10
7567382.74000000022
 20
5735543.8200000003
  0
POINT
  5
5F
100
AcDbEntity
  8
ewns_dzialki
100
AcDbPoint
 62
0
 10
7567378.91000000015
 20
5735545.79999999981
  0
POINT
  5
60
100
AcDbEntity
  8
ewns_dzialki
100
AcDbPoint
 62
0
 10
7567588.90000000037
 20
5736242.11000000034
  0
POINT
  5
61
100
AcDbEntity
  8
ewns_dzialki
100
AcDbPoint
 62
0
 10
7567596.12999999989
 20
5736239.84999999963
  0
POINT
  5
62
100
AcDbEntity
  8
ewns_dzialki
100
AcDbPoint
 62
0
 10
7567526.15000000037
 20
5736011.58999999985
  0
POINT
  5
63
100
AcDbEntity
  8
ewns_dzialki
100
AcDbPoint
 62
0
 10
7567521.79999999981
 20
5736019.62000000011
  0
POINT
  5
64
100
AcDbEntity
  8
ewns_dzialki
100
AcDbPoint
 62
0
 10
7567972.05999999959
 20
5736121.23000000045
  0
POINT
  5
65
100
AcDbEntity
  8
ewns_dzialki
100
AcDbPoint
 62
0
 10
7567977.78000000026
 20
5736119.33000000007
  0
POINT
  5
66
100
AcDbEntity
  8
ewns_dzialki
100
AcDbPoint
 62
0
 10
7567823.46999999974
 20
5735751.26999999955
  0
POINT
  5
67
100
AcDbEntity
  8
ewns_dzialki
100
AcDbPoint
 62
0
 10
7567817.16999999993
 20
5735752.33000000007
  0
POINT
  5
68
100
AcDbEntity
  8
0
100
AcDbPoint
 62
0
 10
7561557.04000000004
 20
5735162.62000000011
  0
POINT
  5
69
100
AcDbEntity
  8
0
100
AcDbPoint
 62
0
 10
7561812.65000000037
 20
5735451.29999999981
  0
POINT
  5
6A
100
AcDbEntity
  8
0
100
AcDbPoint
 62
0
 10
7561827.28000000026
 20
5735437.86000000034
  0
POINT
  5
6B
100
AcDbEntity
  8
0
100
AcDbPoint
 62
0
 10
7561568.0700000003
 20
5735147.03000000026
  0
POINT
  5
6C
100
AcDbEntity
  8
0
100
AcDbPoint
 62
0
 10
7561769.83000000007
 20
5734908.08999999985
  0
POINT
  5
6D
100
AcDbEntity
  8
0
100
AcDbPoint
 62
0
 10
7561770.62000000011
 20
5734908.54999999981
  0
POINT
  5
6E
100
AcDbEntity
  8
0
100
AcDbPoint
 62
0
 10
7561776.98000000045
 20
5734909.88999999966
  0
POINT
  5
6F
100
AcDbEntity
  8
0
100
AcDbPoint
 62
0
 10
7561755.12000000011
 20
5734782.75
  0
POINT
  5
70
100
AcDbEntity
  8
0
100
AcDbPoint
 62
0
 10
7561749.37000000011
 20
5734785.16000000015
  0
TEXT
  5
71
100
AcDbEntity
  8
ewns_dzialki
370
18
100
AcDbText
 39
0.18
 10
7561691.48500000034
 20
5735298.71499999985
 40
0.90
  1
138
 50
0.00
 41
0.66
  7
STANDARD
 72
1
 11
7561692.16000000015
 21
5735299.16500000004
100
AcDbText
 73
2
  0
TEXT
  5
72
100
AcDbEntity
  8
ewns_dzialki
370
18
100
AcDbText
 39
0.18
 10
7561762.50000000093
 20
5734845.87000000011
 40
0.90
  1
302
 50
0.00
 41
0.66
  7
STANDARD
 72
1
 11
7561763.17500000074
 21
5734846.3200000003
100
AcDbText
 73
2
  0
TEXT
  5
73
100
AcDbEntity
  8
ewns_dzialki
370
18
100
AcDbText
 39
0.18
 10
7567372.46495701093
 20
5736566.48000000045
 40
0.90
  1
1670
 50
0.00
 41
0.66
  7
STANDARD
 72
0
 11
7567372.46495701093
 21
5736567.38000000082
100
AcDbText
 73
3
  0
TEXT
  5
74
100
AcDbEntity
  8
ewns_dzialki
370
18
100
AcDbText
 39
0.18
 10
7567233.08499999996
 20
5735957.92499999981
 40
0.90
  1
1717
 50
0.00
 41
0.66
  7
STANDARD
 72
1
 11
7567233.98500000034
 21
5735958.375
100
AcDbText
 73
2
  0
TEXT
  5
75
100
AcDbEntity
  8
ewns_dzialki
370
18
100
AcDbText
 39
0.18
 10
7567558.06499999948
 20
5736126.39999999944
 40
0.90
  1
1763
 50
0.00
 41
0.66
  7
STANDARD
 72
1
 11
7567558.96499999985
 21
5736126.84999999963
100
AcDbText
 73
2
  0
TEXT
  5
76
100
AcDbEntity
  8
ewns_dzialki
370
18
100
AcDbText
 39
0.18
 10
7567896.57499999926
 20
5735935.79999999981
 40
0.90
  1
1809
 50
0.00
 41
0.66
  7
STANDARD
 72
1
 11
7567897.47499999963
 21
5735936.25
100
AcDbText
 73
2
  0
TEXT
  5
77
100
AcDbEntity
  8
ewns_dzialki
370
18
100
AcDbText
 39
0.18
 10
7567451.02500000037
 20
5735779.28500000015
 40
0.90
  1
1880
 50
0.00
 41
0.66
  7
STANDARD
 72
1
 11
7567451.92500000074
 21
5735779.73500000034
100
AcDbText
 73
2
  0
ENDSEC
  0
SECTION
  2
OBJECTS
  0
DICTIONARY
  5
78
330
0
100
AcDbDictionary
280
0
281
1
  3
ACAD_GROUP
350
79
  3
ACAD_LAYOUT
350
7A
  3
ACAD_MLINESTYLE
350
7B
  3
ACAD_PLOTSETTINGS
350
7C
  3
ACAD_PLOTSTYLENAME
350
7D
  3
ACAD_WIPEOUT_VARS
350
7E
  0
DICTIONARY
  5
79
102
{ACAD_REACTORS
330
78
102
}
330
78
100
AcDbDictionary
280
0
281
1
  0
DICTIONARY
  5
7A
102
{ACAD_REACTORS
330
78
102
}
330
78
100
AcDbDictionary
280
0
281
1
  3
Layout
350
19
  3
Model
350
17
  0
DICTIONARY
  5
7B
102
{ACAD_REACTORS
330
78
102
}
330
78
100
AcDbDictionary
280
0
281
1
  3
Standard
350
7F
  0
DICTIONARY
  5
7C
102
{ACAD_REACTORS
330
78
102
}
330
78
100
AcDbDictionary
280
0
281
1
  0
ACDBDICTIONARYWDFLT
  5
7D
102
{ACAD_REACTORS
330
78
102
}
330
78
100
AcDbDictionary
281
1
  3
Normal
350
9
100
AcDbDictionaryWithDefault
340
9
  0
WIPEOUTVARIABLES
  5
7E
102
{ACAD_REACTORS
330
78
102
}
330
78
100
AcDbWipeoutVariables
 70
0
  0
LAYOUT
  5
19
100
AcDbPlotSettings
  1

  2

  4

  6

 40
0.0
 41
0.0
 42
0.0
 43
0.0
 44
0.0
 45
0.0
 46
0.0
 47
0.0
 48
0.0
 49
0.0
140
0.0
141
0.0
142
1.0
143
1.0
 70
688
 72
1
 73
0
 74
5
  7

 75
0
147
1.0
148
0.0
149
0.0
100
AcDbLayout
  1
Layout
 70
1
 71
1
 10
0.0
 20
0.0
 11
420.0
 21
297.0
 12
0.0
 22
0.0
 32
0.0
 14
100000000000000000000.0
 24
100000000000000000000.0
 34
100000000000000000000.0
 15
-100000000000000000000.0
 25
-100000000000000000000.0
 35
-100000000000000000000.0
146
0.0
 13
0.0
 23
0.0
 33
0.0
 16
1.0
 26
0.0
 36
0.0
 17
0.0
 27
1.0
 37
0.0
 76
0
330
18
  0
LAYOUT
  5
17
100
AcDbPlotSettings
  1

  2

  4

  6

 40
0.0
 41
0.0
 42
0.0
 43
0.0
 44
0.0
 45
0.0
 46
0.0
 47
0.0
 48
0.0
 49
0.0
140
0.0
141
0.0
142
1.0
143
1.0
 70
1712
 72
1
 73
0
 74
0
  7

 75
0
147
1.0
148
0.0
149
0.0
100
AcDbLayout
  1
Model
 70
1
 71
0
 10
0.0
 20
0.0
 11
12.0
 21
9.0
 12
0.0
 22
0.0
 32
0.0
 14
0.0
 24
0.0
 34
0.0
 15
0.0
 25
0.0
 35
0.0
146
0.0
 13
0.0
 23
0.0
 33
0.0
 16
1.0
 26
0.0
 36
0.0
 17
0.0
 27
1.0
 37
0.0
 76
0
330
16
  0
MLINESTYLE
  5
7F
102
{ACAD_REACTORS
330
7B
102
}
330
7B
100
AcDbMlineStyle
  2
Standard
 70
0
  3

 62
256
 51
90.0
 52
90.0
  2
Standard
 71
2
 49
0.5
 62
256
  6
ByLayer
 49
-0.5
 62
256
  6
ByLayer
  0
ACDBPLACEHOLDER
  5
9
  0
ENDSEC
  0
EOF
