  0
SECTION
  2
HEADER
  9
$ACADVER
  1
AC1018
  9
$HANDSEED
  5
FFFFFF
  9
$EXTMAX
 10
7548986.90000000037
 20
5747049.87999999989
 30
1000000.00
  9
$EXTMIN
 10
7547373.90000000037
 20
5746109.3200000003
 30
0.00
  9
$LIMMIN
 10
7547373.90000000037
 20
5746109.3200000003
  9
$LIMMAX
 10
7548986.90000000037
 20
5747049.87999999989
  9
$DIMASZ
 40
2.5
  9
$DIMGAP
 40
0.625
  9
$INSUNITS
 70
6
  9
$MEASUREMENT
 70
1
  9
$DIMEXO
 40
0.625
  9
$DIMTXT
 40
2.5
  9
$DIMSTYLE
  2
Standard
  9
$PLIMMIN
 10
0.0
 20
0.0
  9
$PLIMMAX
 10
210.0
 20
297.0
  9
$DIMEXE
 40
1.25
  9
$TEXTSIZE
 40
2.5
  9
$TEXTSTYLE
  7
Standard
  9
$LWDISPLAY
290
1
  9
$TDCREATE
 40
45860.803297847
  9
$TDUCREATE
 40
45860.719964514
  9
$TDUPDATE
 40
45860.803297847
  9
$TDUUPDATE
 40
45860.719964514
  9
$TDINDWG
 40
0.0
  9
$TDUSRTIMER
 40
0.0
  9
$USRTIMER
 70
1
  0
ENDSEC
  0
SECTION
  2
TABLES
  0
TABLE
  2
VPORT
  5
1
100
AcDbSymbolTable
 70
1
  0
VPORT
  5
2
100
AcDbSymbolTableRecord
100
AcDbViewportTableRecord
  2
*ACTIVE
 70
0
 10
0.0
 20
0.0
 11
1.0
 21
1.0
 12
7548180.400
 22
5746579.600
 13
0.0
 23
0.0
 14
1.0
 24
1.0
 15
0.0
 25
0.0
 16
0.0
 26
0.0
 36
1.0
 17
0.0
 27
0.0
 37
0.0
 40
940.560
 41
1.715
 42
50.0
 43
0.0
 44
0.0
 50
0.0
 51
0.0
 71
0
 72
100
 73
1
 74
1
 75
0
 76
0
 77
0
 78
0
  0
ENDTAB
  0
TABLE
  2
LTYPE
  5
3
100
AcDbSymbolTable
 70
3
  0
LTYPE
  5
4
100
AcDbSymbolTableRecord
100
AcDbLinetypeTableRecord
  2
ByBlock
 70
0
  3

 72
65
 73
0
 40
0.0
  0
LTYPE
  5
5
100
AcDbSymbolTableRecord
100
AcDbLinetypeTableRecord
  2
ByLayer
 70
0
  3

 72
65
 73
0
 40
0.0
  0
LTYPE
  5
6
100
AcDbSymbolTableRecord
100
AcDbLinetypeTableRecord
  2
CONTINUOUS
 70
0
  3
Solid line
 72
65
 73
0
 40
0.0
  0
ENDTAB
  0
TABLE
  2
LAYER
  5
7
100
AcDbSymbolTable
 70
3
  0
LAYER
  5
8
100
AcDbSymbolTableRecord
100
AcDbLayerTableRecord
  2
0
 70
0
420
0
  6
CONTINUOUS
370
18
390
9
  0
LAYER
  5
A
100
AcDbSymbolTableRecord
100
AcDbLayerTableRecord
  2
Dzialki
 70
0
420
0
  6
CONTINUOUS
370
18
390
9
  0
LAYER
  5
B
100
AcDbSymbolTableRecord
100
AcDbLayerTableRecord
  2
Osie
 70
0
420
16711680
  6
CONTINUOUS
370
18
390
9
  0
ENDTAB
  0
TABLE
  2
STYLE
  5
C
100
AcDbSymbolTable
 70
2
  0
STYLE
  5
D
100
AcDbSymbolTableRecord
100
AcDbTextStyleTableRecord
  2
STANDARD
 70
0
 40
0.0
 41
1.0
 50
0.0
 71
0
  3
simplex.shx
  4

  0
STYLE
  5
E
100
AcDbSymbolTableRecord
100
AcDbTextStyleTableRecord
  2
STANDARD_ITALIC
 70
0
 40
0.0
 41
1.0
 50
15.0
 71
0
  3
simplex.shx
  4

  0
ENDTAB
  0
TABLE
  2
VIEW
  5
F
100
AcDbSymbolTable
 70
0
  0
ENDTAB
  0
TABLE
  2
UCS
  5
10
100
AcDbSymbolTable
 70
0
  0
ENDTAB
  0
TABLE
  2
APPID
  5
11
100
AcDbSymbolTable
 70
1
  0
APPID
  5
12
100
AcDbSymbolTableRecord
100
AcDbRegAppTableRecord
  2
ACAD
 70
0
  0
ENDTAB
  0
TABLE
  2
DIMSTYLE
  5
13
100
AcDbSymbolTable
 70
1
100
AcDbDimStyleTable
  0
DIMSTYLE
105
14
100
AcDbSymbolTableRecord
100
AcDbDimStyleTableRecord
  2
Standard
 70
0
340
D
  0
ENDTAB
  0
TABLE
  2
BLOCK_RECORD
  5
15
100
AcDbSymbolTable
 70
2
  0
BLOCK_RECORD
  5
16
100
AcDbSymbolTableRecord
100
AcDbBlockTableRecord
  2
*Model_Space
340
17
  0
BLOCK_RECORD
  5
18
100
AcDbSymbolTableRecord
100
AcDbBlockTableRecord
  2
*Paper_Space
340
19
  0
ENDTAB
  0
ENDSEC
  0
SECTION
  2
BLOCKS
  0
BLOCK
  5
1A
100
AcDbEntity
  8
0
100
AcDbBlockBegin
  2
*Model_Space
 70
0
 10
0.0
 20
0.0
 30
0.0
  3
*Model_Space
  1

  0
ENDBLK
  5
1B
100
AcDbEntity
  8
0
100
AcDbBlockEnd
  0
BLOCK
  5
1C
100
AcDbEntity
 67
1
  8
0
100
AcDbBlockBegin
  2
*Paper_Space
 70
0
 10
0.0
 20
0.0
 30
0.0
  3
*Paper_Space
  1

  0
ENDBLK
  5
1D
100
AcDbEntity
 67
1
  8
0
100
AcDbBlockEnd
  0
ENDSEC
  0
SECTION
  2
ENTITIES
  0
POLYLINE
  5
1E
100
AcDbEntity
  8
Dzialki
  6
CONTINUOUS
370
18
100
AcDb2dPolyline
 66
1
 70
128
  0
VERTEX
  5
1F
100
AcDbEntity
  8
Dzialki
100
AcDbVertex
100
AcDb2dVertex
 10
7548445.02999999933
 20
5746668.40999999922
  0
VERTEX
  5
20
100
AcDbEntity
  8
Dzialki
100
AcDbVertex
100
AcDb2dVertex
 10
7548473.11999999918
 20
5746689.27999999933
  0
SEQEND
  5
21
100
AcDbEntity
  8
Dzialki
  0
POLYLINE
  5
22
100
AcDbEntity
  8
Dzialki
  6
CONTINUOUS
370
18
100
AcDb2dPolyline
 66
1
 70
128
  0
VERTEX
  5
23
100
AcDbEntity
  8
Dzialki
100
AcDbVertex
100
AcDb2dVertex
 10
7548473.11999999918
 20
5746689.27999999933
  0
VERTEX
  5
24
100
AcDbEntity
  8
Dzialki
100
AcDbVertex
100
AcDb2dVertex
 10
7548464.04999999888
 20
5746701.46999999974
  0
SEQEND
  5
25
100
AcDbEntity
  8
Dzialki
  0
POLYLINE
  5
26
100
AcDbEntity
  8
Dzialki
  6
CONTINUOUS
370
18
100
AcDb2dPolyline
 66
1
 70
128
  0
VERTEX
  5
27
100
AcDbEntity
  8
Dzialki
100
AcDbVertex
100
AcDb2dVertex
 10
7548464.04999999888
 20
5746701.46999999974
  0
VERTEX
  5
28
100
AcDbEntity
  8
Dzialki
100
AcDbVertex
100
AcDb2dVertex
 10
7548435.90999999922
 20
5746680.55999999866
  0
SEQEND
  5
29
100
AcDbEntity
  8
Dzialki
  0
POLYLINE
  5
2A
100
AcDbEntity
  8
Dzialki
  6
CONTINUOUS
370
18
100
AcDb2dPolyline
 66
1
 70
128
  0
VERTEX
  5
2B
100
AcDbEntity
  8
Dzialki
100
AcDbVertex
100
AcDb2dVertex
 10
7548435.90999999922
 20
5746680.55999999866
  0
VERTEX
  5
2C
100
AcDbEntity
  8
Dzialki
100
AcDbVertex
100
AcDb2dVertex
 10
7548444.54000000004
 20
5746669.04999999981
  0
SEQEND
  5
2D
100
AcDbEntity
  8
Dzialki
  0
POLYLINE
  5
2E
100
AcDbEntity
  8
Dzialki
  6
CONTINUOUS
370
18
100
AcDb2dPolyline
 66
1
 70
128
  0
VERTEX
  5
2F
100
AcDbEntity
  8
Dzialki
100
AcDbVertex
100
AcDb2dVertex
 10
7548444.54000000004
 20
5746669.04999999981
  0
VERTEX
  5
30
100
AcDbEntity
  8
Dzialki
100
AcDbVertex
100
AcDb2dVertex
 10
7548445.02999999933
 20
5746668.40999999922
  0
SEQEND
  5
31
100
AcDbEntity
  8
Dzialki
  0
POLYLINE
  5
32
100
AcDbEntity
  8
Dzialki
  6
CONTINUOUS
370
18
100
AcDb2dPolyline
 66
1
 70
128
  0
VERTEX
  5
33
100
AcDbEntity
  8
Dzialki
100
AcDbVertex
100
AcDb2dVertex
 10
7548450.0
 20
5746661.87000000011
  0
VERTEX
  5
34
100
AcDbEntity
  8
Dzialki
100
AcDbVertex
100
AcDb2dVertex
 10
7548634.75999999884
 20
5746800.5
  0
SEQEND
  5
35
100
AcDbEntity
  8
Dzialki
  0
POLYLINE
  5
36
100
AcDbEntity
  8
Dzialki
  6
CONTINUOUS
370
18
100
AcDb2dPolyline
 66
1
 70
128
  0
VERTEX
  5
37
100
AcDbEntity
  8
Dzialki
100
AcDbVertex
100
AcDb2dVertex
 10
7548634.75999999884
 20
5746800.5
  0
VERTEX
  5
38
100
AcDbEntity
  8
Dzialki
100
AcDbVertex
100
AcDb2dVertex
 10
7548961.26999999862
 20
5747046.04999999981
  0
SEQEND
  5
39
100
AcDbEntity
  8
Dzialki
  0
POLYLINE
  5
3A
100
AcDbEntity
  8
Dzialki
  6
CONTINUOUS
370
18
100
AcDb2dPolyline
 66
1
 70
128
  0
VERTEX
  5
3B
100
AcDbEntity
  8
Dzialki
100
AcDbVertex
100
AcDb2dVertex
 10
7548961.26999999862
 20
5747046.04999999981
  0
VERTEX
  5
3C
100
AcDbEntity
  8
Dzialki
100
AcDbVertex
100
AcDb2dVertex
 10
7548952.36000000034
 20
5747049.87999999989
  0
SEQEND
  5
3D
100
AcDbEntity
  8
Dzialki
  0
POLYLINE
  5
3E
100
AcDbEntity
  8
Dzialki
  6
CONTINUOUS
370
18
100
AcDb2dPolyline
 66
1
 70
128
  0
VERTEX
  5
3F
100
AcDbEntity
  8
Dzialki
100
AcDbVertex
100
AcDb2dVertex
 10
7548952.36000000034
 20
5747049.87999999989
  0
VERTEX
  5
40
100
AcDbEntity
  8
Dzialki
100
AcDbVertex
100
AcDb2dVertex
 10
7548629.77000000142
 20
5746807.11000000127
  0
SEQEND
  5
41
100
AcDbEntity
  8
Dzialki
  0
POLYLINE
  5
42
100
AcDbEntity
  8
Dzialki
  6
CONTINUOUS
370
18
100
AcDb2dPolyline
 66
1
 70
128
  0
VERTEX
  5
43
100
AcDbEntity
  8
Dzialki
100
AcDbVertex
100
AcDb2dVertex
 10
7548629.77000000142
 20
5746807.11000000127
  0
VERTEX
  5
44
100
AcDbEntity
  8
Dzialki
100
AcDbVertex
100
AcDb2dVertex
 10
7548561.38999999966
 20
5746754.92000000086
  0
SEQEND
  5
45
100
AcDbEntity
  8
Dzialki
  0
POLYLINE
  5
46
100
AcDbEntity
  8
Dzialki
  6
CONTINUOUS
370
18
100
AcDb2dPolyline
 66
1
 70
128
  0
VERTEX
  5
47
100
AcDbEntity
  8
Dzialki
100
AcDbVertex
100
AcDb2dVertex
 10
7548561.38999999966
 20
5746754.92000000086
  0
VERTEX
  5
48
100
AcDbEntity
  8
Dzialki
100
AcDbVertex
100
AcDb2dVertex
 10
7548552.3599999994
 20
5746748.20000000019
  0
SEQEND
  5
49
100
AcDbEntity
  8
Dzialki
  0
POLYLINE
  5
4A
100
AcDbEntity
  8
Dzialki
  6
CONTINUOUS
370
18
100
AcDb2dPolyline
 66
1
 70
128
  0
VERTEX
  5
4B
100
AcDbEntity
  8
Dzialki
100
AcDbVertex
100
AcDb2dVertex
 10
7548552.3599999994
 20
5746748.20000000019
  0
VERTEX
  5
4C
100
AcDbEntity
  8
Dzialki
100
AcDbVertex
100
AcDb2dVertex
 10
7548483.1500000013
 20
5746696.74000000115
  0
SEQEND
  5
4D
100
AcDbEntity
  8
Dzialki
  0
POLYLINE
  5
4E
100
AcDbEntity
  8
Dzialki
  6
CONTINUOUS
370
18
100
AcDb2dPolyline
 66
1
 70
128
  0
VERTEX
  5
4F
100
AcDbEntity
  8
Dzialki
100
AcDbVertex
100
AcDb2dVertex
 10
7548483.1500000013
 20
5746696.74000000115
  0
VERTEX
  5
50
100
AcDbEntity
  8
Dzialki
100
AcDbVertex
100
AcDb2dVertex
 10
7548473.11999999918
 20
5746689.27999999933
  0
SEQEND
  5
51
100
AcDbEntity
  8
Dzialki
  0
POLYLINE
  5
52
100
AcDbEntity
  8
Dzialki
  6
CONTINUOUS
370
18
100
AcDb2dPolyline
 66
1
 70
128
  0
VERTEX
  5
53
100
AcDbEntity
  8
Dzialki
100
AcDbVertex
100
AcDb2dVertex
 10
7548445.02999999933
 20
5746668.40999999922
  0
VERTEX
  5
54
100
AcDbEntity
  8
Dzialki
100
AcDbVertex
100
AcDb2dVertex
 10
7548450.0
 20
5746661.87000000011
  0
SEQEND
  5
55
100
AcDbEntity
  8
Dzialki
  0
POLYLINE
  5
56
100
AcDbEntity
  8
Dzialki
  6
CONTINUOUS
370
18
100
AcDb2dPolyline
 66
1
 70
128
  0
VERTEX
  5
57
100
AcDbEntity
  8
Dzialki
100
AcDbVertex
100
AcDb2dVertex
 10
7548639.5
 20
5746794.24000000022
  0
VERTEX
  5
58
100
AcDbEntity
  8
Dzialki
100
AcDbVertex
100
AcDb2dVertex
 10
7548970.17999999877
 20
5747042.22000000067
  0
SEQEND
  5
59
100
AcDbEntity
  8
Dzialki
  0
POLYLINE
  5
5A
100
AcDbEntity
  8
Dzialki
  6
CONTINUOUS
370
18
100
AcDb2dPolyline
 66
1
 70
128
  0
VERTEX
  5
5B
100
AcDbEntity
  8
Dzialki
100
AcDbVertex
100
AcDb2dVertex
 10
7548970.17999999877
 20
5747042.22000000067
  0
VERTEX
  5
5C
100
AcDbEntity
  8
Dzialki
100
AcDbVertex
100
AcDb2dVertex
 10
7548966.19000000041
 20
5747043.94000000041
  0
SEQEND
  5
5D
100
AcDbEntity
  8
Dzialki
  0
POLYLINE
  5
5E
100
AcDbEntity
  8
Dzialki
  6
CONTINUOUS
370
18
100
AcDb2dPolyline
 66
1
 70
128
  0
VERTEX
  5
5F
100
AcDbEntity
  8
Dzialki
100
AcDbVertex
100
AcDb2dVertex
 10
7548966.19000000041
 20
5747043.94000000041
  0
VERTEX
  5
60
100
AcDbEntity
  8
Dzialki
100
AcDbVertex
100
AcDb2dVertex
 10
7548961.26999999862
 20
5747046.04999999981
  0
SEQEND
  5
61
100
AcDbEntity
  8
Dzialki
  0
POLYLINE
  5
62
100
AcDbEntity
  8
Dzialki
  6
CONTINUOUS
370
18
100
AcDb2dPolyline
 66
1
 70
128
  0
VERTEX
  5
63
100
AcDbEntity
  8
Dzialki
100
AcDbVertex
100
AcDb2dVertex
 10
7548450.0
 20
5746661.87000000011
  0
VERTEX
  5
64
100
AcDbEntity
  8
Dzialki
100
AcDbVertex
100
AcDb2dVertex
 10
7548454.54999999981
 20
5746655.87999999989
  0
SEQEND
  5
65
100
AcDbEntity
  8
Dzialki
  0
POLYLINE
  5
66
100
AcDbEntity
  8
Dzialki
  6
CONTINUOUS
370
18
100
AcDb2dPolyline
 66
1
 70
128
  0
VERTEX
  5
67
100
AcDbEntity
  8
Dzialki
100
AcDbVertex
100
AcDb2dVertex
 10
7548454.54999999981
 20
5746655.87999999989
  0
VERTEX
  5
68
100
AcDbEntity
  8
Dzialki
100
AcDbVertex
100
AcDb2dVertex
 10
7548639.5
 20
5746794.24000000022
  0
SEQEND
  5
69
100
AcDbEntity
  8
Dzialki
  0
POLYLINE
  5
6A
100
AcDbEntity
  8
Dzialki
  6
CONTINUOUS
370
18
100
AcDb2dPolyline
 66
1
 70
128
  0
VERTEX
  5
6B
100
AcDbEntity
  8
Dzialki
100
AcDbVertex
100
AcDb2dVertex
 10
7548644.04999999981
 20
5746788.20999999996
  0
VERTEX
  5
6C
100
AcDbEntity
  8
Dzialki
100
AcDbVertex
100
AcDb2dVertex
 10
7548978.44999999926
 20
5747038.66999999993
  0
SEQEND
  5
6D
100
AcDbEntity
  8
Dzialki
  0
POLYLINE
  5
6E
100
AcDbEntity
  8
Dzialki
  6
CONTINUOUS
370
18
100
AcDb2dPolyline
 66
1
 70
128
  0
VERTEX
  5
6F
100
AcDbEntity
  8
Dzialki
100
AcDbVertex
100
AcDb2dVertex
 10
7548978.44999999926
 20
5747038.66999999993
  0
VERTEX
  5
70
100
AcDbEntity
  8
Dzialki
100
AcDbVertex
100
AcDb2dVertex
 10
7548970.17999999877
 20
5747042.22000000067
  0
SEQEND
  5
71
100
AcDbEntity
  8
Dzialki
  0
POLYLINE
  5
72
100
AcDbEntity
  8
Dzialki
  6
CONTINUOUS
370
18
100
AcDb2dPolyline
 66
1
 70
128
  0
VERTEX
  5
73
100
AcDbEntity
  8
Dzialki
100
AcDbVertex
100
AcDb2dVertex
 10
7548454.54999999981
 20
5746655.87999999989
  0
VERTEX
  5
74
100
AcDbEntity
  8
Dzialki
100
AcDbVertex
100
AcDb2dVertex
 10
7548459.03000000026
 20
5746649.98000000138
  0
SEQEND
  5
75
100
AcDbEntity
  8
Dzialki
  0
POLYLINE
  5
76
100
AcDbEntity
  8
Dzialki
  6
CONTINUOUS
370
18
100
AcDb2dPolyline
 66
1
 70
128
  0
VERTEX
  5
77
100
AcDbEntity
  8
Dzialki
100
AcDbVertex
100
AcDb2dVertex
 10
7548459.03000000026
 20
5746649.98000000138
  0
VERTEX
  5
78
100
AcDbEntity
  8
Dzialki
100
AcDbVertex
100
AcDb2dVertex
 10
7548644.04999999981
 20
5746788.20999999996
  0
SEQEND
  5
79
100
AcDbEntity
  8
Dzialki
  0
POLYLINE
  5
7A
100
AcDbEntity
  8
Dzialki
  6
CONTINUOUS
370
18
100
AcDb2dPolyline
 66
1
 70
128
  0
VERTEX
  5
7B
100
AcDbEntity
  8
Dzialki
100
AcDbVertex
100
AcDb2dVertex
 10
7548649.22999999952
 20
5746781.36000000034
  0
VERTEX
  5
7C
100
AcDbEntity
  8
Dzialki
100
AcDbVertex
100
AcDb2dVertex
 10
7548986.89999999944
 20
5747035.03000000026
  0
SEQEND
  5
7D
100
AcDbEntity
  8
Dzialki
  0
POLYLINE
  5
7E
100
AcDbEntity
  8
Dzialki
  6
CONTINUOUS
370
18
100
AcDb2dPolyline
 66
1
 70
128
  0
VERTEX
  5
7F
100
AcDbEntity
  8
Dzialki
100
AcDbVertex
100
AcDb2dVertex
 10
7548986.89999999944
 20
5747035.03000000026
  0
VERTEX
  5
80
100
AcDbEntity
  8
Dzialki
100
AcDbVertex
100
AcDb2dVertex
 10
7548978.44999999926
 20
5747038.66999999993
  0
SEQEND
  5
81
100
AcDbEntity
  8
Dzialki
  0
POLYLINE
  5
82
100
AcDbEntity
  8
Dzialki
  6
CONTINUOUS
370
18
100
AcDb2dPolyline
 66
1
 70
128
  0
VERTEX
  5
83
100
AcDbEntity
  8
Dzialki
100
AcDbVertex
100
AcDb2dVertex
 10
7548459.03000000026
 20
5746649.98000000138
  0
VERTEX
  5
84
100
AcDbEntity
  8
Dzialki
100
AcDbVertex
100
AcDb2dVertex
 10
7548464.43000000063
 20
5746642.87000000011
  0
SEQEND
  5
85
100
AcDbEntity
  8
Dzialki
  0
POLYLINE
  5
86
100
AcDbEntity
  8
Dzialki
  6
CONTINUOUS
370
18
100
AcDb2dPolyline
 66
1
 70
128
  0
VERTEX
  5
87
100
AcDbEntity
  8
Dzialki
100
AcDbVertex
100
AcDb2dVertex
 10
7548464.43000000063
 20
5746642.87000000011
  0
VERTEX
  5
88
100
AcDbEntity
  8
Dzialki
100
AcDbVertex
100
AcDb2dVertex
 10
7548649.22999999952
 20
5746781.36000000034
  0
SEQEND
  5
89
100
AcDbEntity
  8
Dzialki
  0
POLYLINE
  5
8A
100
AcDbEntity
  8
Dzialki
  6
CONTINUOUS
370
18
100
AcDb2dPolyline
 66
1
 70
128
  0
VERTEX
  5
8B
100
AcDbEntity
  8
Dzialki
100
AcDbVertex
100
AcDb2dVertex
 10
7548377.15000000037
 20
5746565.63999999966
  0
VERTEX
  5
8C
100
AcDbEntity
  8
Dzialki
100
AcDbVertex
100
AcDb2dVertex
 10
7548458.98000000045
 20
5746626.95999999996
  0
SEQEND
  5
8D
100
AcDbEntity
  8
Dzialki
  0
POLYLINE
  5
8E
100
AcDbEntity
  8
Dzialki
  6
CONTINUOUS
370
18
100
AcDb2dPolyline
 66
1
 70
128
  0
VERTEX
  5
8F
100
AcDbEntity
  8
Dzialki
100
AcDbVertex
100
AcDb2dVertex
 10
7548458.98000000045
 20
5746626.95999999996
  0
VERTEX
  5
90
100
AcDbEntity
  8
Dzialki
100
AcDbVertex
100
AcDb2dVertex
 10
7548444.55999999959
 20
5746646.15999999922
  0
SEQEND
  5
91
100
AcDbEntity
  8
Dzialki
  0
POLYLINE
  5
92
100
AcDbEntity
  8
Dzialki
  6
CONTINUOUS
370
18
100
AcDb2dPolyline
 66
1
 70
128
  0
VERTEX
  5
93
100
AcDbEntity
  8
Dzialki
100
AcDbVertex
100
AcDb2dVertex
 10
7548444.55999999959
 20
5746646.16000000015
  0
VERTEX
  5
94
100
AcDbEntity
  8
Dzialki
100
AcDbVertex
100
AcDb2dVertex
 10
7548287.51999999955
 20
5746528.62999999989
  0
SEQEND
  5
95
100
AcDbEntity
  8
Dzialki
  0
POLYLINE
  5
96
100
AcDbEntity
  8
Dzialki
  6
CONTINUOUS
370
18
100
AcDb2dPolyline
 66
1
 70
128
  0
VERTEX
  5
97
100
AcDbEntity
  8
Dzialki
100
AcDbVertex
100
AcDb2dVertex
 10
7548287.51999999955
 20
5746528.62999999896
  0
VERTEX
  5
98
100
AcDbEntity
  8
Dzialki
100
AcDbVertex
100
AcDb2dVertex
 10
7548296.08999999985
 20
5746504.90000000037
  0
SEQEND
  5
99
100
AcDbEntity
  8
Dzialki
  0
POLYLINE
  5
9A
100
AcDbEntity
  8
Dzialki
  6
CONTINUOUS
370
18
100
AcDb2dPolyline
 66
1
 70
128
  0
VERTEX
  5
9B
100
AcDbEntity
  8
Dzialki
100
AcDbVertex
100
AcDb2dVertex
 10
7548296.08999999985
 20
5746504.90000000037
  0
VERTEX
  5
9C
100
AcDbEntity
  8
Dzialki
100
AcDbVertex
100
AcDb2dVertex
 10
7548377.15000000037
 20
5746565.63999999966
  0
SEQEND
  5
9D
100
AcDbEntity
  8
Dzialki
  0
POLYLINE
  5
9E
100
AcDbEntity
  8
Dzialki
  6
CONTINUOUS
370
18
100
AcDb2dPolyline
 66
1
 70
128
  0
VERTEX
  5
9F
100
AcDbEntity
  8
Dzialki
100
AcDbVertex
100
AcDb2dVertex
 10
7548354.62999999896
 20
5746377.63000000082
  0
VERTEX
  5
A0
100
AcDbEntity
  8
Dzialki
100
AcDbVertex
100
AcDb2dVertex
 10
7548402.84999999963
 20
5746486.75999999978
  0
SEQEND
  5
A1
100
AcDbEntity
  8
Dzialki
  0
POLYLINE
  5
A2
100
AcDbEntity
  8
Dzialki
  6
CONTINUOUS
370
18
100
AcDb2dPolyline
 66
1
 70
128
  0
VERTEX
  5
A3
100
AcDbEntity
  8
Dzialki
100
AcDbVertex
100
AcDb2dVertex
 10
7548402.84999999963
 20
5746486.75999999978
  0
VERTEX
  5
A4
100
AcDbEntity
  8
Dzialki
100
AcDbVertex
100
AcDb2dVertex
 10
7548401.40000000037
 20
5746490.25
  0
SEQEND
  5
A5
100
AcDbEntity
  8
Dzialki
  0
POLYLINE
  5
A6
100
AcDbEntity
  8
Dzialki
  6
CONTINUOUS
370
18
100
AcDb2dPolyline
 66
1
 70
128
  0
VERTEX
  5
A7
100
AcDbEntity
  8
Dzialki
100
AcDbVertex
100
AcDb2dVertex
 10
7548401.40000000037
 20
5746490.25
  0
VERTEX
  5
A8
100
AcDbEntity
  8
Dzialki
100
AcDbVertex
100
AcDb2dVertex
 10
7548384.29999999981
 20
5746496.43000000063
  0
SEQEND
  5
A9
100
AcDbEntity
  8
Dzialki
  0
POLYLINE
  5
AA
100
AcDbEntity
  8
Dzialki
  6
CONTINUOUS
370
18
100
AcDb2dPolyline
 66
1
 70
128
  0
VERTEX
  5
AB
100
AcDbEntity
  8
Dzialki
100
AcDbVertex
100
AcDb2dVertex
 10
7548384.29999999981
 20
5746496.43000000063
  0
VERTEX
  5
AC
100
AcDbEntity
  8
Dzialki
100
AcDbVertex
100
AcDb2dVertex
 10
7548380.87999999989
 20
5746488.88000000082
  0
SEQEND
  5
AD
100
AcDbEntity
  8
Dzialki
  0
POLYLINE
  5
AE
100
AcDbEntity
  8
Dzialki
  6
CONTINUOUS
370
18
100
AcDb2dPolyline
 66
1
 70
128
  0
VERTEX
  5
AF
100
AcDbEntity
  8
Dzialki
100
AcDbVertex
100
AcDb2dVertex
 10
7548380.87999999989
 20
5746488.88000000082
  0
VERTEX
  5
B0
100
AcDbEntity
  8
Dzialki
100
AcDbVertex
100
AcDb2dVertex
 10
7548362.09999999963
 20
5746479.51999999955
  0
SEQEND
  5
B1
100
AcDbEntity
  8
Dzialki
  0
POLYLINE
  5
B2
100
AcDbEntity
  8
Dzialki
  6
CONTINUOUS
370
18
100
AcDb2dPolyline
 66
1
 70
128
  0
VERTEX
  5
B3
100
AcDbEntity
  8
Dzialki
100
AcDbVertex
100
AcDb2dVertex
 10
7548362.09999999963
 20
5746479.51999999955
  0
VERTEX
  5
B4
100
AcDbEntity
  8
Dzialki
100
AcDbVertex
100
AcDb2dVertex
 10
7548352.19999999832
 20
5746481.41000000108
  0
SEQEND
  5
B5
100
AcDbEntity
  8
Dzialki
  0
POLYLINE
  5
B6
100
AcDbEntity
  8
Dzialki
  6
CONTINUOUS
370
18
100
AcDb2dPolyline
 66
1
 70
128
  0
VERTEX
  5
B7
100
AcDbEntity
  8
Dzialki
100
AcDbVertex
100
AcDb2dVertex
 10
7548352.19999999832
 20
5746481.41000000108
  0
VERTEX
  5
B8
100
AcDbEntity
  8
Dzialki
100
AcDbVertex
100
AcDb2dVertex
 10
7548334.86000000127
 20
5746480.51999999955
  0
SEQEND
  5
B9
100
AcDbEntity
  8
Dzialki
  0
POLYLINE
  5
BA
100
AcDbEntity
  8
Dzialki
  6
CONTINUOUS
370
18
100
AcDb2dPolyline
 66
1
 70
128
  0
VERTEX
  5
BB
100
AcDbEntity
  8
Dzialki
100
AcDbVertex
100
AcDb2dVertex
 10
7548334.86000000127
 20
5746480.51999999955
  0
VERTEX
  5
BC
100
AcDbEntity
  8
Dzialki
100
AcDbVertex
100
AcDb2dVertex
 10
7548322.12999999989
 20
5746484.91999999993
  0
SEQEND
  5
BD
100
AcDbEntity
  8
Dzialki
  0
POLYLINE
  5
BE
100
AcDbEntity
  8
Dzialki
  6
CONTINUOUS
370
18
100
AcDb2dPolyline
 66
1
 70
128
  0
VERTEX
  5
BF
100
AcDbEntity
  8
Dzialki
100
AcDbVertex
100
AcDb2dVertex
 10
7548322.12999999989
 20
5746484.91999999993
  0
VERTEX
  5
C0
100
AcDbEntity
  8
Dzialki
100
AcDbVertex
100
AcDb2dVertex
 10
7548312.58000000101
 20
5746496.72000000067
  0
SEQEND
  5
C1
100
AcDbEntity
  8
Dzialki
  0
POLYLINE
  5
C2
100
AcDbEntity
  8
Dzialki
  6
CONTINUOUS
370
18
100
AcDb2dPolyline
 66
1
 70
128
  0
VERTEX
  5
C3
100
AcDbEntity
  8
Dzialki
100
AcDbVertex
100
AcDb2dVertex
 10
7548312.58000000101
 20
5746496.72000000067
  0
VERTEX
  5
C4
100
AcDbEntity
  8
Dzialki
100
AcDbVertex
100
AcDb2dVertex
 10
7548303.23000000045
 20
5746494.83999999985
  0
SEQEND
  5
C5
100
AcDbEntity
  8
Dzialki
  0
POLYLINE
  5
C6
100
AcDbEntity
  8
Dzialki
  6
CONTINUOUS
370
18
100
AcDb2dPolyline
 66
1
 70
128
  0
VERTEX
  5
C7
100
AcDbEntity
  8
Dzialki
100
AcDbVertex
100
AcDb2dVertex
 10
7548303.23000000045
 20
5746494.83999999985
  0
VERTEX
  5
C8
100
AcDbEntity
  8
Dzialki
100
AcDbVertex
100
AcDb2dVertex
 10
7548292.30999999773
 20
5746495.70000000019
  0
SEQEND
  5
C9
100
AcDbEntity
  8
Dzialki
  0
POLYLINE
  5
CA
100
AcDbEntity
  8
Dzialki
  6
CONTINUOUS
370
18
100
AcDb2dPolyline
 66
1
 70
128
  0
VERTEX
  5
CB
100
AcDbEntity
  8
Dzialki
100
AcDbVertex
100
AcDb2dVertex
 10
7548292.30999999773
 20
5746495.70000000019
  0
VERTEX
  5
CC
100
AcDbEntity
  8
Dzialki
100
AcDbVertex
100
AcDb2dVertex
 10
7548281.56999999937
 20
5746514.75
  0
SEQEND
  5
CD
100
AcDbEntity
  8
Dzialki
  0
POLYLINE
  5
CE
100
AcDbEntity
  8
Dzialki
  6
CONTINUOUS
370
18
100
AcDb2dPolyline
 66
1
 70
128
  0
VERTEX
  5
CF
100
AcDbEntity
  8
Dzialki
100
AcDbVertex
100
AcDb2dVertex
 10
7548281.56999999937
 20
5746514.75
  0
VERTEX
  5
D0
100
AcDbEntity
  8
Dzialki
100
AcDbVertex
100
AcDb2dVertex
 10
7548278.81999999937
 20
5746529.68999999948
  0
SEQEND
  5
D1
100
AcDbEntity
  8
Dzialki
  0
POLYLINE
  5
D2
100
AcDbEntity
  8
Dzialki
  6
CONTINUOUS
370
18
100
AcDb2dPolyline
 66
1
 70
128
  0
VERTEX
  5
D3
100
AcDbEntity
  8
Dzialki
100
AcDbVertex
100
AcDb2dVertex
 10
7548278.81999999937
 20
5746529.68999999948
  0
VERTEX
  5
D4
100
AcDbEntity
  8
Dzialki
100
AcDbVertex
100
AcDb2dVertex
 10
7548269.80000000074
 20
5746550.90000000037
  0
SEQEND
  5
D5
100
AcDbEntity
  8
Dzialki
  0
POLYLINE
  5
D6
100
AcDbEntity
  8
Dzialki
  6
CONTINUOUS
370
18
100
AcDb2dPolyline
 66
1
 70
128
  0
VERTEX
  5
D7
100
AcDbEntity
  8
Dzialki
100
AcDbVertex
100
AcDb2dVertex
 10
7548269.80000000074
 20
5746550.90000000037
  0
VERTEX
  5
D8
100
AcDbEntity
  8
Dzialki
100
AcDbVertex
100
AcDb2dVertex
 10
7548246.66000000015
 20
5746552.20000000019
  0
SEQEND
  5
D9
100
AcDbEntity
  8
Dzialki
  0
POLYLINE
  5
DA
100
AcDbEntity
  8
Dzialki
  6
CONTINUOUS
370
18
100
AcDb2dPolyline
 66
1
 70
128
  0
VERTEX
  5
DB
100
AcDbEntity
  8
Dzialki
100
AcDbVertex
100
AcDb2dVertex
 10
7548246.66000000015
 20
5746552.20000000019
  0
VERTEX
  5
DC
100
AcDbEntity
  8
Dzialki
100
AcDbVertex
100
AcDb2dVertex
 10
7548217.04999999981
 20
5746550.3599999994
  0
SEQEND
  5
DD
100
AcDbEntity
  8
Dzialki
  0
POLYLINE
  5
DE
100
AcDbEntity
  8
Dzialki
  6
CONTINUOUS
370
18
100
AcDb2dPolyline
 66
1
 70
128
  0
VERTEX
  5
DF
100
AcDbEntity
  8
Dzialki
100
AcDbVertex
100
AcDb2dVertex
 10
7548217.04999999981
 20
5746550.3599999994
  0
VERTEX
  5
E0
100
AcDbEntity
  8
Dzialki
100
AcDbVertex
100
AcDb2dVertex
 10
7548208.04000000004
 20
5746533.32999999914
  0
SEQEND
  5
E1
100
AcDbEntity
  8
Dzialki
  0
POLYLINE
  5
E2
100
AcDbEntity
  8
Dzialki
  6
CONTINUOUS
370
18
100
AcDb2dPolyline
 66
1
 70
128
  0
VERTEX
  5
E3
100
AcDbEntity
  8
Dzialki
100
AcDbVertex
100
AcDb2dVertex
 10
7548208.04000000004
 20
5746533.32999999914
  0
VERTEX
  5
E4
100
AcDbEntity
  8
Dzialki
100
AcDbVertex
100
AcDb2dVertex
 10
7548187.82999999914
 20
5746524.89999999944
  0
SEQEND
  5
E5
100
AcDbEntity
  8
Dzialki
  0
POLYLINE
  5
E6
100
AcDbEntity
  8
Dzialki
  6
CONTINUOUS
370
18
100
AcDb2dPolyline
 66
1
 70
128
  0
VERTEX
  5
E7
100
AcDbEntity
  8
Dzialki
100
AcDbVertex
100
AcDb2dVertex
 10
7548187.82999999914
 20
5746524.89999999944
  0
VERTEX
  5
E8
100
AcDbEntity
  8
Dzialki
100
AcDbVertex
100
AcDb2dVertex
 10
7548167.21999999974
 20
5746533.79999999981
  0
SEQEND
  5
E9
100
AcDbEntity
  8
Dzialki
  0
POLYLINE
  5
EA
100
AcDbEntity
  8
Dzialki
  6
CONTINUOUS
370
18
100
AcDb2dPolyline
 66
1
 70
128
  0
VERTEX
  5
EB
100
AcDbEntity
  8
Dzialki
100
AcDbVertex
100
AcDb2dVertex
 10
7548167.21999999974
 20
5746533.79999999981
  0
VERTEX
  5
EC
100
AcDbEntity
  8
Dzialki
100
AcDbVertex
100
AcDb2dVertex
 10
7548155.5
 20
5746510.9299999997
  0
SEQEND
  5
ED
100
AcDbEntity
  8
Dzialki
  0
POLYLINE
  5
EE
100
AcDbEntity
  8
Dzialki
  6
CONTINUOUS
370
18
100
AcDb2dPolyline
 66
1
 70
128
  0
VERTEX
  5
EF
100
AcDbEntity
  8
Dzialki
100
AcDbVertex
100
AcDb2dVertex
 10
7548155.5
 20
5746510.9299999997
  0
VERTEX
  5
F0
100
AcDbEntity
  8
Dzialki
100
AcDbVertex
100
AcDb2dVertex
 10
7548159.96999999881
 20
5746508.96000000089
  0
SEQEND
  5
F1
100
AcDbEntity
  8
Dzialki
  0
POLYLINE
  5
F2
100
AcDbEntity
  8
Dzialki
  6
CONTINUOUS
370
18
100
AcDb2dPolyline
 66
1
 70
128
  0
VERTEX
  5
F3
100
AcDbEntity
  8
Dzialki
100
AcDbVertex
100
AcDb2dVertex
 10
7548159.96999999881
 20
5746508.96000000089
  0
VERTEX
  5
F4
100
AcDbEntity
  8
Dzialki
100
AcDbVertex
100
AcDb2dVertex
 10
7548111.98000000045
 20
5746404.40999999922
  0
SEQEND
  5
F5
100
AcDbEntity
  8
Dzialki
  0
POLYLINE
  5
F6
100
AcDbEntity
  8
Dzialki
  6
CONTINUOUS
370
18
100
AcDb2dPolyline
 66
1
 70
128
  0
VERTEX
  5
F7
100
AcDbEntity
  8
Dzialki
100
AcDbVertex
100
AcDb2dVertex
 10
7548111.98000000045
 20
5746404.40999999922
  0
VERTEX
  5
F8
100
AcDbEntity
  8
Dzialki
100
AcDbVertex
100
AcDb2dVertex
 10
7548205.48000000045
 20
5746364.70999999996
  0
SEQEND
  5
F9
100
AcDbEntity
  8
Dzialki
  0
POLYLINE
  5
FA
100
AcDbEntity
  8
Dzialki
  6
CONTINUOUS
370
18
100
AcDb2dPolyline
 66
1
 70
128
  0
VERTEX
  5
FB
100
AcDbEntity
  8
Dzialki
100
AcDbVertex
100
AcDb2dVertex
 10
7548205.48000000045
 20
5746364.70999999996
  0
VERTEX
  5
FC
100
AcDbEntity
  8
Dzialki
100
AcDbVertex
100
AcDb2dVertex
 10
7548217.29999999981
 20
5746359.51999999862
  0
SEQEND
  5
FD
100
AcDbEntity
  8
Dzialki
  0
POLYLINE
  5
FE
100
AcDbEntity
  8
Dzialki
  6
CONTINUOUS
370
18
100
AcDb2dPolyline
 66
1
 70
128
  0
VERTEX
  5
FF
100
AcDbEntity
  8
Dzialki
100
AcDbVertex
100
AcDb2dVertex
 10
7548217.29999999981
 20
5746359.51999999862
  0
VERTEX
  5
100
100
AcDbEntity
  8
Dzialki
100
AcDbVertex
100
AcDb2dVertex
 10
7548238.78999999911
 20
5746350.3200000003
  0
SEQEND
  5
101
100
AcDbEntity
  8
Dzialki
  0
POLYLINE
  5
102
100
AcDbEntity
  8
Dzialki
  6
CONTINUOUS
370
18
100
AcDb2dPolyline
 66
1
 70
128
  0
VERTEX
  5
103
100
AcDbEntity
  8
Dzialki
100
AcDbVertex
100
AcDb2dVertex
 10
7548238.78999999911
 20
5746350.3200000003
  0
VERTEX
  5
104
100
AcDbEntity
  8
Dzialki
100
AcDbVertex
100
AcDb2dVertex
 10
7548265.16999999993
 20
5746396.94999999926
  0
SEQEND
  5
105
100
AcDbEntity
  8
Dzialki
  0
POLYLINE
  5
106
100
AcDbEntity
  8
Dzialki
  6
CONTINUOUS
370
18
100
AcDb2dPolyline
 66
1
 70
128
  0
VERTEX
  5
107
100
AcDbEntity
  8
Dzialki
100
AcDbVertex
100
AcDb2dVertex
 10
7548265.16999999993
 20
5746396.94999999926
  0
VERTEX
  5
108
100
AcDbEntity
  8
Dzialki
100
AcDbVertex
100
AcDb2dVertex
 10
7548279.19999999926
 20
5746395.6099999994
  0
SEQEND
  5
109
100
AcDbEntity
  8
Dzialki
  0
POLYLINE
  5
10A
100
AcDbEntity
  8
Dzialki
  6
CONTINUOUS
370
18
100
AcDb2dPolyline
 66
1
 70
128
  0
VERTEX
  5
10B
100
AcDbEntity
  8
Dzialki
100
AcDbVertex
100
AcDb2dVertex
 10
7548279.19999999926
 20
5746395.6099999994
  0
VERTEX
  5
10C
100
AcDbEntity
  8
Dzialki
100
AcDbVertex
100
AcDb2dVertex
 10
7548281.8200000003
 20
5746402.10999999847
  0
SEQEND
  5
10D
100
AcDbEntity
  8
Dzialki
  0
POLYLINE
  5
10E
100
AcDbEntity
  8
Dzialki
  6
CONTINUOUS
370
18
100
AcDb2dPolyline
 66
1
 70
128
  0
VERTEX
  5
10F
100
AcDbEntity
  8
Dzialki
100
AcDbVertex
100
AcDb2dVertex
 10
7548281.8200000003
 20
5746402.10999999847
  0
VERTEX
  5
110
100
AcDbEntity
  8
Dzialki
100
AcDbVertex
100
AcDb2dVertex
 10
7548352.39999999944
 20
5746374.59999999963
  0
SEQEND
  5
111
100
AcDbEntity
  8
Dzialki
  0
POLYLINE
  5
112
100
AcDbEntity
  8
Dzialki
  6
CONTINUOUS
370
18
100
AcDb2dPolyline
 66
1
 70
128
  0
VERTEX
  5
113
100
AcDbEntity
  8
Dzialki
100
AcDbVertex
100
AcDb2dVertex
 10
7548352.39999999944
 20
5746374.59999999963
  0
VERTEX
  5
114
100
AcDbEntity
  8
Dzialki
100
AcDbVertex
100
AcDb2dVertex
 10
7548354.62999999896
 20
5746377.63000000082
  0
SEQEND
  5
115
100
AcDbEntity
  8
Dzialki
  0
POLYLINE
  5
116
100
AcDbEntity
  8
Dzialki
  6
CONTINUOUS
370
18
100
AcDb2dPolyline
 66
1
 70
128
  0
VERTEX
  5
117
100
AcDbEntity
  8
Dzialki
100
AcDbVertex
100
AcDb2dVertex
 10
7548444.55999999959
 20
5746646.15999999922
  0
VERTEX
  5
118
100
AcDbEntity
  8
Dzialki
100
AcDbVertex
100
AcDb2dVertex
 10
7548430.22000000067
 20
5746665.42000000086
  0
SEQEND
  5
119
100
AcDbEntity
  8
Dzialki
  0
POLYLINE
  5
11A
100
AcDbEntity
  8
Dzialki
  6
CONTINUOUS
370
18
100
AcDb2dPolyline
 66
1
 70
128
  0
VERTEX
  5
11B
100
AcDbEntity
  8
Dzialki
100
AcDbVertex
100
AcDb2dVertex
 10
7548430.21999999974
 20
5746665.41999999993
  0
VERTEX
  5
11C
100
AcDbEntity
  8
Dzialki
100
AcDbVertex
100
AcDb2dVertex
 10
7548363.58999999985
 20
5746615.5
  0
SEQEND
  5
11D
100
AcDbEntity
  8
Dzialki
  0
POLYLINE
  5
11E
100
AcDbEntity
  8
Dzialki
  6
CONTINUOUS
370
18
100
AcDb2dPolyline
 66
1
 70
128
  0
VERTEX
  5
11F
100
AcDbEntity
  8
Dzialki
100
AcDbVertex
100
AcDb2dVertex
 10
7548363.58999999985
 20
5746615.5
  0
VERTEX
  5
120
100
AcDbEntity
  8
Dzialki
100
AcDbVertex
100
AcDb2dVertex
 10
7548278.29000000004
 20
5746551.59999999963
  0
SEQEND
  5
121
100
AcDbEntity
  8
Dzialki
  0
POLYLINE
  5
122
100
AcDbEntity
  8
Dzialki
  6
CONTINUOUS
370
18
100
AcDb2dPolyline
 66
1
 70
128
  0
VERTEX
  5
123
100
AcDbEntity
  8
Dzialki
100
AcDbVertex
100
AcDb2dVertex
 10
7548278.29000000004
 20
5746551.59999999963
  0
VERTEX
  5
124
100
AcDbEntity
  8
Dzialki
100
AcDbVertex
100
AcDb2dVertex
 10
7548287.51999999955
 20
5746528.62999999896
  0
SEQEND
  5
125
100
AcDbEntity
  8
Dzialki
  0
POLYLINE
  5
126
100
AcDbEntity
  8
Dzialki
  6
CONTINUOUS
370
18
100
AcDb2dPolyline
 66
1
 70
128
  0
VERTEX
  5
127
100
AcDbEntity
  8
Dzialki
100
AcDbVertex
100
AcDb2dVertex
 10
7548646.30999999959
 20
5746380.10000000056
  0
VERTEX
  5
128
100
AcDbEntity
  8
Dzialki
100
AcDbVertex
100
AcDb2dVertex
 10
7548641.9299999997
 20
5746385.88000000082
  0
SEQEND
  5
129
100
AcDbEntity
  8
Dzialki
  0
POLYLINE
  5
12A
100
AcDbEntity
  8
Dzialki
  6
CONTINUOUS
370
18
100
AcDb2dPolyline
 66
1
 70
128
  0
VERTEX
  5
12B
100
AcDbEntity
  8
Dzialki
100
AcDbVertex
100
AcDb2dVertex
 10
7548641.9299999997
 20
5746385.88000000082
  0
VERTEX
  5
12C
100
AcDbEntity
  8
Dzialki
100
AcDbVertex
100
AcDb2dVertex
 10
7548636.11000000034
 20
5746385.78000000026
  0
SEQEND
  5
12D
100
AcDbEntity
  8
Dzialki
  0
POLYLINE
  5
12E
100
AcDbEntity
  8
Dzialki
  6
CONTINUOUS
370
18
100
AcDb2dPolyline
 66
1
 70
128
  0
VERTEX
  5
12F
100
AcDbEntity
  8
Dzialki
100
AcDbVertex
100
AcDb2dVertex
 10
7548636.11000000034
 20
5746385.78000000026
  0
VERTEX
  5
130
100
AcDbEntity
  8
Dzialki
100
AcDbVertex
100
AcDb2dVertex
 10
7548628.60000000149
 20
5746396.55000000075
  0
SEQEND
  5
131
100
AcDbEntity
  8
Dzialki
  0
POLYLINE
  5
132
100
AcDbEntity
  8
Dzialki
  6
CONTINUOUS
370
18
100
AcDb2dPolyline
 66
1
 70
128
  0
VERTEX
  5
133
100
AcDbEntity
  8
Dzialki
100
AcDbVertex
100
AcDb2dVertex
 10
7548628.60000000149
 20
5746396.55000000075
  0
VERTEX
  5
134
100
AcDbEntity
  8
Dzialki
100
AcDbVertex
100
AcDb2dVertex
 10
7548613.00999999978
 20
5746411.70999999996
  0
SEQEND
  5
135
100
AcDbEntity
  8
Dzialki
  0
POLYLINE
  5
136
100
AcDbEntity
  8
Dzialki
  6
CONTINUOUS
370
18
100
AcDb2dPolyline
 66
1
 70
128
  0
VERTEX
  5
137
100
AcDbEntity
  8
Dzialki
100
AcDbVertex
100
AcDb2dVertex
 10
7548613.00999999978
 20
5746411.70999999996
  0
VERTEX
  5
138
100
AcDbEntity
  8
Dzialki
100
AcDbVertex
100
AcDb2dVertex
 10
7548598.51000000071
 20
5746418.94000000041
  0
SEQEND
  5
139
100
AcDbEntity
  8
Dzialki
  0
POLYLINE
  5
13A
100
AcDbEntity
  8
Dzialki
  6
CONTINUOUS
370
18
100
AcDb2dPolyline
 66
1
 70
128
  0
VERTEX
  5
13B
100
AcDbEntity
  8
Dzialki
100
AcDbVertex
100
AcDb2dVertex
 10
7548598.51000000071
 20
5746418.94000000041
  0
VERTEX
  5
13C
100
AcDbEntity
  8
Dzialki
100
AcDbVertex
100
AcDb2dVertex
 10
7548586.75999999884
 20
5746413.5700000003
  0
SEQEND
  5
13D
100
AcDbEntity
  8
Dzialki
  0
POLYLINE
  5
13E
100
AcDbEntity
  8
Dzialki
  6
CONTINUOUS
370
18
100
AcDb2dPolyline
 66
1
 70
128
  0
VERTEX
  5
13F
100
AcDbEntity
  8
Dzialki
100
AcDbVertex
100
AcDb2dVertex
 10
7548586.75999999884
 20
5746413.5700000003
  0
VERTEX
  5
140
100
AcDbEntity
  8
Dzialki
100
AcDbVertex
100
AcDb2dVertex
 10
7548580.22999999858
 20
5746418.45999999996
  0
SEQEND
  5
141
100
AcDbEntity
  8
Dzialki
  0
POLYLINE
  5
142
100
AcDbEntity
  8
Dzialki
  6
CONTINUOUS
370
18
100
AcDb2dPolyline
 66
1
 70
128
  0
VERTEX
  5
143
100
AcDbEntity
  8
Dzialki
100
AcDbVertex
100
AcDb2dVertex
 10
7548580.22999999858
 20
5746418.45999999996
  0
VERTEX
  5
144
100
AcDbEntity
  8
Dzialki
100
AcDbVertex
100
AcDb2dVertex
 10
7548571.20999999996
 20
5746429.05999999866
  0
SEQEND
  5
145
100
AcDbEntity
  8
Dzialki
  0
POLYLINE
  5
146
100
AcDbEntity
  8
Dzialki
  6
CONTINUOUS
370
18
100
AcDb2dPolyline
 66
1
 70
128
  0
VERTEX
  5
147
100
AcDbEntity
  8
Dzialki
100
AcDbVertex
100
AcDb2dVertex
 10
7548571.20999999996
 20
5746429.05999999866
  0
VERTEX
  5
148
100
AcDbEntity
  8
Dzialki
100
AcDbVertex
100
AcDb2dVertex
 10
7548563.68000000156
 20
5746431.84999999963
  0
SEQEND
  5
149
100
AcDbEntity
  8
Dzialki
  0
POLYLINE
  5
14A
100
AcDbEntity
  8
Dzialki
  6
CONTINUOUS
370
18
100
AcDb2dPolyline
 66
1
 70
128
  0
VERTEX
  5
14B
100
AcDbEntity
  8
Dzialki
100
AcDbVertex
100
AcDb2dVertex
 10
7548563.68000000156
 20
5746431.84999999963
  0
VERTEX
  5
14C
100
AcDbEntity
  8
Dzialki
100
AcDbVertex
100
AcDb2dVertex
 10
7548549.05000000168
 20
5746429.72999999858
  0
SEQEND
  5
14D
100
AcDbEntity
  8
Dzialki
  0
POLYLINE
  5
14E
100
AcDbEntity
  8
Dzialki
  6
CONTINUOUS
370
18
100
AcDb2dPolyline
 66
1
 70
128
  0
VERTEX
  5
14F
100
AcDbEntity
  8
Dzialki
100
AcDbVertex
100
AcDb2dVertex
 10
7548549.05000000168
 20
5746429.72999999858
  0
VERTEX
  5
150
100
AcDbEntity
  8
Dzialki
100
AcDbVertex
100
AcDb2dVertex
 10
7548538.30000000074
 20
5746423.79000000004
  0
SEQEND
  5
151
100
AcDbEntity
  8
Dzialki
  0
POLYLINE
  5
152
100
AcDbEntity
  8
Dzialki
  6
CONTINUOUS
370
18
100
AcDb2dPolyline
 66
1
 70
128
  0
VERTEX
  5
153
100
AcDbEntity
  8
Dzialki
100
AcDbVertex
100
AcDb2dVertex
 10
7548538.30000000074
 20
5746423.79000000004
  0
VERTEX
  5
154
100
AcDbEntity
  8
Dzialki
100
AcDbVertex
100
AcDb2dVertex
 10
7548523.85000000056
 20
5746431.92000000086
  0
SEQEND
  5
155
100
AcDbEntity
  8
Dzialki
  0
POLYLINE
  5
156
100
AcDbEntity
  8
Dzialki
  6
CONTINUOUS
370
18
100
AcDb2dPolyline
 66
1
 70
128
  0
VERTEX
  5
157
100
AcDbEntity
  8
Dzialki
100
AcDbVertex
100
AcDb2dVertex
 10
7548523.85000000056
 20
5746431.92000000086
  0
VERTEX
  5
158
100
AcDbEntity
  8
Dzialki
100
AcDbVertex
100
AcDb2dVertex
 10
7548513.29000000097
 20
5746432.81999999937
  0
SEQEND
  5
159
100
AcDbEntity
  8
Dzialki
  0
POLYLINE
  5
15A
100
AcDbEntity
  8
Dzialki
  6
CONTINUOUS
370
18
100
AcDb2dPolyline
 66
1
 70
128
  0
VERTEX
  5
15B
100
AcDbEntity
  8
Dzialki
100
AcDbVertex
100
AcDb2dVertex
 10
7548513.29000000097
 20
5746432.81999999937
  0
VERTEX
  5
15C
100
AcDbEntity
  8
Dzialki
100
AcDbVertex
100
AcDb2dVertex
 10
7548508.8200000003
 20
5746432.63999999873
  0
SEQEND
  5
15D
100
AcDbEntity
  8
Dzialki
  0
POLYLINE
  5
15E
100
AcDbEntity
  8
Dzialki
  6
CONTINUOUS
370
18
100
AcDb2dPolyline
 66
1
 70
128
  0
VERTEX
  5
15F
100
AcDbEntity
  8
Dzialki
100
AcDbVertex
100
AcDb2dVertex
 10
7548508.8200000003
 20
5746432.63999999873
  0
VERTEX
  5
160
100
AcDbEntity
  8
Dzialki
100
AcDbVertex
100
AcDb2dVertex
 10
7548500.01000000071
 20
5746439.87999999989
  0
SEQEND
  5
161
100
AcDbEntity
  8
Dzialki
  0
POLYLINE
  5
162
100
AcDbEntity
  8
Dzialki
  6
CONTINUOUS
370
18
100
AcDb2dPolyline
 66
1
 70
128
  0
VERTEX
  5
163
100
AcDbEntity
  8
Dzialki
100
AcDbVertex
100
AcDb2dVertex
 10
7548500.01000000071
 20
5746439.87999999989
  0
VERTEX
  5
164
100
AcDbEntity
  8
Dzialki
100
AcDbVertex
100
AcDb2dVertex
 10
7548495.3900000006
 20
5746454.01999999955
  0
SEQEND
  5
165
100
AcDbEntity
  8
Dzialki
  0
POLYLINE
  5
166
100
AcDbEntity
  8
Dzialki
  6
CONTINUOUS
370
18
100
AcDb2dPolyline
 66
1
 70
128
  0
VERTEX
  5
167
100
AcDbEntity
  8
Dzialki
100
AcDbVertex
100
AcDb2dVertex
 10
7548495.3900000006
 20
5746454.01999999955
  0
VERTEX
  5
168
100
AcDbEntity
  8
Dzialki
100
AcDbVertex
100
AcDb2dVertex
 10
7548494.8200000003
 20
5746456.71000000089
  0
SEQEND
  5
169
100
AcDbEntity
  8
Dzialki
  0
POLYLINE
  5
16A
100
AcDbEntity
  8
Dzialki
  6
CONTINUOUS
370
18
100
AcDb2dPolyline
 66
1
 70
128
  0
VERTEX
  5
16B
100
AcDbEntity
  8
Dzialki
100
AcDbVertex
100
AcDb2dVertex
 10
7548494.8200000003
 20
5746456.71000000089
  0
VERTEX
  5
16C
100
AcDbEntity
  8
Dzialki
100
AcDbVertex
100
AcDb2dVertex
 10
7548494.37999999989
 20
5746458.82999999914
  0
SEQEND
  5
16D
100
AcDbEntity
  8
Dzialki
  0
POLYLINE
  5
16E
100
AcDbEntity
  8
Dzialki
  6
CONTINUOUS
370
18
100
AcDb2dPolyline
 66
1
 70
128
  0
VERTEX
  5
16F
100
AcDbEntity
  8
Dzialki
100
AcDbVertex
100
AcDb2dVertex
 10
7548494.37999999989
 20
5746458.82999999914
  0
VERTEX
  5
170
100
AcDbEntity
  8
Dzialki
100
AcDbVertex
100
AcDb2dVertex
 10
7548467.26999999862
 20
5746470.75
  0
SEQEND
  5
171
100
AcDbEntity
  8
Dzialki
  0
POLYLINE
  5
172
100
AcDbEntity
  8
Dzialki
  6
CONTINUOUS
370
18
100
AcDb2dPolyline
 66
1
 70
128
  0
VERTEX
  5
173
100
AcDbEntity
  8
Dzialki
100
AcDbVertex
100
AcDb2dVertex
 10
7548467.26999999862
 20
5746470.75
  0
VERTEX
  5
174
100
AcDbEntity
  8
Dzialki
100
AcDbVertex
100
AcDb2dVertex
 10
7548464.99000000022
 20
5746471.5
  0
SEQEND
  5
175
100
AcDbEntity
  8
Dzialki
  0
POLYLINE
  5
176
100
AcDbEntity
  8
Dzialki
  6
CONTINUOUS
370
18
100
AcDb2dPolyline
 66
1
 70
128
  0
VERTEX
  5
177
100
AcDbEntity
  8
Dzialki
100
AcDbVertex
100
AcDb2dVertex
 10
7548464.99000000022
 20
5746471.5
  0
VERTEX
  5
178
100
AcDbEntity
  8
Dzialki
100
AcDbVertex
100
AcDb2dVertex
 10
7548438.6500000013
 20
5746480.16999999993
  0
SEQEND
  5
179
100
AcDbEntity
  8
Dzialki
  0
POLYLINE
  5
17A
100
AcDbEntity
  8
Dzialki
  6
CONTINUOUS
370
18
100
AcDb2dPolyline
 66
1
 70
128
  0
VERTEX
  5
17B
100
AcDbEntity
  8
Dzialki
100
AcDbVertex
100
AcDb2dVertex
 10
7548438.6500000013
 20
5746480.16999999993
  0
VERTEX
  5
17C
100
AcDbEntity
  8
Dzialki
100
AcDbVertex
100
AcDb2dVertex
 10
7548416.73999999929
 20
5746489.79999999981
  0
SEQEND
  5
17D
100
AcDbEntity
  8
Dzialki
  0
POLYLINE
  5
17E
100
AcDbEntity
  8
Dzialki
  6
CONTINUOUS
370
18
100
AcDb2dPolyline
 66
1
 70
128
  0
VERTEX
  5
17F
100
AcDbEntity
  8
Dzialki
100
AcDbVertex
100
AcDb2dVertex
 10
7548416.73999999929
 20
5746489.79999999981
  0
VERTEX
  5
180
100
AcDbEntity
  8
Dzialki
100
AcDbVertex
100
AcDb2dVertex
 10
7548397.54999999981
 20
5746498.24000000022
  0
SEQEND
  5
181
100
AcDbEntity
  8
Dzialki
  0
POLYLINE
  5
182
100
AcDbEntity
  8
Dzialki
  6
CONTINUOUS
370
18
100
AcDb2dPolyline
 66
1
 70
128
  0
VERTEX
  5
183
100
AcDbEntity
  8
Dzialki
100
AcDbVertex
100
AcDb2dVertex
 10
7548397.54999999981
 20
5746498.24000000022
  0
VERTEX
  5
184
100
AcDbEntity
  8
Dzialki
100
AcDbVertex
100
AcDb2dVertex
 10
7548388.28000000119
 20
5746500.96999999881
  0
SEQEND
  5
185
100
AcDbEntity
  8
Dzialki
  0
POLYLINE
  5
186
100
AcDbEntity
  8
Dzialki
  6
CONTINUOUS
370
18
100
AcDb2dPolyline
 66
1
 70
128
  0
VERTEX
  5
187
100
AcDbEntity
  8
Dzialki
100
AcDbVertex
100
AcDb2dVertex
 10
7548388.28000000119
 20
5746500.96999999881
  0
VERTEX
  5
188
100
AcDbEntity
  8
Dzialki
100
AcDbVertex
100
AcDb2dVertex
 10
7548376.05000000074
 20
5746502.08000000101
  0
SEQEND
  5
189
100
AcDbEntity
  8
Dzialki
  0
POLYLINE
  5
18A
100
AcDbEntity
  8
Dzialki
  6
CONTINUOUS
370
18
100
AcDb2dPolyline
 66
1
 70
128
  0
VERTEX
  5
18B
100
AcDbEntity
  8
Dzialki
100
AcDbVertex
100
AcDb2dVertex
 10
7548376.05000000074
 20
5746502.08000000101
  0
VERTEX
  5
18C
100
AcDbEntity
  8
Dzialki
100
AcDbVertex
100
AcDb2dVertex
 10
7548372.54999999888
 20
5746490.59999999963
  0
SEQEND
  5
18D
100
AcDbEntity
  8
Dzialki
  0
POLYLINE
  5
18E
100
AcDbEntity
  8
Dzialki
  6
CONTINUOUS
370
18
100
AcDb2dPolyline
 66
1
 70
128
  0
VERTEX
  5
18F
100
AcDbEntity
  8
Dzialki
100
AcDbVertex
100
AcDb2dVertex
 10
7548372.54999999888
 20
5746490.59999999963
  0
VERTEX
  5
190
100
AcDbEntity
  8
Dzialki
100
AcDbVertex
100
AcDb2dVertex
 10
7548359.70999999996
 20
5746482.76999999955
  0
SEQEND
  5
191
100
AcDbEntity
  8
Dzialki
  0
POLYLINE
  5
192
100
AcDbEntity
  8
Dzialki
  6
CONTINUOUS
370
18
100
AcDb2dPolyline
 66
1
 70
128
  0
VERTEX
  5
193
100
AcDbEntity
  8
Dzialki
100
AcDbVertex
100
AcDb2dVertex
 10
7548359.70999999996
 20
5746482.76999999955
  0
VERTEX
  5
194
100
AcDbEntity
  8
Dzialki
100
AcDbVertex
100
AcDb2dVertex
 10
7548354.08000000007
 20
5746492.20000000019
  0
SEQEND
  5
195
100
AcDbEntity
  8
Dzialki
  0
POLYLINE
  5
196
100
AcDbEntity
  8
Dzialki
  6
CONTINUOUS
370
18
100
AcDb2dPolyline
 66
1
 70
128
  0
VERTEX
  5
197
100
AcDbEntity
  8
Dzialki
100
AcDbVertex
100
AcDb2dVertex
 10
7548354.08000000007
 20
5746492.20000000019
  0
VERTEX
  5
198
100
AcDbEntity
  8
Dzialki
100
AcDbVertex
100
AcDb2dVertex
 10
7548339.59999999963
 20
5746488.05999999773
  0
SEQEND
  5
199
100
AcDbEntity
  8
Dzialki
  0
POLYLINE
  5
19A
100
AcDbEntity
  8
Dzialki
  6
CONTINUOUS
370
18
100
AcDb2dPolyline
 66
1
 70
128
  0
VERTEX
  5
19B
100
AcDbEntity
  8
Dzialki
100
AcDbVertex
100
AcDb2dVertex
 10
7548339.59999999963
 20
5746488.05999999773
  0
VERTEX
  5
19C
100
AcDbEntity
  8
Dzialki
100
AcDbVertex
100
AcDb2dVertex
 10
7548333.98999999929
 20
5746489.19000000041
  0
SEQEND
  5
19D
100
AcDbEntity
  8
Dzialki
  0
POLYLINE
  5
19E
100
AcDbEntity
  8
Dzialki
  6
CONTINUOUS
370
18
100
AcDb2dPolyline
 66
1
 70
128
  0
VERTEX
  5
19F
100
AcDbEntity
  8
Dzialki
100
AcDbVertex
100
AcDb2dVertex
 10
7548333.98999999929
 20
5746489.19000000041
  0
VERTEX
  5
1A0
100
AcDbEntity
  8
Dzialki
100
AcDbVertex
100
AcDb2dVertex
 10
7548311.24000000116
 20
5746504.80999999866
  0
SEQEND
  5
1A1
100
AcDbEntity
  8
Dzialki
  0
POLYLINE
  5
1A2
100
AcDbEntity
  8
Dzialki
  6
CONTINUOUS
370
18
100
AcDb2dPolyline
 66
1
 70
128
  0
VERTEX
  5
1A3
100
AcDbEntity
  8
Dzialki
100
AcDbVertex
100
AcDb2dVertex
 10
7548311.24000000116
 20
5746504.80999999866
  0
VERTEX
  5
1A4
100
AcDbEntity
  8
Dzialki
100
AcDbVertex
100
AcDb2dVertex
 10
7548296.08999999985
 20
5746504.90000000037
  0
SEQEND
  5
1A5
100
AcDbEntity
  8
Dzialki
  0
POLYLINE
  5
1A6
100
AcDbEntity
  8
Dzialki
  6
CONTINUOUS
370
18
100
AcDb2dPolyline
 66
1
 70
128
  0
VERTEX
  5
1A7
100
AcDbEntity
  8
Dzialki
100
AcDbVertex
100
AcDb2dVertex
 10
7548278.29000000004
 20
5746551.59999999963
  0
VERTEX
  5
1A8
100
AcDbEntity
  8
Dzialki
100
AcDbVertex
100
AcDb2dVertex
 10
7548245.96999999974
 20
5746557.52999999933
  0
SEQEND
  5
1A9
100
AcDbEntity
  8
Dzialki
  0
POLYLINE
  5
1AA
100
AcDbEntity
  8
Dzialki
  6
CONTINUOUS
370
18
100
AcDb2dPolyline
 66
1
 70
128
  0
VERTEX
  5
1AB
100
AcDbEntity
  8
Dzialki
100
AcDbVertex
100
AcDb2dVertex
 10
7548245.96999999974
 20
5746557.52999999933
  0
VERTEX
  5
1AC
100
AcDbEntity
  8
Dzialki
100
AcDbVertex
100
AcDb2dVertex
 10
7548237.36000000127
 20
5746557.34000000078
  0
SEQEND
  5
1AD
100
AcDbEntity
  8
Dzialki
  0
POLYLINE
  5
1AE
100
AcDbEntity
  8
Dzialki
  6
CONTINUOUS
370
18
100
AcDb2dPolyline
 66
1
 70
128
  0
VERTEX
  5
1AF
100
AcDbEntity
  8
Dzialki
100
AcDbVertex
100
AcDb2dVertex
 10
7548237.36000000127
 20
5746557.34000000078
  0
VERTEX
  5
1B0
100
AcDbEntity
  8
Dzialki
100
AcDbVertex
100
AcDb2dVertex
 10
7548213.69000000134
 20
5746556.80999999959
  0
SEQEND
  5
1B1
100
AcDbEntity
  8
Dzialki
  0
POLYLINE
  5
1B2
100
AcDbEntity
  8
Dzialki
  6
CONTINUOUS
370
18
100
AcDb2dPolyline
 66
1
 70
128
  0
VERTEX
  5
1B3
100
AcDbEntity
  8
Dzialki
100
AcDbVertex
100
AcDb2dVertex
 10
7548213.69000000134
 20
5746556.80999999959
  0
VERTEX
  5
1B4
100
AcDbEntity
  8
Dzialki
100
AcDbVertex
100
AcDb2dVertex
 10
7548201.96000000182
 20
5746541.30000000075
  0
SEQEND
  5
1B5
100
AcDbEntity
  8
Dzialki
  0
POLYLINE
  5
1B6
100
AcDbEntity
  8
Dzialki
  6
CONTINUOUS
370
18
100
AcDb2dPolyline
 66
1
 70
128
  0
VERTEX
  5
1B7
100
AcDbEntity
  8
Dzialki
100
AcDbVertex
100
AcDb2dVertex
 10
7548201.96000000182
 20
5746541.30000000075
  0
VERTEX
  5
1B8
100
AcDbEntity
  8
Dzialki
100
AcDbVertex
100
AcDb2dVertex
 10
7548184.62000000011
 20
5746534.5
  0
SEQEND
  5
1B9
100
AcDbEntity
  8
Dzialki
  0
POLYLINE
  5
1BA
100
AcDbEntity
  8
Dzialki
  6
CONTINUOUS
370
18
100
AcDb2dPolyline
 66
1
 70
128
  0
VERTEX
  5
1BB
100
AcDbEntity
  8
Dzialki
100
AcDbVertex
100
AcDb2dVertex
 10
7548184.62000000011
 20
5746534.5
  0
VERTEX
  5
1BC
100
AcDbEntity
  8
Dzialki
100
AcDbVertex
100
AcDb2dVertex
 10
7548162.68000000063
 20
5746546.15000000037
  0
SEQEND
  5
1BD
100
AcDbEntity
  8
Dzialki
  0
POLYLINE
  5
1BE
100
AcDbEntity
  8
Dzialki
  6
CONTINUOUS
370
18
100
AcDb2dPolyline
 66
1
 70
128
  0
VERTEX
  5
1BF
100
AcDbEntity
  8
Dzialki
100
AcDbVertex
100
AcDb2dVertex
 10
7548162.68000000063
 20
5746546.15000000037
  0
VERTEX
  5
1C0
100
AcDbEntity
  8
Dzialki
100
AcDbVertex
100
AcDb2dVertex
 10
7548154.67000000086
 20
5746590.10000000056
  0
SEQEND
  5
1C1
100
AcDbEntity
  8
Dzialki
  0
POLYLINE
  5
1C2
100
AcDbEntity
  8
Dzialki
  6
CONTINUOUS
370
18
100
AcDb2dPolyline
 66
1
 70
128
  0
VERTEX
  5
1C3
100
AcDbEntity
  8
Dzialki
100
AcDbVertex
100
AcDb2dVertex
 10
7548154.67000000086
 20
5746590.10000000056
  0
VERTEX
  5
1C4
100
AcDbEntity
  8
Dzialki
100
AcDbVertex
100
AcDb2dVertex
 10
7548156.49000000116
 20
5746608.58999999985
  0
SEQEND
  5
1C5
100
AcDbEntity
  8
Dzialki
  0
POLYLINE
  5
1C6
100
AcDbEntity
  8
Dzialki
  6
CONTINUOUS
370
18
100
AcDb2dPolyline
 66
1
 70
128
  0
VERTEX
  5
1C7
100
AcDbEntity
  8
Dzialki
100
AcDbVertex
100
AcDb2dVertex
 10
7548156.49000000116
 20
5746608.58999999985
  0
VERTEX
  5
1C8
100
AcDbEntity
  8
Dzialki
100
AcDbVertex
100
AcDb2dVertex
 10
7548168.25999999884
 20
5746634.75
  0
SEQEND
  5
1C9
100
AcDbEntity
  8
Dzialki
  0
POLYLINE
  5
1CA
100
AcDbEntity
  8
Dzialki
  6
CONTINUOUS
370
18
100
AcDb2dPolyline
 66
1
 70
128
  0
VERTEX
  5
1CB
100
AcDbEntity
  8
Dzialki
100
AcDbVertex
100
AcDb2dVertex
 10
7548168.25999999884
 20
5746634.75
  0
VERTEX
  5
1CC
100
AcDbEntity
  8
Dzialki
100
AcDbVertex
100
AcDb2dVertex
 10
7548159.51999999955
 20
5746644.13999999873
  0
SEQEND
  5
1CD
100
AcDbEntity
  8
Dzialki
  0
POLYLINE
  5
1CE
100
AcDbEntity
  8
Dzialki
  6
CONTINUOUS
370
18
100
AcDb2dPolyline
 66
1
 70
128
  0
VERTEX
  5
1CF
100
AcDbEntity
  8
Dzialki
100
AcDbVertex
100
AcDb2dVertex
 10
7548159.51999999955
 20
5746644.13999999873
  0
VERTEX
  5
1D0
100
AcDbEntity
  8
Dzialki
100
AcDbVertex
100
AcDb2dVertex
 10
7548156.52999999933
 20
5746643.87999999989
  0
SEQEND
  5
1D1
100
AcDbEntity
  8
Dzialki
  0
POLYLINE
  5
1D2
100
AcDbEntity
  8
Dzialki
  6
CONTINUOUS
370
18
100
AcDb2dPolyline
 66
1
 70
128
  0
VERTEX
  5
1D3
100
AcDbEntity
  8
Dzialki
100
AcDbVertex
100
AcDb2dVertex
 10
7548156.52999999933
 20
5746643.87999999989
  0
VERTEX
  5
1D4
100
AcDbEntity
  8
Dzialki
100
AcDbVertex
100
AcDb2dVertex
 10
7548149.05999999866
 20
5746643.21999999974
  0
SEQEND
  5
1D5
100
AcDbEntity
  8
Dzialki
  0
POLYLINE
  5
1D6
100
AcDbEntity
  8
Dzialki
  6
CONTINUOUS
370
18
100
AcDb2dPolyline
 66
1
 70
128
  0
VERTEX
  5
1D7
100
AcDbEntity
  8
Dzialki
100
AcDbVertex
100
AcDb2dVertex
 10
7548149.05999999866
 20
5746643.21999999974
  0
VERTEX
  5
1D8
100
AcDbEntity
  8
Dzialki
100
AcDbVertex
100
AcDb2dVertex
 10
7548144.60000000056
 20
5746647.86999999918
  0
SEQEND
  5
1D9
100
AcDbEntity
  8
Dzialki
  0
POLYLINE
  5
1DA
100
AcDbEntity
  8
Dzialki
  6
CONTINUOUS
370
18
100
AcDb2dPolyline
 66
1
 70
128
  0
VERTEX
  5
1DB
100
AcDbEntity
  8
Dzialki
100
AcDbVertex
100
AcDb2dVertex
 10
7548144.60000000056
 20
5746647.86999999918
  0
VERTEX
  5
1DC
100
AcDbEntity
  8
Dzialki
100
AcDbVertex
100
AcDb2dVertex
 10
7548134.79999999888
 20
5746658.0700000003
  0
SEQEND
  5
1DD
100
AcDbEntity
  8
Dzialki
  0
POLYLINE
  5
1DE
100
AcDbEntity
  8
Dzialki
  6
CONTINUOUS
370
18
100
AcDb2dPolyline
 66
1
 70
128
  0
VERTEX
  5
1DF
100
AcDbEntity
  8
Dzialki
100
AcDbVertex
100
AcDb2dVertex
 10
7548134.79999999888
 20
5746658.0700000003
  0
VERTEX
  5
1E0
100
AcDbEntity
  8
Dzialki
100
AcDbVertex
100
AcDb2dVertex
 10
7548117.11999999918
 20
5746657.43000000063
  0
SEQEND
  5
1E1
100
AcDbEntity
  8
Dzialki
  0
POLYLINE
  5
1E2
100
AcDbEntity
  8
Dzialki
  6
CONTINUOUS
370
18
100
AcDb2dPolyline
 66
1
 70
128
  0
VERTEX
  5
1E3
100
AcDbEntity
  8
Dzialki
100
AcDbVertex
100
AcDb2dVertex
 10
7548117.11999999918
 20
5746657.43000000063
  0
VERTEX
  5
1E4
100
AcDbEntity
  8
Dzialki
100
AcDbVertex
100
AcDb2dVertex
 10
7548097.70000000019
 20
5746656.71999999974
  0
SEQEND
  5
1E5
100
AcDbEntity
  8
Dzialki
  0
POLYLINE
  5
1E6
100
AcDbEntity
  8
Dzialki
  6
CONTINUOUS
370
18
100
AcDb2dPolyline
 66
1
 70
128
  0
VERTEX
  5
1E7
100
AcDbEntity
  8
Dzialki
100
AcDbVertex
100
AcDb2dVertex
 10
7548097.70000000019
 20
5746656.71999999974
  0
VERTEX
  5
1E8
100
AcDbEntity
  8
Dzialki
100
AcDbVertex
100
AcDb2dVertex
 10
7548097.3200000003
 20
5746656.83000000101
  0
SEQEND
  5
1E9
100
AcDbEntity
  8
Dzialki
  0
POLYLINE
  5
1EA
100
AcDbEntity
  8
Dzialki
  6
CONTINUOUS
370
18
100
AcDb2dPolyline
 66
1
 70
128
  0
VERTEX
  5
1EB
100
AcDbEntity
  8
Dzialki
100
AcDbVertex
100
AcDb2dVertex
 10
7548097.3200000003
 20
5746656.83000000101
  0
VERTEX
  5
1EC
100
AcDbEntity
  8
Dzialki
100
AcDbVertex
100
AcDb2dVertex
 10
7548080.99000000022
 20
5746661.66000000015
  0
SEQEND
  5
1ED
100
AcDbEntity
  8
Dzialki
  0
POLYLINE
  5
1EE
100
AcDbEntity
  8
Dzialki
  6
CONTINUOUS
370
18
100
AcDb2dPolyline
 66
1
 70
128
  0
VERTEX
  5
1EF
100
AcDbEntity
  8
Dzialki
100
AcDbVertex
100
AcDb2dVertex
 10
7548080.99000000022
 20
5746661.66000000015
  0
VERTEX
  5
1F0
100
AcDbEntity
  8
Dzialki
100
AcDbVertex
100
AcDb2dVertex
 10
7548076.9700000016
 20
5746671.70999999996
  0
SEQEND
  5
1F1
100
AcDbEntity
  8
Dzialki
  0
POLYLINE
  5
1F2
100
AcDbEntity
  8
Dzialki
  6
CONTINUOUS
370
18
100
AcDb2dPolyline
 66
1
 70
128
  0
VERTEX
  5
1F3
100
AcDbEntity
  8
Dzialki
100
AcDbVertex
100
AcDb2dVertex
 10
7548076.9700000016
 20
5746671.70999999996
  0
VERTEX
  5
1F4
100
AcDbEntity
  8
Dzialki
100
AcDbVertex
100
AcDb2dVertex
 10
7548069.18000000063
 20
5746681.35000000056
  0
SEQEND
  5
1F5
100
AcDbEntity
  8
Dzialki
  0
POLYLINE
  5
1F6
100
AcDbEntity
  8
Dzialki
  6
CONTINUOUS
370
18
100
AcDb2dPolyline
 66
1
 70
128
  0
VERTEX
  5
1F7
100
AcDbEntity
  8
Dzialki
100
AcDbVertex
100
AcDb2dVertex
 10
7548069.18000000063
 20
5746681.35000000056
  0
VERTEX
  5
1F8
100
AcDbEntity
  8
Dzialki
100
AcDbVertex
100
AcDb2dVertex
 10
7548069.08999999985
 20
5746681.46999999974
  0
SEQEND
  5
1F9
100
AcDbEntity
  8
Dzialki
  0
POLYLINE
  5
1FA
100
AcDbEntity
  8
Dzialki
  6
CONTINUOUS
370
18
100
AcDb2dPolyline
 66
1
 70
128
  0
VERTEX
  5
1FB
100
AcDbEntity
  8
Dzialki
100
AcDbVertex
100
AcDb2dVertex
 10
7548069.08999999985
 20
5746681.46999999974
  0
VERTEX
  5
1FC
100
AcDbEntity
  8
Dzialki
100
AcDbVertex
100
AcDb2dVertex
 10
7548062.32000000123
 20
5746703.12999999989
  0
SEQEND
  5
1FD
100
AcDbEntity
  8
Dzialki
  0
POLYLINE
  5
1FE
100
AcDbEntity
  8
Dzialki
  6
CONTINUOUS
370
18
100
AcDb2dPolyline
 66
1
 70
128
  0
VERTEX
  5
1FF
100
AcDbEntity
  8
Dzialki
100
AcDbVertex
100
AcDb2dVertex
 10
7548062.32000000123
 20
5746703.12999999989
  0
VERTEX
  5
200
100
AcDbEntity
  8
Dzialki
100
AcDbVertex
100
AcDb2dVertex
 10
7548056.01000000164
 20
5746709.83000000101
  0
SEQEND
  5
201
100
AcDbEntity
  8
Dzialki
  0
POLYLINE
  5
202
100
AcDbEntity
  8
Dzialki
  6
CONTINUOUS
370
18
100
AcDb2dPolyline
 66
1
 70
128
  0
VERTEX
  5
203
100
AcDbEntity
  8
Dzialki
100
AcDbVertex
100
AcDb2dVertex
 10
7548056.01000000164
 20
5746709.83000000101
  0
VERTEX
  5
204
100
AcDbEntity
  8
Dzialki
100
AcDbVertex
100
AcDb2dVertex
 10
7548053.8900000006
 20
5746712.08999999892
  0
SEQEND
  5
205
100
AcDbEntity
  8
Dzialki
  0
POLYLINE
  5
206
100
AcDbEntity
  8
Dzialki
  6
CONTINUOUS
370
18
100
AcDb2dPolyline
 66
1
 70
128
  0
VERTEX
  5
207
100
AcDbEntity
  8
Dzialki
100
AcDbVertex
100
AcDb2dVertex
 10
7548053.8900000006
 20
5746712.08999999892
  0
VERTEX
  5
208
100
AcDbEntity
  8
Dzialki
100
AcDbVertex
100
AcDb2dVertex
 10
7548043.16000000108
 20
5746706.95000000019
  0
SEQEND
  5
209
100
AcDbEntity
  8
Dzialki
  0
POLYLINE
  5
20A
100
AcDbEntity
  8
Dzialki
  6
CONTINUOUS
370
18
100
AcDb2dPolyline
 66
1
 70
128
  0
VERTEX
  5
20B
100
AcDbEntity
  8
Dzialki
100
AcDbVertex
100
AcDb2dVertex
 10
7548043.16000000108
 20
5746706.95000000019
  0
VERTEX
  5
20C
100
AcDbEntity
  8
Dzialki
100
AcDbVertex
100
AcDb2dVertex
 10
7548031.64000000246
 20
5746710.9299999997
  0
SEQEND
  5
20D
100
AcDbEntity
  8
Dzialki
  0
POLYLINE
  5
20E
100
AcDbEntity
  8
Dzialki
  6
CONTINUOUS
370
18
100
AcDb2dPolyline
 66
1
 70
128
  0
VERTEX
  5
20F
100
AcDbEntity
  8
Dzialki
100
AcDbVertex
100
AcDb2dVertex
 10
7548031.64000000246
 20
5746710.9299999997
  0
VERTEX
  5
210
100
AcDbEntity
  8
Dzialki
100
AcDbVertex
100
AcDb2dVertex
 10
7548030.06999999937
 20
5746720.3900000006
  0
SEQEND
  5
211
100
AcDbEntity
  8
Dzialki
  0
POLYLINE
  5
212
100
AcDbEntity
  8
Dzialki
  6
CONTINUOUS
370
18
100
AcDb2dPolyline
 66
1
 70
128
  0
VERTEX
  5
213
100
AcDbEntity
  8
Dzialki
100
AcDbVertex
100
AcDb2dVertex
 10
7548030.06999999937
 20
5746720.3900000006
  0
VERTEX
  5
214
100
AcDbEntity
  8
Dzialki
100
AcDbVertex
100
AcDb2dVertex
 10
7548018.33000000008
 20
5746727.24000000022
  0
SEQEND
  5
215
100
AcDbEntity
  8
Dzialki
  0
POLYLINE
  5
216
100
AcDbEntity
  8
Dzialki
  6
CONTINUOUS
370
18
100
AcDb2dPolyline
 66
1
 70
128
  0
VERTEX
  5
217
100
AcDbEntity
  8
Dzialki
100
AcDbVertex
100
AcDb2dVertex
 10
7548018.33000000008
 20
5746727.24000000022
  0
VERTEX
  5
218
100
AcDbEntity
  8
Dzialki
100
AcDbVertex
100
AcDb2dVertex
 10
7547995.87999999896
 20
5746740.35000000056
  0
SEQEND
  5
219
100
AcDbEntity
  8
Dzialki
  0
POLYLINE
  5
21A
100
AcDbEntity
  8
Dzialki
  6
CONTINUOUS
370
18
100
AcDb2dPolyline
 66
1
 70
128
  0
VERTEX
  5
21B
100
AcDbEntity
  8
Dzialki
100
AcDbVertex
100
AcDb2dVertex
 10
7547995.87999999896
 20
5746740.35000000056
  0
VERTEX
  5
21C
100
AcDbEntity
  8
Dzialki
100
AcDbVertex
100
AcDb2dVertex
 10
7547984.5
 20
5746740.76999999955
  0
SEQEND
  5
21D
100
AcDbEntity
  8
Dzialki
  0
POLYLINE
  5
21E
100
AcDbEntity
  8
Dzialki
  6
CONTINUOUS
370
18
100
AcDb2dPolyline
 66
1
 70
128
  0
VERTEX
  5
21F
100
AcDbEntity
  8
Dzialki
100
AcDbVertex
100
AcDb2dVertex
 10
7547984.5
 20
5746740.76999999955
  0
VERTEX
  5
220
100
AcDbEntity
  8
Dzialki
100
AcDbVertex
100
AcDb2dVertex
 10
7547980.25999999978
 20
5746740.93000000063
  0
SEQEND
  5
221
100
AcDbEntity
  8
Dzialki
  0
POLYLINE
  5
222
100
AcDbEntity
  8
Dzialki
  6
CONTINUOUS
370
18
100
AcDb2dPolyline
 66
1
 70
128
  0
VERTEX
  5
223
100
AcDbEntity
  8
Dzialki
100
AcDbVertex
100
AcDb2dVertex
 10
7547980.25999999978
 20
5746740.93000000063
  0
VERTEX
  5
224
100
AcDbEntity
  8
Dzialki
100
AcDbVertex
100
AcDb2dVertex
 10
7547973.91000000015
 20
5746765.16999999993
  0
SEQEND
  5
225
100
AcDbEntity
  8
Dzialki
  0
POLYLINE
  5
226
100
AcDbEntity
  8
Dzialki
  6
CONTINUOUS
370
18
100
AcDb2dPolyline
 66
1
 70
128
  0
VERTEX
  5
227
100
AcDbEntity
  8
Dzialki
100
AcDbVertex
100
AcDb2dVertex
 10
7547973.91000000015
 20
5746765.16999999993
  0
VERTEX
  5
228
100
AcDbEntity
  8
Dzialki
100
AcDbVertex
100
AcDb2dVertex
 10
7547951.62000000104
 20
5746783.03000000026
  0
SEQEND
  5
229
100
AcDbEntity
  8
Dzialki
  0
POLYLINE
  5
22A
100
AcDbEntity
  8
Dzialki
  6
CONTINUOUS
370
18
100
AcDb2dPolyline
 66
1
 70
128
  0
VERTEX
  5
22B
100
AcDbEntity
  8
Dzialki
100
AcDbVertex
100
AcDb2dVertex
 10
7547951.62000000104
 20
5746783.03000000026
  0
VERTEX
  5
22C
100
AcDbEntity
  8
Dzialki
100
AcDbVertex
100
AcDb2dVertex
 10
7547942.04000000283
 20
5746790.70000000019
  0
SEQEND
  5
22D
100
AcDbEntity
  8
Dzialki
  0
POLYLINE
  5
22E
100
AcDbEntity
  8
Dzialki
  6
CONTINUOUS
370
18
100
AcDb2dPolyline
 66
1
 70
128
  0
VERTEX
  5
22F
100
AcDbEntity
  8
Dzialki
100
AcDbVertex
100
AcDb2dVertex
 10
7547942.04000000283
 20
5746790.70000000019
  0
VERTEX
  5
230
100
AcDbEntity
  8
Dzialki
100
AcDbVertex
100
AcDb2dVertex
 10
7547926.49000000022
 20
5746796.44000000041
  0
SEQEND
  5
231
100
AcDbEntity
  8
Dzialki
  0
POLYLINE
  5
232
100
AcDbEntity
  8
Dzialki
  6
CONTINUOUS
370
18
100
AcDb2dPolyline
 66
1
 70
128
  0
VERTEX
  5
233
100
AcDbEntity
  8
Dzialki
100
AcDbVertex
100
AcDb2dVertex
 10
7547926.49000000022
 20
5746796.44000000041
  0
VERTEX
  5
234
100
AcDbEntity
  8
Dzialki
100
AcDbVertex
100
AcDb2dVertex
 10
7547913.69999999926
 20
5746804.62999999896
  0
SEQEND
  5
235
100
AcDbEntity
  8
Dzialki
  0
POLYLINE
  5
236
100
AcDbEntity
  8
Dzialki
  6
CONTINUOUS
370
18
100
AcDb2dPolyline
 66
1
 70
128
  0
VERTEX
  5
237
100
AcDbEntity
  8
Dzialki
100
AcDbVertex
100
AcDb2dVertex
 10
7547913.69999999926
 20
5746804.62999999896
  0
VERTEX
  5
238
100
AcDbEntity
  8
Dzialki
100
AcDbVertex
100
AcDb2dVertex
 10
7547903.5700000003
 20
5746804.55000000075
  0
SEQEND
  5
239
100
AcDbEntity
  8
Dzialki
  0
POLYLINE
  5
23A
100
AcDbEntity
  8
Dzialki
  6
CONTINUOUS
370
18
100
AcDb2dPolyline
 66
1
 70
128
  0
VERTEX
  5
23B
100
AcDbEntity
  8
Dzialki
100
AcDbVertex
100
AcDb2dVertex
 10
7547903.5700000003
 20
5746804.55000000075
  0
VERTEX
  5
23C
100
AcDbEntity
  8
Dzialki
100
AcDbVertex
100
AcDb2dVertex
 10
7547880.28000000026
 20
5746804.25999999978
  0
SEQEND
  5
23D
100
AcDbEntity
  8
Dzialki
  0
POLYLINE
  5
23E
100
AcDbEntity
  8
Dzialki
  6
CONTINUOUS
370
18
100
AcDb2dPolyline
 66
1
 70
128
  0
VERTEX
  5
23F
100
AcDbEntity
  8
Dzialki
100
AcDbVertex
100
AcDb2dVertex
 10
7547880.28000000026
 20
5746804.25999999978
  0
VERTEX
  5
240
100
AcDbEntity
  8
Dzialki
100
AcDbVertex
100
AcDb2dVertex
 10
7547854.08000000007
 20
5746803.92000000086
  0
SEQEND
  5
241
100
AcDbEntity
  8
Dzialki
  0
POLYLINE
  5
242
100
AcDbEntity
  8
Dzialki
  6
CONTINUOUS
370
18
100
AcDb2dPolyline
 66
1
 70
128
  0
VERTEX
  5
243
100
AcDbEntity
  8
Dzialki
100
AcDbVertex
100
AcDb2dVertex
 10
7547854.08000000007
 20
5746803.92000000086
  0
VERTEX
  5
244
100
AcDbEntity
  8
Dzialki
100
AcDbVertex
100
AcDb2dVertex
 10
7547826.84000000171
 20
5746803.58000000101
  0
SEQEND
  5
245
100
AcDbEntity
  8
Dzialki
  0
POLYLINE
  5
246
100
AcDbEntity
  8
Dzialki
  6
CONTINUOUS
370
18
100
AcDb2dPolyline
 66
1
 70
128
  0
VERTEX
  5
247
100
AcDbEntity
  8
Dzialki
100
AcDbVertex
100
AcDb2dVertex
 10
7547826.84000000171
 20
5746803.58000000101
  0
VERTEX
  5
248
100
AcDbEntity
  8
Dzialki
100
AcDbVertex
100
AcDb2dVertex
 10
7547779.48999999929
 20
5746804.21999999974
  0
SEQEND
  5
249
100
AcDbEntity
  8
Dzialki
  0
POLYLINE
  5
24A
100
AcDbEntity
  8
Dzialki
  6
CONTINUOUS
370
18
100
AcDb2dPolyline
 66
1
 70
128
  0
VERTEX
  5
24B
100
AcDbEntity
  8
Dzialki
100
AcDbVertex
100
AcDb2dVertex
 10
7547779.48999999929
 20
5746804.21999999974
  0
VERTEX
  5
24C
100
AcDbEntity
  8
Dzialki
100
AcDbVertex
100
AcDb2dVertex
 10
7547771.24000000116
 20
5746804.33000000007
  0
SEQEND
  5
24D
100
AcDbEntity
  8
Dzialki
  0
POLYLINE
  5
24E
100
AcDbEntity
  8
Dzialki
  6
CONTINUOUS
370
18
100
AcDb2dPolyline
 66
1
 70
128
  0
VERTEX
  5
24F
100
AcDbEntity
  8
Dzialki
100
AcDbVertex
100
AcDb2dVertex
 10
7547771.24000000116
 20
5746804.33000000007
  0
VERTEX
  5
250
100
AcDbEntity
  8
Dzialki
100
AcDbVertex
100
AcDb2dVertex
 10
7547757.18999999948
 20
5746805.80999999959
  0
SEQEND
  5
251
100
AcDbEntity
  8
Dzialki
  0
POLYLINE
  5
252
100
AcDbEntity
  8
Dzialki
  6
CONTINUOUS
370
18
100
AcDb2dPolyline
 66
1
 70
128
  0
VERTEX
  5
253
100
AcDbEntity
  8
Dzialki
100
AcDbVertex
100
AcDb2dVertex
 10
7547757.18999999948
 20
5746805.80999999959
  0
VERTEX
  5
254
100
AcDbEntity
  8
Dzialki
100
AcDbVertex
100
AcDb2dVertex
 10
7547750.74000000022
 20
5746806.90000000037
  0
SEQEND
  5
255
100
AcDbEntity
  8
Dzialki
  0
POLYLINE
  5
256
100
AcDbEntity
  8
Dzialki
  6
CONTINUOUS
370
18
100
AcDb2dPolyline
 66
1
 70
128
  0
VERTEX
  5
257
100
AcDbEntity
  8
Dzialki
100
AcDbVertex
100
AcDb2dVertex
 10
7547750.74000000022
 20
5746806.90000000037
  0
VERTEX
  5
258
100
AcDbEntity
  8
Dzialki
100
AcDbVertex
100
AcDb2dVertex
 10
7547714.63999999966
 20
5746813.03000000026
  0
SEQEND
  5
259
100
AcDbEntity
  8
Dzialki
  0
POLYLINE
  5
25A
100
AcDbEntity
  8
Dzialki
  6
CONTINUOUS
370
18
100
AcDb2dPolyline
 66
1
 70
128
  0
VERTEX
  5
25B
100
AcDbEntity
  8
Dzialki
100
AcDbVertex
100
AcDb2dVertex
 10
7547714.63999999966
 20
5746813.03000000026
  0
VERTEX
  5
25C
100
AcDbEntity
  8
Dzialki
100
AcDbVertex
100
AcDb2dVertex
 10
7547692.3599999994
 20
5746813.30999999866
  0
SEQEND
  5
25D
100
AcDbEntity
  8
Dzialki
  0
POLYLINE
  5
25E
100
AcDbEntity
  8
Dzialki
  6
CONTINUOUS
370
18
100
AcDb2dPolyline
 66
1
 70
128
  0
VERTEX
  5
25F
100
AcDbEntity
  8
Dzialki
100
AcDbVertex
100
AcDb2dVertex
 10
7547692.3599999994
 20
5746813.30999999866
  0
VERTEX
  5
260
100
AcDbEntity
  8
Dzialki
100
AcDbVertex
100
AcDb2dVertex
 10
7547670.15999999922
 20
5746813.59000000078
  0
SEQEND
  5
261
100
AcDbEntity
  8
Dzialki
  0
POLYLINE
  5
262
100
AcDbEntity
  8
Dzialki
  6
CONTINUOUS
370
18
100
AcDb2dPolyline
 66
1
 70
128
  0
VERTEX
  5
263
100
AcDbEntity
  8
Dzialki
100
AcDbVertex
100
AcDb2dVertex
 10
7547670.15999999922
 20
5746813.59000000078
  0
VERTEX
  5
264
100
AcDbEntity
  8
Dzialki
100
AcDbVertex
100
AcDb2dVertex
 10
7547640.02000000048
 20
5746815.64999999944
  0
SEQEND
  5
265
100
AcDbEntity
  8
Dzialki
  0
POLYLINE
  5
266
100
AcDbEntity
  8
Dzialki
  6
CONTINUOUS
370
18
100
AcDb2dPolyline
 66
1
 70
128
  0
VERTEX
  5
267
100
AcDbEntity
  8
Dzialki
100
AcDbVertex
100
AcDb2dVertex
 10
7547640.02000000048
 20
5746815.64999999944
  0
VERTEX
  5
268
100
AcDbEntity
  8
Dzialki
100
AcDbVertex
100
AcDb2dVertex
 10
7547609.29999999981
 20
5746827.75
  0
SEQEND
  5
269
100
AcDbEntity
  8
Dzialki
  0
POLYLINE
  5
26A
100
AcDbEntity
  8
Dzialki
  6
CONTINUOUS
370
18
100
AcDb2dPolyline
 66
1
 70
128
  0
VERTEX
  5
26B
100
AcDbEntity
  8
Dzialki
100
AcDbVertex
100
AcDb2dVertex
 10
7547609.29999999981
 20
5746827.75
  0
VERTEX
  5
26C
100
AcDbEntity
  8
Dzialki
100
AcDbVertex
100
AcDb2dVertex
 10
7547601.71000000089
 20
5746830.43999999948
  0
SEQEND
  5
26D
100
AcDbEntity
  8
Dzialki
  0
POLYLINE
  5
26E
100
AcDbEntity
  8
Dzialki
  6
CONTINUOUS
370
18
100
AcDb2dPolyline
 66
1
 70
128
  0
VERTEX
  5
26F
100
AcDbEntity
  8
Dzialki
100
AcDbVertex
100
AcDb2dVertex
 10
7547601.71000000089
 20
5746830.43999999948
  0
VERTEX
  5
270
100
AcDbEntity
  8
Dzialki
100
AcDbVertex
100
AcDb2dVertex
 10
7547577.46999999974
 20
5746839.01999999862
  0
SEQEND
  5
271
100
AcDbEntity
  8
Dzialki
  0
POLYLINE
  5
272
100
AcDbEntity
  8
Dzialki
  6
CONTINUOUS
370
18
100
AcDb2dPolyline
 66
1
 70
128
  0
VERTEX
  5
273
100
AcDbEntity
  8
Dzialki
100
AcDbVertex
100
AcDb2dVertex
 10
7547577.46999999974
 20
5746839.01999999862
  0
VERTEX
  5
274
100
AcDbEntity
  8
Dzialki
100
AcDbVertex
100
AcDb2dVertex
 10
7547555.1799999997
 20
5746846.91000000015
  0
SEQEND
  5
275
100
AcDbEntity
  8
Dzialki
  0
POLYLINE
  5
276
100
AcDbEntity
  8
Dzialki
  6
CONTINUOUS
370
18
100
AcDb2dPolyline
 66
1
 70
128
  0
VERTEX
  5
277
100
AcDbEntity
  8
Dzialki
100
AcDbVertex
100
AcDb2dVertex
 10
7547555.1799999997
 20
5746846.91000000015
  0
VERTEX
  5
278
100
AcDbEntity
  8
Dzialki
100
AcDbVertex
100
AcDb2dVertex
 10
7547545.31999999937
 20
5746850.39999999944
  0
SEQEND
  5
279
100
AcDbEntity
  8
Dzialki
  0
POLYLINE
  5
27A
100
AcDbEntity
  8
Dzialki
  6
CONTINUOUS
370
18
100
AcDb2dPolyline
 66
1
 70
128
  0
VERTEX
  5
27B
100
AcDbEntity
  8
Dzialki
100
AcDbVertex
100
AcDb2dVertex
 10
7547545.31999999937
 20
5746850.39999999944
  0
VERTEX
  5
27C
100
AcDbEntity
  8
Dzialki
100
AcDbVertex
100
AcDb2dVertex
 10
7547499.0700000003
 20
5746870.10000000056
  0
SEQEND
  5
27D
100
AcDbEntity
  8
Dzialki
  0
POLYLINE
  5
27E
100
AcDbEntity
  8
Dzialki
  6
CONTINUOUS
370
18
100
AcDb2dPolyline
 66
1
 70
128
  0
VERTEX
  5
27F
100
AcDbEntity
  8
Dzialki
100
AcDbVertex
100
AcDb2dVertex
 10
7547499.0700000003
 20
5746870.10000000056
  0
VERTEX
  5
280
100
AcDbEntity
  8
Dzialki
100
AcDbVertex
100
AcDb2dVertex
 10
7547494.14999999944
 20
5746872.05999999773
  0
SEQEND
  5
281
100
AcDbEntity
  8
Dzialki
  0
POLYLINE
  5
282
100
AcDbEntity
  8
Dzialki
  6
CONTINUOUS
370
18
100
AcDb2dPolyline
 66
1
 70
128
  0
VERTEX
  5
283
100
AcDbEntity
  8
Dzialki
100
AcDbVertex
100
AcDb2dVertex
 10
7547494.14999999944
 20
5746872.05999999773
  0
VERTEX
  5
284
100
AcDbEntity
  8
Dzialki
100
AcDbVertex
100
AcDb2dVertex
 10
7547403.27999999933
 20
5746908.26000000071
  0
SEQEND
  5
285
100
AcDbEntity
  8
Dzialki
  0
POLYLINE
  5
286
100
AcDbEntity
  8
Dzialki
  6
CONTINUOUS
370
18
100
AcDb2dPolyline
 66
1
 70
128
  0
VERTEX
  5
287
100
AcDbEntity
  8
Dzialki
100
AcDbVertex
100
AcDb2dVertex
 10
7547403.27999999933
 20
5746908.26000000071
  0
VERTEX
  5
288
100
AcDbEntity
  8
Dzialki
100
AcDbVertex
100
AcDb2dVertex
 10
7547385.26000000071
 20
5746921.58999999985
  0
SEQEND
  5
289
100
AcDbEntity
  8
Dzialki
  0
POLYLINE
  5
28A
100
AcDbEntity
  8
Dzialki
  6
CONTINUOUS
370
18
100
AcDb2dPolyline
 66
1
 70
128
  0
VERTEX
  5
28B
100
AcDbEntity
  8
Dzialki
100
AcDbVertex
100
AcDb2dVertex
 10
7547385.26000000071
 20
5746921.58999999985
  0
VERTEX
  5
28C
100
AcDbEntity
  8
Dzialki
100
AcDbVertex
100
AcDb2dVertex
 10
7547380.83000000101
 20
5746924.86000000034
  0
SEQEND
  5
28D
100
AcDbEntity
  8
Dzialki
  0
POLYLINE
  5
28E
100
AcDbEntity
  8
Dzialki
  6
CONTINUOUS
370
18
100
AcDb2dPolyline
 66
1
 70
128
  0
VERTEX
  5
28F
100
AcDbEntity
  8
Dzialki
100
AcDbVertex
100
AcDb2dVertex
 10
7547380.83000000101
 20
5746924.86000000034
  0
VERTEX
  5
290
100
AcDbEntity
  8
Dzialki
100
AcDbVertex
100
AcDb2dVertex
 10
7547378.80000000074
 20
5746924.19000000041
  0
SEQEND
  5
291
100
AcDbEntity
  8
Dzialki
  0
POLYLINE
  5
292
100
AcDbEntity
  8
Dzialki
  6
CONTINUOUS
370
18
100
AcDb2dPolyline
 66
1
 70
128
  0
VERTEX
  5
293
100
AcDbEntity
  8
Dzialki
100
AcDbVertex
100
AcDb2dVertex
 10
7547378.80000000074
 20
5746924.19000000041
  0
VERTEX
  5
294
100
AcDbEntity
  8
Dzialki
100
AcDbVertex
100
AcDb2dVertex
 10
7547375.37000000104
 20
5746923.05999999866
  0
SEQEND
  5
295
100
AcDbEntity
  8
Dzialki
  0
POLYLINE
  5
296
100
AcDbEntity
  8
Dzialki
  6
CONTINUOUS
370
18
100
AcDb2dPolyline
 66
1
 70
128
  0
VERTEX
  5
297
100
AcDbEntity
  8
Dzialki
100
AcDbVertex
100
AcDb2dVertex
 10
7547375.37000000104
 20
5746923.05999999866
  0
VERTEX
  5
298
100
AcDbEntity
  8
Dzialki
100
AcDbVertex
100
AcDb2dVertex
 10
7547373.9000000013
 20
5746922.56999999937
  0
SEQEND
  5
299
100
AcDbEntity
  8
Dzialki
  0
POLYLINE
  5
29A
100
AcDbEntity
  8
Dzialki
  6
CONTINUOUS
370
18
100
AcDb2dPolyline
 66
1
 70
128
  0
VERTEX
  5
29B
100
AcDbEntity
  8
Dzialki
100
AcDbVertex
100
AcDb2dVertex
 10
7547373.9000000013
 20
5746922.56999999937
  0
VERTEX
  5
29C
100
AcDbEntity
  8
Dzialki
100
AcDbVertex
100
AcDb2dVertex
 10
7547382.66999999993
 20
5746915.15000000037
  0
SEQEND
  5
29D
100
AcDbEntity
  8
Dzialki
  0
POLYLINE
  5
29E
100
AcDbEntity
  8
Dzialki
  6
CONTINUOUS
370
18
100
AcDb2dPolyline
 66
1
 70
128
  0
VERTEX
  5
29F
100
AcDbEntity
  8
Dzialki
100
AcDbVertex
100
AcDb2dVertex
 10
7547382.66999999993
 20
5746915.15000000037
  0
VERTEX
  5
2A0
100
AcDbEntity
  8
Dzialki
100
AcDbVertex
100
AcDb2dVertex
 10
7547395.33000000007
 20
5746906.15000000037
  0
SEQEND
  5
2A1
100
AcDbEntity
  8
Dzialki
  0
POLYLINE
  5
2A2
100
AcDbEntity
  8
Dzialki
  6
CONTINUOUS
370
18
100
AcDb2dPolyline
 66
1
 70
128
  0
VERTEX
  5
2A3
100
AcDbEntity
  8
Dzialki
100
AcDbVertex
100
AcDb2dVertex
 10
7547395.33000000007
 20
5746906.15000000037
  0
VERTEX
  5
2A4
100
AcDbEntity
  8
Dzialki
100
AcDbVertex
100
AcDb2dVertex
 10
7547500.33999999985
 20
5746864.01999999769
  0
SEQEND
  5
2A5
100
AcDbEntity
  8
Dzialki
  0
POLYLINE
  5
2A6
100
AcDbEntity
  8
Dzialki
  6
CONTINUOUS
370
18
100
AcDb2dPolyline
 66
1
 70
128
  0
VERTEX
  5
2A7
100
AcDbEntity
  8
Dzialki
100
AcDbVertex
100
AcDb2dVertex
 10
7547500.33999999985
 20
5746864.01999999769
  0
VERTEX
  5
2A8
100
AcDbEntity
  8
Dzialki
100
AcDbVertex
100
AcDb2dVertex
 10
7547542.15999999922
 20
5746845.90000000037
  0
SEQEND
  5
2A9
100
AcDbEntity
  8
Dzialki
  0
POLYLINE
  5
2AA
100
AcDbEntity
  8
Dzialki
  6
CONTINUOUS
370
18
100
AcDb2dPolyline
 66
1
 70
128
  0
VERTEX
  5
2AB
100
AcDbEntity
  8
Dzialki
100
AcDbVertex
100
AcDb2dVertex
 10
7547542.15999999922
 20
5746845.90000000037
  0
VERTEX
  5
2AC
100
AcDbEntity
  8
Dzialki
100
AcDbVertex
100
AcDb2dVertex
 10
7547552.03000000119
 20
5746842.18000000063
  0
SEQEND
  5
2AD
100
AcDbEntity
  8
Dzialki
  0
POLYLINE
  5
2AE
100
AcDbEntity
  8
Dzialki
  6
CONTINUOUS
370
18
100
AcDb2dPolyline
 66
1
 70
128
  0
VERTEX
  5
2AF
100
AcDbEntity
  8
Dzialki
100
AcDbVertex
100
AcDb2dVertex
 10
7547552.03000000119
 20
5746842.18000000063
  0
VERTEX
  5
2B0
100
AcDbEntity
  8
Dzialki
100
AcDbVertex
100
AcDb2dVertex
 10
7547575.13000000082
 20
5746833.47000000067
  0
SEQEND
  5
2B1
100
AcDbEntity
  8
Dzialki
  0
POLYLINE
  5
2B2
100
AcDbEntity
  8
Dzialki
  6
CONTINUOUS
370
18
100
AcDb2dPolyline
 66
1
 70
128
  0
VERTEX
  5
2B3
100
AcDbEntity
  8
Dzialki
100
AcDbVertex
100
AcDb2dVertex
 10
7547575.13000000082
 20
5746833.47000000067
  0
VERTEX
  5
2B4
100
AcDbEntity
  8
Dzialki
100
AcDbVertex
100
AcDb2dVertex
 10
7547598.47999999952
 20
5746824.67000000086
  0
SEQEND
  5
2B5
100
AcDbEntity
  8
Dzialki
  0
POLYLINE
  5
2B6
100
AcDbEntity
  8
Dzialki
  6
CONTINUOUS
370
18
100
AcDb2dPolyline
 66
1
 70
128
  0
VERTEX
  5
2B7
100
AcDbEntity
  8
Dzialki
100
AcDbVertex
100
AcDb2dVertex
 10
7547598.47999999952
 20
5746824.67000000086
  0
VERTEX
  5
2B8
100
AcDbEntity
  8
Dzialki
100
AcDbVertex
100
AcDb2dVertex
 10
7547599.1099999994
 20
5746824.41999999993
  0
SEQEND
  5
2B9
100
AcDbEntity
  8
Dzialki
  0
POLYLINE
  5
2BA
100
AcDbEntity
  8
Dzialki
  6
CONTINUOUS
370
18
100
AcDb2dPolyline
 66
1
 70
128
  0
VERTEX
  5
2BB
100
AcDbEntity
  8
Dzialki
100
AcDbVertex
100
AcDb2dVertex
 10
7547599.1099999994
 20
5746824.41999999993
  0
VERTEX
  5
2BC
100
AcDbEntity
  8
Dzialki
100
AcDbVertex
100
AcDb2dVertex
 10
7547638.45000000019
 20
5746808.79000000097
  0
SEQEND
  5
2BD
100
AcDbEntity
  8
Dzialki
  0
POLYLINE
  5
2BE
100
AcDbEntity
  8
Dzialki
  6
CONTINUOUS
370
18
100
AcDb2dPolyline
 66
1
 70
128
  0
VERTEX
  5
2BF
100
AcDbEntity
  8
Dzialki
100
AcDbVertex
100
AcDb2dVertex
 10
7547638.45000000019
 20
5746808.79000000097
  0
VERTEX
  5
2C0
100
AcDbEntity
  8
Dzialki
100
AcDbVertex
100
AcDb2dVertex
 10
7547667.59999999963
 20
5746807.62000000011
  0
SEQEND
  5
2C1
100
AcDbEntity
  8
Dzialki
  0
POLYLINE
  5
2C2
100
AcDbEntity
  8
Dzialki
  6
CONTINUOUS
370
18
100
AcDb2dPolyline
 66
1
 70
128
  0
VERTEX
  5
2C3
100
AcDbEntity
  8
Dzialki
100
AcDbVertex
100
AcDb2dVertex
 10
7547667.59999999963
 20
5746807.62000000011
  0
VERTEX
  5
2C4
100
AcDbEntity
  8
Dzialki
100
AcDbVertex
100
AcDb2dVertex
 10
7547689.75
 20
5746807.33999999985
  0
SEQEND
  5
2C5
100
AcDbEntity
  8
Dzialki
  0
POLYLINE
  5
2C6
100
AcDbEntity
  8
Dzialki
  6
CONTINUOUS
370
18
100
AcDb2dPolyline
 66
1
 70
128
  0
VERTEX
  5
2C7
100
AcDbEntity
  8
Dzialki
100
AcDbVertex
100
AcDb2dVertex
 10
7547689.75
 20
5746807.33999999985
  0
VERTEX
  5
2C8
100
AcDbEntity
  8
Dzialki
100
AcDbVertex
100
AcDb2dVertex
 10
7547711.98999999836
 20
5746807.0700000003
  0
SEQEND
  5
2C9
100
AcDbEntity
  8
Dzialki
  0
POLYLINE
  5
2CA
100
AcDbEntity
  8
Dzialki
  6
CONTINUOUS
370
18
100
AcDb2dPolyline
 66
1
 70
128
  0
VERTEX
  5
2CB
100
AcDbEntity
  8
Dzialki
100
AcDbVertex
100
AcDb2dVertex
 10
7547711.98999999836
 20
5746807.0700000003
  0
VERTEX
  5
2CC
100
AcDbEntity
  8
Dzialki
100
AcDbVertex
100
AcDb2dVertex
 10
7547748.29000000004
 20
5746801.21999999974
  0
SEQEND
  5
2CD
100
AcDbEntity
  8
Dzialki
  0
POLYLINE
  5
2CE
100
AcDbEntity
  8
Dzialki
  6
CONTINUOUS
370
18
100
AcDb2dPolyline
 66
1
 70
128
  0
VERTEX
  5
2CF
100
AcDbEntity
  8
Dzialki
100
AcDbVertex
100
AcDb2dVertex
 10
7547748.29000000004
 20
5746801.21999999974
  0
VERTEX
  5
2D0
100
AcDbEntity
  8
Dzialki
100
AcDbVertex
100
AcDb2dVertex
 10
7547760.22000000067
 20
5746799.28999999911
  0
SEQEND
  5
2D1
100
AcDbEntity
  8
Dzialki
  0
POLYLINE
  5
2D2
100
AcDbEntity
  8
Dzialki
  6
CONTINUOUS
370
18
100
AcDb2dPolyline
 66
1
 70
128
  0
VERTEX
  5
2D3
100
AcDbEntity
  8
Dzialki
100
AcDbVertex
100
AcDb2dVertex
 10
7547760.22000000067
 20
5746799.28999999911
  0
VERTEX
  5
2D4
100
AcDbEntity
  8
Dzialki
100
AcDbVertex
100
AcDb2dVertex
 10
7547776.68000000063
 20
5746797.88000000082
  0
SEQEND
  5
2D5
100
AcDbEntity
  8
Dzialki
  0
POLYLINE
  5
2D6
100
AcDbEntity
  8
Dzialki
  6
CONTINUOUS
370
18
100
AcDb2dPolyline
 66
1
 70
128
  0
VERTEX
  5
2D7
100
AcDbEntity
  8
Dzialki
100
AcDbVertex
100
AcDb2dVertex
 10
7547776.68000000063
 20
5746797.88000000082
  0
VERTEX
  5
2D8
100
AcDbEntity
  8
Dzialki
100
AcDbVertex
100
AcDb2dVertex
 10
7547776.9299999997
 20
5746797.8599999994
  0
SEQEND
  5
2D9
100
AcDbEntity
  8
Dzialki
  0
POLYLINE
  5
2DA
100
AcDbEntity
  8
Dzialki
  6
CONTINUOUS
370
18
100
AcDb2dPolyline
 66
1
 70
128
  0
VERTEX
  5
2DB
100
AcDbEntity
  8
Dzialki
100
AcDbVertex
100
AcDb2dVertex
 10
7547776.9299999997
 20
5746797.8599999994
  0
VERTEX
  5
2DC
100
AcDbEntity
  8
Dzialki
100
AcDbVertex
100
AcDb2dVertex
 10
7547808.45000000019
 20
5746799.08999999892
  0
SEQEND
  5
2DD
100
AcDbEntity
  8
Dzialki
  0
POLYLINE
  5
2DE
100
AcDbEntity
  8
Dzialki
  6
CONTINUOUS
370
18
100
AcDb2dPolyline
 66
1
 70
128
  0
VERTEX
  5
2DF
100
AcDbEntity
  8
Dzialki
100
AcDbVertex
100
AcDb2dVertex
 10
7547808.45000000019
 20
5746799.08999999892
  0
VERTEX
  5
2E0
100
AcDbEntity
  8
Dzialki
100
AcDbVertex
100
AcDb2dVertex
 10
7547833.64000000153
 20
5746795.79999999981
  0
SEQEND
  5
2E1
100
AcDbEntity
  8
Dzialki
  0
POLYLINE
  5
2E2
100
AcDbEntity
  8
Dzialki
  6
CONTINUOUS
370
18
100
AcDb2dPolyline
 66
1
 70
128
  0
VERTEX
  5
2E3
100
AcDbEntity
  8
Dzialki
100
AcDbVertex
100
AcDb2dVertex
 10
7547833.64000000153
 20
5746795.79999999981
  0
VERTEX
  5
2E4
100
AcDbEntity
  8
Dzialki
100
AcDbVertex
100
AcDb2dVertex
 10
7547850.3900000006
 20
5746795.68000000063
  0
SEQEND
  5
2E5
100
AcDbEntity
  8
Dzialki
  0
POLYLINE
  5
2E6
100
AcDbEntity
  8
Dzialki
  6
CONTINUOUS
370
18
100
AcDb2dPolyline
 66
1
 70
128
  0
VERTEX
  5
2E7
100
AcDbEntity
  8
Dzialki
100
AcDbVertex
100
AcDb2dVertex
 10
7547850.3900000006
 20
5746795.68000000063
  0
VERTEX
  5
2E8
100
AcDbEntity
  8
Dzialki
100
AcDbVertex
100
AcDb2dVertex
 10
7547869.88000000082
 20
5746795.53999999911
  0
SEQEND
  5
2E9
100
AcDbEntity
  8
Dzialki
  0
POLYLINE
  5
2EA
100
AcDbEntity
  8
Dzialki
  6
CONTINUOUS
370
18
100
AcDb2dPolyline
 66
1
 70
128
  0
VERTEX
  5
2EB
100
AcDbEntity
  8
Dzialki
100
AcDbVertex
100
AcDb2dVertex
 10
7547869.88000000082
 20
5746795.53999999911
  0
VERTEX
  5
2EC
100
AcDbEntity
  8
Dzialki
100
AcDbVertex
100
AcDb2dVertex
 10
7547876.41999999806
 20
5746795.70999999996
  0
SEQEND
  5
2ED
100
AcDbEntity
  8
Dzialki
  0
POLYLINE
  5
2EE
100
AcDbEntity
  8
Dzialki
  6
CONTINUOUS
370
18
100
AcDb2dPolyline
 66
1
 70
128
  0
VERTEX
  5
2EF
100
AcDbEntity
  8
Dzialki
100
AcDbVertex
100
AcDb2dVertex
 10
7547876.41999999806
 20
5746795.70999999996
  0
VERTEX
  5
2F0
100
AcDbEntity
  8
Dzialki
100
AcDbVertex
100
AcDb2dVertex
 10
7547900.22999999858
 20
5746796.34000000078
  0
SEQEND
  5
2F1
100
AcDbEntity
  8
Dzialki
  0
POLYLINE
  5
2F2
100
AcDbEntity
  8
Dzialki
  6
CONTINUOUS
370
18
100
AcDb2dPolyline
 66
1
 70
128
  0
VERTEX
  5
2F3
100
AcDbEntity
  8
Dzialki
100
AcDbVertex
100
AcDb2dVertex
 10
7547900.22999999858
 20
5746796.34000000078
  0
VERTEX
  5
2F4
100
AcDbEntity
  8
Dzialki
100
AcDbVertex
100
AcDb2dVertex
 10
7547910.12000000104
 20
5746794.30999999866
  0
SEQEND
  5
2F5
100
AcDbEntity
  8
Dzialki
  0
POLYLINE
  5
2F6
100
AcDbEntity
  8
Dzialki
  6
CONTINUOUS
370
18
100
AcDb2dPolyline
 66
1
 70
128
  0
VERTEX
  5
2F7
100
AcDbEntity
  8
Dzialki
100
AcDbVertex
100
AcDb2dVertex
 10
7547910.12000000104
 20
5746794.30999999866
  0
VERTEX
  5
2F8
100
AcDbEntity
  8
Dzialki
100
AcDbVertex
100
AcDb2dVertex
 10
7547914.4299999997
 20
5746793.42000000086
  0
SEQEND
  5
2F9
100
AcDbEntity
  8
Dzialki
  0
POLYLINE
  5
2FA
100
AcDbEntity
  8
Dzialki
  6
CONTINUOUS
370
18
100
AcDb2dPolyline
 66
1
 70
128
  0
VERTEX
  5
2FB
100
AcDbEntity
  8
Dzialki
100
AcDbVertex
100
AcDb2dVertex
 10
7547914.4299999997
 20
5746793.42000000086
  0
VERTEX
  5
2FC
100
AcDbEntity
  8
Dzialki
100
AcDbVertex
100
AcDb2dVertex
 10
7547932.84999999963
 20
5746785.18000000063
  0
SEQEND
  5
2FD
100
AcDbEntity
  8
Dzialki
  0
POLYLINE
  5
2FE
100
AcDbEntity
  8
Dzialki
  6
CONTINUOUS
370
18
100
AcDb2dPolyline
 66
1
 70
128
  0
VERTEX
  5
2FF
100
AcDbEntity
  8
Dzialki
100
AcDbVertex
100
AcDb2dVertex
 10
7547932.84999999963
 20
5746785.18000000063
  0
VERTEX
  5
300
100
AcDbEntity
  8
Dzialki
100
AcDbVertex
100
AcDb2dVertex
 10
7547940.21999999974
 20
5746776.33000000007
  0
SEQEND
  5
301
100
AcDbEntity
  8
Dzialki
  0
POLYLINE
  5
302
100
AcDbEntity
  8
Dzialki
  6
CONTINUOUS
370
18
100
AcDb2dPolyline
 66
1
 70
128
  0
VERTEX
  5
303
100
AcDbEntity
  8
Dzialki
100
AcDbVertex
100
AcDb2dVertex
 10
7547940.21999999974
 20
5746776.33000000007
  0
VERTEX
  5
304
100
AcDbEntity
  8
Dzialki
100
AcDbVertex
100
AcDb2dVertex
 10
7547948.46000000089
 20
5746769.20000000019
  0
SEQEND
  5
305
100
AcDbEntity
  8
Dzialki
  0
POLYLINE
  5
306
100
AcDbEntity
  8
Dzialki
  6
CONTINUOUS
370
18
100
AcDb2dPolyline
 66
1
 70
128
  0
VERTEX
  5
307
100
AcDbEntity
  8
Dzialki
100
AcDbVertex
100
AcDb2dVertex
 10
7547948.46000000089
 20
5746769.20000000019
  0
VERTEX
  5
308
100
AcDbEntity
  8
Dzialki
100
AcDbVertex
100
AcDb2dVertex
 10
7547957.82999999914
 20
5746761.08000000007
  0
SEQEND
  5
309
100
AcDbEntity
  8
Dzialki
  0
POLYLINE
  5
30A
100
AcDbEntity
  8
Dzialki
  6
CONTINUOUS
370
18
100
AcDb2dPolyline
 66
1
 70
128
  0
VERTEX
  5
30B
100
AcDbEntity
  8
Dzialki
100
AcDbVertex
100
AcDb2dVertex
 10
7547957.82999999914
 20
5746761.08000000007
  0
VERTEX
  5
30C
100
AcDbEntity
  8
Dzialki
100
AcDbVertex
100
AcDb2dVertex
 10
7547965.26999999862
 20
5746750.12000000011
  0
SEQEND
  5
30D
100
AcDbEntity
  8
Dzialki
  0
POLYLINE
  5
30E
100
AcDbEntity
  8
Dzialki
  6
CONTINUOUS
370
18
100
AcDb2dPolyline
 66
1
 70
128
  0
VERTEX
  5
30F
100
AcDbEntity
  8
Dzialki
100
AcDbVertex
100
AcDb2dVertex
 10
7547965.26999999862
 20
5746750.12000000011
  0
VERTEX
  5
310
100
AcDbEntity
  8
Dzialki
100
AcDbVertex
100
AcDb2dVertex
 10
7547974.89999999851
 20
5746731.10000000056
  0
SEQEND
  5
311
100
AcDbEntity
  8
Dzialki
  0
POLYLINE
  5
312
100
AcDbEntity
  8
Dzialki
  6
CONTINUOUS
370
18
100
AcDb2dPolyline
 66
1
 70
128
  0
VERTEX
  5
313
100
AcDbEntity
  8
Dzialki
100
AcDbVertex
100
AcDb2dVertex
 10
7547974.89999999851
 20
5746731.10000000056
  0
VERTEX
  5
314
100
AcDbEntity
  8
Dzialki
100
AcDbVertex
100
AcDb2dVertex
 10
7547976.38000000082
 20
5746730.84999999963
  0
SEQEND
  5
315
100
AcDbEntity
  8
Dzialki
  0
POLYLINE
  5
316
100
AcDbEntity
  8
Dzialki
  6
CONTINUOUS
370
18
100
AcDb2dPolyline
 66
1
 70
128
  0
VERTEX
  5
317
100
AcDbEntity
  8
Dzialki
100
AcDbVertex
100
AcDb2dVertex
 10
7547976.38000000082
 20
5746730.84999999963
  0
VERTEX
  5
318
100
AcDbEntity
  8
Dzialki
100
AcDbVertex
100
AcDb2dVertex
 10
7548005.16000000015
 20
5746725.8900000006
  0
SEQEND
  5
319
100
AcDbEntity
  8
Dzialki
  0
POLYLINE
  5
31A
100
AcDbEntity
  8
Dzialki
  6
CONTINUOUS
370
18
100
AcDb2dPolyline
 66
1
 70
128
  0
VERTEX
  5
31B
100
AcDbEntity
  8
Dzialki
100
AcDbVertex
100
AcDb2dVertex
 10
7548005.16000000015
 20
5746725.8900000006
  0
VERTEX
  5
31C
100
AcDbEntity
  8
Dzialki
100
AcDbVertex
100
AcDb2dVertex
 10
7548020.38999999966
 20
5746710.75
  0
SEQEND
  5
31D
100
AcDbEntity
  8
Dzialki
  0
POLYLINE
  5
31E
100
AcDbEntity
  8
Dzialki
  6
CONTINUOUS
370
18
100
AcDb2dPolyline
 66
1
 70
128
  0
VERTEX
  5
31F
100
AcDbEntity
  8
Dzialki
100
AcDbVertex
100
AcDb2dVertex
 10
7548020.38999999966
 20
5746710.75
  0
VERTEX
  5
320
100
AcDbEntity
  8
Dzialki
100
AcDbVertex
100
AcDb2dVertex
 10
7548021.51999999955
 20
5746709.92000000086
  0
SEQEND
  5
321
100
AcDbEntity
  8
Dzialki
  0
POLYLINE
  5
322
100
AcDbEntity
  8
Dzialki
  6
CONTINUOUS
370
18
100
AcDb2dPolyline
 66
1
 70
128
  0
VERTEX
  5
323
100
AcDbEntity
  8
Dzialki
100
AcDbVertex
100
AcDb2dVertex
 10
7548021.51999999955
 20
5746709.92000000086
  0
VERTEX
  5
324
100
AcDbEntity
  8
Dzialki
100
AcDbVertex
100
AcDb2dVertex
 10
7548041.72000000067
 20
5746695.08999999985
  0
SEQEND
  5
325
100
AcDbEntity
  8
Dzialki
  0
POLYLINE
  5
326
100
AcDbEntity
  8
Dzialki
  6
CONTINUOUS
370
18
100
AcDb2dPolyline
 66
1
 70
128
  0
VERTEX
  5
327
100
AcDbEntity
  8
Dzialki
100
AcDbVertex
100
AcDb2dVertex
 10
7548041.72000000067
 20
5746695.08999999985
  0
VERTEX
  5
328
100
AcDbEntity
  8
Dzialki
100
AcDbVertex
100
AcDb2dVertex
 10
7548052.92000000086
 20
5746697.30999999773
  0
SEQEND
  5
329
100
AcDbEntity
  8
Dzialki
  0
POLYLINE
  5
32A
100
AcDbEntity
  8
Dzialki
  6
CONTINUOUS
370
18
100
AcDb2dPolyline
 66
1
 70
128
  0
VERTEX
  5
32B
100
AcDbEntity
  8
Dzialki
100
AcDbVertex
100
AcDb2dVertex
 10
7548052.92000000086
 20
5746697.30999999773
  0
VERTEX
  5
32C
100
AcDbEntity
  8
Dzialki
100
AcDbVertex
100
AcDb2dVertex
 10
7548059.44000000041
 20
5746679.20000000019
  0
SEQEND
  5
32D
100
AcDbEntity
  8
Dzialki
  0
POLYLINE
  5
32E
100
AcDbEntity
  8
Dzialki
  6
CONTINUOUS
370
18
100
AcDb2dPolyline
 66
1
 70
128
  0
VERTEX
  5
32F
100
AcDbEntity
  8
Dzialki
100
AcDbVertex
100
AcDb2dVertex
 10
7548059.44000000041
 20
5746679.20000000019
  0
VERTEX
  5
330
100
AcDbEntity
  8
Dzialki
100
AcDbVertex
100
AcDb2dVertex
 10
7548059.61000000034
 20
5746678.73000000045
  0
SEQEND
  5
331
100
AcDbEntity
  8
Dzialki
  0
POLYLINE
  5
332
100
AcDbEntity
  8
Dzialki
  6
CONTINUOUS
370
18
100
AcDb2dPolyline
 66
1
 70
128
  0
VERTEX
  5
333
100
AcDbEntity
  8
Dzialki
100
AcDbVertex
100
AcDb2dVertex
 10
7548059.61000000034
 20
5746678.73000000045
  0
VERTEX
  5
334
100
AcDbEntity
  8
Dzialki
100
AcDbVertex
100
AcDb2dVertex
 10
7548067.48000000231
 20
5746663.85000000056
  0
SEQEND
  5
335
100
AcDbEntity
  8
Dzialki
  0
POLYLINE
  5
336
100
AcDbEntity
  8
Dzialki
  6
CONTINUOUS
370
18
100
AcDb2dPolyline
 66
1
 70
128
  0
VERTEX
  5
337
100
AcDbEntity
  8
Dzialki
100
AcDbVertex
100
AcDb2dVertex
 10
7548067.48000000231
 20
5746663.85000000056
  0
VERTEX
  5
338
100
AcDbEntity
  8
Dzialki
100
AcDbVertex
100
AcDb2dVertex
 10
7548066.38000000082
 20
5746657.49000000022
  0
SEQEND
  5
339
100
AcDbEntity
  8
Dzialki
  0
POLYLINE
  5
33A
100
AcDbEntity
  8
Dzialki
  6
CONTINUOUS
370
18
100
AcDb2dPolyline
 66
1
 70
128
  0
VERTEX
  5
33B
100
AcDbEntity
  8
Dzialki
100
AcDbVertex
100
AcDb2dVertex
 10
7548066.38000000082
 20
5746657.49000000022
  0
VERTEX
  5
33C
100
AcDbEntity
  8
Dzialki
100
AcDbVertex
100
AcDb2dVertex
 10
7548076.95000000019
 20
5746651.98000000138
  0
SEQEND
  5
33D
100
AcDbEntity
  8
Dzialki
  0
POLYLINE
  5
33E
100
AcDbEntity
  8
Dzialki
  6
CONTINUOUS
370
18
100
AcDb2dPolyline
 66
1
 70
128
  0
VERTEX
  5
33F
100
AcDbEntity
  8
Dzialki
100
AcDbVertex
100
AcDb2dVertex
 10
7548076.95000000019
 20
5746651.98000000138
  0
VERTEX
  5
340
100
AcDbEntity
  8
Dzialki
100
AcDbVertex
100
AcDb2dVertex
 10
7548090.89999999944
 20
5746648.44000000041
  0
SEQEND
  5
341
100
AcDbEntity
  8
Dzialki
  0
POLYLINE
  5
342
100
AcDbEntity
  8
Dzialki
  6
CONTINUOUS
370
18
100
AcDb2dPolyline
 66
1
 70
128
  0
VERTEX
  5
343
100
AcDbEntity
  8
Dzialki
100
AcDbVertex
100
AcDb2dVertex
 10
7548090.89999999944
 20
5746648.44000000041
  0
VERTEX
  5
344
100
AcDbEntity
  8
Dzialki
100
AcDbVertex
100
AcDb2dVertex
 10
7548092.87999999896
 20
5746647.94000000041
  0
SEQEND
  5
345
100
AcDbEntity
  8
Dzialki
  0
POLYLINE
  5
346
100
AcDbEntity
  8
Dzialki
  6
CONTINUOUS
370
18
100
AcDb2dPolyline
 66
1
 70
128
  0
VERTEX
  5
347
100
AcDbEntity
  8
Dzialki
100
AcDbVertex
100
AcDb2dVertex
 10
7548092.87999999896
 20
5746647.94000000041
  0
VERTEX
  5
348
100
AcDbEntity
  8
Dzialki
100
AcDbVertex
100
AcDb2dVertex
 10
7548105.88000000268
 20
5746647.30999999866
  0
SEQEND
  5
349
100
AcDbEntity
  8
Dzialki
  0
POLYLINE
  5
34A
100
AcDbEntity
  8
Dzialki
  6
CONTINUOUS
370
18
100
AcDb2dPolyline
 66
1
 70
128
  0
VERTEX
  5
34B
100
AcDbEntity
  8
Dzialki
100
AcDbVertex
100
AcDb2dVertex
 10
7548105.88000000268
 20
5746647.30999999866
  0
VERTEX
  5
34C
100
AcDbEntity
  8
Dzialki
100
AcDbVertex
100
AcDb2dVertex
 10
7548121.02999999933
 20
5746646.59000000078
  0
SEQEND
  5
34D
100
AcDbEntity
  8
Dzialki
  0
POLYLINE
  5
34E
100
AcDbEntity
  8
Dzialki
  6
CONTINUOUS
370
18
100
AcDb2dPolyline
 66
1
 70
128
  0
VERTEX
  5
34F
100
AcDbEntity
  8
Dzialki
100
AcDbVertex
100
AcDb2dVertex
 10
7548121.02999999933
 20
5746646.59000000078
  0
VERTEX
  5
350
100
AcDbEntity
  8
Dzialki
100
AcDbVertex
100
AcDb2dVertex
 10
7548154.49000000209
 20
5746629.28000000026
  0
SEQEND
  5
351
100
AcDbEntity
  8
Dzialki
  0
POLYLINE
  5
352
100
AcDbEntity
  8
Dzialki
  6
CONTINUOUS
370
18
100
AcDb2dPolyline
 66
1
 70
128
  0
VERTEX
  5
353
100
AcDbEntity
  8
Dzialki
100
AcDbVertex
100
AcDb2dVertex
 10
7548154.49000000209
 20
5746629.28000000026
  0
VERTEX
  5
354
100
AcDbEntity
  8
Dzialki
100
AcDbVertex
100
AcDb2dVertex
 10
7548146.30999999959
 20
5746608.5
  0
SEQEND
  5
355
100
AcDbEntity
  8
Dzialki
  0
POLYLINE
  5
356
100
AcDbEntity
  8
Dzialki
  6
CONTINUOUS
370
18
100
AcDb2dPolyline
 66
1
 70
128
  0
VERTEX
  5
357
100
AcDbEntity
  8
Dzialki
100
AcDbVertex
100
AcDb2dVertex
 10
7548146.30999999959
 20
5746608.5
  0
VERTEX
  5
358
100
AcDbEntity
  8
Dzialki
100
AcDbVertex
100
AcDb2dVertex
 10
7548145.34999999963
 20
5746602.37000000011
  0
SEQEND
  5
359
100
AcDbEntity
  8
Dzialki
  0
POLYLINE
  5
35A
100
AcDbEntity
  8
Dzialki
  6
CONTINUOUS
370
18
100
AcDb2dPolyline
 66
1
 70
128
  0
VERTEX
  5
35B
100
AcDbEntity
  8
Dzialki
100
AcDbVertex
100
AcDb2dVertex
 10
7548145.34999999963
 20
5746602.37000000011
  0
VERTEX
  5
35C
100
AcDbEntity
  8
Dzialki
100
AcDbVertex
100
AcDb2dVertex
 10
7548144.87999999989
 20
5746593.55000000074
  0
SEQEND
  5
35D
100
AcDbEntity
  8
Dzialki
  0
POLYLINE
  5
35E
100
AcDbEntity
  8
Dzialki
  6
CONTINUOUS
370
18
100
AcDb2dPolyline
 66
1
 70
128
  0
VERTEX
  5
35F
100
AcDbEntity
  8
Dzialki
100
AcDbVertex
100
AcDb2dVertex
 10
7548144.87999999989
 20
5746593.55000000074
  0
VERTEX
  5
360
100
AcDbEntity
  8
Dzialki
100
AcDbVertex
100
AcDb2dVertex
 10
7548144.26999999862
 20
5746582.04000000004
  0
SEQEND
  5
361
100
AcDbEntity
  8
Dzialki
  0
POLYLINE
  5
362
100
AcDbEntity
  8
Dzialki
  6
CONTINUOUS
370
18
100
AcDb2dPolyline
 66
1
 70
128
  0
VERTEX
  5
363
100
AcDbEntity
  8
Dzialki
100
AcDbVertex
100
AcDb2dVertex
 10
7548144.26999999862
 20
5746582.04000000004
  0
VERTEX
  5
364
100
AcDbEntity
  8
Dzialki
100
AcDbVertex
100
AcDb2dVertex
 10
7548148.19000000041
 20
5746558.5700000003
  0
SEQEND
  5
365
100
AcDbEntity
  8
Dzialki
  0
POLYLINE
  5
366
100
AcDbEntity
  8
Dzialki
  6
CONTINUOUS
370
18
100
AcDb2dPolyline
 66
1
 70
128
  0
VERTEX
  5
367
100
AcDbEntity
  8
Dzialki
100
AcDbVertex
100
AcDb2dVertex
 10
7548148.19000000041
 20
5746558.5700000003
  0
VERTEX
  5
368
100
AcDbEntity
  8
Dzialki
100
AcDbVertex
100
AcDb2dVertex
 10
7548153.02000000048
 20
5746542.65999999922
  0
SEQEND
  5
369
100
AcDbEntity
  8
Dzialki
  0
POLYLINE
  5
36A
100
AcDbEntity
  8
Dzialki
  6
CONTINUOUS
370
18
100
AcDb2dPolyline
 66
1
 70
128
  0
VERTEX
  5
36B
100
AcDbEntity
  8
Dzialki
100
AcDbVertex
100
AcDb2dVertex
 10
7548153.02000000048
 20
5746542.65999999922
  0
VERTEX
  5
36C
100
AcDbEntity
  8
Dzialki
100
AcDbVertex
100
AcDb2dVertex
 10
7548158.84000000078
 20
5746535.00999999885
  0
SEQEND
  5
36D
100
AcDbEntity
  8
Dzialki
  0
POLYLINE
  5
36E
100
AcDbEntity
  8
Dzialki
  6
CONTINUOUS
370
18
100
AcDb2dPolyline
 66
1
 70
128
  0
VERTEX
  5
36F
100
AcDbEntity
  8
Dzialki
100
AcDbVertex
100
AcDb2dVertex
 10
7548158.84000000078
 20
5746535.00999999885
  0
VERTEX
  5
370
100
AcDbEntity
  8
Dzialki
100
AcDbVertex
100
AcDb2dVertex
 10
7548163.0299999984
 20
5746534.40000000037
  0
SEQEND
  5
371
100
AcDbEntity
  8
Dzialki
  0
POLYLINE
  5
372
100
AcDbEntity
  8
Dzialki
  6
CONTINUOUS
370
18
100
AcDb2dPolyline
 66
1
 70
128
  0
VERTEX
  5
373
100
AcDbEntity
  8
Dzialki
100
AcDbVertex
100
AcDb2dVertex
 10
7548163.0299999984
 20
5746534.40000000037
  0
VERTEX
  5
374
100
AcDbEntity
  8
Dzialki
100
AcDbVertex
100
AcDb2dVertex
 10
7548167.21999999974
 20
5746533.79999999981
  0
SEQEND
  5
375
100
AcDbEntity
  8
Dzialki
  0
POLYLINE
  5
376
100
AcDbEntity
  8
Dzialki
  6
CONTINUOUS
370
18
100
AcDb2dPolyline
 66
1
 70
128
  0
VERTEX
  5
377
100
AcDbEntity
  8
Dzialki
100
AcDbVertex
100
AcDb2dVertex
 10
7548402.84999999963
 20
5746486.75999999978
  0
VERTEX
  5
378
100
AcDbEntity
  8
Dzialki
100
AcDbVertex
100
AcDb2dVertex
 10
7548423.48000000138
 20
5746470.91999999899
  0
SEQEND
  5
379
100
AcDbEntity
  8
Dzialki
  0
POLYLINE
  5
37A
100
AcDbEntity
  8
Dzialki
  6
CONTINUOUS
370
18
100
AcDb2dPolyline
 66
1
 70
128
  0
VERTEX
  5
37B
100
AcDbEntity
  8
Dzialki
100
AcDbVertex
100
AcDb2dVertex
 10
7548423.48000000138
 20
5746470.91999999899
  0
VERTEX
  5
37C
100
AcDbEntity
  8
Dzialki
100
AcDbVertex
100
AcDb2dVertex
 10
7548434.12999999989
 20
5746471.41999999993
  0
SEQEND
  5
37D
100
AcDbEntity
  8
Dzialki
  0
POLYLINE
  5
37E
100
AcDbEntity
  8
Dzialki
  6
CONTINUOUS
370
18
100
AcDb2dPolyline
 66
1
 70
128
  0
VERTEX
  5
37F
100
AcDbEntity
  8
Dzialki
100
AcDbVertex
100
AcDb2dVertex
 10
7548434.12999999989
 20
5746471.41999999993
  0
VERTEX
  5
380
100
AcDbEntity
  8
Dzialki
100
AcDbVertex
100
AcDb2dVertex
 10
7548439.19999999926
 20
5746469.91000000015
  0
SEQEND
  5
381
100
AcDbEntity
  8
Dzialki
  0
POLYLINE
  5
382
100
AcDbEntity
  8
Dzialki
  6
CONTINUOUS
370
18
100
AcDb2dPolyline
 66
1
 70
128
  0
VERTEX
  5
383
100
AcDbEntity
  8
Dzialki
100
AcDbVertex
100
AcDb2dVertex
 10
7548439.19999999926
 20
5746469.91000000015
  0
VERTEX
  5
384
100
AcDbEntity
  8
Dzialki
100
AcDbVertex
100
AcDb2dVertex
 10
7548448.35000000056
 20
5746465.25
  0
SEQEND
  5
385
100
AcDbEntity
  8
Dzialki
  0
POLYLINE
  5
386
100
AcDbEntity
  8
Dzialki
  6
CONTINUOUS
370
18
100
AcDb2dPolyline
 66
1
 70
128
  0
VERTEX
  5
387
100
AcDbEntity
  8
Dzialki
100
AcDbVertex
100
AcDb2dVertex
 10
7548448.35000000056
 20
5746465.25
  0
VERTEX
  5
388
100
AcDbEntity
  8
Dzialki
100
AcDbVertex
100
AcDb2dVertex
 10
7548455.21999999974
 20
5746464.68999999948
  0
SEQEND
  5
389
100
AcDbEntity
  8
Dzialki
  0
POLYLINE
  5
38A
100
AcDbEntity
  8
Dzialki
  6
CONTINUOUS
370
18
100
AcDb2dPolyline
 66
1
 70
128
  0
VERTEX
  5
38B
100
AcDbEntity
  8
Dzialki
100
AcDbVertex
100
AcDb2dVertex
 10
7548455.21999999974
 20
5746464.68999999948
  0
VERTEX
  5
38C
100
AcDbEntity
  8
Dzialki
100
AcDbVertex
100
AcDb2dVertex
 10
7548471.08999999892
 20
5746462.17000000086
  0
SEQEND
  5
38D
100
AcDbEntity
  8
Dzialki
  0
POLYLINE
  5
38E
100
AcDbEntity
  8
Dzialki
  6
CONTINUOUS
370
18
100
AcDb2dPolyline
 66
1
 70
128
  0
VERTEX
  5
38F
100
AcDbEntity
  8
Dzialki
100
AcDbVertex
100
AcDb2dVertex
 10
7548471.08999999892
 20
5746462.17000000086
  0
VERTEX
  5
390
100
AcDbEntity
  8
Dzialki
100
AcDbVertex
100
AcDb2dVertex
 10
7548475.4299999997
 20
5746454.51999999955
  0
SEQEND
  5
391
100
AcDbEntity
  8
Dzialki
  0
POLYLINE
  5
392
100
AcDbEntity
  8
Dzialki
  6
CONTINUOUS
370
18
100
AcDb2dPolyline
 66
1
 70
128
  0
VERTEX
  5
393
100
AcDbEntity
  8
Dzialki
100
AcDbVertex
100
AcDb2dVertex
 10
7548475.4299999997
 20
5746454.51999999955
  0
VERTEX
  5
394
100
AcDbEntity
  8
Dzialki
100
AcDbVertex
100
AcDb2dVertex
 10
7548480.75
 20
5746450.72999999952
  0
SEQEND
  5
395
100
AcDbEntity
  8
Dzialki
  0
POLYLINE
  5
396
100
AcDbEntity
  8
Dzialki
  6
CONTINUOUS
370
18
100
AcDb2dPolyline
 66
1
 70
128
  0
VERTEX
  5
397
100
AcDbEntity
  8
Dzialki
100
AcDbVertex
100
AcDb2dVertex
 10
7548480.75
 20
5746450.72999999952
  0
VERTEX
  5
398
100
AcDbEntity
  8
Dzialki
100
AcDbVertex
100
AcDb2dVertex
 10
7548487.21000000089
 20
5746451.65000000037
  0
SEQEND
  5
399
100
AcDbEntity
  8
Dzialki
  0
POLYLINE
  5
39A
100
AcDbEntity
  8
Dzialki
  6
CONTINUOUS
370
18
100
AcDb2dPolyline
 66
1
 70
128
  0
VERTEX
  5
39B
100
AcDbEntity
  8
Dzialki
100
AcDbVertex
100
AcDb2dVertex
 10
7548487.21000000089
 20
5746451.65000000037
  0
VERTEX
  5
39C
100
AcDbEntity
  8
Dzialki
100
AcDbVertex
100
AcDb2dVertex
 10
7548492.3200000003
 20
5746447.16000000015
  0
SEQEND
  5
39D
100
AcDbEntity
  8
Dzialki
  0
POLYLINE
  5
39E
100
AcDbEntity
  8
Dzialki
  6
CONTINUOUS
370
18
100
AcDb2dPolyline
 66
1
 70
128
  0
VERTEX
  5
39F
100
AcDbEntity
  8
Dzialki
100
AcDbVertex
100
AcDb2dVertex
 10
7548492.3200000003
 20
5746447.16000000015
  0
VERTEX
  5
3A0
100
AcDbEntity
  8
Dzialki
100
AcDbVertex
100
AcDb2dVertex
 10
7548495.37999999989
 20
5746433.95000000112
  0
SEQEND
  5
3A1
100
AcDbEntity
  8
Dzialki
  0
POLYLINE
  5
3A2
100
AcDbEntity
  8
Dzialki
  6
CONTINUOUS
370
18
100
AcDb2dPolyline
 66
1
 70
128
  0
VERTEX
  5
3A3
100
AcDbEntity
  8
Dzialki
100
AcDbVertex
100
AcDb2dVertex
 10
7548495.37999999989
 20
5746433.95000000112
  0
VERTEX
  5
3A4
100
AcDbEntity
  8
Dzialki
100
AcDbVertex
100
AcDb2dVertex
 10
7548502.29999999981
 20
5746427.87999999989
  0
SEQEND
  5
3A5
100
AcDbEntity
  8
Dzialki
  0
POLYLINE
  5
3A6
100
AcDbEntity
  8
Dzialki
  6
CONTINUOUS
370
18
100
AcDb2dPolyline
 66
1
 70
128
  0
VERTEX
  5
3A7
100
AcDbEntity
  8
Dzialki
100
AcDbVertex
100
AcDb2dVertex
 10
7548502.29999999981
 20
5746427.87999999989
  0
VERTEX
  5
3A8
100
AcDbEntity
  8
Dzialki
100
AcDbVertex
100
AcDb2dVertex
 10
7548510.9299999997
 20
5746425.11000000034
  0
SEQEND
  5
3A9
100
AcDbEntity
  8
Dzialki
  0
POLYLINE
  5
3AA
100
AcDbEntity
  8
Dzialki
  6
CONTINUOUS
370
18
100
AcDb2dPolyline
 66
1
 70
128
  0
VERTEX
  5
3AB
100
AcDbEntity
  8
Dzialki
100
AcDbVertex
100
AcDb2dVertex
 10
7548510.9299999997
 20
5746425.11000000034
  0
VERTEX
  5
3AC
100
AcDbEntity
  8
Dzialki
100
AcDbVertex
100
AcDb2dVertex
 10
7548520.57000000123
 20
5746424.62000000011
  0
SEQEND
  5
3AD
100
AcDbEntity
  8
Dzialki
  0
POLYLINE
  5
3AE
100
AcDbEntity
  8
Dzialki
  6
CONTINUOUS
370
18
100
AcDb2dPolyline
 66
1
 70
128
  0
VERTEX
  5
3AF
100
AcDbEntity
  8
Dzialki
100
AcDbVertex
100
AcDb2dVertex
 10
7548520.57000000123
 20
5746424.62000000011
  0
VERTEX
  5
3B0
100
AcDbEntity
  8
Dzialki
100
AcDbVertex
100
AcDb2dVertex
 10
7548535.46999999974
 20
5746417.5
  0
SEQEND
  5
3B1
100
AcDbEntity
  8
Dzialki
  0
POLYLINE
  5
3B2
100
AcDbEntity
  8
Dzialki
  6
CONTINUOUS
370
18
100
AcDb2dPolyline
 66
1
 70
128
  0
VERTEX
  5
3B3
100
AcDbEntity
  8
Dzialki
100
AcDbVertex
100
AcDb2dVertex
 10
7548535.46999999974
 20
5746417.5
  0
VERTEX
  5
3B4
100
AcDbEntity
  8
Dzialki
100
AcDbVertex
100
AcDb2dVertex
 10
7548544.63999999966
 20
5746417.43999999948
  0
SEQEND
  5
3B5
100
AcDbEntity
  8
Dzialki
  0
POLYLINE
  5
3B6
100
AcDbEntity
  8
Dzialki
  6
CONTINUOUS
370
18
100
AcDb2dPolyline
 66
1
 70
128
  0
VERTEX
  5
3B7
100
AcDbEntity
  8
Dzialki
100
AcDbVertex
100
AcDb2dVertex
 10
7548544.63999999966
 20
5746417.43999999948
  0
VERTEX
  5
3B8
100
AcDbEntity
  8
Dzialki
100
AcDbVertex
100
AcDb2dVertex
 10
7548557.75
 20
5746424.04999999981
  0
SEQEND
  5
3B9
100
AcDbEntity
  8
Dzialki
  0
POLYLINE
  5
3BA
100
AcDbEntity
  8
Dzialki
  6
CONTINUOUS
370
18
100
AcDb2dPolyline
 66
1
 70
128
  0
VERTEX
  5
3BB
100
AcDbEntity
  8
Dzialki
100
AcDbVertex
100
AcDb2dVertex
 10
7548557.75
 20
5746424.04999999981
  0
VERTEX
  5
3BC
100
AcDbEntity
  8
Dzialki
100
AcDbVertex
100
AcDb2dVertex
 10
7548567.76999999955
 20
5746421.82999999914
  0
SEQEND
  5
3BD
100
AcDbEntity
  8
Dzialki
  0
POLYLINE
  5
3BE
100
AcDbEntity
  8
Dzialki
  6
CONTINUOUS
370
18
100
AcDb2dPolyline
 66
1
 70
128
  0
VERTEX
  5
3BF
100
AcDbEntity
  8
Dzialki
100
AcDbVertex
100
AcDb2dVertex
 10
7548567.76999999955
 20
5746421.82999999914
  0
VERTEX
  5
3C0
100
AcDbEntity
  8
Dzialki
100
AcDbVertex
100
AcDb2dVertex
 10
7548586.58999999985
 20
5746404.34999999963
  0
SEQEND
  5
3C1
100
AcDbEntity
  8
Dzialki
  0
POLYLINE
  5
3C2
100
AcDbEntity
  8
Dzialki
  6
CONTINUOUS
370
18
100
AcDb2dPolyline
 66
1
 70
128
  0
VERTEX
  5
3C3
100
AcDbEntity
  8
Dzialki
100
AcDbVertex
100
AcDb2dVertex
 10
7548586.58999999985
 20
5746404.34999999963
  0
VERTEX
  5
3C4
100
AcDbEntity
  8
Dzialki
100
AcDbVertex
100
AcDb2dVertex
 10
7548601.88999999966
 20
5746406.45999999996
  0
SEQEND
  5
3C5
100
AcDbEntity
  8
Dzialki
  0
POLYLINE
  5
3C6
100
AcDbEntity
  8
Dzialki
  6
CONTINUOUS
370
18
100
AcDb2dPolyline
 66
1
 70
128
  0
VERTEX
  5
3C7
100
AcDbEntity
  8
Dzialki
100
AcDbVertex
100
AcDb2dVertex
 10
7548601.88999999966
 20
5746406.45999999996
  0
VERTEX
  5
3C8
100
AcDbEntity
  8
Dzialki
100
AcDbVertex
100
AcDb2dVertex
 10
7548619.8599999994
 20
5746391.26999999955
  0
SEQEND
  5
3C9
100
AcDbEntity
  8
Dzialki
  0
POLYLINE
  5
3CA
100
AcDbEntity
  8
Dzialki
  6
CONTINUOUS
370
18
100
AcDb2dPolyline
 66
1
 70
128
  0
VERTEX
  5
3CB
100
AcDbEntity
  8
Dzialki
100
AcDbVertex
100
AcDb2dVertex
 10
7548619.8599999994
 20
5746391.26999999955
  0
VERTEX
  5
3CC
100
AcDbEntity
  8
Dzialki
100
AcDbVertex
100
AcDb2dVertex
 10
7548627.88999999873
 20
5746380.02999999933
  0
SEQEND
  5
3CD
100
AcDbEntity
  8
Dzialki
  0
POLYLINE
  5
3CE
100
AcDbEntity
  8
Dzialki
  6
CONTINUOUS
370
18
100
AcDb2dPolyline
 66
1
 70
128
  0
VERTEX
  5
3CF
100
AcDbEntity
  8
Dzialki
100
AcDbVertex
100
AcDb2dVertex
 10
7548627.88999999873
 20
5746380.02999999933
  0
VERTEX
  5
3D0
100
AcDbEntity
  8
Dzialki
100
AcDbVertex
100
AcDb2dVertex
 10
7548646.30999999959
 20
5746380.10000000056
  0
SEQEND
  5
3D1
100
AcDbEntity
  8
Dzialki
  0
POLYLINE
  5
3D2
100
AcDbEntity
  8
Dzialki
  6
CONTINUOUS
370
18
100
AcDb2dPolyline
 66
1
 70
128
  0
VERTEX
  5
3D3
100
AcDbEntity
  8
Dzialki
100
AcDbVertex
100
AcDb2dVertex
 10
7548430.22000000067
 20
5746665.42000000086
  0
VERTEX
  5
3D4
100
AcDbEntity
  8
Dzialki
100
AcDbVertex
100
AcDb2dVertex
 10
7548415.77000000048
 20
5746684.58000000007
  0
SEQEND
  5
3D5
100
AcDbEntity
  8
Dzialki
  0
POLYLINE
  5
3D6
100
AcDbEntity
  8
Dzialki
  6
CONTINUOUS
370
18
100
AcDb2dPolyline
 66
1
 70
128
  0
VERTEX
  5
3D7
100
AcDbEntity
  8
Dzialki
100
AcDbVertex
100
AcDb2dVertex
 10
7548415.77000000048
 20
5746684.58000000007
  0
VERTEX
  5
3D8
100
AcDbEntity
  8
Dzialki
100
AcDbVertex
100
AcDb2dVertex
 10
7548349.1099999994
 20
5746634.70000000019
  0
SEQEND
  5
3D9
100
AcDbEntity
  8
Dzialki
  0
POLYLINE
  5
3DA
100
AcDbEntity
  8
Dzialki
  6
CONTINUOUS
370
18
100
AcDb2dPolyline
 66
1
 70
128
  0
VERTEX
  5
3DB
100
AcDbEntity
  8
Dzialki
100
AcDbVertex
100
AcDb2dVertex
 10
7548349.1099999994
 20
5746634.70000000019
  0
VERTEX
  5
3DC
100
AcDbEntity
  8
Dzialki
100
AcDbVertex
100
AcDb2dVertex
 10
7548363.58999999892
 20
5746615.5
  0
SEQEND
  5
3DD
100
AcDbEntity
  8
Dzialki
  0
POLYLINE
  5
3DE
100
AcDbEntity
  8
Dzialki
  6
CONTINUOUS
370
18
100
AcDb2dPolyline
 66
1
 70
128
  0
VERTEX
  5
3DF
100
AcDbEntity
  8
Dzialki
100
AcDbVertex
100
AcDb2dVertex
 10
7548349.1099999994
 20
5746634.70000000019
  0
VERTEX
  5
3E0
100
AcDbEntity
  8
Dzialki
100
AcDbVertex
100
AcDb2dVertex
 10
7548245.96999999974
 20
5746557.52999999933
  0
SEQEND
  5
3E1
100
AcDbEntity
  8
Dzialki
  0
POLYLINE
  5
3E2
100
AcDbEntity
  8
Dzialki
  6
CONTINUOUS
370
18
100
AcDb2dPolyline
 66
1
 70
128
  0
VERTEX
  5
3E3
100
AcDbEntity
  8
Dzialki
100
AcDbVertex
100
AcDb2dVertex
 10
7548415.77000000048
 20
5746684.58000000007
  0
VERTEX
  5
3E4
100
AcDbEntity
  8
Dzialki
100
AcDbVertex
100
AcDb2dVertex
 10
7548412.77999999933
 20
5746688.58000000007
  0
SEQEND
  5
3E5
100
AcDbEntity
  8
Dzialki
  0
POLYLINE
  5
3E6
100
AcDbEntity
  8
Dzialki
  6
CONTINUOUS
370
18
100
AcDb2dPolyline
 66
1
 70
128
  0
VERTEX
  5
3E7
100
AcDbEntity
  8
Dzialki
100
AcDbVertex
100
AcDb2dVertex
 10
7548412.77999999933
 20
5746688.58000000007
  0
VERTEX
  5
3E8
100
AcDbEntity
  8
Dzialki
100
AcDbVertex
100
AcDb2dVertex
 10
7548360.75999999978
 20
5746649.63999999966
  0
SEQEND
  5
3E9
100
AcDbEntity
  8
Dzialki
  0
POLYLINE
  5
3EA
100
AcDbEntity
  8
Dzialki
  6
CONTINUOUS
370
18
100
AcDb2dPolyline
 66
1
 70
128
  0
VERTEX
  5
3EB
100
AcDbEntity
  8
Dzialki
100
AcDbVertex
100
AcDb2dVertex
 10
7548360.75999999978
 20
5746649.63999999966
  0
VERTEX
  5
3EC
100
AcDbEntity
  8
Dzialki
100
AcDbVertex
100
AcDb2dVertex
 10
7548237.36000000127
 20
5746557.34000000078
  0
SEQEND
  5
3ED
100
AcDbEntity
  8
Dzialki
  0
POLYLINE
  5
3EE
100
AcDbEntity
  8
Dzialki
  6
CONTINUOUS
370
18
100
AcDb2dPolyline
 66
1
 70
128
  0
VERTEX
  5
3EF
100
AcDbEntity
  8
Dzialki
100
AcDbVertex
100
AcDb2dVertex
 10
7548828.36999999918
 20
5746165.79999999888
  0
VERTEX
  5
3F0
100
AcDbEntity
  8
Dzialki
100
AcDbVertex
100
AcDb2dVertex
 10
7548815.48999999929
 20
5746182.47000000067
  0
SEQEND
  5
3F1
100
AcDbEntity
  8
Dzialki
  0
POLYLINE
  5
3F2
100
AcDbEntity
  8
Dzialki
  6
CONTINUOUS
370
18
100
AcDb2dPolyline
 66
1
 70
128
  0
VERTEX
  5
3F3
100
AcDbEntity
  8
Dzialki
100
AcDbVertex
100
AcDb2dVertex
 10
7548815.48999999929
 20
5746182.47000000067
  0
VERTEX
  5
3F4
100
AcDbEntity
  8
Dzialki
100
AcDbVertex
100
AcDb2dVertex
 10
7548805.99000000022
 20
5746194.78000000026
  0
SEQEND
  5
3F5
100
AcDbEntity
  8
Dzialki
  0
POLYLINE
  5
3F6
100
AcDbEntity
  8
Dzialki
  6
CONTINUOUS
370
18
100
AcDb2dPolyline
 66
1
 70
128
  0
VERTEX
  5
3F7
100
AcDbEntity
  8
Dzialki
100
AcDbVertex
100
AcDb2dVertex
 10
7548805.99000000022
 20
5746194.78000000026
  0
VERTEX
  5
3F8
100
AcDbEntity
  8
Dzialki
100
AcDbVertex
100
AcDb2dVertex
 10
7548798.41000000108
 20
5746204.83000000007
  0
SEQEND
  5
3F9
100
AcDbEntity
  8
Dzialki
  0
POLYLINE
  5
3FA
100
AcDbEntity
  8
Dzialki
  6
CONTINUOUS
370
18
100
AcDb2dPolyline
 66
1
 70
128
  0
VERTEX
  5
3FB
100
AcDbEntity
  8
Dzialki
100
AcDbVertex
100
AcDb2dVertex
 10
7548798.41000000108
 20
5746204.83000000007
  0
VERTEX
  5
3FC
100
AcDbEntity
  8
Dzialki
100
AcDbVertex
100
AcDb2dVertex
 10
7548783.58000000007
 20
5746223.59999999963
  0
SEQEND
  5
3FD
100
AcDbEntity
  8
Dzialki
  0
POLYLINE
  5
3FE
100
AcDbEntity
  8
Dzialki
  6
CONTINUOUS
370
18
100
AcDb2dPolyline
 66
1
 70
128
  0
VERTEX
  5
3FF
100
AcDbEntity
  8
Dzialki
100
AcDbVertex
100
AcDb2dVertex
 10
7548783.58000000007
 20
5746223.59999999963
  0
VERTEX
  5
400
100
AcDbEntity
  8
Dzialki
100
AcDbVertex
100
AcDb2dVertex
 10
7548766.20000000112
 20
5746245.94999999925
  0
SEQEND
  5
401
100
AcDbEntity
  8
Dzialki
  0
POLYLINE
  5
402
100
AcDbEntity
  8
Dzialki
  6
CONTINUOUS
370
18
100
AcDb2dPolyline
 66
1
 70
128
  0
VERTEX
  5
403
100
AcDbEntity
  8
Dzialki
100
AcDbVertex
100
AcDb2dVertex
 10
7548766.20000000112
 20
5746245.94999999925
  0
VERTEX
  5
404
100
AcDbEntity
  8
Dzialki
100
AcDbVertex
100
AcDb2dVertex
 10
7548759.69000000041
 20
5746254.87999999989
  0
SEQEND
  5
405
100
AcDbEntity
  8
Dzialki
  0
POLYLINE
  5
406
100
AcDbEntity
  8
Dzialki
  6
CONTINUOUS
370
18
100
AcDb2dPolyline
 66
1
 70
128
  0
VERTEX
  5
407
100
AcDbEntity
  8
Dzialki
100
AcDbVertex
100
AcDb2dVertex
 10
7548759.69000000041
 20
5746254.87999999989
  0
VERTEX
  5
408
100
AcDbEntity
  8
Dzialki
100
AcDbVertex
100
AcDb2dVertex
 10
7548757.2900000019
 20
5746258.32999999914
  0
SEQEND
  5
409
100
AcDbEntity
  8
Dzialki
  0
POLYLINE
  5
40A
100
AcDbEntity
  8
Dzialki
  6
CONTINUOUS
370
18
100
AcDb2dPolyline
 66
1
 70
128
  0
VERTEX
  5
40B
100
AcDbEntity
  8
Dzialki
100
AcDbVertex
100
AcDb2dVertex
 10
7548757.2900000019
 20
5746258.32999999914
  0
VERTEX
  5
40C
100
AcDbEntity
  8
Dzialki
100
AcDbVertex
100
AcDb2dVertex
 10
7548740.01999999862
 20
5746280.51000000071
  0
SEQEND
  5
40D
100
AcDbEntity
  8
Dzialki
  0
POLYLINE
  5
40E
100
AcDbEntity
  8
Dzialki
  6
CONTINUOUS
370
18
100
AcDb2dPolyline
 66
1
 70
128
  0
VERTEX
  5
40F
100
AcDbEntity
  8
Dzialki
100
AcDbVertex
100
AcDb2dVertex
 10
7548740.01999999862
 20
5746280.51000000071
  0
VERTEX
  5
410
100
AcDbEntity
  8
Dzialki
100
AcDbVertex
100
AcDb2dVertex
 10
7548731.41000000015
 20
5746291.62000000011
  0
SEQEND
  5
411
100
AcDbEntity
  8
Dzialki
  0
POLYLINE
  5
412
100
AcDbEntity
  8
Dzialki
  6
CONTINUOUS
370
18
100
AcDb2dPolyline
 66
1
 70
128
  0
VERTEX
  5
413
100
AcDbEntity
  8
Dzialki
100
AcDbVertex
100
AcDb2dVertex
 10
7548731.41000000015
 20
5746291.62000000011
  0
VERTEX
  5
414
100
AcDbEntity
  8
Dzialki
100
AcDbVertex
100
AcDb2dVertex
 10
7548729.45999999903
 20
5746294.12999999989
  0
SEQEND
  5
415
100
AcDbEntity
  8
Dzialki
  0
POLYLINE
  5
416
100
AcDbEntity
  8
Dzialki
  6
CONTINUOUS
370
18
100
AcDb2dPolyline
 66
1
 70
128
  0
VERTEX
  5
417
100
AcDbEntity
  8
Dzialki
100
AcDbVertex
100
AcDb2dVertex
 10
7548729.45999999903
 20
5746294.12999999989
  0
VERTEX
  5
418
100
AcDbEntity
  8
Dzialki
100
AcDbVertex
100
AcDb2dVertex
 10
7548686.83000000007
 20
5746349.54000000004
  0
SEQEND
  5
419
100
AcDbEntity
  8
Dzialki
  0
POLYLINE
  5
41A
100
AcDbEntity
  8
Dzialki
  6
CONTINUOUS
370
18
100
AcDb2dPolyline
 66
1
 70
128
  0
VERTEX
  5
41B
100
AcDbEntity
  8
Dzialki
100
AcDbVertex
100
AcDb2dVertex
 10
7548686.83000000007
 20
5746349.54000000004
  0
VERTEX
  5
41C
100
AcDbEntity
  8
Dzialki
100
AcDbVertex
100
AcDb2dVertex
 10
7548665.1799999997
 20
5746377.08999999985
  0
SEQEND
  5
41D
100
AcDbEntity
  8
Dzialki
  0
POLYLINE
  5
41E
100
AcDbEntity
  8
Dzialki
  6
CONTINUOUS
370
18
100
AcDb2dPolyline
 66
1
 70
128
  0
VERTEX
  5
41F
100
AcDbEntity
  8
Dzialki
100
AcDbVertex
100
AcDb2dVertex
 10
7548665.1799999997
 20
5746377.08999999985
  0
VERTEX
  5
420
100
AcDbEntity
  8
Dzialki
100
AcDbVertex
100
AcDb2dVertex
 10
7548653.7200000016
 20
5746392.12000000104
  0
SEQEND
  5
421
100
AcDbEntity
  8
Dzialki
  0
POLYLINE
  5
422
100
AcDbEntity
  8
Dzialki
  6
CONTINUOUS
370
18
100
AcDb2dPolyline
 66
1
 70
128
  0
VERTEX
  5
423
100
AcDbEntity
  8
Dzialki
100
AcDbVertex
100
AcDb2dVertex
 10
7548653.7200000016
 20
5746392.12000000104
  0
VERTEX
  5
424
100
AcDbEntity
  8
Dzialki
100
AcDbVertex
100
AcDb2dVertex
 10
7548623.98000000045
 20
5746431.10000000056
  0
SEQEND
  5
425
100
AcDbEntity
  8
Dzialki
  0
POLYLINE
  5
426
100
AcDbEntity
  8
Dzialki
  6
CONTINUOUS
370
18
100
AcDb2dPolyline
 66
1
 70
128
  0
VERTEX
  5
427
100
AcDbEntity
  8
Dzialki
100
AcDbVertex
100
AcDb2dVertex
 10
7548623.98000000045
 20
5746431.10000000056
  0
VERTEX
  5
428
100
AcDbEntity
  8
Dzialki
100
AcDbVertex
100
AcDb2dVertex
 10
7548600.8900000006
 20
5746461.36999999918
  0
SEQEND
  5
429
100
AcDbEntity
  8
Dzialki
  0
POLYLINE
  5
42A
100
AcDbEntity
  8
Dzialki
  6
CONTINUOUS
370
18
100
AcDb2dPolyline
 66
1
 70
128
  0
VERTEX
  5
42B
100
AcDbEntity
  8
Dzialki
100
AcDbVertex
100
AcDb2dVertex
 10
7548600.8900000006
 20
5746461.36999999918
  0
VERTEX
  5
42C
100
AcDbEntity
  8
Dzialki
100
AcDbVertex
100
AcDb2dVertex
 10
7548557.72000000067
 20
5746517.95999999996
  0
SEQEND
  5
42D
100
AcDbEntity
  8
Dzialki
  0
POLYLINE
  5
42E
100
AcDbEntity
  8
Dzialki
  6
CONTINUOUS
370
18
100
AcDb2dPolyline
 66
1
 70
128
  0
VERTEX
  5
42F
100
AcDbEntity
  8
Dzialki
100
AcDbVertex
100
AcDb2dVertex
 10
7548557.72000000067
 20
5746517.95999999996
  0
VERTEX
  5
430
100
AcDbEntity
  8
Dzialki
100
AcDbVertex
100
AcDb2dVertex
 10
7548551.48999999929
 20
5746526.25
  0
SEQEND
  5
431
100
AcDbEntity
  8
Dzialki
  0
POLYLINE
  5
432
100
AcDbEntity
  8
Dzialki
  6
CONTINUOUS
370
18
100
AcDb2dPolyline
 66
1
 70
128
  0
VERTEX
  5
433
100
AcDbEntity
  8
Dzialki
100
AcDbVertex
100
AcDb2dVertex
 10
7548551.48999999929
 20
5746526.25
  0
VERTEX
  5
434
100
AcDbEntity
  8
Dzialki
100
AcDbVertex
100
AcDb2dVertex
 10
7548533.47999999765
 20
5746550.24000000022
  0
SEQEND
  5
435
100
AcDbEntity
  8
Dzialki
  0
POLYLINE
  5
436
100
AcDbEntity
  8
Dzialki
  6
CONTINUOUS
370
18
100
AcDb2dPolyline
 66
1
 70
128
  0
VERTEX
  5
437
100
AcDbEntity
  8
Dzialki
100
AcDbVertex
100
AcDb2dVertex
 10
7548533.47999999765
 20
5746550.24000000022
  0
VERTEX
  5
438
100
AcDbEntity
  8
Dzialki
100
AcDbVertex
100
AcDb2dVertex
 10
7548509.45999999996
 20
5746582.22000000067
  0
SEQEND
  5
439
100
AcDbEntity
  8
Dzialki
  0
POLYLINE
  5
43A
100
AcDbEntity
  8
Dzialki
  6
CONTINUOUS
370
18
100
AcDb2dPolyline
 66
1
 70
128
  0
VERTEX
  5
43B
100
AcDbEntity
  8
Dzialki
100
AcDbVertex
100
AcDb2dVertex
 10
7548509.45999999996
 20
5746582.22000000067
  0
VERTEX
  5
43C
100
AcDbEntity
  8
Dzialki
100
AcDbVertex
100
AcDb2dVertex
 10
7548507.14000000153
 20
5746585.48999999929
  0
SEQEND
  5
43D
100
AcDbEntity
  8
Dzialki
  0
POLYLINE
  5
43E
100
AcDbEntity
  8
Dzialki
  6
CONTINUOUS
370
18
100
AcDb2dPolyline
 66
1
 70
128
  0
VERTEX
  5
43F
100
AcDbEntity
  8
Dzialki
100
AcDbVertex
100
AcDb2dVertex
 10
7548507.14000000153
 20
5746585.48999999929
  0
VERTEX
  5
440
100
AcDbEntity
  8
Dzialki
100
AcDbVertex
100
AcDb2dVertex
 10
7548494.26999999955
 20
5746603.61000000034
  0
SEQEND
  5
441
100
AcDbEntity
  8
Dzialki
  0
POLYLINE
  5
442
100
AcDbEntity
  8
Dzialki
  6
CONTINUOUS
370
18
100
AcDb2dPolyline
 66
1
 70
128
  0
VERTEX
  5
443
100
AcDbEntity
  8
Dzialki
100
AcDbVertex
100
AcDb2dVertex
 10
7548494.26999999955
 20
5746603.61000000034
  0
VERTEX
  5
444
100
AcDbEntity
  8
Dzialki
100
AcDbVertex
100
AcDb2dVertex
 10
7548485.60000000056
 20
5746615.01999999955
  0
SEQEND
  5
445
100
AcDbEntity
  8
Dzialki
  0
POLYLINE
  5
446
100
AcDbEntity
  8
Dzialki
  6
CONTINUOUS
370
18
100
AcDb2dPolyline
 66
1
 70
128
  0
VERTEX
  5
447
100
AcDbEntity
  8
Dzialki
100
AcDbVertex
100
AcDb2dVertex
 10
7548485.60000000056
 20
5746615.01999999955
  0
VERTEX
  5
448
100
AcDbEntity
  8
Dzialki
100
AcDbVertex
100
AcDb2dVertex
 10
7548477.05000000074
 20
5746626.26999999955
  0
SEQEND
  5
449
100
AcDbEntity
  8
Dzialki
  0
POLYLINE
  5
44A
100
AcDbEntity
  8
Dzialki
  6
CONTINUOUS
370
18
100
AcDb2dPolyline
 66
1
 70
128
  0
VERTEX
  5
44B
100
AcDbEntity
  8
Dzialki
100
AcDbVertex
100
AcDb2dVertex
 10
7548477.05000000074
 20
5746626.26999999955
  0
VERTEX
  5
44C
100
AcDbEntity
  8
Dzialki
100
AcDbVertex
100
AcDb2dVertex
 10
7548468.97999999858
 20
5746636.88999999966
  0
SEQEND
  5
44D
100
AcDbEntity
  8
Dzialki
  0
POLYLINE
  5
44E
100
AcDbEntity
  8
Dzialki
  6
CONTINUOUS
370
18
100
AcDb2dPolyline
 66
1
 70
128
  0
VERTEX
  5
44F
100
AcDbEntity
  8
Dzialki
100
AcDbVertex
100
AcDb2dVertex
 10
7548468.97999999858
 20
5746636.88999999966
  0
VERTEX
  5
450
100
AcDbEntity
  8
Dzialki
100
AcDbVertex
100
AcDb2dVertex
 10
7548464.43000000063
 20
5746642.87000000011
  0
SEQEND
  5
451
100
AcDbEntity
  8
Dzialki
  0
POLYLINE
  5
452
100
AcDbEntity
  8
Dzialki
  6
CONTINUOUS
370
18
100
AcDb2dPolyline
 66
1
 70
128
  0
VERTEX
  5
453
100
AcDbEntity
  8
Dzialki
100
AcDbVertex
100
AcDb2dVertex
 10
7548435.90999999922
 20
5746680.55999999866
  0
VERTEX
  5
454
100
AcDbEntity
  8
Dzialki
100
AcDbVertex
100
AcDb2dVertex
 10
7548433.02999999933
 20
5746684.40000000037
  0
SEQEND
  5
455
100
AcDbEntity
  8
Dzialki
  0
POLYLINE
  5
456
100
AcDbEntity
  8
Dzialki
  6
CONTINUOUS
370
18
100
AcDb2dPolyline
 66
1
 70
128
  0
VERTEX
  5
457
100
AcDbEntity
  8
Dzialki
100
AcDbVertex
100
AcDb2dVertex
 10
7548433.02999999933
 20
5746684.40000000037
  0
VERTEX
  5
458
100
AcDbEntity
  8
Dzialki
100
AcDbVertex
100
AcDb2dVertex
 10
7548426.20000000112
 20
5746693.51000000071
  0
SEQEND
  5
459
100
AcDbEntity
  8
Dzialki
  0
POLYLINE
  5
45A
100
AcDbEntity
  8
Dzialki
  6
CONTINUOUS
370
18
100
AcDb2dPolyline
 66
1
 70
128
  0
VERTEX
  5
45B
100
AcDbEntity
  8
Dzialki
100
AcDbVertex
100
AcDb2dVertex
 10
7548426.20000000112
 20
5746693.51000000071
  0
VERTEX
  5
45C
100
AcDbEntity
  8
Dzialki
100
AcDbVertex
100
AcDb2dVertex
 10
7548416.44000000041
 20
5746706.5299999984
  0
SEQEND
  5
45D
100
AcDbEntity
  8
Dzialki
  0
POLYLINE
  5
45E
100
AcDbEntity
  8
Dzialki
  6
CONTINUOUS
370
18
100
AcDb2dPolyline
 66
1
 70
128
  0
VERTEX
  5
45F
100
AcDbEntity
  8
Dzialki
100
AcDbVertex
100
AcDb2dVertex
 10
7548416.44000000041
 20
5746706.5299999984
  0
VERTEX
  5
460
100
AcDbEntity
  8
Dzialki
100
AcDbVertex
100
AcDb2dVertex
 10
7548406.28000000026
 20
5746720.08000000007
  0
SEQEND
  5
461
100
AcDbEntity
  8
Dzialki
  0
POLYLINE
  5
462
100
AcDbEntity
  8
Dzialki
  6
CONTINUOUS
370
18
100
AcDb2dPolyline
 66
1
 70
128
  0
VERTEX
  5
463
100
AcDbEntity
  8
Dzialki
100
AcDbVertex
100
AcDb2dVertex
 10
7548406.28000000026
 20
5746720.08000000007
  0
VERTEX
  5
464
100
AcDbEntity
  8
Dzialki
100
AcDbVertex
100
AcDb2dVertex
 10
7548396.12000000104
 20
5746733.63999999966
  0
SEQEND
  5
465
100
AcDbEntity
  8
Dzialki
  0
POLYLINE
  5
466
100
AcDbEntity
  8
Dzialki
  6
CONTINUOUS
370
18
100
AcDb2dPolyline
 66
1
 70
128
  0
VERTEX
  5
467
100
AcDbEntity
  8
Dzialki
100
AcDbVertex
100
AcDb2dVertex
 10
7548396.12000000104
 20
5746733.63999999966
  0
VERTEX
  5
468
100
AcDbEntity
  8
Dzialki
100
AcDbVertex
100
AcDb2dVertex
 10
7548388.17000000086
 20
5746744.30000000075
  0
SEQEND
  5
469
100
AcDbEntity
  8
Dzialki
  0
POLYLINE
  5
46A
100
AcDbEntity
  8
Dzialki
  6
CONTINUOUS
370
18
100
AcDb2dPolyline
 66
1
 70
128
  0
VERTEX
  5
46B
100
AcDbEntity
  8
Dzialki
100
AcDbVertex
100
AcDb2dVertex
 10
7548388.17000000086
 20
5746744.30000000075
  0
VERTEX
  5
46C
100
AcDbEntity
  8
Dzialki
100
AcDbVertex
100
AcDb2dVertex
 10
7548385.78000000026
 20
5746747.5
  0
SEQEND
  5
46D
100
AcDbEntity
  8
Dzialki
  0
POLYLINE
  5
46E
100
AcDbEntity
  8
Dzialki
  6
CONTINUOUS
370
18
100
AcDb2dPolyline
 66
1
 70
128
  0
VERTEX
  5
46F
100
AcDbEntity
  8
Dzialki
100
AcDbVertex
100
AcDb2dVertex
 10
7548385.78000000026
 20
5746747.5
  0
VERTEX
  5
470
100
AcDbEntity
  8
Dzialki
100
AcDbVertex
100
AcDb2dVertex
 10
7548375.24000000116
 20
5746761.64999999944
  0
SEQEND
  5
471
100
AcDbEntity
  8
Dzialki
  0
POLYLINE
  5
472
100
AcDbEntity
  8
Dzialki
  6
CONTINUOUS
370
18
100
AcDb2dPolyline
 66
1
 70
128
  0
VERTEX
  5
473
100
AcDbEntity
  8
Dzialki
100
AcDbVertex
100
AcDb2dVertex
 10
7548375.24000000116
 20
5746761.64999999944
  0
VERTEX
  5
474
100
AcDbEntity
  8
Dzialki
100
AcDbVertex
100
AcDb2dVertex
 10
7548370.40000000037
 20
5746768.14000000153
  0
SEQEND
  5
475
100
AcDbEntity
  8
Dzialki
  0
POLYLINE
  5
476
100
AcDbEntity
  8
Dzialki
  6
CONTINUOUS
370
18
100
AcDb2dPolyline
 66
1
 70
128
  0
VERTEX
  5
477
100
AcDbEntity
  8
Dzialki
100
AcDbVertex
100
AcDb2dVertex
 10
7548370.40000000037
 20
5746768.14000000153
  0
VERTEX
  5
478
100
AcDbEntity
  8
Dzialki
100
AcDbVertex
100
AcDb2dVertex
 10
7548365.05000000074
 20
5746775.30999999866
  0
SEQEND
  5
479
100
AcDbEntity
  8
Dzialki
  0
POLYLINE
  5
47A
100
AcDbEntity
  8
Dzialki
  6
CONTINUOUS
370
18
100
AcDb2dPolyline
 66
1
 70
128
  0
VERTEX
  5
47B
100
AcDbEntity
  8
Dzialki
100
AcDbVertex
100
AcDb2dVertex
 10
7548365.05000000074
 20
5746775.30999999866
  0
VERTEX
  5
47C
100
AcDbEntity
  8
Dzialki
100
AcDbVertex
100
AcDb2dVertex
 10
7548354.18000000063
 20
5746789.90000000037
  0
SEQEND
  5
47D
100
AcDbEntity
  8
Dzialki
  0
POLYLINE
  5
47E
100
AcDbEntity
  8
Dzialki
  6
CONTINUOUS
370
18
100
AcDb2dPolyline
 66
1
 70
128
  0
VERTEX
  5
47F
100
AcDbEntity
  8
Dzialki
100
AcDbVertex
100
AcDb2dVertex
 10
7548354.18000000063
 20
5746789.90000000037
  0
VERTEX
  5
480
100
AcDbEntity
  8
Dzialki
100
AcDbVertex
100
AcDb2dVertex
 10
7548343.00999999884
 20
5746804.88999999966
  0
SEQEND
  5
481
100
AcDbEntity
  8
Dzialki
  0
POLYLINE
  5
482
100
AcDbEntity
  8
Dzialki
  6
CONTINUOUS
370
18
100
AcDb2dPolyline
 66
1
 70
128
  0
VERTEX
  5
483
100
AcDbEntity
  8
Dzialki
100
AcDbVertex
100
AcDb2dVertex
 10
7548343.00999999884
 20
5746804.88999999966
  0
VERTEX
  5
484
100
AcDbEntity
  8
Dzialki
100
AcDbVertex
100
AcDb2dVertex
 10
7548331.83999999985
 20
5746819.87000000011
  0
SEQEND
  5
485
100
AcDbEntity
  8
Dzialki
  0
POLYLINE
  5
486
100
AcDbEntity
  8
Dzialki
  6
CONTINUOUS
370
18
100
AcDb2dPolyline
 66
1
 70
128
  0
VERTEX
  5
487
100
AcDbEntity
  8
Dzialki
100
AcDbVertex
100
AcDb2dVertex
 10
7548331.83999999985
 20
5746819.87000000011
  0
VERTEX
  5
488
100
AcDbEntity
  8
Dzialki
100
AcDbVertex
100
AcDb2dVertex
 10
7548320.25
 20
5746835.41999999993
  0
SEQEND
  5
489
100
AcDbEntity
  8
Dzialki
  0
POLYLINE
  5
48A
100
AcDbEntity
  8
Dzialki
  6
CONTINUOUS
370
18
100
AcDb2dPolyline
 66
1
 70
128
  0
VERTEX
  5
48B
100
AcDbEntity
  8
Dzialki
100
AcDbVertex
100
AcDb2dVertex
 10
7548320.25
 20
5746835.41999999993
  0
VERTEX
  5
48C
100
AcDbEntity
  8
Dzialki
100
AcDbVertex
100
AcDb2dVertex
 10
7548308.48000000045
 20
5746851.20999999996
  0
SEQEND
  5
48D
100
AcDbEntity
  8
Dzialki
  0
POLYLINE
  5
48E
100
AcDbEntity
  8
Dzialki
  6
CONTINUOUS
370
18
100
AcDb2dPolyline
 66
1
 70
128
  0
VERTEX
  5
48F
100
AcDbEntity
  8
Dzialki
100
AcDbVertex
100
AcDb2dVertex
 10
7548308.48000000045
 20
5746851.20999999996
  0
VERTEX
  5
490
100
AcDbEntity
  8
Dzialki
100
AcDbVertex
100
AcDb2dVertex
 10
7548296.38999999966
 20
5746867.69999999925
  0
SEQEND
  5
491
100
AcDbEntity
  8
Dzialki
  0
POLYLINE
  5
492
100
AcDbEntity
  8
Dzialki
  6
CONTINUOUS
370
18
100
AcDb2dPolyline
 66
1
 70
128
  0
VERTEX
  5
493
100
AcDbEntity
  8
Dzialki
100
AcDbVertex
100
AcDb2dVertex
 10
7548296.38999999966
 20
5746867.69999999925
  0
VERTEX
  5
494
100
AcDbEntity
  8
Dzialki
100
AcDbVertex
100
AcDb2dVertex
 10
7548284.25999999978
 20
5746884.2200000016
  0
SEQEND
  5
495
100
AcDbEntity
  8
Dzialki
  0
POLYLINE
  5
496
100
AcDbEntity
  8
Dzialki
  6
CONTINUOUS
370
18
100
AcDb2dPolyline
 66
1
 70
128
  0
VERTEX
  5
497
100
AcDbEntity
  8
Dzialki
100
AcDbVertex
100
AcDb2dVertex
 10
7548284.25999999978
 20
5746884.2200000016
  0
VERTEX
  5
498
100
AcDbEntity
  8
Dzialki
100
AcDbVertex
100
AcDb2dVertex
 10
7548279.53000000026
 20
5746890.66999999993
  0
SEQEND
  5
499
100
AcDbEntity
  8
Dzialki
  0
POLYLINE
  5
49A
100
AcDbEntity
  8
Dzialki
  6
CONTINUOUS
370
18
100
AcDb2dPolyline
 66
1
 70
128
  0
VERTEX
  5
49B
100
AcDbEntity
  8
Dzialki
100
AcDbVertex
100
AcDb2dVertex
 10
7548279.53000000026
 20
5746890.66999999993
  0
VERTEX
  5
49C
100
AcDbEntity
  8
Dzialki
100
AcDbVertex
100
AcDb2dVertex
 10
7548265.40999999922
 20
5746909.90000000037
  0
SEQEND
  5
49D
100
AcDbEntity
  8
Dzialki
  0
POLYLINE
  5
49E
100
AcDbEntity
  8
Dzialki
  6
CONTINUOUS
370
18
100
AcDb2dPolyline
 66
1
 70
128
  0
VERTEX
  5
49F
100
AcDbEntity
  8
Dzialki
100
AcDbVertex
100
AcDb2dVertex
 10
7548265.40999999922
 20
5746909.90000000037
  0
VERTEX
  5
4A0
100
AcDbEntity
  8
Dzialki
100
AcDbVertex
100
AcDb2dVertex
 10
7548252.66000000015
 20
5746927.28000000119
  0
SEQEND
  5
4A1
100
AcDbEntity
  8
Dzialki
  0
POLYLINE
  5
4A2
100
AcDbEntity
  8
Dzialki
  6
CONTINUOUS
370
18
100
AcDb2dPolyline
 66
1
 70
128
  0
VERTEX
  5
4A3
100
AcDbEntity
  8
Dzialki
100
AcDbVertex
100
AcDb2dVertex
 10
7548252.66000000015
 20
5746927.28000000119
  0
VERTEX
  5
4A4
100
AcDbEntity
  8
Dzialki
100
AcDbVertex
100
AcDb2dVertex
 10
7548245.87000000104
 20
5746936.54000000004
  0
SEQEND
  5
4A5
100
AcDbEntity
  8
Dzialki
  0
POLYLINE
  5
4A6
100
AcDbEntity
  8
Dzialki
  6
CONTINUOUS
370
18
100
AcDb2dPolyline
 66
1
 70
128
  0
VERTEX
  5
4A7
100
AcDbEntity
  8
Dzialki
100
AcDbVertex
100
AcDb2dVertex
 10
7548245.87000000104
 20
5746936.54000000004
  0
VERTEX
  5
4A8
100
AcDbEntity
  8
Dzialki
100
AcDbVertex
100
AcDb2dVertex
 10
7548232.53000000026
 20
5746954.74000000115
  0
SEQEND
  5
4A9
100
AcDbEntity
  8
Dzialki
  0
POLYLINE
  5
4AA
100
AcDbEntity
  8
Dzialki
  6
CONTINUOUS
370
18
100
AcDb2dPolyline
 66
1
 70
128
  0
VERTEX
  5
4AB
100
AcDbEntity
  8
Dzialki
100
AcDbVertex
100
AcDb2dVertex
 10
7548232.53000000026
 20
5746954.74000000115
  0
VERTEX
  5
4AC
100
AcDbEntity
  8
Dzialki
100
AcDbVertex
100
AcDb2dVertex
 10
7548225.42999999877
 20
5746964.41999999993
  0
SEQEND
  5
4AD
100
AcDbEntity
  8
Dzialki
  0
POLYLINE
  5
4AE
100
AcDbEntity
  8
Dzialki
  6
CONTINUOUS
370
18
100
AcDb2dPolyline
 66
1
 70
128
  0
VERTEX
  5
4AF
100
AcDbEntity
  8
Dzialki
100
AcDbVertex
100
AcDb2dVertex
 10
7548225.42999999877
 20
5746964.41999999993
  0
VERTEX
  5
4B0
100
AcDbEntity
  8
Dzialki
100
AcDbVertex
100
AcDb2dVertex
 10
7548218.62000000011
 20
5746973.69999999926
  0
SEQEND
  5
4B1
100
AcDbEntity
  8
Dzialki
  0
POLYLINE
  5
4B2
100
AcDbEntity
  8
Dzialki
  6
CONTINUOUS
370
18
100
AcDb2dPolyline
 66
1
 70
128
  0
VERTEX
  5
4B3
100
AcDbEntity
  8
Dzialki
100
AcDbVertex
100
AcDb2dVertex
 10
7548218.62000000011
 20
5746973.69999999926
  0
VERTEX
  5
4B4
100
AcDbEntity
  8
Dzialki
100
AcDbVertex
100
AcDb2dVertex
 10
7548208.76000000071
 20
5746963.43000000063
  0
SEQEND
  5
4B5
100
AcDbEntity
  8
Dzialki
  0
POLYLINE
  5
4B6
100
AcDbEntity
  8
Dzialki
  6
CONTINUOUS
370
18
100
AcDb2dPolyline
 66
1
 70
128
  0
VERTEX
  5
4B7
100
AcDbEntity
  8
Dzialki
100
AcDbVertex
100
AcDb2dVertex
 10
7548208.76000000071
 20
5746963.43000000063
  0
VERTEX
  5
4B8
100
AcDbEntity
  8
Dzialki
100
AcDbVertex
100
AcDb2dVertex
 10
7548211.1500000013
 20
5746960.15999999922
  0
SEQEND
  5
4B9
100
AcDbEntity
  8
Dzialki
  0
POLYLINE
  5
4BA
100
AcDbEntity
  8
Dzialki
  6
CONTINUOUS
370
18
100
AcDb2dPolyline
 66
1
 70
128
  0
VERTEX
  5
4BB
100
AcDbEntity
  8
Dzialki
100
AcDbVertex
100
AcDb2dVertex
 10
7548211.1500000013
 20
5746960.15999999922
  0
VERTEX
  5
4BC
100
AcDbEntity
  8
Dzialki
100
AcDbVertex
100
AcDb2dVertex
 10
7548237.02999999933
 20
5746924.83000000101
  0
SEQEND
  5
4BD
100
AcDbEntity
  8
Dzialki
  0
POLYLINE
  5
4BE
100
AcDbEntity
  8
Dzialki
  6
CONTINUOUS
370
18
100
AcDb2dPolyline
 66
1
 70
128
  0
VERTEX
  5
4BF
100
AcDbEntity
  8
Dzialki
100
AcDbVertex
100
AcDb2dVertex
 10
7548237.02999999933
 20
5746924.83000000101
  0
VERTEX
  5
4C0
100
AcDbEntity
  8
Dzialki
100
AcDbVertex
100
AcDb2dVertex
 10
7548256.81000000052
 20
5746897.80000000075
  0
SEQEND
  5
4C1
100
AcDbEntity
  8
Dzialki
  0
POLYLINE
  5
4C2
100
AcDbEntity
  8
Dzialki
  6
CONTINUOUS
370
18
100
AcDb2dPolyline
 66
1
 70
128
  0
VERTEX
  5
4C3
100
AcDbEntity
  8
Dzialki
100
AcDbVertex
100
AcDb2dVertex
 10
7548256.81000000052
 20
5746897.80000000075
  0
VERTEX
  5
4C4
100
AcDbEntity
  8
Dzialki
100
AcDbVertex
100
AcDb2dVertex
 10
7548278.75999999884
 20
5746867.83000000007
  0
SEQEND
  5
4C5
100
AcDbEntity
  8
Dzialki
  0
POLYLINE
  5
4C6
100
AcDbEntity
  8
Dzialki
  6
CONTINUOUS
370
18
100
AcDb2dPolyline
 66
1
 70
128
  0
VERTEX
  5
4C7
100
AcDbEntity
  8
Dzialki
100
AcDbVertex
100
AcDb2dVertex
 10
7548278.75999999884
 20
5746867.83000000007
  0
VERTEX
  5
4C8
100
AcDbEntity
  8
Dzialki
100
AcDbVertex
100
AcDb2dVertex
 10
7548299.05000000168
 20
5746840.64999999944
  0
SEQEND
  5
4C9
100
AcDbEntity
  8
Dzialki
  0
POLYLINE
  5
4CA
100
AcDbEntity
  8
Dzialki
  6
CONTINUOUS
370
18
100
AcDb2dPolyline
 66
1
 70
128
  0
VERTEX
  5
4CB
100
AcDbEntity
  8
Dzialki
100
AcDbVertex
100
AcDb2dVertex
 10
7548299.05000000168
 20
5746840.64999999944
  0
VERTEX
  5
4CC
100
AcDbEntity
  8
Dzialki
100
AcDbVertex
100
AcDb2dVertex
 10
7548299.53000000026
 20
5746840.00999999978
  0
SEQEND
  5
4CD
100
AcDbEntity
  8
Dzialki
  0
POLYLINE
  5
4CE
100
AcDbEntity
  8
Dzialki
  6
CONTINUOUS
370
18
100
AcDb2dPolyline
 66
1
 70
128
  0
VERTEX
  5
4CF
100
AcDbEntity
  8
Dzialki
100
AcDbVertex
100
AcDb2dVertex
 10
7548299.53000000026
 20
5746840.00999999978
  0
VERTEX
  5
4D0
100
AcDbEntity
  8
Dzialki
100
AcDbVertex
100
AcDb2dVertex
 10
7548321.43999999948
 20
5746810.70999999996
  0
SEQEND
  5
4D1
100
AcDbEntity
  8
Dzialki
  0
POLYLINE
  5
4D2
100
AcDbEntity
  8
Dzialki
  6
CONTINUOUS
370
18
100
AcDb2dPolyline
 66
1
 70
128
  0
VERTEX
  5
4D3
100
AcDbEntity
  8
Dzialki
100
AcDbVertex
100
AcDb2dVertex
 10
7548321.43999999948
 20
5746810.70999999996
  0
VERTEX
  5
4D4
100
AcDbEntity
  8
Dzialki
100
AcDbVertex
100
AcDb2dVertex
 10
7548327.45999999903
 20
5746802.66000000015
  0
SEQEND
  5
4D5
100
AcDbEntity
  8
Dzialki
  0
POLYLINE
  5
4D6
100
AcDbEntity
  8
Dzialki
  6
CONTINUOUS
370
18
100
AcDb2dPolyline
 66
1
 70
128
  0
VERTEX
  5
4D7
100
AcDbEntity
  8
Dzialki
100
AcDbVertex
100
AcDb2dVertex
 10
7548327.45999999903
 20
5746802.66000000015
  0
VERTEX
  5
4D8
100
AcDbEntity
  8
Dzialki
100
AcDbVertex
100
AcDb2dVertex
 10
7548333.77999999933
 20
5746794.21999999974
  0
SEQEND
  5
4D9
100
AcDbEntity
  8
Dzialki
  0
POLYLINE
  5
4DA
100
AcDbEntity
  8
Dzialki
  6
CONTINUOUS
370
18
100
AcDb2dPolyline
 66
1
 70
128
  0
VERTEX
  5
4DB
100
AcDbEntity
  8
Dzialki
100
AcDbVertex
100
AcDb2dVertex
 10
7548333.77999999933
 20
5746794.21999999974
  0
VERTEX
  5
4DC
100
AcDbEntity
  8
Dzialki
100
AcDbVertex
100
AcDb2dVertex
 10
7548339.51999999955
 20
5746786.52999999933
  0
SEQEND
  5
4DD
100
AcDbEntity
  8
Dzialki
  0
POLYLINE
  5
4DE
100
AcDbEntity
  8
Dzialki
  6
CONTINUOUS
370
18
100
AcDb2dPolyline
 66
1
 70
128
  0
VERTEX
  5
4DF
100
AcDbEntity
  8
Dzialki
100
AcDbVertex
100
AcDb2dVertex
 10
7548339.51999999955
 20
5746786.52999999933
  0
VERTEX
  5
4E0
100
AcDbEntity
  8
Dzialki
100
AcDbVertex
100
AcDb2dVertex
 10
7548346.08000000194
 20
5746777.75999999978
  0
SEQEND
  5
4E1
100
AcDbEntity
  8
Dzialki
  0
POLYLINE
  5
4E2
100
AcDbEntity
  8
Dzialki
  6
CONTINUOUS
370
18
100
AcDb2dPolyline
 66
1
 70
128
  0
VERTEX
  5
4E3
100
AcDbEntity
  8
Dzialki
100
AcDbVertex
100
AcDb2dVertex
 10
7548346.08000000194
 20
5746777.75999999978
  0
VERTEX
  5
4E4
100
AcDbEntity
  8
Dzialki
100
AcDbVertex
100
AcDb2dVertex
 10
7548370.48000000138
 20
5746745.1400000006
  0
SEQEND
  5
4E5
100
AcDbEntity
  8
Dzialki
  0
POLYLINE
  5
4E6
100
AcDbEntity
  8
Dzialki
  6
CONTINUOUS
370
18
100
AcDb2dPolyline
 66
1
 70
128
  0
VERTEX
  5
4E7
100
AcDbEntity
  8
Dzialki
100
AcDbVertex
100
AcDb2dVertex
 10
7548370.48000000138
 20
5746745.1400000006
  0
VERTEX
  5
4E8
100
AcDbEntity
  8
Dzialki
100
AcDbVertex
100
AcDb2dVertex
 10
7548392.33000000101
 20
5746715.91999999993
  0
SEQEND
  5
4E9
100
AcDbEntity
  8
Dzialki
  0
POLYLINE
  5
4EA
100
AcDbEntity
  8
Dzialki
  6
CONTINUOUS
370
18
100
AcDb2dPolyline
 66
1
 70
128
  0
VERTEX
  5
4EB
100
AcDbEntity
  8
Dzialki
100
AcDbVertex
100
AcDb2dVertex
 10
7548392.33000000101
 20
5746715.91999999993
  0
VERTEX
  5
4EC
100
AcDbEntity
  8
Dzialki
100
AcDbVertex
100
AcDb2dVertex
 10
7548412.77999999933
 20
5746688.58000000007
  0
SEQEND
  5
4ED
100
AcDbEntity
  8
Dzialki
  0
POLYLINE
  5
4EE
100
AcDbEntity
  8
Dzialki
  6
CONTINUOUS
370
18
100
AcDb2dPolyline
 66
1
 70
128
  0
VERTEX
  5
4EF
100
AcDbEntity
  8
Dzialki
100
AcDbVertex
100
AcDb2dVertex
 10
7548458.98000000045
 20
5746626.95999999996
  0
VERTEX
  5
4F0
100
AcDbEntity
  8
Dzialki
100
AcDbVertex
100
AcDb2dVertex
 10
7548462.61000000034
 20
5746622.18000000063
  0
SEQEND
  5
4F1
100
AcDbEntity
  8
Dzialki
  0
POLYLINE
  5
4F2
100
AcDbEntity
  8
Dzialki
  6
CONTINUOUS
370
18
100
AcDb2dPolyline
 66
1
 70
128
  0
VERTEX
  5
4F3
100
AcDbEntity
  8
Dzialki
100
AcDbVertex
100
AcDb2dVertex
 10
7548462.61000000034
 20
5746622.18000000063
  0
VERTEX
  5
4F4
100
AcDbEntity
  8
Dzialki
100
AcDbVertex
100
AcDb2dVertex
 10
7548477.25
 20
5746602.88000000082
  0
SEQEND
  5
4F5
100
AcDbEntity
  8
Dzialki
  0
POLYLINE
  5
4F6
100
AcDbEntity
  8
Dzialki
  6
CONTINUOUS
370
18
100
AcDb2dPolyline
 66
1
 70
128
  0
VERTEX
  5
4F7
100
AcDbEntity
  8
Dzialki
100
AcDbVertex
100
AcDb2dVertex
 10
7548477.25
 20
5746602.88000000082
  0
VERTEX
  5
4F8
100
AcDbEntity
  8
Dzialki
100
AcDbVertex
100
AcDb2dVertex
 10
7548494.91999999899
 20
5746578.22999999952
  0
SEQEND
  5
4F9
100
AcDbEntity
  8
Dzialki
  0
POLYLINE
  5
4FA
100
AcDbEntity
  8
Dzialki
  6
CONTINUOUS
370
18
100
AcDb2dPolyline
 66
1
 70
128
  0
VERTEX
  5
4FB
100
AcDbEntity
  8
Dzialki
100
AcDbVertex
100
AcDb2dVertex
 10
7548494.91999999899
 20
5746578.22999999952
  0
VERTEX
  5
4FC
100
AcDbEntity
  8
Dzialki
100
AcDbVertex
100
AcDb2dVertex
 10
7548498.54999999981
 20
5746573.47000000067
  0
SEQEND
  5
4FD
100
AcDbEntity
  8
Dzialki
  0
POLYLINE
  5
4FE
100
AcDbEntity
  8
Dzialki
  6
CONTINUOUS
370
18
100
AcDb2dPolyline
 66
1
 70
128
  0
VERTEX
  5
4FF
100
AcDbEntity
  8
Dzialki
100
AcDbVertex
100
AcDb2dVertex
 10
7548498.54999999981
 20
5746573.47000000067
  0
VERTEX
  5
500
100
AcDbEntity
  8
Dzialki
100
AcDbVertex
100
AcDb2dVertex
 10
7548512.79999999981
 20
5746554.78000000026
  0
SEQEND
  5
501
100
AcDbEntity
  8
Dzialki
  0
POLYLINE
  5
502
100
AcDbEntity
  8
Dzialki
  6
CONTINUOUS
370
18
100
AcDb2dPolyline
 66
1
 70
128
  0
VERTEX
  5
503
100
AcDbEntity
  8
Dzialki
100
AcDbVertex
100
AcDb2dVertex
 10
7548512.79999999981
 20
5746554.78000000026
  0
VERTEX
  5
504
100
AcDbEntity
  8
Dzialki
100
AcDbVertex
100
AcDb2dVertex
 10
7548527.08999999985
 20
5746536.04000000004
  0
SEQEND
  5
505
100
AcDbEntity
  8
Dzialki
  0
POLYLINE
  5
506
100
AcDbEntity
  8
Dzialki
  6
CONTINUOUS
370
18
100
AcDb2dPolyline
 66
1
 70
128
  0
VERTEX
  5
507
100
AcDbEntity
  8
Dzialki
100
AcDbVertex
100
AcDb2dVertex
 10
7548527.08999999985
 20
5746536.04000000004
  0
VERTEX
  5
508
100
AcDbEntity
  8
Dzialki
100
AcDbVertex
100
AcDb2dVertex
 10
7548540.52000000142
 20
5746519.22999999952
  0
SEQEND
  5
509
100
AcDbEntity
  8
Dzialki
  0
POLYLINE
  5
50A
100
AcDbEntity
  8
Dzialki
  6
CONTINUOUS
370
18
100
AcDb2dPolyline
 66
1
 70
128
  0
VERTEX
  5
50B
100
AcDbEntity
  8
Dzialki
100
AcDbVertex
100
AcDb2dVertex
 10
7548540.52000000142
 20
5746519.22999999952
  0
VERTEX
  5
50C
100
AcDbEntity
  8
Dzialki
100
AcDbVertex
100
AcDb2dVertex
 10
7548541.41999999993
 20
5746518.10000000056
  0
SEQEND
  5
50D
100
AcDbEntity
  8
Dzialki
  0
POLYLINE
  5
50E
100
AcDbEntity
  8
Dzialki
  6
CONTINUOUS
370
18
100
AcDb2dPolyline
 66
1
 70
128
  0
VERTEX
  5
50F
100
AcDbEntity
  8
Dzialki
100
AcDbVertex
100
AcDb2dVertex
 10
7548541.41999999993
 20
5746518.10000000056
  0
VERTEX
  5
510
100
AcDbEntity
  8
Dzialki
100
AcDbVertex
100
AcDb2dVertex
 10
7548555.48999999929
 20
5746499.95000000019
  0
SEQEND
  5
511
100
AcDbEntity
  8
Dzialki
  0
POLYLINE
  5
512
100
AcDbEntity
  8
Dzialki
  6
CONTINUOUS
370
18
100
AcDb2dPolyline
 66
1
 70
128
  0
VERTEX
  5
513
100
AcDbEntity
  8
Dzialki
100
AcDbVertex
100
AcDb2dVertex
 10
7548555.48999999929
 20
5746499.95000000019
  0
VERTEX
  5
514
100
AcDbEntity
  8
Dzialki
100
AcDbVertex
100
AcDb2dVertex
 10
7548556.70000000112
 20
5746498.36000000034
  0
SEQEND
  5
515
100
AcDbEntity
  8
Dzialki
  0
POLYLINE
  5
516
100
AcDbEntity
  8
Dzialki
  6
CONTINUOUS
370
18
100
AcDb2dPolyline
 66
1
 70
128
  0
VERTEX
  5
517
100
AcDbEntity
  8
Dzialki
100
AcDbVertex
100
AcDb2dVertex
 10
7548556.70000000112
 20
5746498.36000000034
  0
VERTEX
  5
518
100
AcDbEntity
  8
Dzialki
100
AcDbVertex
100
AcDb2dVertex
 10
7548641.9299999997
 20
5746385.88000000082
  0
SEQEND
  5
519
100
AcDbEntity
  8
Dzialki
  0
POLYLINE
  5
51A
100
AcDbEntity
  8
Dzialki
  6
CONTINUOUS
370
18
100
AcDb2dPolyline
 66
1
 70
128
  0
VERTEX
  5
51B
100
AcDbEntity
  8
Dzialki
100
AcDbVertex
100
AcDb2dVertex
 10
7548646.30999999959
 20
5746380.10000000056
  0
VERTEX
  5
51C
100
AcDbEntity
  8
Dzialki
100
AcDbVertex
100
AcDb2dVertex
 10
7548656.84000000078
 20
5746366.43000000063
  0
SEQEND
  5
51D
100
AcDbEntity
  8
Dzialki
  0
POLYLINE
  5
51E
100
AcDbEntity
  8
Dzialki
  6
CONTINUOUS
370
18
100
AcDb2dPolyline
 66
1
 70
128
  0
VERTEX
  5
51F
100
AcDbEntity
  8
Dzialki
100
AcDbVertex
100
AcDb2dVertex
 10
7548656.84000000078
 20
5746366.43000000063
  0
VERTEX
  5
520
100
AcDbEntity
  8
Dzialki
100
AcDbVertex
100
AcDb2dVertex
 10
7548682.39999999944
 20
5746333.24000000022
  0
SEQEND
  5
521
100
AcDbEntity
  8
Dzialki
  0
POLYLINE
  5
522
100
AcDbEntity
  8
Dzialki
  6
CONTINUOUS
370
18
100
AcDb2dPolyline
 66
1
 70
128
  0
VERTEX
  5
523
100
AcDbEntity
  8
Dzialki
100
AcDbVertex
100
AcDb2dVertex
 10
7548682.39999999944
 20
5746333.24000000022
  0
VERTEX
  5
524
100
AcDbEntity
  8
Dzialki
100
AcDbVertex
100
AcDb2dVertex
 10
7548704.78000000026
 20
5746303.91000000015
  0
SEQEND
  5
525
100
AcDbEntity
  8
Dzialki
  0
POLYLINE
  5
526
100
AcDbEntity
  8
Dzialki
  6
CONTINUOUS
370
18
100
AcDb2dPolyline
 66
1
 70
128
  0
VERTEX
  5
527
100
AcDbEntity
  8
Dzialki
100
AcDbVertex
100
AcDb2dVertex
 10
7548704.78000000026
 20
5746303.91000000015
  0
VERTEX
  5
528
100
AcDbEntity
  8
Dzialki
100
AcDbVertex
100
AcDb2dVertex
 10
7548728.41000000015
 20
5746274.19000000041
  0
SEQEND
  5
529
100
AcDbEntity
  8
Dzialki
  0
POLYLINE
  5
52A
100
AcDbEntity
  8
Dzialki
  6
CONTINUOUS
370
18
100
AcDb2dPolyline
 66
1
 70
128
  0
VERTEX
  5
52B
100
AcDbEntity
  8
Dzialki
100
AcDbVertex
100
AcDb2dVertex
 10
7548728.41000000015
 20
5746274.19000000041
  0
VERTEX
  5
52C
100
AcDbEntity
  8
Dzialki
100
AcDbVertex
100
AcDb2dVertex
 10
7548767.15000000037
 20
5746223.75
  0
SEQEND
  5
52D
100
AcDbEntity
  8
Dzialki
  0
POLYLINE
  5
52E
100
AcDbEntity
  8
Dzialki
  6
CONTINUOUS
370
18
100
AcDb2dPolyline
 66
1
 70
128
  0
VERTEX
  5
52F
100
AcDbEntity
  8
Dzialki
100
AcDbVertex
100
AcDb2dVertex
 10
7548767.15000000037
 20
5746223.75
  0
VERTEX
  5
530
100
AcDbEntity
  8
Dzialki
100
AcDbVertex
100
AcDb2dVertex
 10
7548771.44000000041
 20
5746218.10000000056
  0
SEQEND
  5
531
100
AcDbEntity
  8
Dzialki
  0
POLYLINE
  5
532
100
AcDbEntity
  8
Dzialki
  6
CONTINUOUS
370
18
100
AcDb2dPolyline
 66
1
 70
128
  0
VERTEX
  5
533
100
AcDbEntity
  8
Dzialki
100
AcDbVertex
100
AcDb2dVertex
 10
7548771.44000000041
 20
5746218.10000000056
  0
VERTEX
  5
534
100
AcDbEntity
  8
Dzialki
100
AcDbVertex
100
AcDb2dVertex
 10
7548783.40999999922
 20
5746203.23000000045
  0
SEQEND
  5
535
100
AcDbEntity
  8
Dzialki
  0
POLYLINE
  5
536
100
AcDbEntity
  8
Dzialki
  6
CONTINUOUS
370
18
100
AcDb2dPolyline
 66
1
 70
128
  0
VERTEX
  5
537
100
AcDbEntity
  8
Dzialki
100
AcDbVertex
100
AcDb2dVertex
 10
7548783.40999999922
 20
5746203.23000000045
  0
VERTEX
  5
538
100
AcDbEntity
  8
Dzialki
100
AcDbVertex
100
AcDb2dVertex
 10
7548794.03000000026
 20
5746189.1400000006
  0
SEQEND
  5
539
100
AcDbEntity
  8
Dzialki
  0
POLYLINE
  5
53A
100
AcDbEntity
  8
Dzialki
  6
CONTINUOUS
370
18
100
AcDb2dPolyline
 66
1
 70
128
  0
VERTEX
  5
53B
100
AcDbEntity
  8
Dzialki
100
AcDbVertex
100
AcDb2dVertex
 10
7548794.03000000026
 20
5746189.1400000006
  0
VERTEX
  5
53C
100
AcDbEntity
  8
Dzialki
100
AcDbVertex
100
AcDb2dVertex
 10
7548796.79000000004
 20
5746185.5
  0
SEQEND
  5
53D
100
AcDbEntity
  8
Dzialki
  0
POLYLINE
  5
53E
100
AcDbEntity
  8
Dzialki
  6
CONTINUOUS
370
18
100
AcDb2dPolyline
 66
1
 70
128
  0
VERTEX
  5
53F
100
AcDbEntity
  8
Dzialki
100
AcDbVertex
100
AcDb2dVertex
 10
7548796.79000000004
 20
5746185.5
  0
VERTEX
  5
540
100
AcDbEntity
  8
Dzialki
100
AcDbVertex
100
AcDb2dVertex
 10
7548815.80999999959
 20
5746160.63999999966
  0
SEQEND
  5
541
100
AcDbEntity
  8
Dzialki
  0
POLYLINE
  5
542
100
AcDbEntity
  8
Dzialki
  6
CONTINUOUS
370
18
100
AcDb2dPolyline
 66
1
 70
128
  0
VERTEX
  5
543
100
AcDbEntity
  8
Dzialki
100
AcDbVertex
100
AcDb2dVertex
 10
7548815.80999999959
 20
5746160.63999999966
  0
VERTEX
  5
544
100
AcDbEntity
  8
Dzialki
100
AcDbVertex
100
AcDb2dVertex
 10
7548817.19000000041
 20
5746158.76999999955
  0
SEQEND
  5
545
100
AcDbEntity
  8
Dzialki
  0
POLYLINE
  5
546
100
AcDbEntity
  8
Dzialki
  6
CONTINUOUS
370
18
100
AcDb2dPolyline
 66
1
 70
128
  0
VERTEX
  5
547
100
AcDbEntity
  8
Dzialki
100
AcDbVertex
100
AcDb2dVertex
 10
7548817.19000000041
 20
5746158.76999999955
  0
VERTEX
  5
548
100
AcDbEntity
  8
Dzialki
100
AcDbVertex
100
AcDb2dVertex
 10
7548819.91999999899
 20
5746155.26000000071
  0
SEQEND
  5
549
100
AcDbEntity
  8
Dzialki
  0
POLYLINE
  5
54A
100
AcDbEntity
  8
Dzialki
  6
CONTINUOUS
370
18
100
AcDb2dPolyline
 66
1
 70
128
  0
VERTEX
  5
54B
100
AcDbEntity
  8
Dzialki
100
AcDbVertex
100
AcDb2dVertex
 10
7548819.91999999899
 20
5746155.26000000071
  0
VERTEX
  5
54C
100
AcDbEntity
  8
Dzialki
100
AcDbVertex
100
AcDb2dVertex
 10
7548845.9000000013
 20
5746121.30999999773
  0
SEQEND
  5
54D
100
AcDbEntity
  8
Dzialki
  0
POLYLINE
  5
54E
100
AcDbEntity
  8
Dzialki
  6
CONTINUOUS
370
18
100
AcDb2dPolyline
 66
1
 70
128
  0
VERTEX
  5
54F
100
AcDbEntity
  8
Dzialki
100
AcDbVertex
100
AcDb2dVertex
 10
7548845.9000000013
 20
5746121.30999999773
  0
VERTEX
  5
550
100
AcDbEntity
  8
Dzialki
100
AcDbVertex
100
AcDb2dVertex
 10
7548852.1400000006
 20
5746113.15000000037
  0
SEQEND
  5
551
100
AcDbEntity
  8
Dzialki
  0
POLYLINE
  5
552
100
AcDbEntity
  8
Dzialki
  6
CONTINUOUS
370
18
100
AcDb2dPolyline
 66
1
 70
128
  0
VERTEX
  5
553
100
AcDbEntity
  8
Dzialki
100
AcDbVertex
100
AcDb2dVertex
 10
7548852.1400000006
 20
5746113.15000000037
  0
VERTEX
  5
554
100
AcDbEntity
  8
Dzialki
100
AcDbVertex
100
AcDb2dVertex
 10
7548856.16999999899
 20
5746111.20999999996
  0
SEQEND
  5
555
100
AcDbEntity
  8
Dzialki
  0
POLYLINE
  5
556
100
AcDbEntity
  8
Dzialki
  6
CONTINUOUS
370
18
100
AcDb2dPolyline
 66
1
 70
128
  0
VERTEX
  5
557
100
AcDbEntity
  8
Dzialki
100
AcDbVertex
100
AcDb2dVertex
 10
7548856.16999999899
 20
5746111.20999999996
  0
VERTEX
  5
558
100
AcDbEntity
  8
Dzialki
100
AcDbVertex
100
AcDb2dVertex
 10
7548855.08000000101
 20
5746109.3200000003
  0
SEQEND
  5
559
100
AcDbEntity
  8
Dzialki
  0
POLYLINE
  5
55A
100
AcDbEntity
  8
Dzialki
  6
CONTINUOUS
370
18
100
AcDb2dPolyline
 66
1
 70
128
  0
VERTEX
  5
55B
100
AcDbEntity
  8
Dzialki
100
AcDbVertex
100
AcDb2dVertex
 10
7548855.08000000101
 20
5746109.3200000003
  0
VERTEX
  5
55C
100
AcDbEntity
  8
Dzialki
100
AcDbVertex
100
AcDb2dVertex
 10
7548869.71999999974
 20
5746113.47999999952
  0
SEQEND
  5
55D
100
AcDbEntity
  8
Dzialki
  0
POLYLINE
  5
55E
100
AcDbEntity
  8
Dzialki
  6
CONTINUOUS
370
18
100
AcDb2dPolyline
 66
1
 70
128
  0
VERTEX
  5
55F
100
AcDbEntity
  8
Dzialki
100
AcDbVertex
100
AcDb2dVertex
 10
7548869.71999999974
 20
5746113.47999999952
  0
VERTEX
  5
560
100
AcDbEntity
  8
Dzialki
100
AcDbVertex
100
AcDb2dVertex
 10
7548861.06999999844
 20
5746123.43999999948
  0
SEQEND
  5
561
100
AcDbEntity
  8
Dzialki
  0
POLYLINE
  5
562
100
AcDbEntity
  8
Dzialki
  6
CONTINUOUS
370
18
100
AcDb2dPolyline
 66
1
 70
128
  0
VERTEX
  5
563
100
AcDbEntity
  8
Dzialki
100
AcDbVertex
100
AcDb2dVertex
 10
7548861.06999999844
 20
5746123.43999999948
  0
VERTEX
  5
564
100
AcDbEntity
  8
Dzialki
100
AcDbVertex
100
AcDb2dVertex
 10
7548831.00999999978
 20
5746162.37000000104
  0
SEQEND
  5
565
100
AcDbEntity
  8
Dzialki
  0
POLYLINE
  5
566
100
AcDbEntity
  8
Dzialki
  6
CONTINUOUS
370
18
100
AcDb2dPolyline
 66
1
 70
128
  0
VERTEX
  5
567
100
AcDbEntity
  8
Dzialki
100
AcDbVertex
100
AcDb2dVertex
 10
7548831.00999999978
 20
5746162.37000000104
  0
VERTEX
  5
568
100
AcDbEntity
  8
Dzialki
100
AcDbVertex
100
AcDb2dVertex
 10
7548828.36999999918
 20
5746165.79999999888
  0
SEQEND
  5
569
100
AcDbEntity
  8
Dzialki
  0
POLYLINE
  5
56A
100
AcDbEntity
  8
Osie
  6
CONTINUOUS
370
18
100
AcDb2dPolyline
 66
1
 70
128
  0
VERTEX
  5
56B
100
AcDbEntity
  8
Osie
100
AcDbVertex
100
AcDb2dVertex
 10
7548315.68195575755
 20
5746567.95972068608
  0
VERTEX
  5
56C
100
AcDbEntity
  8
Osie
100
AcDbVertex
100
AcDb2dVertex
 10
7548323.36605966743
 20
5746573.71514973603
  0
SEQEND
  5
56D
100
AcDbEntity
  8
Osie
  0
POLYLINE
  5
56E
100
AcDbEntity
  8
Osie
  6
CONTINUOUS
370
18
100
AcDb2dPolyline
 66
1
 70
128
  0
VERTEX
  5
56F
100
AcDbEntity
  8
Osie
100
AcDbVertex
100
AcDb2dVertex
 10
7548323.36605966743
 20
5746573.71514973603
  0
VERTEX
  5
570
100
AcDbEntity
  8
Osie
100
AcDbVertex
100
AcDb2dVertex
 10
7548329.06025326345
 20
5746566.11200593878
  0
SEQEND
  5
571
100
AcDbEntity
  8
Osie
  0
POLYLINE
  5
572
100
AcDbEntity
  8
Osie
  6
CONTINUOUS
370
18
100
AcDb2dPolyline
 66
1
 70
128
  0
VERTEX
  5
573
100
AcDbEntity
  8
Osie
100
AcDbVertex
100
AcDb2dVertex
 10
7548317.72018625122
 20
5746565.23864063341
  0
VERTEX
  5
574
100
AcDbEntity
  8
Osie
100
AcDbVertex
100
AcDb2dVertex
 10
7548325.40418625157
 20
5746570.9936406333
  0
SEQEND
  5
575
100
AcDbEntity
  8
Osie
  0
POLYLINE
  5
576
100
AcDbEntity
  8
Osie
  6
CONTINUOUS
370
18
100
AcDb2dPolyline
 66
1
 70
128
  0
VERTEX
  5
577
100
AcDbEntity
  8
Osie
100
AcDbVertex
100
AcDb2dVertex
 10
7548319.6382929422
 20
5746562.67772059608
  0
VERTEX
  5
578
100
AcDbEntity
  8
Osie
100
AcDbVertex
100
AcDb2dVertex
 10
7548327.32229294255
 20
5746568.43272059597
  0
SEQEND
  5
579
100
AcDbEntity
  8
Osie
  0
POLYLINE
  5
57A
100
AcDbEntity
  8
Osie
  6
CONTINUOUS
370
18
100
AcDb2dPolyline
 66
1
 70
128
  0
VERTEX
  5
57B
100
AcDbEntity
  8
Osie
100
AcDbVertex
100
AcDb2dVertex
 10
7548321.37645297963
 20
5746560.35684054066
  0
VERTEX
  5
57C
100
AcDbEntity
  8
Osie
100
AcDbVertex
100
AcDb2dVertex
 10
7548329.06045297906
 20
5746566.11184054054
  0
SEQEND
  5
57D
100
AcDbEntity
  8
Osie
  0
POLYLINE
  5
57E
100
AcDbEntity
  8
Osie
  6
CONTINUOUS
370
18
100
AcDb2dPolyline
 66
1
 70
128
  0
VERTEX
  5
57F
100
AcDbEntity
  8
Osie
100
AcDbVertex
100
AcDb2dVertex
 10
7548321.76516659744
 20
5746572.51611200906
  0
VERTEX
  5
580
100
AcDbEntity
  8
Osie
100
AcDbVertex
100
AcDb2dVertex
 10
7548327.45916659664
 20
5746564.91311200894
  0
SEQEND
  5
581
100
AcDbEntity
  8
Osie
  0
POLYLINE
  5
582
100
AcDbEntity
  8
Osie
  6
CONTINUOUS
370
18
100
AcDb2dPolyline
 66
1
 70
128
  0
VERTEX
  5
583
100
AcDbEntity
  8
Osie
100
AcDbVertex
100
AcDb2dVertex
 10
7548318.52331235819
 20
5746570.08825181797
  0
VERTEX
  5
584
100
AcDbEntity
  8
Osie
100
AcDbVertex
100
AcDb2dVertex
 10
7548324.21731235832
 20
5746562.48525181785
  0
SEQEND
  5
585
100
AcDbEntity
  8
Osie
  0
POLYLINE
  5
586
100
AcDbEntity
  8
Osie
  6
CONTINUOUS
370
18
100
AcDb2dPolyline
 66
1
 70
128
  0
VERTEX
  5
587
100
AcDbEntity
  8
Osie
100
AcDbVertex
100
AcDb2dVertex
 10
7548315.68152070977
 20
5746567.95997381583
  0
VERTEX
  5
588
100
AcDbEntity
  8
Osie
100
AcDbVertex
100
AcDb2dVertex
 10
7548321.3755207099
 20
5746560.35697381571
  0
SEQEND
  5
589
100
AcDbEntity
  8
Osie
  0
POLYLINE
  5
58A
100
AcDbEntity
  8
Osie
  6
CONTINUOUS
370
18
100
AcDb2dPolyline
 66
1
 70
128
  0
VERTEX
  5
58B
100
AcDbEntity
  8
Osie
100
AcDbVertex
100
AcDb2dVertex
 10
7548319.12874637917
 20
5746563.35806043725
  0
VERTEX
  5
58C
100
AcDbEntity
  8
Osie
100
AcDbVertex
100
AcDb2dVertex
 10
7548326.81274637952
 20
5746569.11306043714
  0
SEQEND
  5
58D
100
AcDbEntity
  8
Osie
  0
POINT
  5
58E
100
AcDbEntity
  8
Dzialki
100
AcDbPoint
 62
256
 10
7548363.58999999985
 20
5746615.5
  0
POINT
  5
58F
100
AcDbEntity
  8
Dzialki
100
AcDbPoint
 62
256
 10
7548278.29000000004
 20
5746551.59999999963
  0
POINT
  5
590
100
AcDbEntity
  8
Dzialki
100
AcDbPoint
 62
256
 10
7548444.55999999959
 20
5746646.16000000015
  0
POINT
  5
591
100
AcDbEntity
  8
Dzialki
100
AcDbPoint
 62
256
 10
7548287.51999999955
 20
5746528.62999999989
  0
POINT
  5
592
100
AcDbEntity
  8
Dzialki
100
AcDbPoint
 62
256
 10
7548430.21999999974
 20
5746665.41999999993
  0
POINT
  5
593
100
AcDbEntity
  8
Dzialki
100
AcDbPoint
 62
256
 10
7548315.22706206236
 20
5746568.02483759634
  0
POINT
  5
594
100
AcDbEntity
  8
Dzialki
100
AcDbPoint
 62
256
 10
7548321.8298342051
 20
5746572.97113924846
  0
POINT
  5
595
100
AcDbEntity
  8
Dzialki
100
AcDbPoint
 62
256
 10
7548327.91528411582
 20
5746564.84772867244
  0
POINT
  5
596
100
AcDbEntity
  8
Dzialki
100
AcDbPoint
 62
256
 10
7548321.31251197308
 20
5746559.90142702125
  0
POINT
  5
597
100
AcDbEntity
  8
Dzialki
100
AcDbPoint
 62
256
 10
7548281.0191824846
 20
5746553.64448723011
  0
POINT
  5
598
100
AcDbEntity
  8
Dzialki
100
AcDbPoint
 62
256
 10
7548323.23881779332
 20
5746575.2998295743
  0
POINT
  5
599
100
AcDbEntity
  8
Dzialki
100
AcDbPoint
 62
256
 10
7548323.85080000013
 20
5746574.48560000025
  0
TEXT
  5
59A
100
AcDbEntity
  8
Osie
370
18
100
AcDbText
 10
7548323.99836705532
 20
5746572.49564936012
 40
0.45
  1
1
 50
0.00
 41
0.66
  7
STANDARD
 72
1
 11
7548324.11086705513
 21
5746572.72064935975
100
AcDbText
 73
2
  0
TEXT
  5
59B
100
AcDbEntity
  8
Osie
370
18
100
AcDbText
 10
7548328.5733766593
 20
5746566.38689044584
 40
0.45
  1
1
 50
0.00
 41
0.66
  7
STANDARD
 72
1
 11
7548328.68587665912
 21
5746566.61189044546
100
AcDbText
 73
2
  0
TEXT
  5
59C
100
AcDbEntity
  8
Osie
370
18
100
AcDbText
 10
7548321.23749999609
 20
5746572.91499999724
 40
0.45
  1
2
 50
0.00
 41
0.66
  7
STANDARD
 72
1
 11
7548321.3499999959
 21
5746573.13999999687
100
AcDbText
 73
2
  0
TEXT
  5
59D
100
AcDbEntity
  8
Osie
370
18
100
AcDbText
 10
7548327.88749999646
 20
5746563.95499999728
 40
0.45
  1
2
 50
0.00
 41
0.66
  7
STANDARD
 72
1
 11
7548327.99999999627
 21
5746564.17999999691
100
AcDbText
 73
2
  0
TEXT
  5
59E
100
AcDbEntity
  8
Osie
370
18
100
AcDbText
 10
7548317.70749999676
 20
5746570.83499999717
 40
0.45
  1
3
 50
0.00
 41
0.66
  7
STANDARD
 72
1
 11
7548317.81999999657
 21
5746571.0599999968
100
AcDbText
 73
2
  0
TEXT
  5
59F
100
AcDbEntity
  8
Osie
370
18
100
AcDbText
 10
7548324.75749999657
 20
5746561.18499999773
 40
0.45
  1
3
 50
0.00
 41
0.66
  7
STANDARD
 72
1
 11
7548324.86999999639
 21
5746561.40999999736
100
AcDbText
 73
2
  0
TEXT
  5
5A0
100
AcDbEntity
  8
Osie
370
18
100
AcDbText
 10
7548314.9974999968
 20
5746568.62499999721
 40
0.45
  1
4
 50
0.00
 41
0.66
  7
STANDARD
 72
1
 11
7548315.10999999661
 21
5746568.84999999683
100
AcDbText
 73
2
  0
TEXT
  5
5A1
100
AcDbEntity
  8
Osie
370
18
100
AcDbText
 10
7548321.91749999672
 20
5746559.41499999724
 40
0.45
  1
4
 50
0.00
 41
0.66
  7
STANDARD
 72
1
 11
7548322.02999999654
 21
5746559.63999999687
100
AcDbText
 73
2
  0
TEXT
  5
5A2
100
AcDbEntity
  8
Osie
370
18
100
AcDbText
 10
7548314.6774999965
 20
5746567.30499999784
 40
0.45
  1
A
 50
0.00
 41
0.66
  7
STANDARD
 72
1
 11
7548314.78999999631
 21
5746567.52999999747
100
AcDbText
 73
2
  0
TEXT
  5
5A3
100
AcDbEntity
  8
Osie
370
18
100
AcDbText
 10
7548323.6774999965
 20
5746573.84499999788
 40
0.45
  1
A
 50
0.00
 41
0.66
  7
STANDARD
 72
1
 11
7548323.78999999631
 21
5746574.0699999975
100
AcDbText
 73
2
  0
TEXT
  5
5A4
100
AcDbEntity
  8
Osie
370
18
100
AcDbText
 10
7548316.63749999646
 20
5746564.55499999784
 40
0.45
  1
B
 50
0.00
 41
0.66
  7
STANDARD
 72
1
 11
7548316.74999999627
 21
5746564.77999999747
100
AcDbText
 73
2
  0
TEXT
  5
5A5
100
AcDbEntity
  8
Osie
370
18
100
AcDbText
 10
7548326.30749999639
 20
5746571.4449999975
 40
0.45
  1
B
 50
0.00
 41
0.66
  7
STANDARD
 72
1
 11
7548326.4199999962
 21
5746571.66999999713
100
AcDbText
 73
2
  0
TEXT
  5
5A6
100
AcDbEntity
  8
Osie
370
18
100
AcDbText
 10
7548318.20749999676
 20
5746562.73499999754
 40
0.45
  1
C
 50
0.00
 41
0.66
  7
STANDARD
 72
1
 11
7548318.31999999657
 21
5746562.95999999717
100
AcDbText
 73
2
  0
TEXT
  5
5A7
100
AcDbEntity
  8
Osie
370
18
100
AcDbText
 10
7548327.51749999635
 20
5746569.33499999717
 40
0.45
  1
C
 50
0.00
 41
0.66
  7
STANDARD
 72
1
 11
7548327.62999999616
 21
5746569.5599999968
100
AcDbText
 73
2
  0
TEXT
  5
5A8
100
AcDbEntity
  8
Osie
370
18
100
AcDbText
 10
7548318.89749999624
 20
5746561.84499999788
 40
0.45
  1
D
 50
0.00
 41
0.66
  7
STANDARD
 72
1
 11
7548319.00999999605
 21
5746562.0699999975
100
AcDbText
 73
2
  0
TEXT
  5
5A9
100
AcDbEntity
  8
Osie
370
18
100
AcDbText
 10
7548327.91749999672
 20
5746568.70499999728
 40
0.45
  1
D
 50
0.00
 41
0.66
  7
STANDARD
 72
1
 11
7548328.02999999654
 21
5746568.92999999691
100
AcDbText
 73
2
  0
TEXT
  5
5AA
100
AcDbEntity
  8
Osie
370
18
100
AcDbText
 10
7548320.51749999635
 20
5746559.64499999769
 40
0.45
  1
E
 50
0.00
 41
0.66
  7
STANDARD
 72
1
 11
7548320.62999999616
 21
5746559.86999999732
100
AcDbText
 73
2
  0
TEXT
  5
5AB
100
AcDbEntity
  8
Osie
370
18
100
AcDbText
 10
7548329.58749999665
 20
5746566.32499999739
 40
0.45
  1
E
 50
0.00
 41
0.66
  7
STANDARD
 72
1
 11
7548329.69999999646
 21
5746566.54999999702
100
AcDbText
 73
2
  0
TEXT
  5
5AC
100
AcDbEntity
  8
Osie
370
15
100
AcDbText
 10
7548320.173945616
 20
5746562.08690673206
 40
0.38
  1
-2.900-
 50
-53.20
 41
0.66
  7
STANDARD
 72
1
 11
7548320.4669634318
 21
5746561.48654882051
100
AcDbText
 73
1
  0
TEXT
  5
5AD
100
AcDbEntity
  8
Osie
370
15
100
AcDbText
 10
7548326.25694561563
 20
5746566.64390673209
 40
0.38
  1
-2.900-
 50
-53.20
 41
0.66
  7
STANDARD
 72
1
 11
7548326.54996343143
 21
5746566.04354882054
100
AcDbText
 73
1
  0
TEXT
  5
5AE
100
AcDbEntity
  8
Osie
370
15
100
AcDbText
 10
7548319.37389076501
 20
5746563.82047996391
 40
0.38
  1
-0.851-
 50
-53.20
 41
0.66
  7
STANDARD
 72
1
 11
7548319.66690858081
 21
5746563.22012205236
100
AcDbText
 73
1
  0
TEXT
  5
5AF
100
AcDbEntity
  8
Osie
370
15
100
AcDbText
 10
7548318.34594561532
 20
5746564.5279067317
 40
0.38
  1
-3.200-
 50
-53.20
 41
0.66
  7
STANDARD
 72
1
 11
7548318.63896343112
 21
5746563.92754882015
100
AcDbText
 73
1
  0
TEXT
  5
5B0
100
AcDbEntity
  8
Osie
370
15
100
AcDbText
 10
7548316.3809358906
 20
5746567.17871797178
 40
0.38
  1
-3.401-
 50
-53.60
 41
0.66
  7
STANDARD
 72
1
 11
7548316.66975530982
 21
5746566.57632905617
100
AcDbText
 73
1
  0
TEXT
  5
5B1
100
AcDbEntity
  8
Osie
370
15
100
AcDbText
 10
7548322.45094561577
 20
5746571.72590673249
 40
0.38
  1
-3.400-
 50
-53.20
 41
0.66
  7
STANDARD
 72
1
 11
7548322.74396343157
 21
5746571.12554882094
100
AcDbText
 73
1
  0
TEXT
  5
5B2
100
AcDbEntity
  8
Osie
370
15
100
AcDbText
 10
7548324.17444561608
 20
5746569.42490673158
 40
0.38
  1
-2.350-
 50
-53.20
 41
0.66
  7
STANDARD
 72
1
 11
7548324.46746343188
 21
5746568.82454882003
100
AcDbText
 73
1
  0
TEXT
  5
5B3
100
AcDbEntity
  8
Osie
370
15
100
AcDbText
 10
7548325.13344561588
 20
5746568.14440673217
 40
0.38
  1
-0.849-
 50
-53.20
 41
0.66
  7
STANDARD
 72
1
 11
7548325.42646343168
 21
5746567.54404882062
100
AcDbText
 73
1
  0
TEXT
  5
5B4
100
AcDbEntity
  8
Osie
370
15
100
AcDbText
 10
7548316.53109326772
 20
5746568.69094561599
 40
0.38
  1
-3.551-
 50
-323.20
 41
0.66
  7
STANDARD
 72
1
 11
7548317.13145117927
 21
5746568.98396343179
100
AcDbText
 73
1
  0
TEXT
  5
5B5
100
AcDbEntity
  8
Osie
370
15
100
AcDbText
 10
7548319.57359326724
 20
5746570.96894561592
 40
0.38
  1
-4.050-
 50
-323.20
 41
0.66
  7
STANDARD
 72
1
 11
7548320.17395117879
 21
5746571.26196343172
100
AcDbText
 73
1
  0
TEXT
  5
5B6
100
AcDbEntity
  8
Osie
370
15
100
AcDbText
 10
7548321.99509326834
 20
5746572.78244561516
 40
0.38
  1
-2.000-
 50
-323.20
 41
0.66
  7
STANDARD
 72
1
 11
7548322.59545117989
 21
5746573.07546343096
100
AcDbText
 73
1
  0
TEXT
  5
5B7
100
AcDbEntity
  8
Osie
370
15
100
AcDbText
 10
7548327.68909326754
 20
5746565.17944561504
 40
0.38
  1
-2.000-
 50
-323.20
 41
0.66
  7
STANDARD
 72
1
 11
7548328.28945117909
 21
5746565.47246343084
100
AcDbText
 73
1
  0
TEXT
  5
5B8
100
AcDbEntity
  8
Osie
370
15
100
AcDbText
 10
7548325.25270857569
 20
5746563.38743597269
 40
0.38
  1
-4.050-
 50
-323.70
 41
0.66
  7
STANDARD
 72
1
 11
7548325.8556006588
 21
5746563.675203586
100
AcDbText
 73
1
  0
TEXT
  5
5B9
100
AcDbEntity
  8
Osie
370
15
100
AcDbText
 10
7548322.2265932681
 20
5746561.08744561579
 40
0.38
  1
-3.551-
 50
-323.20
 41
0.66
  7
STANDARD
 72
1
 11
7548322.82695117965
 21
5746561.38046343159
100
AcDbText
 73
1
  0
ENDSEC
  0
SECTION
  2
OBJECTS
  0
DICTIONARY
  5
5BA
330
0
100
AcDbDictionary
280
0
281
1
  3
ACAD_GROUP
350
5BB
  3
ACAD_LAYOUT
350
5BC
  3
ACAD_MLINESTYLE
350
5BD
  3
ACAD_PLOTSETTINGS
350
5BE
  3
ACAD_PLOTSTYLENAME
350
5BF
  0
DICTIONARY
  5
5BB
102
{ACAD_REACTORS
330
5BA
102
}
330
5BA
100
AcDbDictionary
280
0
281
1
  0
DICTIONARY
  5
5BC
102
{ACAD_REACTORS
330
5BA
102
}
330
5BA
100
AcDbDictionary
280
0
281
1
  3
Layout
350
19
  3
Model
350
17
  0
DICTIONARY
  5
5BD
102
{ACAD_REACTORS
330
5BA
102
}
330
5BA
100
AcDbDictionary
280
0
281
1
  3
Standard
350
5C0
  0
DICTIONARY
  5
5BE
102
{ACAD_REACTORS
330
5BA
102
}
330
5BA
100
AcDbDictionary
280
0
281
1
  0
ACDBDICTIONARYWDFLT
  5
5BF
102
{ACAD_REACTORS
330
5BA
102
}
330
5BA
100
AcDbDictionary
281
1
  3
Normal
350
9
100
AcDbDictionaryWithDefault
340
9
  0
LAYOUT
  5
19
100
AcDbPlotSettings
  1

  2

  4

  6

 40
0.0
 41
0.0
 42
0.0
 43
0.0
 44
0.0
 45
0.0
 46
0.0
 47
0.0
 48
0.0
 49
0.0
140
0.0
141
0.0
142
1.0
143
1.0
 70
688
 72
1
 73
0
 74
5
  7

 75
0
147
1.0
148
0.0
149
0.0
100
AcDbLayout
  1
Layout
 70
1
 71
1
 10
0.0
 20
0.0
 11
420.0
 21
297.0
 12
0.0
 22
0.0
 32
0.0
 14
100000000000000000000.0
 24
100000000000000000000.0
 34
100000000000000000000.0
 15
-100000000000000000000.0
 25
-100000000000000000000.0
 35
-100000000000000000000.0
146
0.0
 13
0.0
 23
0.0
 33
0.0
 16
1.0
 26
0.0
 36
0.0
 17
0.0
 27
1.0
 37
0.0
 76
0
330
18
  0
LAYOUT
  5
17
100
AcDbPlotSettings
  1

  2

  4

  6

 40
0.0
 41
0.0
 42
0.0
 43
0.0
 44
0.0
 45
0.0
 46
0.0
 47
0.0
 48
0.0
 49
0.0
140
0.0
141
0.0
142
1.0
143
1.0
 70
1712
 72
1
 73
0
 74
0
  7

 75
0
147
1.0
148
0.0
149
0.0
100
AcDbLayout
  1
Model
 70
1
 71
0
 10
0.0
 20
0.0
 11
12.0
 21
9.0
 12
0.0
 22
0.0
 32
0.0
 14
0.0
 24
0.0
 34
0.0
 15
0.0
 25
0.0
 35
0.0
146
0.0
 13
0.0
 23
0.0
 33
0.0
 16
1.0
 26
0.0
 36
0.0
 17
0.0
 27
1.0
 37
0.0
 76
0
330
16
  0
MLINESTYLE
  5
5C0
102
{ACAD_REACTORS
330
5BD
102
}
330
5BD
100
AcDbMlineStyle
  2
Standard
 70
0
  3

 62
256
 51
90.0
 52
90.0
  2
Standard
 71
2
 49
0.5
 62
256
  6
ByLayer
 49
-0.5
 62
256
  6
ByLayer
  0
ACDBPLACEHOLDER
  5
9
  0
ENDSEC
  0
EOF
