  0
SECTION
  2
HEADER
  9
$ACADVER
  1
AC1018
  9
$HANDSEED
  5
FFFFFF
  9
$EXTMAX
 10
7565828.04999999981
 20
5719421.16999999993
 30
1000000.00
  9
$EXTMIN
 10
7565085.95999999996
 20
5718673.79999999981
 30
0.00
  9
$LIMMIN
 10
7565085.95999999996
 20
5718673.79999999981
  9
$LIMMAX
 10
7565828.04999999981
 20
5719421.16999999993
  9
$DIMASZ
 40
2.5
  9
$DIMGAP
 40
0.625
  9
$INSUNITS
 70
6
  9
$DIMEXO
 40
0.625
  9
$DIMTXT
 40
2.5
  9
$DIMSTYLE
  2
Standard
  9
$PLIMMIN
 10
0.0
 20
0.0
  9
$PLIMMAX
 10
210.0
 20
297.0
  9
$DIMEXE
 40
1.25
  9
$TEXTSIZE
 40
2.5
  9
$TEXTSTYLE
  7
Standard
  9
$LWDISPLAY
290
1
  9
$TDCREATE
 40
44400.314047326
  9
$TDUCREATE
 40
44400.230713993
  9
$TDUPDATE
 40
44400.314047326
  9
$TDUUPDATE
 40
44400.230713993
  9
$TDINDWG
 40
0.0
  9
$TDUSRTIMER
 40
0.0
  9
$USRTIMER
 70
1
  0
ENDSEC
  0
SECTION
  2
TABLES
  0
TABLE
  2
VPORT
  5
1
100
AcDbSymbolTable
 70
1
  0
VPORT
  5
2
100
AcDbSymbolTableRecord
100
AcDbViewportTableRecord
  2
*ACTIVE
 70
0
 10
0.0
 20
0.0
 11
1.0
 21
1.0
 12
7565457.00
 22
5719047.48
 13
0.0
 23
0.0
 14
1.0
 24
1.0
 15
0.0
 25
0.0
 16
0.0
 26
0.0
 36
1.0
 17
0.0
 27
0.0
 37
0.0
 40
747.37
 41
0.99
 42
50.0
 43
0.0
 44
0.0
 50
0.0
 51
0.0
 71
0
 72
100
 73
1
 74
1
 75
0
 76
0
 77
0
 78
0
  0
ENDTAB
  0
TABLE
  2
LTYPE
  5
3
100
AcDbSymbolTable
 70
3
  0
LTYPE
  5
4
100
AcDbSymbolTableRecord
100
AcDbLinetypeTableRecord
  2
ByBlock
 70
0
  3

 72
65
 73
0
 40
0.0
  0
LTYPE
  5
5
100
AcDbSymbolTableRecord
100
AcDbLinetypeTableRecord
  2
ByLayer
 70
0
  3

 72
65
 73
0
 40
0.0
  0
LTYPE
  5
6
100
AcDbSymbolTableRecord
100
AcDbLinetypeTableRecord
  2
CONTINUOUS
 70
0
  3
Solid line
 72
65
 73
0
 40
0.0
  0
ENDTAB
  0
TABLE
  2
LAYER
  5
7
100
AcDbSymbolTable
 70
25
  0
LAYER
  5
8
100
AcDbSymbolTableRecord
100
AcDbLayerTableRecord
  2
0
 70
0
420
0
  6
CONTINUOUS
370
18
390
9
  0
LAYER
  5
A
100
AcDbSymbolTableRecord
100
AcDbLayerTableRecord
  2
MK_KAN_DESZ_OPIS
 70
0
420
16760576
  6
CONTINUOUS
370
35
390
9
  0
LAYER
  5
B
100
AcDbSymbolTableRecord
100
AcDbLayerTableRecord
  2
MK_KAN_DESZ_PION
 70
0
420
16760576
  6
CONTINUOUS
370
35
390
9
  0
LAYER
  5
C
100
AcDbSymbolTableRecord
100
AcDbLayerTableRecord
  2
MK_KAN_DESZ_PLYTA
 70
0
420
16760576
  6
CONTINUOUS
370
35
390
9
  0
LAYER
  5
D
100
AcDbSymbolTableRecord
100
AcDbLayerTableRecord
  2
MK_KAN_RZEDNE
 70
0
420
16711680
  6
CONTINUOUS
370
18
390
9
  0
LAYER
  5
E
100
AcDbSymbolTableRecord
100
AcDbLayerTableRecord
  2
MK_KAN_SAN_OPIS
 70
0
420
16711935
  6
CONTINUOUS
370
13
390
9
  0
LAYER
  5
F
100
AcDbSymbolTableRecord
100
AcDbLayerTableRecord
  2
MK_KAN_SAN_PION
 70
0
420
16711935
  6
CONTINUOUS
370
35
390
9
  0
LAYER
  5
10
100
AcDbSymbolTableRecord
100
AcDbLayerTableRecord
  2
MK_KAN_SAN_PION_0
 70
0
420
16711935
  6
CONTINUOUS
370
35
390
9
  0
LAYER
  5
11
100
AcDbSymbolTableRecord
100
AcDbLayerTableRecord
  2
MK_KAN_SAN_PODP_OPIS
 70
0
420
16711935
  6
CONTINUOUS
370
35
390
9
  0
LAYER
  5
12
100
AcDbSymbolTableRecord
100
AcDbLayerTableRecord
  2
MK_KAN_SAN_PLYTA
 70
0
420
16711935
  6
CONTINUOUS
370
35
390
9
  0
LAYER
  5
13
100
AcDbSymbolTableRecord
100
AcDbLayerTableRecord
  2
MK_KAN_SAN_TROJNIK
 70
0
420
7471257
  6
CONTINUOUS
370
35
390
9
  0
LAYER
  5
14
100
AcDbSymbolTableRecord
100
AcDbLayerTableRecord
  2
MK_KAN_TECHN1_PRZ
 70
0
420
65280
  6
CONTINUOUS
370
35
390
9
  0
LAYER
  5
15
100
AcDbSymbolTableRecord
100
AcDbLayerTableRecord
  2
MK_KAN_TECHN2_POD
 70
0
420
65280
  6
CONTINUOUS
370
35
390
9
  0
LAYER
  5
16
100
AcDbSymbolTableRecord
100
AcDbLayerTableRecord
  2
MK_KAN_TECHN2_PRZ
 70
0
420
65280
  6
CONTINUOUS
370
35
390
9
  0
LAYER
  5
17
100
AcDbSymbolTableRecord
100
AcDbLayerTableRecord
  2
MK_KAN_TECHN3_POD
 70
0
420
65280
  6
CONTINUOUS
370
35
390
9
  0
LAYER
  5
18
100
AcDbSymbolTableRecord
100
AcDbLayerTableRecord
  2
MK_KAN_TECHN3_PRZ
 70
0
420
65280
  6
CONTINUOUS
370
35
390
9
  0
LAYER
  5
19
100
AcDbSymbolTableRecord
100
AcDbLayerTableRecord
  2
MK_KAN_TECHN_OPIS
 70
0
420
65280
  6
CONTINUOUS
370
18
390
9
  0
LAYER
  5
1A
100
AcDbSymbolTableRecord
100
AcDbLayerTableRecord
  2
MK_KAN_TECHN_TROJNIK
 70
0
420
5019904
  6
CONTINUOUS
370
35
390
9
  0
LAYER
  5
1B
100
AcDbSymbolTableRecord
100
AcDbLayerTableRecord
  2
MK_KAN_TECH_OPIS
 70
0
420
65280
  6
CONTINUOUS
370
18
390
9
  0
LAYER
  5
1C
100
AcDbSymbolTableRecord
100
AcDbLayerTableRecord
  2
SV_KAN_PODEJSCIA_KS_2021
 70
0
420
16711935
  6
CONTINUOUS
370
35
390
9
  0
LAYER
  5
1D
100
AcDbSymbolTableRecord
100
AcDbLayerTableRecord
  2
SV_KAN_PODEJSCIA_tech_2021
 70
0
420
65280
  6
CONTINUOUS
370
35
390
9
  0
LAYER
  5
1E
100
AcDbSymbolTableRecord
100
AcDbLayerTableRecord
  2
SV_KAN_PRZEWODY_KS_2021
 70
0
420
16711935
  6
CONTINUOUS
370
35
390
9
  0
LAYER
  5
1F
100
AcDbSymbolTableRecord
100
AcDbLayerTableRecord
  2
SV_KAN_PRZEWODY_tech_2021
 70
0
420
65280
  6
CONTINUOUS
370
35
390
9
  0
LAYER
  5
20
100
AcDbSymbolTableRecord
100
AcDbLayerTableRecord
  2
SV_POMOC
 70
0
420
16776960
  6
CONTINUOUS
370
18
390
9
  0
LAYER
  5
21
100
AcDbSymbolTableRecord
100
AcDbLayerTableRecord
  2
SV_PRZEBICIA_SCIANA_FUND
 70
0
420
16711680
  6
CONTINUOUS
370
25
390
9
  0
ENDTAB
  0
TABLE
  2
STYLE
  5
22
100
AcDbSymbolTable
 70
3
  0
STYLE
  5
23
100
AcDbSymbolTableRecord
100
AcDbTextStyleTableRecord
  2
STANDARD
 70
0
 40
0.0
 41
1.0
 50
0.0
 71
0
  3
simplex.shx
  4

  0
STYLE
  5
24
100
AcDbSymbolTableRecord
100
AcDbTextStyleTableRecord
  2
STANDARD_ITALIC
 70
0
 40
0.0
 41
1.0
 50
15.0
 71
0
  3
simplex.shx
  4

  0
STYLE
  5
25
100
AcDbSymbolTableRecord
100
AcDbTextStyleTableRecord
  2
arial.ttf
 70
0
 40
0.0
 41
1.0
 50
0.0
 71
0
  3
arial.ttf.ttf
  4

  0
ENDTAB
  0
TABLE
  2
VIEW
  5
26
100
AcDbSymbolTable
 70
0
  0
ENDTAB
  0
TABLE
  2
UCS
  5
27
100
AcDbSymbolTable
 70
0
  0
ENDTAB
  0
TABLE
  2
APPID
  5
28
100
AcDbSymbolTable
 70
1
  0
APPID
  5
29
100
AcDbSymbolTableRecord
100
AcDbRegAppTableRecord
  2
ACAD
 70
0
  0
ENDTAB
  0
TABLE
  2
DIMSTYLE
  5
2A
100
AcDbSymbolTable
 70
1
100
AcDbDimStyleTable
  0
DIMSTYLE
105
2B
100
AcDbSymbolTableRecord
100
AcDbDimStyleTableRecord
  2
Standard
 70
0
340
23
  0
ENDTAB
  0
TABLE
  2
BLOCK_RECORD
  5
2C
100
AcDbSymbolTable
 70
2
  0
BLOCK_RECORD
  5
2D
100
AcDbSymbolTableRecord
100
AcDbBlockTableRecord
  2
*Model_Space
340
2E
  0
BLOCK_RECORD
  5
2F
100
AcDbSymbolTableRecord
100
AcDbBlockTableRecord
  2
*Paper_Space
340
30
  0
ENDTAB
  0
ENDSEC
  0
SECTION
  2
BLOCKS
  0
BLOCK
  5
31
100
AcDbEntity
  8
0
100
AcDbBlockBegin
  2
*Model_Space
 70
0
 10
0.0
 20
0.0
 30
0.0
  3
*Model_Space
  1

  0
ENDBLK
  5
32
100
AcDbEntity
  8
0
100
AcDbBlockEnd
  0
BLOCK
  5
33
100
AcDbEntity
 67
1
  8
0
100
AcDbBlockBegin
  2
*Paper_Space
 70
0
 10
0.0
 20
0.0
 30
0.0
  3
*Paper_Space
  1

  0
ENDBLK
  5
34
100
AcDbEntity
 67
1
  8
0
100
AcDbBlockEnd
  0
ENDSEC
  0
SECTION
  2
ENTITIES
  0
POLYLINE
  5
35
100
AcDbEntity
  8
MK_KAN_DESZ_OPIS
  6
CONTINUOUS
370
35
100
AcDb2dPolyline
 66
1
 70
128
  0
VERTEX
  5
36
100
AcDbEntity
  8
MK_KAN_DESZ_OPIS
100
AcDbVertex
100
AcDb2dVertex
 10
7565470.18874505535
 20
5719008.13572970033
  0
VERTEX
  5
37
100
AcDbEntity
  8
MK_KAN_DESZ_OPIS
100
AcDbVertex
100
AcDb2dVertex
 10
7565470.62440076843
 20
5719004.47110837605
  0
SEQEND
  5
38
100
AcDbEntity
  8
MK_KAN_DESZ_OPIS
  0
POLYLINE
  5
39
100
AcDbEntity
  8
MK_KAN_DESZ_OPIS
  6
CONTINUOUS
370
35
100
AcDb2dPolyline
 66
1
 70
128
  0
VERTEX
  5
3A
100
AcDbEntity
  8
MK_KAN_DESZ_OPIS
100
AcDbVertex
100
AcDb2dVertex
 10
7565473.4576066453
 20
5718980.63892542012
  0
VERTEX
  5
3B
100
AcDbEntity
  8
MK_KAN_DESZ_OPIS
100
AcDbVertex
100
AcDb2dVertex
 10
7565472.76189628988
 20
5718979.5324086491
  0
SEQEND
  5
3C
100
AcDbEntity
  8
MK_KAN_DESZ_OPIS
  0
POLYLINE
  5
3D
100
AcDbEntity
  8
MK_KAN_DESZ_OPIS
  6
CONTINUOUS
370
35
100
AcDb2dPolyline
 66
1
 70
128
  0
VERTEX
  5
3E
100
AcDbEntity
  8
MK_KAN_DESZ_OPIS
100
AcDbVertex
100
AcDb2dVertex
 10
7565473.02195093222
 20
5718984.3035467444
  0
VERTEX
  5
3F
100
AcDbEntity
  8
MK_KAN_DESZ_OPIS
100
AcDbVertex
100
AcDb2dVertex
 10
7565473.4576066453
 20
5718980.63892542012
  0
SEQEND
  5
40
100
AcDbEntity
  8
MK_KAN_DESZ_OPIS
  0
POLYLINE
  5
41
100
AcDbEntity
  8
MK_KAN_DESZ_OPIS
  6
CONTINUOUS
370
35
100
AcDb2dPolyline
 66
1
 70
128
  0
VERTEX
  5
42
100
AcDbEntity
  8
MK_KAN_DESZ_OPIS
100
AcDbVertex
100
AcDb2dVertex
 10
7565472.74930517655
 20
5718986.59697115887
  0
VERTEX
  5
43
100
AcDbEntity
  8
MK_KAN_DESZ_OPIS
100
AcDbVertex
100
AcDb2dVertex
 10
7565472.05359482113
 20
5718985.49045438878
  0
SEQEND
  5
44
100
AcDbEntity
  8
MK_KAN_DESZ_OPIS
  0
POLYLINE
  5
45
100
AcDbEntity
  8
MK_KAN_DESZ_OPIS
  6
CONTINUOUS
370
35
100
AcDb2dPolyline
 66
1
 70
128
  0
VERTEX
  5
46
100
AcDbEntity
  8
MK_KAN_DESZ_OPIS
100
AcDbVertex
100
AcDb2dVertex
 10
7565472.31364946254
 20
5718990.26159248315
  0
VERTEX
  5
47
100
AcDbEntity
  8
MK_KAN_DESZ_OPIS
100
AcDbVertex
100
AcDb2dVertex
 10
7565472.74930517655
 20
5718986.59697115887
  0
SEQEND
  5
48
100
AcDbEntity
  8
MK_KAN_DESZ_OPIS
  0
POLYLINE
  5
49
100
AcDbEntity
  8
MK_KAN_DESZ_OPIS
  6
CONTINUOUS
370
35
100
AcDb2dPolyline
 66
1
 70
128
  0
VERTEX
  5
4A
100
AcDbEntity
  8
MK_KAN_DESZ_OPIS
100
AcDbVertex
100
AcDb2dVertex
 10
7565472.04100370686
 20
5718992.55501689855
  0
VERTEX
  5
4B
100
AcDbEntity
  8
MK_KAN_DESZ_OPIS
100
AcDbVertex
100
AcDb2dVertex
 10
7565471.34529335145
 20
5718991.44850012753
  0
SEQEND
  5
4C
100
AcDbEntity
  8
MK_KAN_DESZ_OPIS
  0
POLYLINE
  5
4D
100
AcDbEntity
  8
MK_KAN_DESZ_OPIS
  6
CONTINUOUS
370
35
100
AcDb2dPolyline
 66
1
 70
128
  0
VERTEX
  5
4E
100
AcDbEntity
  8
MK_KAN_DESZ_OPIS
100
AcDbVertex
100
AcDb2dVertex
 10
7565471.60534799378
 20
5718996.2196382219
  0
VERTEX
  5
4F
100
AcDbEntity
  8
MK_KAN_DESZ_OPIS
100
AcDbVertex
100
AcDb2dVertex
 10
7565472.04100370686
 20
5718992.55501689855
  0
SEQEND
  5
50
100
AcDbEntity
  8
MK_KAN_DESZ_OPIS
  0
POLYLINE
  5
51
100
AcDbEntity
  8
MK_KAN_DESZ_OPIS
  6
CONTINUOUS
370
35
100
AcDb2dPolyline
 66
1
 70
128
  0
VERTEX
  5
52
100
AcDbEntity
  8
MK_KAN_DESZ_OPIS
100
AcDbVertex
100
AcDb2dVertex
 10
7565471.33270223811
 20
5718998.5130626373
  0
VERTEX
  5
53
100
AcDbEntity
  8
MK_KAN_DESZ_OPIS
100
AcDbVertex
100
AcDb2dVertex
 10
7565470.6369918827
 20
5718997.40654586628
  0
SEQEND
  5
54
100
AcDbEntity
  8
MK_KAN_DESZ_OPIS
  0
POLYLINE
  5
55
100
AcDbEntity
  8
MK_KAN_DESZ_OPIS
  6
CONTINUOUS
370
35
100
AcDb2dPolyline
 66
1
 70
128
  0
VERTEX
  5
56
100
AcDbEntity
  8
MK_KAN_DESZ_OPIS
100
AcDbVertex
100
AcDb2dVertex
 10
7565470.8970465241
 20
5719002.17768396158
  0
VERTEX
  5
57
100
AcDbEntity
  8
MK_KAN_DESZ_OPIS
100
AcDbVertex
100
AcDb2dVertex
 10
7565471.33270223811
 20
5718998.5130626373
  0
SEQEND
  5
58
100
AcDbEntity
  8
MK_KAN_DESZ_OPIS
  0
POLYLINE
  5
59
100
AcDbEntity
  8
MK_KAN_DESZ_OPIS
  6
CONTINUOUS
370
35
100
AcDb2dPolyline
 66
1
 70
128
  0
VERTEX
  5
5A
100
AcDbEntity
  8
MK_KAN_DESZ_OPIS
100
AcDbVertex
100
AcDb2dVertex
 10
7565470.62440076843
 20
5719004.47110837605
  0
VERTEX
  5
5B
100
AcDbEntity
  8
MK_KAN_DESZ_OPIS
100
AcDbVertex
100
AcDb2dVertex
 10
7565469.92869041301
 20
5719003.36459160596
  0
SEQEND
  5
5C
100
AcDbEntity
  8
MK_KAN_DESZ_OPIS
  0
POLYLINE
  5
5D
100
AcDbEntity
  8
MK_KAN_DESZ_OPIS
  6
CONTINUOUS
370
35
100
AcDb2dPolyline
 66
1
 70
128
  0
VERTEX
  5
5E
100
AcDbEntity
  8
MK_KAN_DESZ_OPIS
100
AcDbVertex
100
AcDb2dVertex
 10
7565470.18874505535
 20
5719008.13572970033
  0
VERTEX
  5
5F
100
AcDbEntity
  8
MK_KAN_DESZ_OPIS
100
AcDbVertex
100
AcDb2dVertex
 10
7565470.62440076843
 20
5719004.47110837605
  0
SEQEND
  5
60
100
AcDbEntity
  8
MK_KAN_DESZ_OPIS
  0
POLYLINE
  5
61
100
AcDbEntity
  8
MK_KAN_DESZ_OPIS
  6
CONTINUOUS
370
35
100
AcDb2dPolyline
 66
1
 70
128
  0
VERTEX
  5
62
100
AcDbEntity
  8
MK_KAN_DESZ_OPIS
100
AcDbVertex
100
AcDb2dVertex
 10
7565469.91609929968
 20
5719010.42915411573
  0
VERTEX
  5
63
100
AcDbEntity
  8
MK_KAN_DESZ_OPIS
100
AcDbVertex
100
AcDb2dVertex
 10
7565469.22038894426
 20
5719009.32263734471
  0
SEQEND
  5
64
100
AcDbEntity
  8
MK_KAN_DESZ_OPIS
  0
POLYLINE
  5
65
100
AcDbEntity
  8
MK_KAN_DESZ_OPIS
  6
CONTINUOUS
370
35
100
AcDb2dPolyline
 66
1
 70
128
  0
VERTEX
  5
66
100
AcDbEntity
  8
MK_KAN_DESZ_OPIS
100
AcDbVertex
100
AcDb2dVertex
 10
7565469.48044358566
 20
5719014.09377543908
  0
VERTEX
  5
67
100
AcDbEntity
  8
MK_KAN_DESZ_OPIS
100
AcDbVertex
100
AcDb2dVertex
 10
7565469.91609929968
 20
5719010.42915411573
  0
SEQEND
  5
68
100
AcDbEntity
  8
MK_KAN_DESZ_OPIS
  0
POLYLINE
  5
69
100
AcDbEntity
  8
MK_KAN_DESZ_OPIS
  6
CONTINUOUS
370
35
100
AcDb2dPolyline
 66
1
 70
128
  0
VERTEX
  5
6A
100
AcDbEntity
  8
MK_KAN_DESZ_OPIS
100
AcDbVertex
100
AcDb2dVertex
 10
7565469.20779782999
 20
5719016.38719985448
  0
VERTEX
  5
6B
100
AcDbEntity
  8
MK_KAN_DESZ_OPIS
100
AcDbVertex
100
AcDb2dVertex
 10
7565468.51208747458
 20
5719015.28068308346
  0
SEQEND
  5
6C
100
AcDbEntity
  8
MK_KAN_DESZ_OPIS
  0
POLYLINE
  5
6D
100
AcDbEntity
  8
MK_KAN_DESZ_OPIS
  6
CONTINUOUS
370
35
100
AcDb2dPolyline
 66
1
 70
128
  0
VERTEX
  5
6E
100
AcDbEntity
  8
MK_KAN_DESZ_OPIS
100
AcDbVertex
100
AcDb2dVertex
 10
7565468.77214211691
 20
5719020.05182117876
  0
VERTEX
  5
6F
100
AcDbEntity
  8
MK_KAN_DESZ_OPIS
100
AcDbVertex
100
AcDb2dVertex
 10
7565469.20779782999
 20
5719016.38719985448
  0
SEQEND
  5
70
100
AcDbEntity
  8
MK_KAN_DESZ_OPIS
  0
POLYLINE
  5
71
100
AcDbEntity
  8
MK_KAN_DESZ_OPIS
  6
CONTINUOUS
370
35
100
AcDb2dPolyline
 66
1
 70
128
  0
VERTEX
  5
72
100
AcDbEntity
  8
MK_KAN_DESZ_OPIS
100
AcDbVertex
100
AcDb2dVertex
 10
7565468.49949636124
 20
5719022.34524559323
  0
VERTEX
  5
73
100
AcDbEntity
  8
MK_KAN_DESZ_OPIS
100
AcDbVertex
100
AcDb2dVertex
 10
7565467.80378600582
 20
5719021.23872882314
  0
SEQEND
  5
74
100
AcDbEntity
  8
MK_KAN_DESZ_OPIS
  0
POLYLINE
  5
75
100
AcDbEntity
  8
MK_KAN_DESZ_OPIS
  6
CONTINUOUS
370
35
100
AcDb2dPolyline
 66
1
 70
128
  0
VERTEX
  5
76
100
AcDbEntity
  8
MK_KAN_DESZ_OPIS
100
AcDbVertex
100
AcDb2dVertex
 10
7565468.06384064723
 20
5719026.00986691751
  0
VERTEX
  5
77
100
AcDbEntity
  8
MK_KAN_DESZ_OPIS
100
AcDbVertex
100
AcDb2dVertex
 10
7565468.49949636124
 20
5719022.34524559323
  0
SEQEND
  5
78
100
AcDbEntity
  8
MK_KAN_DESZ_OPIS
  0
POLYLINE
  5
79
100
AcDbEntity
  8
MK_KAN_DESZ_OPIS
  6
CONTINUOUS
370
35
100
AcDb2dPolyline
 66
1
 70
128
  0
VERTEX
  5
7A
100
AcDbEntity
  8
MK_KAN_DESZ_OPIS
100
AcDbVertex
100
AcDb2dVertex
 10
7565467.79119489156
 20
5719028.30329133291
  0
VERTEX
  5
7B
100
AcDbEntity
  8
MK_KAN_DESZ_OPIS
100
AcDbVertex
100
AcDb2dVertex
 10
7565467.09548453614
 20
5719027.19677456189
  0
SEQEND
  5
7C
100
AcDbEntity
  8
MK_KAN_DESZ_OPIS
  0
POLYLINE
  5
7D
100
AcDbEntity
  8
MK_KAN_DESZ_OPIS
  6
CONTINUOUS
370
35
100
AcDb2dPolyline
 66
1
 70
128
  0
VERTEX
  5
7E
100
AcDbEntity
  8
MK_KAN_DESZ_OPIS
100
AcDbVertex
100
AcDb2dVertex
 10
7565467.35553917848
 20
5719031.96791265626
  0
VERTEX
  5
7F
100
AcDbEntity
  8
MK_KAN_DESZ_OPIS
100
AcDbVertex
100
AcDb2dVertex
 10
7565467.79119489156
 20
5719028.30329133291
  0
SEQEND
  5
80
100
AcDbEntity
  8
MK_KAN_DESZ_OPIS
  0
POLYLINE
  5
81
100
AcDbEntity
  8
MK_KAN_DESZ_OPIS
  6
CONTINUOUS
370
35
100
AcDb2dPolyline
 66
1
 70
128
  0
VERTEX
  5
82
100
AcDbEntity
  8
MK_KAN_DESZ_OPIS
100
AcDbVertex
100
AcDb2dVertex
 10
7565467.0828934228
 20
5719034.26133707166
  0
VERTEX
  5
83
100
AcDbEntity
  8
MK_KAN_DESZ_OPIS
100
AcDbVertex
100
AcDb2dVertex
 10
7565466.38718306739
 20
5719033.15482030064
  0
SEQEND
  5
84
100
AcDbEntity
  8
MK_KAN_DESZ_OPIS
  0
POLYLINE
  5
85
100
AcDbEntity
  8
MK_KAN_DESZ_OPIS
  6
CONTINUOUS
370
35
100
AcDb2dPolyline
 66
1
 70
128
  0
VERTEX
  5
86
100
AcDbEntity
  8
MK_KAN_DESZ_OPIS
100
AcDbVertex
100
AcDb2dVertex
 10
7565466.64723770879
 20
5719037.92595839594
  0
VERTEX
  5
87
100
AcDbEntity
  8
MK_KAN_DESZ_OPIS
100
AcDbVertex
100
AcDb2dVertex
 10
7565467.0828934228
 20
5719034.26133707166
  0
SEQEND
  5
88
100
AcDbEntity
  8
MK_KAN_DESZ_OPIS
  0
POLYLINE
  5
89
100
AcDbEntity
  8
MK_KAN_DESZ_OPIS
  6
CONTINUOUS
370
35
100
AcDb2dPolyline
 66
1
 70
128
  0
VERTEX
  5
8A
100
AcDbEntity
  8
MK_KAN_DESZ_OPIS
100
AcDbVertex
100
AcDb2dVertex
 10
7565465.48198236525
 20
5719047.72777998541
  0
VERTEX
  5
8B
100
AcDbEntity
  8
MK_KAN_DESZ_OPIS
100
AcDbVertex
100
AcDb2dVertex
 10
7565464.78627200983
 20
5719046.62126321439
  0
SEQEND
  5
8C
100
AcDbEntity
  8
MK_KAN_DESZ_OPIS
  0
POLYLINE
  5
8D
100
AcDbEntity
  8
MK_KAN_DESZ_OPIS
  6
CONTINUOUS
370
35
100
AcDb2dPolyline
 66
1
 70
128
  0
VERTEX
  5
8E
100
AcDbEntity
  8
MK_KAN_DESZ_OPIS
100
AcDbVertex
100
AcDb2dVertex
 10
7565465.04632665217
 20
5719051.39240130968
  0
VERTEX
  5
8F
100
AcDbEntity
  8
MK_KAN_DESZ_OPIS
100
AcDbVertex
100
AcDb2dVertex
 10
7565465.48198236525
 20
5719047.72777998541
  0
SEQEND
  5
90
100
AcDbEntity
  8
MK_KAN_DESZ_OPIS
  0
CIRCLE
  5
91
100
AcDbEntity
  8
MK_KAN_DESZ_PION
  6
ByLayer
370
35
100
AcDbCircle
 10
7565462.60561313108
 20
5719046.0107468795
 40
0.25
  0
CIRCLE
  5
92
100
AcDbEntity
  8
MK_KAN_DESZ_PION
  6
ByLayer
370
35
100
AcDbCircle
 10
7565462.95223408751
 20
5719046.40323001891
 40
0.040000000037
  0
CIRCLE
  5
93
100
AcDbEntity
  8
MK_KAN_DESZ_PION
  6
ByLayer
370
35
100
AcDbCircle
 10
7565471.71743630152
 20
5718978.91872836836
 40
0.25
  0
CIRCLE
  5
94
100
AcDbEntity
  8
MK_KAN_DESZ_PION
  6
ByLayer
370
35
100
AcDbCircle
 10
7565471.52643536031
 20
5718979.38553518988
 40
0.040000000037
  0
CIRCLE
  5
95
100
AcDbEntity
  8
MK_KAN_DESZ_PION
  6
ByLayer
370
35
100
AcDbCircle
 10
7565470.81813389156
 20
5718985.34358092863
 40
0.040000000037
  0
CIRCLE
  5
96
100
AcDbEntity
  8
MK_KAN_DESZ_PION
  6
ByLayer
370
35
100
AcDbCircle
 10
7565470.10983242281
 20
5718991.30162666738
 40
0.040000000037
  0
CIRCLE
  5
97
100
AcDbEntity
  8
MK_KAN_DESZ_PION
  6
ByLayer
370
35
100
AcDbCircle
 10
7565469.40153095312
 20
5718997.25967240706
 40
0.040000000037
  0
CIRCLE
  5
98
100
AcDbEntity
  8
MK_KAN_DESZ_PION
  6
ByLayer
370
35
100
AcDbCircle
 10
7565468.69322948437
 20
5719003.21771814581
 40
0.040000000037
  0
CIRCLE
  5
99
100
AcDbEntity
  8
MK_KAN_DESZ_PION
  6
ByLayer
370
35
100
AcDbCircle
 10
7565467.98492801562
 20
5719009.17576388456
 40
0.040000000037
  0
CIRCLE
  5
9A
100
AcDbEntity
  8
MK_KAN_DESZ_PION
  6
ByLayer
370
35
100
AcDbCircle
 10
7565467.27662654594
 20
5719015.13380962424
 40
0.040000000037
  0
CIRCLE
  5
9B
100
AcDbEntity
  8
MK_KAN_DESZ_PION
  6
ByLayer
370
35
100
AcDbCircle
 10
7565466.56832507718
 20
5719021.09185536299
 40
0.040000000037
  0
CIRCLE
  5
9C
100
AcDbEntity
  8
MK_KAN_DESZ_PION
  6
ByLayer
370
35
100
AcDbCircle
 10
7565465.86002360657
 20
5719027.04990110174
 40
0.040000000037
  0
CIRCLE
  5
9D
100
AcDbEntity
  8
MK_KAN_DESZ_PION
  6
ByLayer
370
35
100
AcDbCircle
 10
7565465.15172213875
 20
5719033.00794684142
 40
0.040000000037
  0
CIRCLE
  5
9E
100
AcDbEntity
  8
MK_KAN_DESZ_PION
  6
ByLayer
370
35
100
AcDbCircle
 10
7565471.00913483184
 20
5718984.87677410711
 40
0.25
  0
CIRCLE
  5
9F
100
AcDbEntity
  8
MK_KAN_DESZ_PION
  6
ByLayer
370
35
100
AcDbCircle
 10
7565470.30083336309
 20
5718990.83481984586
 40
0.25
  0
CIRCLE
  5
A0
100
AcDbEntity
  8
MK_KAN_DESZ_PION
  6
ByLayer
370
35
100
AcDbCircle
 10
7565469.5925318934
 20
5718996.79286558554
 40
0.25
  0
CIRCLE
  5
A1
100
AcDbEntity
  8
MK_KAN_DESZ_PION
  6
ByLayer
370
35
100
AcDbCircle
 10
7565468.88423042465
 20
5719002.75091132428
 40
0.25
  0
CIRCLE
  5
A2
100
AcDbEntity
  8
MK_KAN_DESZ_PION
  6
ByLayer
370
35
100
AcDbCircle
 10
7565468.17592895497
 20
5719008.70895706303
 40
0.25
  0
CIRCLE
  5
A3
100
AcDbEntity
  8
MK_KAN_DESZ_PION
  6
ByLayer
370
35
100
AcDbCircle
 10
7565467.46762748621
 20
5719014.66700280271
 40
0.25
  0
CIRCLE
  5
A4
100
AcDbEntity
  8
MK_KAN_DESZ_PION
  6
ByLayer
370
35
100
AcDbCircle
 10
7565466.75932601653
 20
5719020.62504854146
 40
0.25
  0
CIRCLE
  5
A5
100
AcDbEntity
  8
MK_KAN_DESZ_PION
  6
ByLayer
370
35
100
AcDbCircle
 10
7565466.05102454778
 20
5719026.58309428021
 40
0.25
  0
CIRCLE
  5
A6
100
AcDbEntity
  8
MK_KAN_DESZ_PION
  6
ByLayer
370
35
100
AcDbCircle
 10
7565465.34272307809
 20
5719032.54114001989
 40
0.25
  0
POLYLINE
  5
A7
100
AcDbEntity
  8
MK_KAN_DESZ_PLYTA
  6
CONTINUOUS
370
35
100
AcDb2dPolyline
 66
1
 70
128
  0
VERTEX
  5
A8
100
AcDbEntity
  8
MK_KAN_DESZ_PLYTA
100
AcDbVertex
100
AcDb2dVertex
 10
7565465.22891817894
 20
5719046.67388565932
  0
VERTEX
  5
A9
100
AcDbEntity
  8
MK_KAN_DESZ_PLYTA
100
AcDbVertex
100
AcDb2dVertex
 10
7565462.95223408751
 20
5719046.40323001891
  0
SEQEND
  5
AA
100
AcDbEntity
  8
MK_KAN_DESZ_PLYTA
  0
POLYLINE
  5
AB
100
AcDbEntity
  8
MK_KAN_DESZ_PLYTA
  6
CONTINUOUS
370
35
100
AcDb2dPolyline
 66
1
 70
128
  0
VERTEX
  5
AC
100
AcDbEntity
  8
MK_KAN_DESZ_PLYTA
100
AcDbVertex
100
AcDb2dVertex
 10
7565473.95997039322
 20
5718979.67483750731
  0
VERTEX
  5
AD
100
AcDbEntity
  8
MK_KAN_DESZ_PLYTA
100
AcDbVertex
100
AcDb2dVertex
 10
7565471.51411581691
 20
5718979.38407062367
  0
SEQEND
  5
AE
100
AcDbEntity
  8
MK_KAN_DESZ_PLYTA
  0
POLYLINE
  5
AF
100
AcDbEntity
  8
MK_KAN_DESZ_PLYTA
  6
CONTINUOUS
370
35
100
AcDb2dPolyline
 66
1
 70
128
  0
VERTEX
  5
B0
100
AcDbEntity
  8
MK_KAN_DESZ_PLYTA
100
AcDbVertex
100
AcDb2dVertex
 10
7565473.25166892447
 20
5718985.63288324606
  0
VERTEX
  5
B1
100
AcDbEntity
  8
MK_KAN_DESZ_PLYTA
100
AcDbVertex
100
AcDb2dVertex
 10
7565470.80581434723
 20
5718985.34211636242
  0
SEQEND
  5
B2
100
AcDbEntity
  8
MK_KAN_DESZ_PLYTA
  0
POLYLINE
  5
B3
100
AcDbEntity
  8
MK_KAN_DESZ_PLYTA
  6
CONTINUOUS
370
35
100
AcDb2dPolyline
 66
1
 70
128
  0
VERTEX
  5
B4
100
AcDbEntity
  8
MK_KAN_DESZ_PLYTA
100
AcDbVertex
100
AcDb2dVertex
 10
7565472.54336745478
 20
5718991.59092898481
  0
VERTEX
  5
B5
100
AcDbEntity
  8
MK_KAN_DESZ_PLYTA
100
AcDbVertex
100
AcDb2dVertex
 10
7565470.09751287848
 20
5718991.3001621021
  0
SEQEND
  5
B6
100
AcDbEntity
  8
MK_KAN_DESZ_PLYTA
  0
POLYLINE
  5
B7
100
AcDbEntity
  8
MK_KAN_DESZ_PLYTA
  6
CONTINUOUS
370
35
100
AcDb2dPolyline
 66
1
 70
128
  0
VERTEX
  5
B8
100
AcDbEntity
  8
MK_KAN_DESZ_PLYTA
100
AcDbVertex
100
AcDb2dVertex
 10
7565471.83506598603
 20
5718997.54897472449
  0
VERTEX
  5
B9
100
AcDbEntity
  8
MK_KAN_DESZ_PLYTA
100
AcDbVertex
100
AcDb2dVertex
 10
7565469.38921140879
 20
5718997.25820784084
  0
SEQEND
  5
BA
100
AcDbEntity
  8
MK_KAN_DESZ_PLYTA
  0
POLYLINE
  5
BB
100
AcDbEntity
  8
MK_KAN_DESZ_PLYTA
  6
CONTINUOUS
370
35
100
AcDb2dPolyline
 66
1
 70
128
  0
VERTEX
  5
BC
100
AcDbEntity
  8
MK_KAN_DESZ_PLYTA
100
AcDbVertex
100
AcDb2dVertex
 10
7565471.12676451635
 20
5719003.50702046324
  0
VERTEX
  5
BD
100
AcDbEntity
  8
MK_KAN_DESZ_PLYTA
100
AcDbVertex
100
AcDb2dVertex
 10
7565468.68090994004
 20
5719003.21625357959
  0
SEQEND
  5
BE
100
AcDbEntity
  8
MK_KAN_DESZ_PLYTA
  0
POLYLINE
  5
BF
100
AcDbEntity
  8
MK_KAN_DESZ_PLYTA
  6
CONTINUOUS
370
35
100
AcDb2dPolyline
 66
1
 70
128
  0
VERTEX
  5
C0
100
AcDbEntity
  8
MK_KAN_DESZ_PLYTA
100
AcDbVertex
100
AcDb2dVertex
 10
7565470.41846304759
 20
5719009.46506620198
  0
VERTEX
  5
C1
100
AcDbEntity
  8
MK_KAN_DESZ_PLYTA
100
AcDbVertex
100
AcDb2dVertex
 10
7565467.97260847036
 20
5719009.17429931927
  0
SEQEND
  5
C2
100
AcDbEntity
  8
MK_KAN_DESZ_PLYTA
  0
POLYLINE
  5
C3
100
AcDbEntity
  8
MK_KAN_DESZ_PLYTA
  6
CONTINUOUS
370
35
100
AcDb2dPolyline
 66
1
 70
128
  0
VERTEX
  5
C4
100
AcDbEntity
  8
MK_KAN_DESZ_PLYTA
100
AcDbVertex
100
AcDb2dVertex
 10
7565469.71016157791
 20
5719015.42311194073
  0
VERTEX
  5
C5
100
AcDbEntity
  8
MK_KAN_DESZ_PLYTA
100
AcDbVertex
100
AcDb2dVertex
 10
7565467.26430700161
 20
5719015.13234505802
  0
SEQEND
  5
C6
100
AcDbEntity
  8
MK_KAN_DESZ_PLYTA
  0
POLYLINE
  5
C7
100
AcDbEntity
  8
MK_KAN_DESZ_PLYTA
  6
CONTINUOUS
370
35
100
AcDb2dPolyline
 66
1
 70
128
  0
VERTEX
  5
C8
100
AcDbEntity
  8
MK_KAN_DESZ_PLYTA
100
AcDbVertex
100
AcDb2dVertex
 10
7565469.00186010916
 20
5719021.38115768041
  0
VERTEX
  5
C9
100
AcDbEntity
  8
MK_KAN_DESZ_PLYTA
100
AcDbVertex
100
AcDb2dVertex
 10
7565466.55600553192
 20
5719021.09039079677
  0
SEQEND
  5
CA
100
AcDbEntity
  8
MK_KAN_DESZ_PLYTA
  0
POLYLINE
  5
CB
100
AcDbEntity
  8
MK_KAN_DESZ_PLYTA
  6
CONTINUOUS
370
35
100
AcDb2dPolyline
 66
1
 70
128
  0
VERTEX
  5
CC
100
AcDbEntity
  8
MK_KAN_DESZ_PLYTA
100
AcDbVertex
100
AcDb2dVertex
 10
7565468.29355863947
 20
5719027.33920341916
  0
VERTEX
  5
CD
100
AcDbEntity
  8
MK_KAN_DESZ_PLYTA
100
AcDbVertex
100
AcDb2dVertex
 10
7565465.84770406317
 20
5719027.04843653645
  0
SEQEND
  5
CE
100
AcDbEntity
  8
MK_KAN_DESZ_PLYTA
  0
POLYLINE
  5
CF
100
AcDbEntity
  8
MK_KAN_DESZ_PLYTA
  6
CONTINUOUS
370
35
100
AcDb2dPolyline
 66
1
 70
128
  0
VERTEX
  5
D0
100
AcDbEntity
  8
MK_KAN_DESZ_PLYTA
100
AcDbVertex
100
AcDb2dVertex
 10
7565467.58525717072
 20
5719033.29724915791
  0
VERTEX
  5
D1
100
AcDbEntity
  8
MK_KAN_DESZ_PLYTA
100
AcDbVertex
100
AcDb2dVertex
 10
7565465.13940259349
 20
5719033.0064822752
  0
SEQEND
  5
D2
100
AcDbEntity
  8
MK_KAN_DESZ_PLYTA
  0
POLYLINE
  5
D3
100
AcDbEntity
  8
MK_KAN_RZEDNE
  6
CONTINUOUS
370
18
100
AcDb2dPolyline
 66
1
 70
128
  0
VERTEX
  5
D4
100
AcDbEntity
  8
MK_KAN_RZEDNE
100
AcDbVertex
100
AcDb2dVertex
 10
7565457.33788532112
 20
5719047.04291508999
  0
VERTEX
  5
D5
100
AcDbEntity
  8
MK_KAN_RZEDNE
100
AcDbVertex
100
AcDb2dVertex
 10
7565456.60083440226
 20
5719047.25934972614
  0
SEQEND
  5
D6
100
AcDbEntity
  8
MK_KAN_RZEDNE
  0
POLYLINE
  5
D7
100
AcDbEntity
  8
MK_KAN_RZEDNE
  6
CONTINUOUS
370
18
100
AcDb2dPolyline
 66
1
 70
128
  0
VERTEX
  5
D8
100
AcDbEntity
  8
MK_KAN_RZEDNE
100
AcDbVertex
100
AcDb2dVertex
 10
7565457.42646981031
 20
5719042.01305962354
  0
VERTEX
  5
D9
100
AcDbEntity
  8
MK_KAN_RZEDNE
100
AcDbVertex
100
AcDb2dVertex
 10
7565457.28738086764
 20
5719043.18303924054
  0
SEQEND
  5
DA
100
AcDbEntity
  8
MK_KAN_RZEDNE
  0
POLYLINE
  5
DB
100
AcDbEntity
  8
MK_KAN_RZEDNE
  6
CONTINUOUS
370
18
100
AcDb2dPolyline
 66
1
 70
128
  0
VERTEX
  5
DC
100
AcDbEntity
  8
MK_KAN_RZEDNE
100
AcDbVertex
100
AcDb2dVertex
 10
7565457.28738086764
 20
5719043.18303924054
  0
VERTEX
  5
DD
100
AcDbEntity
  8
MK_KAN_RZEDNE
100
AcDbVertex
100
AcDb2dVertex
 10
7565457.69458309188
 20
5719044.04246721696
  0
SEQEND
  5
DE
100
AcDbEntity
  8
MK_KAN_RZEDNE
  0
POLYLINE
  5
DF
100
AcDbEntity
  8
MK_KAN_RZEDNE
  6
CONTINUOUS
370
18
100
AcDb2dPolyline
 66
1
 70
128
  0
VERTEX
  5
E0
100
AcDbEntity
  8
MK_KAN_RZEDNE
100
AcDbVertex
100
AcDb2dVertex
 10
7565456.60083440226
 20
5719047.25934972614
  0
VERTEX
  5
E1
100
AcDbEntity
  8
MK_KAN_RZEDNE
100
AcDbVertex
100
AcDb2dVertex
 10
7565456.46174545959
 20
5719048.42932934314
  0
SEQEND
  5
E2
100
AcDbEntity
  8
MK_KAN_RZEDNE
  0
POLYLINE
  5
E3
100
AcDbEntity
  8
MK_KAN_RZEDNE
  6
CONTINUOUS
370
18
100
AcDb2dPolyline
 66
1
 70
128
  0
VERTEX
  5
E4
100
AcDbEntity
  8
MK_KAN_RZEDNE
100
AcDbVertex
100
AcDb2dVertex
 10
7565454.85383078828
 20
5719041.65210744832
  0
VERTEX
  5
E5
100
AcDbEntity
  8
MK_KAN_RZEDNE
100
AcDbVertex
100
AcDb2dVertex
 10
7565454.71474184562
 20
5719042.82208706532
  0
SEQEND
  5
E6
100
AcDbEntity
  8
MK_KAN_RZEDNE
  0
POLYLINE
  5
E7
100
AcDbEntity
  8
MK_KAN_RZEDNE
  6
CONTINUOUS
370
18
100
AcDb2dPolyline
 66
1
 70
128
  0
VERTEX
  5
E8
100
AcDbEntity
  8
MK_KAN_RZEDNE
100
AcDbVertex
100
AcDb2dVertex
 10
7565454.85383078828
 20
5719041.65210744832
  0
VERTEX
  5
E9
100
AcDbEntity
  8
MK_KAN_RZEDNE
100
AcDbVertex
100
AcDb2dVertex
 10
7565455.34430728015
 20
5719040.63031747565
  0
SEQEND
  5
EA
100
AcDbEntity
  8
MK_KAN_RZEDNE
  0
POLYLINE
  5
EB
100
AcDbEntity
  8
MK_KAN_RZEDNE
  6
CONTINUOUS
370
18
100
AcDb2dPolyline
 66
1
 70
128
  0
VERTEX
  5
EC
100
AcDbEntity
  8
MK_KAN_RZEDNE
100
AcDbVertex
100
AcDb2dVertex
 10
7565455.42959585693
 20
5719044.4054081114
  0
VERTEX
  5
ED
100
AcDbEntity
  8
MK_KAN_RZEDNE
100
AcDbVertex
100
AcDb2dVertex
 10
7565455.29050691426
 20
5719045.5753877284
  0
SEQEND
  5
EE
100
AcDbEntity
  8
MK_KAN_RZEDNE
  0
POLYLINE
  5
EF
100
AcDbEntity
  8
MK_KAN_RZEDNE
  6
CONTINUOUS
370
18
100
AcDb2dPolyline
 66
1
 70
128
  0
VERTEX
  5
F0
100
AcDbEntity
  8
MK_KAN_RZEDNE
100
AcDbVertex
100
AcDb2dVertex
 10
7565455.42959585693
 20
5719044.4054081114
  0
VERTEX
  5
F1
100
AcDbEntity
  8
MK_KAN_RZEDNE
100
AcDbVertex
100
AcDb2dVertex
 10
7565454.97707184777
 20
5719043.71940537915
  0
SEQEND
  5
F2
100
AcDbEntity
  8
MK_KAN_RZEDNE
  0
POLYLINE
  5
F3
100
AcDbEntity
  8
MK_KAN_RZEDNE
  6
CONTINUOUS
370
18
100
AcDb2dPolyline
 66
1
 70
128
  0
VERTEX
  5
F4
100
AcDbEntity
  8
MK_KAN_RZEDNE
100
AcDbVertex
100
AcDb2dVertex
 10
7565454.91667909548
 20
5719047.65795579739
  0
VERTEX
  5
F5
100
AcDbEntity
  8
MK_KAN_RZEDNE
100
AcDbVertex
100
AcDb2dVertex
 10
7565454.77759015281
 20
5719048.82793541439
  0
SEQEND
  5
F6
100
AcDbEntity
  8
MK_KAN_RZEDNE
  0
POLYLINE
  5
F7
100
AcDbEntity
  8
MK_KAN_RZEDNE
  6
CONTINUOUS
370
18
100
AcDb2dPolyline
 66
1
 70
128
  0
VERTEX
  5
F8
100
AcDbEntity
  8
MK_KAN_RZEDNE
100
AcDbVertex
100
AcDb2dVertex
 10
7565454.91667909548
 20
5719047.65795579739
  0
VERTEX
  5
F9
100
AcDbEntity
  8
MK_KAN_RZEDNE
100
AcDbVertex
100
AcDb2dVertex
 10
7565454.61811829265
 20
5719046.73882831261
  0
SEQEND
  5
FA
100
AcDbEntity
  8
MK_KAN_RZEDNE
  0
POLYLINE
  5
FB
100
AcDbEntity
  8
MK_KAN_RZEDNE
  6
CONTINUOUS
370
18
100
AcDb2dPolyline
 66
1
 70
128
  0
VERTEX
  5
FC
100
AcDbEntity
  8
MK_KAN_RZEDNE
100
AcDbVertex
100
AcDb2dVertex
 10
7565449.07943183463
 20
5719036.24715744052
  0
VERTEX
  5
FD
100
AcDbEntity
  8
MK_KAN_RZEDNE
100
AcDbVertex
100
AcDb2dVertex
 10
7565448.94034289196
 20
5719037.41713705752
  0
SEQEND
  5
FE
100
AcDbEntity
  8
MK_KAN_RZEDNE
  0
POLYLINE
  5
FF
100
AcDbEntity
  8
MK_KAN_RZEDNE
  6
CONTINUOUS
370
18
100
AcDb2dPolyline
 66
1
 70
128
  0
VERTEX
  5
100
100
AcDbEntity
  8
MK_KAN_RZEDNE
100
AcDbVertex
100
AcDb2dVertex
 10
7565448.94034289196
 20
5719037.41713705752
  0
VERTEX
  5
101
100
AcDbEntity
  8
MK_KAN_RZEDNE
100
AcDbVertex
100
AcDb2dVertex
 10
7565448.18832292594
 20
5719038.70068627689
  0
SEQEND
  5
102
100
AcDbEntity
  8
MK_KAN_RZEDNE
  0
POLYLINE
  5
103
100
AcDbEntity
  8
MK_KAN_RZEDNE
  6
CONTINUOUS
370
18
100
AcDb2dPolyline
 66
1
 70
128
  0
VERTEX
  5
104
100
AcDbEntity
  8
MK_KAN_RZEDNE
100
AcDbVertex
100
AcDb2dVertex
 10
7565449.16171602532
 20
5719040.31490554288
  0
VERTEX
  5
105
100
AcDbEntity
  8
MK_KAN_RZEDNE
100
AcDbVertex
100
AcDb2dVertex
 10
7565449.02262708265
 20
5719041.48488515988
  0
SEQEND
  5
106
100
AcDbEntity
  8
MK_KAN_RZEDNE
  0
POLYLINE
  5
107
100
AcDbEntity
  8
MK_KAN_RZEDNE
  6
CONTINUOUS
370
18
100
AcDb2dPolyline
 66
1
 70
128
  0
VERTEX
  5
108
100
AcDbEntity
  8
MK_KAN_RZEDNE
100
AcDbVertex
100
AcDb2dVertex
 10
7565453.88642053958
 20
5719041.05335007329
  0
VERTEX
  5
109
100
AcDbEntity
  8
MK_KAN_RZEDNE
100
AcDbVertex
100
AcDb2dVertex
 10
7565453.74733159691
 20
5719042.22332969028
  0
SEQEND
  5
10A
100
AcDbEntity
  8
MK_KAN_RZEDNE
  0
POLYLINE
  5
10B
100
AcDbEntity
  8
MK_KAN_RZEDNE
  6
CONTINUOUS
370
18
100
AcDb2dPolyline
 66
1
 70
128
  0
VERTEX
  5
10C
100
AcDbEntity
  8
MK_KAN_RZEDNE
100
AcDbVertex
100
AcDb2dVertex
 10
7565453.74733159691
 20
5719042.22332969028
  0
VERTEX
  5
10D
100
AcDbEntity
  8
MK_KAN_RZEDNE
100
AcDbVertex
100
AcDb2dVertex
 10
7565454.5587502569
 20
5719041.55073060282
  0
SEQEND
  5
10E
100
AcDbEntity
  8
MK_KAN_RZEDNE
  0
POLYLINE
  5
10F
100
AcDbEntity
  8
MK_KAN_RZEDNE
  6
CONTINUOUS
370
18
100
AcDb2dPolyline
 66
1
 70
128
  0
VERTEX
  5
110
100
AcDbEntity
  8
MK_KAN_RZEDNE
100
AcDbVertex
100
AcDb2dVertex
 10
7565460.24659425206
 20
5719041.57294567581
  0
VERTEX
  5
111
100
AcDbEntity
  8
MK_KAN_RZEDNE
100
AcDbVertex
100
AcDb2dVertex
 10
7565460.1075053094
 20
5719042.74292529281
  0
SEQEND
  5
112
100
AcDbEntity
  8
MK_KAN_RZEDNE
  0
POLYLINE
  5
113
100
AcDbEntity
  8
MK_KAN_RZEDNE
  6
CONTINUOUS
370
18
100
AcDb2dPolyline
 66
1
 70
128
  0
VERTEX
  5
114
100
AcDbEntity
  8
MK_KAN_RZEDNE
100
AcDbVertex
100
AcDb2dVertex
 10
7565460.1075053094
 20
5719042.74292529281
  0
VERTEX
  5
115
100
AcDbEntity
  8
MK_KAN_RZEDNE
100
AcDbVertex
100
AcDb2dVertex
 10
7565460.02980139572
 20
5719044.07839150541
  0
SEQEND
  5
116
100
AcDbEntity
  8
MK_KAN_RZEDNE
  0
POLYLINE
  5
117
100
AcDbEntity
  8
MK_KAN_RZEDNE
  6
CONTINUOUS
370
18
100
AcDb2dPolyline
 66
1
 70
128
  0
VERTEX
  5
118
100
AcDbEntity
  8
MK_KAN_RZEDNE
100
AcDbVertex
100
AcDb2dVertex
 10
7565459.55464009289
 20
5719041.31026987173
  0
VERTEX
  5
119
100
AcDbEntity
  8
MK_KAN_RZEDNE
100
AcDbVertex
100
AcDb2dVertex
 10
7565459.41555115022
 20
5719042.48024948873
  0
SEQEND
  5
11A
100
AcDbEntity
  8
MK_KAN_RZEDNE
  0
POLYLINE
  5
11B
100
AcDbEntity
  8
MK_KAN_RZEDNE
  6
CONTINUOUS
370
18
100
AcDb2dPolyline
 66
1
 70
128
  0
VERTEX
  5
11C
100
AcDbEntity
  8
MK_KAN_RZEDNE
100
AcDbVertex
100
AcDb2dVertex
 10
7565459.41555115022
 20
5719042.48024948873
  0
VERTEX
  5
11D
100
AcDbEntity
  8
MK_KAN_RZEDNE
100
AcDbVertex
100
AcDb2dVertex
 10
7565458.79749008548
 20
5719043.93189247698
  0
SEQEND
  5
11E
100
AcDbEntity
  8
MK_KAN_RZEDNE
  0
POLYLINE
  5
11F
100
AcDbEntity
  8
MK_KAN_RZEDNE
  6
CONTINUOUS
370
18
100
AcDb2dPolyline
 66
1
 70
128
  0
VERTEX
  5
120
100
AcDbEntity
  8
MK_KAN_RZEDNE
100
AcDbVertex
100
AcDb2dVertex
 10
7565452.14040564466
 20
5719053.44056360796
  0
VERTEX
  5
121
100
AcDbEntity
  8
MK_KAN_RZEDNE
100
AcDbVertex
100
AcDb2dVertex
 10
7565449.26793308184
 20
5719053.35740881972
  0
SEQEND
  5
122
100
AcDbEntity
  8
MK_KAN_RZEDNE
  0
POLYLINE
  5
123
100
AcDbEntity
  8
MK_KAN_RZEDNE
  6
CONTINUOUS
370
18
100
AcDb2dPolyline
 66
1
 70
128
  0
VERTEX
  5
124
100
AcDbEntity
  8
MK_KAN_RZEDNE
100
AcDbVertex
100
AcDb2dVertex
 10
7565448.941030032
 20
5719039.65650558099
  0
VERTEX
  5
125
100
AcDbEntity
  8
MK_KAN_RZEDNE
100
AcDbVertex
100
AcDb2dVertex
 10
7565449.16171602532
 20
5719040.31490554288
  0
SEQEND
  5
126
100
AcDbEntity
  8
MK_KAN_RZEDNE
  0
POLYLINE
  5
127
100
AcDbEntity
  8
MK_KAN_RZEDNE
  6
CONTINUOUS
370
18
100
AcDb2dPolyline
 66
1
 70
128
  0
VERTEX
  5
128
100
AcDbEntity
  8
MK_KAN_RZEDNE
100
AcDbVertex
100
AcDb2dVertex
 10
7565451.73878040258
 20
5719033.12536682934
  0
VERTEX
  5
129
100
AcDbEntity
  8
MK_KAN_RZEDNE
100
AcDbVertex
100
AcDb2dVertex
 10
7565451.00172948372
 20
5719033.34180146642
  0
SEQEND
  5
12A
100
AcDbEntity
  8
MK_KAN_RZEDNE
  0
POLYLINE
  5
12B
100
AcDbEntity
  8
MK_KAN_RZEDNE
  6
CONTINUOUS
370
18
100
AcDb2dPolyline
 66
1
 70
128
  0
VERTEX
  5
12C
100
AcDbEntity
  8
MK_KAN_RZEDNE
100
AcDbVertex
100
AcDb2dVertex
 10
7565451.00172948372
 20
5719033.34180146642
  0
VERTEX
  5
12D
100
AcDbEntity
  8
MK_KAN_RZEDNE
100
AcDbVertex
100
AcDb2dVertex
 10
7565450.86264054105
 20
5719034.51178108342
  0
SEQEND
  5
12E
100
AcDbEntity
  8
MK_KAN_RZEDNE
  0
POLYLINE
  5
12F
100
AcDbEntity
  8
MK_KAN_RZEDNE
  6
CONTINUOUS
370
18
100
AcDb2dPolyline
 66
1
 70
128
  0
VERTEX
  5
130
100
AcDbEntity
  8
MK_KAN_RZEDNE
100
AcDbVertex
100
AcDb2dVertex
 10
7565449.07463622466
 20
5719031.4757784009
  0
VERTEX
  5
131
100
AcDbEntity
  8
MK_KAN_RZEDNE
100
AcDbVertex
100
AcDb2dVertex
 10
7565448.3375853058
 20
5719031.69221303705
  0
SEQEND
  5
132
100
AcDbEntity
  8
MK_KAN_RZEDNE
  0
POLYLINE
  5
133
100
AcDbEntity
  8
MK_KAN_RZEDNE
  6
CONTINUOUS
370
18
100
AcDb2dPolyline
 66
1
 70
128
  0
VERTEX
  5
134
100
AcDbEntity
  8
MK_KAN_RZEDNE
100
AcDbVertex
100
AcDb2dVertex
 10
7565448.3375853058
 20
5719031.69221303705
  0
VERTEX
  5
135
100
AcDbEntity
  8
MK_KAN_RZEDNE
100
AcDbVertex
100
AcDb2dVertex
 10
7565448.19849636406
 20
5719032.86219265405
  0
SEQEND
  5
136
100
AcDbEntity
  8
MK_KAN_RZEDNE
  0
POLYLINE
  5
137
100
AcDbEntity
  8
MK_KAN_RZEDNE
  6
CONTINUOUS
370
18
100
AcDb2dPolyline
 66
1
 70
128
  0
VERTEX
  5
138
100
AcDbEntity
  8
MK_KAN_RZEDNE
100
AcDbVertex
100
AcDb2dVertex
 10
7565448.86106228176
 20
5719033.04177968483
  0
VERTEX
  5
139
100
AcDbEntity
  8
MK_KAN_RZEDNE
100
AcDbVertex
100
AcDb2dVertex
 10
7565448.12401136383
 20
5719033.25821432192
  0
SEQEND
  5
13A
100
AcDbEntity
  8
MK_KAN_RZEDNE
  0
POLYLINE
  5
13B
100
AcDbEntity
  8
MK_KAN_RZEDNE
  6
CONTINUOUS
370
18
100
AcDb2dPolyline
 66
1
 70
128
  0
VERTEX
  5
13C
100
AcDbEntity
  8
MK_KAN_RZEDNE
100
AcDbVertex
100
AcDb2dVertex
 10
7565448.12401136383
 20
5719033.25821432192
  0
VERTEX
  5
13D
100
AcDbEntity
  8
MK_KAN_RZEDNE
100
AcDbVertex
100
AcDb2dVertex
 10
7565447.98492242116
 20
5719034.42819393892
  0
SEQEND
  5
13E
100
AcDbEntity
  8
MK_KAN_RZEDNE
  0
POLYLINE
  5
13F
100
AcDbEntity
  8
MK_KAN_RZEDNE
  6
CONTINUOUS
370
18
100
AcDb2dPolyline
 66
1
 70
128
  0
VERTEX
  5
140
100
AcDbEntity
  8
MK_KAN_RZEDNE
100
AcDbVertex
100
AcDb2dVertex
 10
7565449.38363679498
 20
5719028.64602027088
  0
VERTEX
  5
141
100
AcDbEntity
  8
MK_KAN_RZEDNE
100
AcDbVertex
100
AcDb2dVertex
 10
7565448.64658587612
 20
5719028.86245490797
  0
SEQEND
  5
142
100
AcDbEntity
  8
MK_KAN_RZEDNE
  0
POLYLINE
  5
143
100
AcDbEntity
  8
MK_KAN_RZEDNE
  6
CONTINUOUS
370
18
100
AcDb2dPolyline
 66
1
 70
128
  0
VERTEX
  5
144
100
AcDbEntity
  8
MK_KAN_RZEDNE
100
AcDbVertex
100
AcDb2dVertex
 10
7565448.64658587612
 20
5719028.86245490797
  0
VERTEX
  5
145
100
AcDbEntity
  8
MK_KAN_RZEDNE
100
AcDbVertex
100
AcDb2dVertex
 10
7565448.50749693438
 20
5719030.03243452497
  0
SEQEND
  5
146
100
AcDbEntity
  8
MK_KAN_RZEDNE
  0
POLYLINE
  5
147
100
AcDbEntity
  8
MK_KAN_RZEDNE
  6
CONTINUOUS
370
18
100
AcDb2dPolyline
 66
1
 70
128
  0
VERTEX
  5
148
100
AcDbEntity
  8
MK_KAN_RZEDNE
100
AcDbVertex
100
AcDb2dVertex
 10
7565449.98865233362
 20
5719023.55678863078
  0
VERTEX
  5
149
100
AcDbEntity
  8
MK_KAN_RZEDNE
100
AcDbVertex
100
AcDb2dVertex
 10
7565449.25160141476
 20
5719023.77322326787
  0
SEQEND
  5
14A
100
AcDbEntity
  8
MK_KAN_RZEDNE
  0
POLYLINE
  5
14B
100
AcDbEntity
  8
MK_KAN_RZEDNE
  6
CONTINUOUS
370
18
100
AcDb2dPolyline
 66
1
 70
128
  0
VERTEX
  5
14C
100
AcDbEntity
  8
MK_KAN_RZEDNE
100
AcDbVertex
100
AcDb2dVertex
 10
7565449.25160141476
 20
5719023.77322326787
  0
VERTEX
  5
14D
100
AcDbEntity
  8
MK_KAN_RZEDNE
100
AcDbVertex
100
AcDb2dVertex
 10
7565449.11251247209
 20
5719024.94320288487
  0
SEQEND
  5
14E
100
AcDbEntity
  8
MK_KAN_RZEDNE
  0
POLYLINE
  5
14F
100
AcDbEntity
  8
MK_KAN_RZEDNE
  6
CONTINUOUS
370
18
100
AcDb2dPolyline
 66
1
 70
128
  0
VERTEX
  5
150
100
AcDbEntity
  8
MK_KAN_RZEDNE
100
AcDbVertex
100
AcDb2dVertex
 10
7565449.94005946163
 20
5719023.02915917244
  0
VERTEX
  5
151
100
AcDbEntity
  8
MK_KAN_RZEDNE
100
AcDbVertex
100
AcDb2dVertex
 10
7565449.44037293363
 20
5719022.18532688171
  0
SEQEND
  5
152
100
AcDbEntity
  8
MK_KAN_RZEDNE
  0
POLYLINE
  5
153
100
AcDbEntity
  8
MK_KAN_RZEDNE
  6
CONTINUOUS
370
18
100
AcDb2dPolyline
 66
1
 70
128
  0
VERTEX
  5
154
100
AcDbEntity
  8
MK_KAN_RZEDNE
100
AcDbVertex
100
AcDb2dVertex
 10
7565449.44037293363
 20
5719022.18532688171
  0
VERTEX
  5
155
100
AcDbEntity
  8
MK_KAN_RZEDNE
100
AcDbVertex
100
AcDb2dVertex
 10
7565449.30128399096
 20
5719023.35530649871
  0
SEQEND
  5
156
100
AcDbEntity
  8
MK_KAN_RZEDNE
  0
POLYLINE
  5
157
100
AcDbEntity
  8
MK_KAN_RZEDNE
  6
CONTINUOUS
370
18
100
AcDb2dPolyline
 66
1
 70
128
  0
VERTEX
  5
158
100
AcDbEntity
  8
MK_KAN_RZEDNE
100
AcDbVertex
100
AcDb2dVertex
 10
7565452.80245937593
 20
5719024.04994442593
  0
VERTEX
  5
159
100
AcDbEntity
  8
MK_KAN_RZEDNE
100
AcDbVertex
100
AcDb2dVertex
 10
7565452.06540845707
 20
5719024.26637906302
  0
SEQEND
  5
15A
100
AcDbEntity
  8
MK_KAN_RZEDNE
  0
POLYLINE
  5
15B
100
AcDbEntity
  8
MK_KAN_RZEDNE
  6
CONTINUOUS
370
18
100
AcDb2dPolyline
 66
1
 70
128
  0
VERTEX
  5
15C
100
AcDbEntity
  8
MK_KAN_RZEDNE
100
AcDbVertex
100
AcDb2dVertex
 10
7565452.06540845707
 20
5719024.26637906302
  0
VERTEX
  5
15D
100
AcDbEntity
  8
MK_KAN_RZEDNE
100
AcDbVertex
100
AcDb2dVertex
 10
7565451.9263195144
 20
5719025.43635868002
  0
SEQEND
  5
15E
100
AcDbEntity
  8
MK_KAN_RZEDNE
  0
POLYLINE
  5
15F
100
AcDbEntity
  8
MK_KAN_RZEDNE
  6
CONTINUOUS
370
18
100
AcDb2dPolyline
 66
1
 70
128
  0
VERTEX
  5
160
100
AcDbEntity
  8
MK_KAN_RZEDNE
100
AcDbVertex
100
AcDb2dVertex
 10
7565450.56767948996
 20
5719028.8095633015
  0
VERTEX
  5
161
100
AcDbEntity
  8
MK_KAN_RZEDNE
100
AcDbVertex
100
AcDb2dVertex
 10
7565450.78980810382
 20
5719029.31578601245
  0
SEQEND
  5
162
100
AcDbEntity
  8
MK_KAN_RZEDNE
  0
POLYLINE
  5
163
100
AcDbEntity
  8
MK_KAN_RZEDNE
  6
CONTINUOUS
370
18
100
AcDb2dPolyline
 66
1
 70
128
  0
VERTEX
  5
164
100
AcDbEntity
  8
MK_KAN_RZEDNE
100
AcDbVertex
100
AcDb2dVertex
 10
7565450.78980810382
 20
5719029.31578601245
  0
VERTEX
  5
165
100
AcDbEntity
  8
MK_KAN_RZEDNE
100
AcDbVertex
100
AcDb2dVertex
 10
7565450.65071916115
 20
5719030.48576562945
  0
SEQEND
  5
166
100
AcDbEntity
  8
MK_KAN_RZEDNE
  0
POLYLINE
  5
167
100
AcDbEntity
  8
MK_KAN_RZEDNE
  6
CONTINUOUS
370
18
100
AcDb2dPolyline
 66
1
 70
128
  0
VERTEX
  5
168
100
AcDbEntity
  8
MK_KAN_RZEDNE
100
AcDbVertex
100
AcDb2dVertex
 10
7565449.40622008685
 20
5719015.74686745275
  0
VERTEX
  5
169
100
AcDbEntity
  8
MK_KAN_RZEDNE
100
AcDbVertex
100
AcDb2dVertex
 10
7565448.66916916799
 20
5719015.96330208983
  0
SEQEND
  5
16A
100
AcDbEntity
  8
MK_KAN_RZEDNE
  0
POLYLINE
  5
16B
100
AcDbEntity
  8
MK_KAN_RZEDNE
  6
CONTINUOUS
370
18
100
AcDb2dPolyline
 66
1
 70
128
  0
VERTEX
  5
16C
100
AcDbEntity
  8
MK_KAN_RZEDNE
100
AcDbVertex
100
AcDb2dVertex
 10
7565448.66916916799
 20
5719015.96330208983
  0
VERTEX
  5
16D
100
AcDbEntity
  8
MK_KAN_RZEDNE
100
AcDbVertex
100
AcDb2dVertex
 10
7565448.53008022532
 20
5719017.13328170683
  0
SEQEND
  5
16E
100
AcDbEntity
  8
MK_KAN_RZEDNE
  0
POLYLINE
  5
16F
100
AcDbEntity
  8
MK_KAN_RZEDNE
  6
CONTINUOUS
370
18
100
AcDb2dPolyline
 66
1
 70
128
  0
VERTEX
  5
170
100
AcDbEntity
  8
MK_KAN_RZEDNE
100
AcDbVertex
100
AcDb2dVertex
 10
7565450.52831870038
 20
5719015.88026423007
  0
VERTEX
  5
171
100
AcDbEntity
  8
MK_KAN_RZEDNE
100
AcDbVertex
100
AcDb2dVertex
 10
7565449.79126778245
 20
5719016.09669886623
  0
SEQEND
  5
172
100
AcDbEntity
  8
MK_KAN_RZEDNE
  0
POLYLINE
  5
173
100
AcDbEntity
  8
MK_KAN_RZEDNE
  6
CONTINUOUS
370
18
100
AcDb2dPolyline
 66
1
 70
128
  0
VERTEX
  5
174
100
AcDbEntity
  8
MK_KAN_RZEDNE
100
AcDbVertex
100
AcDb2dVertex
 10
7565449.79126778245
 20
5719016.09669886623
  0
VERTEX
  5
175
100
AcDbEntity
  8
MK_KAN_RZEDNE
100
AcDbVertex
100
AcDb2dVertex
 10
7565449.65217883978
 20
5719017.26667848323
  0
SEQEND
  5
176
100
AcDbEntity
  8
MK_KAN_RZEDNE
  0
POLYLINE
  5
177
100
AcDbEntity
  8
MK_KAN_RZEDNE
  6
CONTINUOUS
370
18
100
AcDb2dPolyline
 66
1
 70
128
  0
VERTEX
  5
178
100
AcDbEntity
  8
MK_KAN_RZEDNE
100
AcDbVertex
100
AcDb2dVertex
 10
7565451.65041731484
 20
5719016.01366100647
  0
VERTEX
  5
179
100
AcDbEntity
  8
MK_KAN_RZEDNE
100
AcDbVertex
100
AcDb2dVertex
 10
7565450.91336639598
 20
5719016.23009564355
  0
SEQEND
  5
17A
100
AcDbEntity
  8
MK_KAN_RZEDNE
  0
POLYLINE
  5
17B
100
AcDbEntity
  8
MK_KAN_RZEDNE
  6
CONTINUOUS
370
18
100
AcDb2dPolyline
 66
1
 70
128
  0
VERTEX
  5
17C
100
AcDbEntity
  8
MK_KAN_RZEDNE
100
AcDbVertex
100
AcDb2dVertex
 10
7565450.91336639598
 20
5719016.23009564355
  0
VERTEX
  5
17D
100
AcDbEntity
  8
MK_KAN_RZEDNE
100
AcDbVertex
100
AcDb2dVertex
 10
7565450.77427745331
 20
5719017.40007526055
  0
SEQEND
  5
17E
100
AcDbEntity
  8
MK_KAN_RZEDNE
  0
POLYLINE
  5
17F
100
AcDbEntity
  8
MK_KAN_RZEDNE
  6
CONTINUOUS
370
18
100
AcDb2dPolyline
 66
1
 70
128
  0
VERTEX
  5
180
100
AcDbEntity
  8
MK_KAN_RZEDNE
100
AcDbVertex
100
AcDb2dVertex
 10
7565455.73928495217
 20
5719021.9629922146
  0
VERTEX
  5
181
100
AcDbEntity
  8
MK_KAN_RZEDNE
100
AcDbVertex
100
AcDb2dVertex
 10
7565455.00223403331
 20
5719022.17942685168
  0
SEQEND
  5
182
100
AcDbEntity
  8
MK_KAN_RZEDNE
  0
POLYLINE
  5
183
100
AcDbEntity
  8
MK_KAN_RZEDNE
  6
CONTINUOUS
370
18
100
AcDb2dPolyline
 66
1
 70
128
  0
VERTEX
  5
184
100
AcDbEntity
  8
MK_KAN_RZEDNE
100
AcDbVertex
100
AcDb2dVertex
 10
7565455.00223403331
 20
5719022.17942685168
  0
VERTEX
  5
185
100
AcDbEntity
  8
MK_KAN_RZEDNE
100
AcDbVertex
100
AcDb2dVertex
 10
7565454.86314509157
 20
5719023.34940646868
  0
SEQEND
  5
186
100
AcDbEntity
  8
MK_KAN_RZEDNE
  0
POLYLINE
  5
187
100
AcDbEntity
  8
MK_KAN_RZEDNE
  6
CONTINUOUS
370
18
100
AcDb2dPolyline
 66
1
 70
128
  0
VERTEX
  5
188
100
AcDbEntity
  8
MK_KAN_RZEDNE
100
AcDbVertex
100
AcDb2dVertex
 10
7565458.93592919502
 20
5719033.83111673407
  0
VERTEX
  5
189
100
AcDbEntity
  8
MK_KAN_RZEDNE
100
AcDbVertex
100
AcDb2dVertex
 10
7565458.19887827616
 20
5719034.04755137116
  0
SEQEND
  5
18A
100
AcDbEntity
  8
MK_KAN_RZEDNE
  0
POLYLINE
  5
18B
100
AcDbEntity
  8
MK_KAN_RZEDNE
  6
CONTINUOUS
370
18
100
AcDb2dPolyline
 66
1
 70
128
  0
VERTEX
  5
18C
100
AcDbEntity
  8
MK_KAN_RZEDNE
100
AcDbVertex
100
AcDb2dVertex
 10
7565458.19887827616
 20
5719034.04755137116
  0
VERTEX
  5
18D
100
AcDbEntity
  8
MK_KAN_RZEDNE
100
AcDbVertex
100
AcDb2dVertex
 10
7565458.05978933349
 20
5719035.21753098816
  0
SEQEND
  5
18E
100
AcDbEntity
  8
MK_KAN_RZEDNE
  0
POLYLINE
  5
18F
100
AcDbEntity
  8
MK_KAN_RZEDNE
  6
CONTINUOUS
370
18
100
AcDb2dPolyline
 66
1
 70
128
  0
VERTEX
  5
190
100
AcDbEntity
  8
MK_KAN_RZEDNE
100
AcDbVertex
100
AcDb2dVertex
 10
7565456.21841795091
 20
5719033.50805489626
  0
VERTEX
  5
191
100
AcDbEntity
  8
MK_KAN_RZEDNE
100
AcDbVertex
100
AcDb2dVertex
 10
7565455.48136703204
 20
5719033.72448953334
  0
SEQEND
  5
192
100
AcDbEntity
  8
MK_KAN_RZEDNE
  0
POLYLINE
  5
193
100
AcDbEntity
  8
MK_KAN_RZEDNE
  6
CONTINUOUS
370
18
100
AcDb2dPolyline
 66
1
 70
128
  0
VERTEX
  5
194
100
AcDbEntity
  8
MK_KAN_RZEDNE
100
AcDbVertex
100
AcDb2dVertex
 10
7565455.48136703204
 20
5719033.72448953334
  0
VERTEX
  5
195
100
AcDbEntity
  8
MK_KAN_RZEDNE
100
AcDbVertex
100
AcDb2dVertex
 10
7565455.34227808937
 20
5719034.89446915034
  0
SEQEND
  5
196
100
AcDbEntity
  8
MK_KAN_RZEDNE
  0
POLYLINE
  5
197
100
AcDbEntity
  8
MK_KAN_RZEDNE
  6
CONTINUOUS
370
18
100
AcDb2dPolyline
 66
1
 70
128
  0
VERTEX
  5
198
100
AcDbEntity
  8
MK_KAN_RZEDNE
100
AcDbVertex
100
AcDb2dVertex
 10
7565459.07438543811
 20
5719009.48440725915
  0
VERTEX
  5
199
100
AcDbEntity
  8
MK_KAN_RZEDNE
100
AcDbVertex
100
AcDb2dVertex
 10
7565458.33733451925
 20
5719009.7008418953
  0
SEQEND
  5
19A
100
AcDbEntity
  8
MK_KAN_RZEDNE
  0
POLYLINE
  5
19B
100
AcDbEntity
  8
MK_KAN_RZEDNE
  6
CONTINUOUS
370
18
100
AcDb2dPolyline
 66
1
 70
128
  0
VERTEX
  5
19C
100
AcDbEntity
  8
MK_KAN_RZEDNE
100
AcDbVertex
100
AcDb2dVertex
 10
7565458.33733451925
 20
5719009.7008418953
  0
VERTEX
  5
19D
100
AcDbEntity
  8
MK_KAN_RZEDNE
100
AcDbVertex
100
AcDb2dVertex
 10
7565458.19824557658
 20
5719010.8708215123
  0
SEQEND
  5
19E
100
AcDbEntity
  8
MK_KAN_RZEDNE
  0
POLYLINE
  5
19F
100
AcDbEntity
  8
MK_KAN_RZEDNE
  6
CONTINUOUS
370
18
100
AcDb2dPolyline
 66
1
 70
128
  0
VERTEX
  5
1A0
100
AcDbEntity
  8
MK_KAN_RZEDNE
100
AcDbVertex
100
AcDb2dVertex
 10
7565455.37669137213
 20
5719008.89613657072
  0
VERTEX
  5
1A1
100
AcDbEntity
  8
MK_KAN_RZEDNE
100
AcDbVertex
100
AcDb2dVertex
 10
7565454.63964045327
 20
5719009.11257120781
  0
SEQEND
  5
1A2
100
AcDbEntity
  8
MK_KAN_RZEDNE
  0
POLYLINE
  5
1A3
100
AcDbEntity
  8
MK_KAN_RZEDNE
  6
CONTINUOUS
370
18
100
AcDb2dPolyline
 66
1
 70
128
  0
VERTEX
  5
1A4
100
AcDbEntity
  8
MK_KAN_RZEDNE
100
AcDbVertex
100
AcDb2dVertex
 10
7565454.63964045327
 20
5719009.11257120781
  0
VERTEX
  5
1A5
100
AcDbEntity
  8
MK_KAN_RZEDNE
100
AcDbVertex
100
AcDb2dVertex
 10
7565454.5005515106
 20
5719010.28255082481
  0
SEQEND
  5
1A6
100
AcDbEntity
  8
MK_KAN_RZEDNE
  0
POLYLINE
  5
1A7
100
AcDbEntity
  8
MK_KAN_RZEDNE
  6
CONTINUOUS
370
18
100
AcDb2dPolyline
 66
1
 70
128
  0
VERTEX
  5
1A8
100
AcDbEntity
  8
MK_KAN_RZEDNE
100
AcDbVertex
100
AcDb2dVertex
 10
7565446.89894920308
 20
5719007.89762167074
  0
VERTEX
  5
1A9
100
AcDbEntity
  8
MK_KAN_RZEDNE
100
AcDbVertex
100
AcDb2dVertex
 10
7565447.03882468212
 20
5719008.65724195447
  0
SEQEND
  5
1AA
100
AcDbEntity
  8
MK_KAN_RZEDNE
  0
POLYLINE
  5
1AB
100
AcDbEntity
  8
MK_KAN_RZEDNE
  6
CONTINUOUS
370
18
100
AcDb2dPolyline
 66
1
 70
128
  0
VERTEX
  5
1AC
100
AcDbEntity
  8
MK_KAN_RZEDNE
100
AcDbVertex
100
AcDb2dVertex
 10
7565447.03882468212
 20
5719008.65724195447
  0
VERTEX
  5
1AD
100
AcDbEntity
  8
MK_KAN_RZEDNE
100
AcDbVertex
100
AcDb2dVertex
 10
7565446.89973573946
 20
5719009.82722157147
  0
SEQEND
  5
1AE
100
AcDbEntity
  8
MK_KAN_RZEDNE
  0
POLYLINE
  5
1AF
100
AcDbEntity
  8
MK_KAN_RZEDNE
  6
CONTINUOUS
370
18
100
AcDb2dPolyline
 66
1
 70
128
  0
VERTEX
  5
1B0
100
AcDbEntity
  8
MK_KAN_RZEDNE
100
AcDbVertex
100
AcDb2dVertex
 10
7565456.33722916711
 20
5719032.27811960783
  0
VERTEX
  5
1B1
100
AcDbEntity
  8
MK_KAN_RZEDNE
100
AcDbVertex
100
AcDb2dVertex
 10
7565455.60017824918
 20
5719032.49455424491
  0
SEQEND
  5
1B2
100
AcDbEntity
  8
MK_KAN_RZEDNE
  0
POLYLINE
  5
1B3
100
AcDbEntity
  8
MK_KAN_RZEDNE
  6
CONTINUOUS
370
18
100
AcDb2dPolyline
 66
1
 70
128
  0
VERTEX
  5
1B4
100
AcDbEntity
  8
MK_KAN_RZEDNE
100
AcDbVertex
100
AcDb2dVertex
 10
7565455.60017824918
 20
5719032.49455424491
  0
VERTEX
  5
1B5
100
AcDbEntity
  8
MK_KAN_RZEDNE
100
AcDbVertex
100
AcDb2dVertex
 10
7565455.46108930651
 20
5719033.66453386191
  0
SEQEND
  5
1B6
100
AcDbEntity
  8
MK_KAN_RZEDNE
  0
POLYLINE
  5
1B7
100
AcDbEntity
  8
MK_KAN_RZEDNE
  6
CONTINUOUS
370
18
100
AcDb2dPolyline
 66
1
 70
128
  0
VERTEX
  5
1B8
100
AcDbEntity
  8
MK_KAN_RZEDNE
100
AcDbVertex
100
AcDb2dVertex
 10
7565457.5651084045
 20
5719022.18004886247
  0
VERTEX
  5
1B9
100
AcDbEntity
  8
MK_KAN_RZEDNE
100
AcDbVertex
100
AcDb2dVertex
 10
7565456.82805748563
 20
5719022.39648349956
  0
SEQEND
  5
1BA
100
AcDbEntity
  8
MK_KAN_RZEDNE
  0
POLYLINE
  5
1BB
100
AcDbEntity
  8
MK_KAN_RZEDNE
  6
CONTINUOUS
370
18
100
AcDb2dPolyline
 66
1
 70
128
  0
VERTEX
  5
1BC
100
AcDbEntity
  8
MK_KAN_RZEDNE
100
AcDbVertex
100
AcDb2dVertex
 10
7565456.82805748563
 20
5719022.39648349956
  0
VERTEX
  5
1BD
100
AcDbEntity
  8
MK_KAN_RZEDNE
100
AcDbVertex
100
AcDb2dVertex
 10
7565456.68896854296
 20
5719023.56646311656
  0
SEQEND
  5
1BE
100
AcDbEntity
  8
MK_KAN_RZEDNE
  0
POLYLINE
  5
1BF
100
AcDbEntity
  8
MK_KAN_SAN_OPIS
  6
CONTINUOUS
370
13
100
AcDb2dPolyline
 66
1
 70
128
  0
VERTEX
  5
1C0
100
AcDbEntity
  8
MK_KAN_SAN_OPIS
100
AcDbVertex
100
AcDb2dVertex
 10
7565463.03759513609
 20
5719047.08028263226
  0
VERTEX
  5
1C1
100
AcDbEntity
  8
MK_KAN_SAN_OPIS
100
AcDbVertex
100
AcDb2dVertex
 10
7565460.43751535472
 20
5719044.63038196322
  0
SEQEND
  5
1C2
100
AcDbEntity
  8
MK_KAN_SAN_OPIS
  0
POLYLINE
  5
1C3
100
AcDbEntity
  8
MK_KAN_SAN_OPIS
  6
CONTINUOUS
370
13
100
AcDb2dPolyline
 66
1
 70
128
  0
VERTEX
  5
1C4
100
AcDbEntity
  8
MK_KAN_SAN_OPIS
100
AcDbVertex
100
AcDb2dVertex
 10
7565462.35385687184
 20
5719047.00702971965
  0
VERTEX
  5
1C5
100
AcDbEntity
  8
MK_KAN_SAN_OPIS
100
AcDbVertex
100
AcDb2dVertex
 10
7565459.43141957838
 20
5719044.25901537575
  0
SEQEND
  5
1C6
100
AcDbEntity
  8
MK_KAN_SAN_OPIS
  0
POLYLINE
  5
1C7
100
AcDbEntity
  8
MK_KAN_SAN_OPIS
  6
CONTINUOUS
370
13
100
AcDb2dPolyline
 66
1
 70
128
  0
VERTEX
  5
1C8
100
AcDbEntity
  8
MK_KAN_SAN_OPIS
100
AcDbVertex
100
AcDb2dVertex
 10
7565462.64476761688
 20
5719050.3846444441
  0
VERTEX
  5
1C9
100
AcDbEntity
  8
MK_KAN_SAN_OPIS
100
AcDbVertex
100
AcDb2dVertex
 10
7565463.03759513609
 20
5719047.08028263226
  0
SEQEND
  5
1CA
100
AcDbEntity
  8
MK_KAN_SAN_OPIS
  0
POLYLINE
  5
1CB
100
AcDbEntity
  8
MK_KAN_SAN_OPIS
  6
CONTINUOUS
370
13
100
AcDb2dPolyline
 66
1
 70
128
  0
VERTEX
  5
1CC
100
AcDbEntity
  8
MK_KAN_SAN_OPIS
100
AcDbVertex
100
AcDb2dVertex
 10
7565461.96197077632
 20
5719050.30347252544
  0
VERTEX
  5
1CD
100
AcDbEntity
  8
MK_KAN_SAN_OPIS
100
AcDbVertex
100
AcDb2dVertex
 10
7565462.35385687184
 20
5719047.00702971965
  0
SEQEND
  5
1CE
100
AcDbEntity
  8
MK_KAN_SAN_OPIS
  0
POLYLINE
  5
1CF
100
AcDbEntity
  8
MK_KAN_SAN_OPIS
  6
CONTINUOUS
370
13
100
AcDb2dPolyline
 66
1
 70
128
  0
VERTEX
  5
1D0
100
AcDbEntity
  8
MK_KAN_SAN_OPIS
100
AcDbVertex
100
AcDb2dVertex
 10
7565450.64040683396
 20
5719053.57136788219
  0
VERTEX
  5
1D1
100
AcDbEntity
  8
MK_KAN_SAN_OPIS
100
AcDbVertex
100
AcDb2dVertex
 10
7565452.17536849435
 20
5719053.69499791227
  0
SEQEND
  5
1D2
100
AcDbEntity
  8
MK_KAN_SAN_OPIS
  0
POLYLINE
  5
1D3
100
AcDbEntity
  8
MK_KAN_SAN_OPIS
  6
CONTINUOUS
370
13
100
AcDb2dPolyline
 66
1
 70
128
  0
VERTEX
  5
1D4
100
AcDbEntity
  8
MK_KAN_SAN_OPIS
100
AcDbVertex
100
AcDb2dVertex
 10
7565450.20480452944
 20
5719057.23553994205
  0
VERTEX
  5
1D5
100
AcDbEntity
  8
MK_KAN_SAN_OPIS
100
AcDbVertex
100
AcDb2dVertex
 10
7565450.64046024252
 20
5719053.57091861777
  0
SEQEND
  5
1D6
100
AcDbEntity
  8
MK_KAN_SAN_OPIS
  0
POLYLINE
  5
1D7
100
AcDbEntity
  8
MK_KAN_SAN_OPIS
  6
CONTINUOUS
370
13
100
AcDb2dPolyline
 66
1
 70
128
  0
VERTEX
  5
1D8
100
AcDbEntity
  8
MK_KAN_SAN_OPIS
100
AcDbVertex
100
AcDb2dVertex
 10
7565456.09732783958
 20
5719036.81468501128
  0
VERTEX
  5
1D9
100
AcDbEntity
  8
MK_KAN_SAN_OPIS
100
AcDbVertex
100
AcDb2dVertex
 10
7565456.39457026776
 20
5719034.29954924621
  0
SEQEND
  5
1DA
100
AcDbEntity
  8
MK_KAN_SAN_OPIS
  0
POLYLINE
  5
1DB
100
AcDbEntity
  8
MK_KAN_SAN_OPIS
  6
CONTINUOUS
370
13
100
AcDb2dPolyline
 66
1
 70
128
  0
VERTEX
  5
1DC
100
AcDbEntity
  8
MK_KAN_SAN_OPIS
100
AcDbVertex
100
AcDb2dVertex
 10
7565458.34938382916
 20
5719044.82596356329
  0
VERTEX
  5
1DD
100
AcDbEntity
  8
MK_KAN_SAN_OPIS
100
AcDbVertex
100
AcDb2dVertex
 10
7565456.09732783958
 20
5719036.81468501128
  0
SEQEND
  5
1DE
100
AcDbEntity
  8
MK_KAN_SAN_OPIS
  0
POLYLINE
  5
1DF
100
AcDbEntity
  8
MK_KAN_SAN_OPIS
  6
CONTINUOUS
370
13
100
AcDb2dPolyline
 66
1
 70
128
  0
VERTEX
  5
1E0
100
AcDbEntity
  8
MK_KAN_SAN_OPIS
100
AcDbVertex
100
AcDb2dVertex
 10
7565456.59922701027
 20
5719044.94954923261
  0
VERTEX
  5
1E1
100
AcDbEntity
  8
MK_KAN_SAN_OPIS
100
AcDbVertex
100
AcDb2dVertex
 10
7565456.09732783958
 20
5719036.81468501128
  0
SEQEND
  5
1E2
100
AcDbEntity
  8
MK_KAN_SAN_OPIS
  0
CIRCLE
  5
1E3
100
AcDbEntity
  8
MK_KAN_SAN_PION
  6
ByLayer
370
35
100
AcDbCircle
 10
7565462.22277951054
 20
5719040.07028091792
 40
0.05999999959
  0
CIRCLE
  5
1E4
100
AcDbEntity
  8
MK_KAN_SAN_PION
  6
ByLayer
370
35
100
AcDbCircle
 10
7565461.87708160281
 20
5719041.10372657794
 40
0.025000000373
  0
CIRCLE
  5
1E5
100
AcDbEntity
  8
MK_KAN_SAN_PION
  6
ByLayer
370
35
100
AcDbCircle
 10
7565460.01039015874
 20
5719040.88182454277
 40
0.025000000373
  0
CIRCLE
  5
1E6
100
AcDbEntity
  8
MK_KAN_SAN_PION
  6
ByLayer
370
35
100
AcDbCircle
 10
7565462.22277951054
 20
5719040.07028091792
 40
0.05999999959
  0
CIRCLE
  5
1E7
100
AcDbEntity
  8
MK_KAN_SAN_PION
  6
ByLayer
370
35
100
AcDbCircle
 10
7565458.92291069031
 20
5719039.48794455268
 40
0.05999999959
  0
CIRCLE
  5
1E8
100
AcDbEntity
  8
MK_KAN_SAN_PION
  6
ByLayer
370
35
100
AcDbCircle
 10
7565458.34938382916
 20
5719044.82596356329
 40
0.05999999959
  0
CIRCLE
  5
1E9
100
AcDbEntity
  8
MK_KAN_SAN_PION
  6
ByLayer
370
35
100
AcDbCircle
 10
7565458.31915259175
 20
5719045.22774742171
 40
0.174999999814
  0
CIRCLE
  5
1EA
100
AcDbEntity
  8
MK_KAN_SAN_PION
  6
ByLayer
370
35
100
AcDbCircle
 10
7565456.60266826954
 20
5719044.94769756589
 40
0.05999999959
  0
CIRCLE
  5
1EB
100
AcDbEntity
  8
MK_KAN_SAN_PION
  6
ByLayer
370
35
100
AcDbCircle
 10
7565456.91181656439
 20
5719044.95099233184
 40
0.174999999814
  0
CIRCLE
  5
1EC
100
AcDbEntity
  8
MK_KAN_SAN_PION
  6
ByLayer
370
35
100
AcDbCircle
 10
7565447.2014773367
 20
5719039.90655513387
 40
0.05999999959
  0
CIRCLE
  5
1ED
100
AcDbEntity
  8
MK_KAN_SAN_PION
  6
ByLayer
370
35
100
AcDbCircle
 10
7565446.47508045007
 20
5719039.68669645302
 40
0.174999999814
  0
CIRCLE
  5
1EE
100
AcDbEntity
  8
MK_KAN_SAN_PION
  6
ByLayer
370
35
100
AcDbCircle
 10
7565458.8143044645
 20
5719040.40151156578
 40
0.05999999959
  0
CIRCLE
  5
1EF
100
AcDbEntity
  8
MK_KAN_SAN_PION
  6
ByLayer
370
35
100
AcDbCircle
 10
7565458.70569823962
 20
5719041.31507857889
 40
0.05999999959
  0
CIRCLE
  5
1F0
100
AcDbEntity
  8
MK_KAN_SAN_PION
  6
ByLayer
370
35
100
AcDbCircle
 10
7565458.59709201381
 20
5719042.22864559293
 40
0.05999999959
  0
CIRCLE
  5
1F1
100
AcDbEntity
  8
MK_KAN_SAN_PION
  6
ByLayer
370
35
100
AcDbCircle
 10
7565458.48848578893
 20
5719043.14221260604
 40
0.05999999959
  0
CIRCLE
  5
1F2
100
AcDbEntity
  8
MK_KAN_SAN_PION
  6
ByLayer
370
35
100
AcDbCircle
 10
7565453.40843127668
 20
5719051.34184471611
 40
0.05999999959
  0
CIRCLE
  5
1F3
100
AcDbEntity
  8
MK_KAN_SAN_PION
  6
ByLayer
370
35
100
AcDbCircle
 10
7565453.40843127668
 20
5719051.34184471611
 40
0.05999999959
  0
CIRCLE
  5
1F4
100
AcDbEntity
  8
MK_KAN_SAN_PION
  6
ByLayer
370
35
100
AcDbCircle
 10
7565453.40843127668
 20
5719051.34184471611
 40
0.05999999959
  0
CIRCLE
  5
1F5
100
AcDbEntity
  8
MK_KAN_SAN_PION
  6
ByLayer
370
35
100
AcDbCircle
 10
7565446.74710495956
 20
5719038.8243858777
 40
0.05999999959
  0
CIRCLE
  5
1F6
100
AcDbEntity
  8
MK_KAN_SAN_PION
  6
ByLayer
370
35
100
AcDbCircle
 10
7565456.8650559485
 20
5719046.92198432237
 40
0.05999999959
  0
CIRCLE
  5
1F7
100
AcDbEntity
  8
MK_KAN_SAN_PION
  6
ByLayer
370
35
100
AcDbCircle
 10
7565456.5140571408
 20
5719038.52294544503
 40
0.05999999959
  0
CIRCLE
  5
1F8
100
AcDbEntity
  8
MK_KAN_SAN_PION
  6
ByLayer
370
35
100
AcDbCircle
 10
7565456.7801845856
 20
5719038.0741699338
 40
0.174999999814
  0
CIRCLE
  5
1F9
100
AcDbEntity
  8
MK_KAN_SAN_PION
  6
ByLayer
370
35
100
AcDbCircle
 10
7565461.33292635996
 20
5719045.08419224061
 40
0.05999999959
  0
CIRCLE
  5
1FA
100
AcDbEntity
  8
MK_KAN_SAN_PION
  6
ByLayer
370
35
100
AcDbCircle
 10
7565454.55750137195
 20
5719044.54624561593
 40
0.05999999959
  0
CIRCLE
  5
1FB
100
AcDbEntity
  8
MK_KAN_SAN_PION
  6
ByLayer
370
35
100
AcDbCircle
 10
7565456.06116462592
 20
5719042.33255821001
 40
0.05999999959
  0
CIRCLE
  5
1FC
100
AcDbEntity
  8
MK_KAN_SAN_PION
  6
ByLayer
370
35
100
AcDbCircle
 10
7565454.74981770944
 20
5719039.94352142606
 40
0.05999999959
  0
CIRCLE
  5
1FD
100
AcDbEntity
  8
MK_KAN_SAN_PION
  6
ByLayer
370
35
100
AcDbCircle
 10
7565448.59543351457
 20
5719038.04499279708
 40
0.05999999959
  0
CIRCLE
  5
1FE
100
AcDbEntity
  8
MK_KAN_SAN_PION
  6
ByLayer
370
35
100
AcDbCircle
 10
7565456.86645144317
 20
5719046.92183923069
 40
0.05999999959
  0
POLYLINE
  5
1FF
100
AcDbEntity
  8
MK_KAN_SAN_PION
  6
CONTINUOUS
370
35
100
AcDb2dPolyline
 66
1
 70
128
  0
VERTEX
  5
200
100
AcDbEntity
  8
MK_KAN_SAN_PION
100
AcDbVertex
100
AcDb2dVertex
 10
7565445.27620895766
 20
5719038.26339444425
  0
VERTEX
  5
201
100
AcDbEntity
  8
MK_KAN_SAN_PION
100
AcDbVertex
100
AcDb2dVertex
 10
7565445.57345138583
 20
5719035.74825867824
  0
SEQEND
  5
202
100
AcDbEntity
  8
MK_KAN_SAN_PION
  0
POLYLINE
  5
203
100
AcDbEntity
  8
MK_KAN_SAN_PION
  6
CONTINUOUS
370
35
100
AcDb2dPolyline
 66
1
 70
128
  0
VERTEX
  5
204
100
AcDbEntity
  8
MK_KAN_SAN_PION
100
AcDbVertex
100
AcDb2dVertex
 10
7565447.19809695613
 20
5719039.90411610715
  0
VERTEX
  5
205
100
AcDbEntity
  8
MK_KAN_SAN_PION
100
AcDbVertex
100
AcDb2dVertex
 10
7565445.27620895766
 20
5719038.26339444425
  0
SEQEND
  5
206
100
AcDbEntity
  8
MK_KAN_SAN_PION
  0
CIRCLE
  5
207
100
AcDbEntity
  8
MK_KAN_SAN_PION_0
  6
ByLayer
370
35
100
AcDbCircle
 10
7565458.99186275434
 20
5719049.42625459656
 40
0.05999999959
  0
CIRCLE
  5
208
100
AcDbEntity
  8
MK_KAN_SAN_PION_0
  6
ByLayer
370
35
100
AcDbCircle
 10
7565460.57649862673
 20
5719049.61463849992
 40
0.05999999959
  0
CIRCLE
  5
209
100
AcDbEntity
  8
MK_KAN_SAN_PION_0
  6
ByLayer
370
35
100
AcDbCircle
 10
7565458.99186275434
 20
5719049.42625459656
 40
0.05999999959
  0
CIRCLE
  5
20A
100
AcDbEntity
  8
MK_KAN_SAN_PION_0
  6
ByLayer
370
35
100
AcDbCircle
 10
7565460.57649862673
 20
5719049.61463849992
 40
0.05999999959
  0
CIRCLE
  5
20B
100
AcDbEntity
  8
MK_KAN_SAN_PION_0
  6
ByLayer
370
35
100
AcDbCircle
 10
7565457.86472506728
 20
5719048.9850288732
 40
0.05999999959
  0
POLYLINE
  5
20C
100
AcDbEntity
  8
MK_KAN_SAN_PLYTA
  6
CONTINUOUS
370
35
100
AcDb2dPolyline
 66
1
 70
128
  0
VERTEX
  5
20D
100
AcDbEntity
  8
MK_KAN_SAN_PLYTA
100
AcDbVertex
100
AcDb2dVertex
 10
7565451.79950375669
 20
5719054.41229091678
  0
VERTEX
  5
20E
100
AcDbEntity
  8
MK_KAN_SAN_PLYTA
100
AcDbVertex
100
AcDb2dVertex
 10
7565453.17679322325
 20
5719051.78389830235
  0
SEQEND
  5
20F
100
AcDbEntity
  8
MK_KAN_SAN_PLYTA
  0
POLYLINE
  5
210
100
AcDbEntity
  8
MK_KAN_SAN_PLYTA
  6
CONTINUOUS
370
35
100
AcDb2dPolyline
 66
1
 70
128
  0
VERTEX
  5
211
100
AcDbEntity
  8
MK_KAN_SAN_PLYTA
100
AcDbVertex
100
AcDb2dVertex
 10
7565448.941030032
 20
5719039.65650558099
  0
VERTEX
  5
212
100
AcDbEntity
  8
MK_KAN_SAN_PLYTA
100
AcDbVertex
100
AcDb2dVertex
 10
7565454.55266587622
 20
5719040.32362531871
  0
SEQEND
  5
213
100
AcDbEntity
  8
MK_KAN_SAN_PLYTA
  0
POLYLINE
  5
214
100
AcDbEntity
  8
MK_KAN_SAN_PLYTA
  6
CONTINUOUS
370
35
100
AcDb2dPolyline
 66
1
 70
128
  0
VERTEX
  5
215
100
AcDbEntity
  8
MK_KAN_SAN_PLYTA
100
AcDbVertex
100
AcDb2dVertex
 10
7565454.55266587622
 20
5719040.32362531871
  0
VERTEX
  5
216
100
AcDbEntity
  8
MK_KAN_SAN_PLYTA
100
AcDbVertex
100
AcDb2dVertex
 10
7565454.68469862081
 20
5719040.4912860794
  0
SEQEND
  5
217
100
AcDbEntity
  8
MK_KAN_SAN_PLYTA
  0
POLYLINE
  5
218
100
AcDbEntity
  8
MK_KAN_SAN_PLYTA
  6
CONTINUOUS
370
35
100
AcDb2dPolyline
 66
1
 70
128
  0
VERTEX
  5
219
100
AcDbEntity
  8
MK_KAN_SAN_PLYTA
100
AcDbVertex
100
AcDb2dVertex
 10
7565454.73687046487
 20
5719041.41046105046
  0
VERTEX
  5
21A
100
AcDbEntity
  8
MK_KAN_SAN_PLYTA
100
AcDbVertex
100
AcDb2dVertex
 10
7565454.5587502569
 20
5719041.55073060282
  0
SEQEND
  5
21B
100
AcDbEntity
  8
MK_KAN_SAN_PLYTA
  0
POLYLINE
  5
21C
100
AcDbEntity
  8
MK_KAN_SAN_PLYTA
  6
CONTINUOUS
370
35
100
AcDb2dPolyline
 66
1
 70
128
  0
VERTEX
  5
21D
100
AcDbEntity
  8
MK_KAN_SAN_PLYTA
100
AcDbVertex
100
AcDb2dVertex
 10
7565454.09552783426
 20
5719046.71788123529
  0
VERTEX
  5
21E
100
AcDbEntity
  8
MK_KAN_SAN_PLYTA
100
AcDbVertex
100
AcDb2dVertex
 10
7565460.6768013509
 20
5719047.5002729632
  0
SEQEND
  5
21F
100
AcDbEntity
  8
MK_KAN_SAN_PLYTA
  0
POLYLINE
  5
220
100
AcDbEntity
  8
MK_KAN_SAN_PLYTA
  6
CONTINUOUS
370
35
100
AcDb2dPolyline
 66
1
 70
128
  0
VERTEX
  5
221
100
AcDbEntity
  8
MK_KAN_SAN_PLYTA
100
AcDbVertex
100
AcDb2dVertex
 10
7565453.9288691543
 20
5719046.84912484232
  0
VERTEX
  5
222
100
AcDbEntity
  8
MK_KAN_SAN_PLYTA
100
AcDbVertex
100
AcDb2dVertex
 10
7565454.09552783426
 20
5719046.71788123529
  0
SEQEND
  5
223
100
AcDbEntity
  8
MK_KAN_SAN_PLYTA
  0
POLYLINE
  5
224
100
AcDbEntity
  8
MK_KAN_SAN_PLYTA
  6
CONTINUOUS
370
35
100
AcDb2dPolyline
 66
1
 70
128
  0
VERTEX
  5
225
100
AcDbEntity
  8
MK_KAN_SAN_PLYTA
100
AcDbVertex
100
AcDb2dVertex
 10
7565448.18832292594
 20
5719038.70068627689
  0
VERTEX
  5
226
100
AcDbEntity
  8
MK_KAN_SAN_PLYTA
100
AcDbVertex
100
AcDb2dVertex
 10
7565448.941030032
 20
5719039.65650558099
  0
SEQEND
  5
227
100
AcDbEntity
  8
MK_KAN_SAN_PLYTA
  0
POLYLINE
  5
228
100
AcDbEntity
  8
MK_KAN_SAN_PLYTA
  6
CONTINUOUS
370
35
100
AcDb2dPolyline
 66
1
 70
128
  0
VERTEX
  5
229
100
AcDbEntity
  8
MK_KAN_SAN_PLYTA
100
AcDbVertex
100
AcDb2dVertex
 10
7565461.193469055
 20
5719044.2242377894
  0
VERTEX
  5
22A
100
AcDbEntity
  8
MK_KAN_SAN_PLYTA
100
AcDbVertex
100
AcDb2dVertex
 10
7565460.79356267303
 20
5719044.17669631541
  0
SEQEND
  5
22B
100
AcDbEntity
  8
MK_KAN_SAN_PLYTA
  0
POLYLINE
  5
22C
100
AcDbEntity
  8
MK_KAN_SAN_PLYTA
  6
CONTINUOUS
370
35
100
AcDb2dPolyline
 66
1
 70
128
  0
VERTEX
  5
22D
100
AcDbEntity
  8
MK_KAN_SAN_PLYTA
100
AcDbVertex
100
AcDb2dVertex
 10
7565460.57649862673
 20
5719049.61463849992
  0
VERTEX
  5
22E
100
AcDbEntity
  8
MK_KAN_SAN_PLYTA
100
AcDbVertex
100
AcDb2dVertex
 10
7565460.80804495793
 20
5719047.66693164315
  0
SEQEND
  5
22F
100
AcDbEntity
  8
MK_KAN_SAN_PLYTA
  0
POLYLINE
  5
230
100
AcDbEntity
  8
MK_KAN_SAN_PLYTA
  6
CONTINUOUS
370
35
100
AcDb2dPolyline
 66
1
 70
128
  0
VERTEX
  5
231
100
AcDbEntity
  8
MK_KAN_SAN_PLYTA
100
AcDbVertex
100
AcDb2dVertex
 10
7565460.80804495793
 20
5719047.66693164315
  0
VERTEX
  5
232
100
AcDbEntity
  8
MK_KAN_SAN_PLYTA
100
AcDbVertex
100
AcDb2dVertex
 10
7565460.6768013509
 20
5719047.5002729632
  0
SEQEND
  5
233
100
AcDbEntity
  8
MK_KAN_SAN_PLYTA
  0
POLYLINE
  5
234
100
AcDbEntity
  8
MK_KAN_SAN_PLYTA
  6
CONTINUOUS
370
35
100
AcDb2dPolyline
 66
1
 70
128
  0
VERTEX
  5
235
100
AcDbEntity
  8
MK_KAN_SAN_PLYTA
100
AcDbVertex
100
AcDb2dVertex
 10
7565458.99186275434
 20
5719049.42625459656
  0
VERTEX
  5
236
100
AcDbEntity
  8
MK_KAN_SAN_PLYTA
100
AcDbVertex
100
AcDb2dVertex
 10
7565459.22340908553
 20
5719047.47854773886
  0
SEQEND
  5
237
100
AcDbEntity
  8
MK_KAN_SAN_PLYTA
  0
POLYLINE
  5
238
100
AcDbEntity
  8
MK_KAN_SAN_PLYTA
  6
CONTINUOUS
370
35
100
AcDb2dPolyline
 66
1
 70
128
  0
VERTEX
  5
239
100
AcDbEntity
  8
MK_KAN_SAN_PLYTA
100
AcDbVertex
100
AcDb2dVertex
 10
7565459.22340908553
 20
5719047.47854773886
  0
VERTEX
  5
23A
100
AcDbEntity
  8
MK_KAN_SAN_PLYTA
100
AcDbVertex
100
AcDb2dVertex
 10
7565459.0921654785
 20
5719047.31188905891
  0
SEQEND
  5
23B
100
AcDbEntity
  8
MK_KAN_SAN_PLYTA
  0
POLYLINE
  5
23C
100
AcDbEntity
  8
MK_KAN_SAN_PLYTA
  6
CONTINUOUS
370
35
100
AcDb2dPolyline
 66
1
 70
128
  0
VERTEX
  5
23D
100
AcDbEntity
  8
MK_KAN_SAN_PLYTA
100
AcDbVertex
100
AcDb2dVertex
 10
7565457.77696934994
 20
5719047.31061770674
  0
VERTEX
  5
23E
100
AcDbEntity
  8
MK_KAN_SAN_PLYTA
100
AcDbVertex
100
AcDb2dVertex
 10
7565457.64572574291
 20
5719047.14395902585
  0
SEQEND
  5
23F
100
AcDbEntity
  8
MK_KAN_SAN_PLYTA
  0
POLYLINE
  5
240
100
AcDbEntity
  8
MK_KAN_SAN_PLYTA
  6
CONTINUOUS
370
35
100
AcDb2dPolyline
 66
1
 70
128
  0
VERTEX
  5
241
100
AcDbEntity
  8
MK_KAN_SAN_PLYTA
100
AcDbVertex
100
AcDb2dVertex
 10
7565451.79950375669
 20
5719054.41229091678
  0
VERTEX
  5
242
100
AcDbEntity
  8
MK_KAN_SAN_PLYTA
100
AcDbVertex
100
AcDb2dVertex
 10
7565453.38064914476
 20
5719051.39486359991
  0
SEQEND
  5
243
100
AcDbEntity
  8
MK_KAN_SAN_PLYTA
  0
POLYLINE
  5
244
100
AcDbEntity
  8
MK_KAN_SAN_PLYTA
  6
CONTINUOUS
370
35
100
AcDb2dPolyline
 66
1
 70
128
  0
VERTEX
  5
245
100
AcDbEntity
  8
MK_KAN_SAN_PLYTA
100
AcDbVertex
100
AcDb2dVertex
 10
7565456.87103682477
 20
5719046.925601881
  0
VERTEX
  5
246
100
AcDbEntity
  8
MK_KAN_SAN_PLYTA
100
AcDbVertex
100
AcDb2dVertex
 10
7565456.7361751413
 20
5719047.03180537187
  0
SEQEND
  5
247
100
AcDbEntity
  8
MK_KAN_SAN_PLYTA
  0
POLYLINE
  5
248
100
AcDbEntity
  8
MK_KAN_SAN_PLYTA
  6
CONTINUOUS
370
35
100
AcDb2dPolyline
 66
1
 70
128
  0
VERTEX
  5
249
100
AcDbEntity
  8
MK_KAN_SAN_PLYTA
100
AcDbVertex
100
AcDb2dVertex
 10
7565448.18832292594
 20
5719038.70068627689
  0
VERTEX
  5
24A
100
AcDbEntity
  8
MK_KAN_SAN_PLYTA
100
AcDbVertex
100
AcDb2dVertex
 10
7565448.941030032
 20
5719039.65650558099
  0
SEQEND
  5
24B
100
AcDbEntity
  8
MK_KAN_SAN_PLYTA
  0
POLYLINE
  5
24C
100
AcDbEntity
  8
MK_KAN_SAN_PLYTA
  6
CONTINUOUS
370
35
100
AcDb2dPolyline
 66
1
 70
128
  0
VERTEX
  5
24D
100
AcDbEntity
  8
MK_KAN_SAN_PLYTA
100
AcDbVertex
100
AcDb2dVertex
 10
7565454.32098199893
 20
5719043.55077468231
  0
VERTEX
  5
24E
100
AcDbEntity
  8
MK_KAN_SAN_PLYTA
100
AcDbVertex
100
AcDb2dVertex
 10
7565454.48764067888
 20
5719043.41953107528
  0
SEQEND
  5
24F
100
AcDbEntity
  8
MK_KAN_SAN_PLYTA
  0
POLYLINE
  5
250
100
AcDbEntity
  8
MK_KAN_SAN_PLYTA
  6
CONTINUOUS
370
35
100
AcDb2dPolyline
 66
1
 70
128
  0
VERTEX
  5
251
100
AcDbEntity
  8
MK_KAN_SAN_PLYTA
100
AcDbVertex
100
AcDb2dVertex
 10
7565450.03278805967
 20
5719023.18553050142
  0
VERTEX
  5
252
100
AcDbEntity
  8
MK_KAN_SAN_PLYTA
100
AcDbVertex
100
AcDb2dVertex
 10
7565448.18832292594
 20
5719038.70068627689
  0
SEQEND
  5
253
100
AcDbEntity
  8
MK_KAN_SAN_PLYTA
  0
POLYLINE
  5
254
100
AcDbEntity
  8
MK_KAN_SAN_PLYTA
  6
CONTINUOUS
370
35
100
AcDb2dPolyline
 66
1
 70
128
  0
VERTEX
  5
255
100
AcDbEntity
  8
MK_KAN_SAN_PLYTA
100
AcDbVertex
100
AcDb2dVertex
 10
7565454.75690072402
 20
5719039.88394096866
  0
VERTEX
  5
256
100
AcDbEntity
  8
MK_KAN_SAN_PLYTA
100
AcDbVertex
100
AcDb2dVertex
 10
7565453.3953947546
 20
5719051.33657122962
  0
SEQEND
  5
257
100
AcDbEntity
  8
MK_KAN_SAN_PLYTA
  0
POLYLINE
  5
258
100
AcDbEntity
  8
MK_KAN_SAN_PLYTA
  6
CONTINUOUS
370
35
100
AcDb2dPolyline
 66
1
 70
128
  0
VERTEX
  5
259
100
AcDbEntity
  8
MK_KAN_SAN_PLYTA
100
AcDbVertex
100
AcDb2dVertex
 10
7565458.92277652863
 20
5719039.48792860284
  0
VERTEX
  5
25A
100
AcDbEntity
  8
MK_KAN_SAN_PLYTA
100
AcDbVertex
100
AcDb2dVertex
 10
7565458.54202401824
 20
5719039.78777096793
  0
SEQEND
  5
25B
100
AcDbEntity
  8
MK_KAN_SAN_PLYTA
  0
POLYLINE
  5
25C
100
AcDbEntity
  8
MK_KAN_SAN_PLYTA
  6
CONTINUOUS
370
35
100
AcDb2dPolyline
 66
1
 70
128
  0
VERTEX
  5
25D
100
AcDbEntity
  8
MK_KAN_SAN_PLYTA
100
AcDbVertex
100
AcDb2dVertex
 10
7565458.54202401824
 20
5719039.78777096793
  0
VERTEX
  5
25E
100
AcDbEntity
  8
MK_KAN_SAN_PLYTA
100
AcDbVertex
100
AcDb2dVertex
 10
7565458.32479561865
 20
5719041.61503915582
  0
SEQEND
  5
25F
100
AcDbEntity
  8
MK_KAN_SAN_PLYTA
  0
POLYLINE
  5
260
100
AcDbEntity
  8
MK_KAN_SAN_PLYTA
  6
CONTINUOUS
370
35
100
AcDb2dPolyline
 66
1
 70
128
  0
VERTEX
  5
261
100
AcDbEntity
  8
MK_KAN_SAN_PLYTA
100
AcDbVertex
100
AcDb2dVertex
 10
7565458.34938382916
 20
5719044.82596356329
  0
VERTEX
  5
262
100
AcDbEntity
  8
MK_KAN_SAN_PLYTA
100
AcDbVertex
100
AcDb2dVertex
 10
7565458.44374104775
 20
5719044.0322554484
  0
SEQEND
  5
263
100
AcDbEntity
  8
MK_KAN_SAN_PLYTA
  0
POLYLINE
  5
264
100
AcDbEntity
  8
MK_KAN_SAN_PLYTA
  6
CONTINUOUS
370
35
100
AcDb2dPolyline
 66
1
 70
128
  0
VERTEX
  5
265
100
AcDbEntity
  8
MK_KAN_SAN_PLYTA
100
AcDbVertex
100
AcDb2dVertex
 10
7565458.44374104775
 20
5719044.0322554484
  0
VERTEX
  5
266
100
AcDbEntity
  8
MK_KAN_SAN_PLYTA
100
AcDbVertex
100
AcDb2dVertex
 10
7565458.32000338845
 20
5719043.87512813788
  0
SEQEND
  5
267
100
AcDbEntity
  8
MK_KAN_SAN_PLYTA
  0
POLYLINE
  5
268
100
AcDbEntity
  8
MK_KAN_SAN_PLYTA
  6
CONTINUOUS
370
35
100
AcDb2dPolyline
 66
1
 70
128
  0
VERTEX
  5
269
100
AcDbEntity
  8
MK_KAN_SAN_PLYTA
100
AcDbVertex
100
AcDb2dVertex
 10
7565456.59922701027
 20
5719044.94954923261
  0
VERTEX
  5
26A
100
AcDbEntity
  8
MK_KAN_SAN_PLYTA
100
AcDbVertex
100
AcDb2dVertex
 10
7565456.7324614739
 20
5719043.82881595008
  0
SEQEND
  5
26B
100
AcDbEntity
  8
MK_KAN_SAN_PLYTA
  0
POLYLINE
  5
26C
100
AcDbEntity
  8
MK_KAN_SAN_PLYTA
  6
CONTINUOUS
370
35
100
AcDb2dPolyline
 66
1
 70
128
  0
VERTEX
  5
26D
100
AcDbEntity
  8
MK_KAN_SAN_PLYTA
100
AcDbVertex
100
AcDb2dVertex
 10
7565456.7324614739
 20
5719043.82881595008
  0
VERTEX
  5
26E
100
AcDbEntity
  8
MK_KAN_SAN_PLYTA
100
AcDbVertex
100
AcDb2dVertex
 10
7565456.6087238146
 20
5719043.67168863956
  0
SEQEND
  5
26F
100
AcDbEntity
  8
MK_KAN_SAN_PLYTA
  0
POLYLINE
  5
270
100
AcDbEntity
  8
MK_KAN_SAN_PLYTA
  6
CONTINUOUS
370
35
100
AcDb2dPolyline
 66
1
 70
128
  0
VERTEX
  5
271
100
AcDbEntity
  8
MK_KAN_SAN_PLYTA
100
AcDbVertex
100
AcDb2dVertex
 10
7565448.941030032
 20
5719039.65650558099
  0
VERTEX
  5
272
100
AcDbEntity
  8
MK_KAN_SAN_PLYTA
100
AcDbVertex
100
AcDb2dVertex
 10
7565447.24347511958
 20
5719039.4546976909
  0
SEQEND
  5
273
100
AcDbEntity
  8
MK_KAN_SAN_PLYTA
  0
POLYLINE
  5
274
100
AcDbEntity
  8
MK_KAN_SAN_PLYTA
  6
CONTINUOUS
370
35
100
AcDb2dPolyline
 66
1
 70
128
  0
VERTEX
  5
275
100
AcDbEntity
  8
MK_KAN_SAN_PLYTA
100
AcDbVertex
100
AcDb2dVertex
 10
7565447.48341005854
 20
5719039.9380345596
  0
VERTEX
  5
276
100
AcDbEntity
  8
MK_KAN_SAN_PLYTA
100
AcDbVertex
100
AcDb2dVertex
 10
7565447.98520025332
 20
5719039.54287509434
  0
SEQEND
  5
277
100
AcDbEntity
  8
MK_KAN_SAN_PLYTA
  0
POLYLINE
  5
278
100
AcDbEntity
  8
MK_KAN_SAN_PLYTA
  6
CONTINUOUS
370
35
100
AcDb2dPolyline
 66
1
 70
128
  0
VERTEX
  5
279
100
AcDbEntity
  8
MK_KAN_SAN_PLYTA
100
AcDbVertex
100
AcDb2dVertex
 10
7565456.00901897252
 20
5719040.56330224685
  0
VERTEX
  5
27A
100
AcDbEntity
  8
MK_KAN_SAN_PLYTA
100
AcDbVertex
100
AcDb2dVertex
 10
7565455.90969000943
 20
5719041.39883136563
  0
SEQEND
  5
27B
100
AcDbEntity
  8
MK_KAN_SAN_PLYTA
  0
POLYLINE
  5
27C
100
AcDbEntity
  8
MK_KAN_SAN_PLYTA
  6
CONTINUOUS
370
35
100
AcDb2dPolyline
 66
1
 70
128
  0
VERTEX
  5
27D
100
AcDbEntity
  8
MK_KAN_SAN_PLYTA
100
AcDbVertex
100
AcDb2dVertex
 10
7565454.73687046487
 20
5719041.41046105046
  0
VERTEX
  5
27E
100
AcDbEntity
  8
MK_KAN_SAN_PLYTA
100
AcDbVertex
100
AcDb2dVertex
 10
7565458.28493925463
 20
5719041.83226082288
  0
SEQEND
  5
27F
100
AcDbEntity
  8
MK_KAN_SAN_PLYTA
  0
POLYLINE
  5
280
100
AcDbEntity
  8
MK_KAN_SAN_PLYTA
  6
CONTINUOUS
370
35
100
AcDb2dPolyline
 66
1
 70
128
  0
VERTEX
  5
281
100
AcDbEntity
  8
MK_KAN_SAN_PLYTA
100
AcDbVertex
100
AcDb2dVertex
 10
7565455.74303132948
 20
5719041.53007497173
  0
VERTEX
  5
282
100
AcDbEntity
  8
MK_KAN_SAN_PLYTA
100
AcDbVertex
100
AcDb2dVertex
 10
7565455.90969000943
 20
5719041.39883136563
  0
SEQEND
  5
283
100
AcDbEntity
  8
MK_KAN_SAN_PLYTA
  0
POLYLINE
  5
284
100
AcDbEntity
  8
MK_KAN_SAN_PLYTA
  6
CONTINUOUS
370
35
100
AcDb2dPolyline
 66
1
 70
128
  0
VERTEX
  5
285
100
AcDbEntity
  8
MK_KAN_SAN_PLYTA
100
AcDbVertex
100
AcDb2dVertex
 10
7565458.8143044645
 20
5719040.40151156578
  0
VERTEX
  5
286
100
AcDbEntity
  8
MK_KAN_SAN_PLYTA
100
AcDbVertex
100
AcDb2dVertex
 10
7565458.43355195411
 20
5719040.70135393087
  0
SEQEND
  5
287
100
AcDbEntity
  8
MK_KAN_SAN_PLYTA
  0
POLYLINE
  5
288
100
AcDbEntity
  8
MK_KAN_SAN_PLYTA
  6
CONTINUOUS
370
35
100
AcDb2dPolyline
 66
1
 70
128
  0
VERTEX
  5
289
100
AcDbEntity
  8
MK_KAN_SAN_PLYTA
100
AcDbVertex
100
AcDb2dVertex
 10
7565458.70569823962
 20
5719041.31507857889
  0
VERTEX
  5
28A
100
AcDbEntity
  8
MK_KAN_SAN_PLYTA
100
AcDbVertex
100
AcDb2dVertex
 10
7565458.07990977075
 20
5719041.80788660794
  0
SEQEND
  5
28B
100
AcDbEntity
  8
MK_KAN_SAN_PLYTA
  0
POLYLINE
  5
28C
100
AcDbEntity
  8
MK_KAN_SAN_PLYTA
  6
CONTINUOUS
370
35
100
AcDb2dPolyline
 66
1
 70
128
  0
VERTEX
  5
28D
100
AcDbEntity
  8
MK_KAN_SAN_PLYTA
100
AcDbVertex
100
AcDb2dVertex
 10
7565458.59709201381
 20
5719042.22864559293
  0
VERTEX
  5
28E
100
AcDbEntity
  8
MK_KAN_SAN_PLYTA
100
AcDbVertex
100
AcDb2dVertex
 10
7565458.28493925463
 20
5719041.83226082288
  0
SEQEND
  5
28F
100
AcDbEntity
  8
MK_KAN_SAN_PLYTA
  0
POLYLINE
  5
290
100
AcDbEntity
  8
MK_KAN_SAN_PLYTA
  6
CONTINUOUS
370
35
100
AcDb2dPolyline
 66
1
 70
128
  0
VERTEX
  5
291
100
AcDbEntity
  8
MK_KAN_SAN_PLYTA
100
AcDbVertex
100
AcDb2dVertex
 10
7565458.48848578893
 20
5719043.14221260604
  0
VERTEX
  5
292
100
AcDbEntity
  8
MK_KAN_SAN_PLYTA
100
AcDbVertex
100
AcDb2dVertex
 10
7565457.37137224153
 20
5719041.72365459707
  0
SEQEND
  5
293
100
AcDbEntity
  8
MK_KAN_SAN_PLYTA
  0
POLYLINE
  5
294
100
AcDbEntity
  8
MK_KAN_SAN_PLYTA
  6
CONTINUOUS
370
35
100
AcDb2dPolyline
 66
1
 70
128
  0
VERTEX
  5
295
100
AcDbEntity
  8
MK_KAN_SAN_PLYTA
100
AcDbVertex
100
AcDb2dVertex
 10
7565446.74710495956
 20
5719038.8243858777
  0
VERTEX
  5
296
100
AcDbEntity
  8
MK_KAN_SAN_PLYTA
100
AcDbVertex
100
AcDb2dVertex
 10
7565447.24347511958
 20
5719039.4546976909
  0
SEQEND
  5
297
100
AcDbEntity
  8
MK_KAN_SAN_PLYTA
  0
POLYLINE
  5
298
100
AcDbEntity
  8
MK_KAN_SAN_PLYTA
  6
CONTINUOUS
370
35
100
AcDb2dPolyline
 66
1
 70
128
  0
VERTEX
  5
299
100
AcDbEntity
  8
MK_KAN_SAN_PLYTA
100
AcDbVertex
100
AcDb2dVertex
 10
7565447.19809695613
 20
5719039.90411610715
  0
VERTEX
  5
29A
100
AcDbEntity
  8
MK_KAN_SAN_PLYTA
100
AcDbVertex
100
AcDb2dVertex
 10
7565447.48341005854
 20
5719039.9380345596
  0
SEQEND
  5
29B
100
AcDbEntity
  8
MK_KAN_SAN_PLYTA
  0
POLYLINE
  5
29C
100
AcDbEntity
  8
MK_KAN_SAN_PLYTA
  6
CONTINUOUS
370
35
100
AcDb2dPolyline
 66
1
 70
128
  0
VERTEX
  5
29D
100
AcDbEntity
  8
MK_KAN_SAN_PLYTA
100
AcDbVertex
100
AcDb2dVertex
 10
7565456.2244686503
 20
5719038.75099620037
  0
VERTEX
  5
29E
100
AcDbEntity
  8
MK_KAN_SAN_PLYTA
100
AcDbVertex
100
AcDb2dVertex
 10
7565455.90969000943
 20
5719041.39883136563
  0
SEQEND
  5
29F
100
AcDbEntity
  8
MK_KAN_SAN_PLYTA
  0
POLYLINE
  5
2A0
100
AcDbEntity
  8
MK_KAN_SAN_PLYTA
  6
CONTINUOUS
370
35
100
AcDb2dPolyline
 66
1
 70
128
  0
VERTEX
  5
2A1
100
AcDbEntity
  8
MK_KAN_SAN_PLYTA
100
AcDbVertex
100
AcDb2dVertex
 10
7565455.74303132948
 20
5719041.53007497173
  0
VERTEX
  5
2A2
100
AcDbEntity
  8
MK_KAN_SAN_PLYTA
100
AcDbVertex
100
AcDb2dVertex
 10
7565455.90969000943
 20
5719041.39883136563
  0
SEQEND
  5
2A3
100
AcDbEntity
  8
MK_KAN_SAN_PLYTA
  0
POLYLINE
  5
2A4
100
AcDbEntity
  8
MK_KAN_SAN_PLYTA
  6
CONTINUOUS
370
35
100
AcDb2dPolyline
 66
1
 70
128
  0
VERTEX
  5
2A5
100
AcDbEntity
  8
MK_KAN_SAN_PLYTA
100
AcDbVertex
100
AcDb2dVertex
 10
7565456.2244686503
 20
5719038.75099620037
  0
VERTEX
  5
2A6
100
AcDbEntity
  8
MK_KAN_SAN_PLYTA
100
AcDbVertex
100
AcDb2dVertex
 10
7565456.51625984255
 20
5719038.52121081762
  0
SEQEND
  5
2A7
100
AcDbEntity
  8
MK_KAN_SAN_PLYTA
  0
POLYLINE
  5
2A8
100
AcDbEntity
  8
MK_KAN_SAN_PLYTA
  6
CONTINUOUS
370
35
100
AcDb2dPolyline
 66
1
 70
128
  0
VERTEX
  5
2A9
100
AcDbEntity
  8
MK_KAN_SAN_PLYTA
100
AcDbVertex
100
AcDb2dVertex
 10
7565461.40345882624
 20
5719044.49089167826
  0
VERTEX
  5
2AA
100
AcDbEntity
  8
MK_KAN_SAN_PLYTA
100
AcDbVertex
100
AcDb2dVertex
 10
7565461.193469055
 20
5719044.2242377894
  0
SEQEND
  5
2AB
100
AcDbEntity
  8
MK_KAN_SAN_PLYTA
  0
POLYLINE
  5
2AC
100
AcDbEntity
  8
MK_KAN_SAN_PLYTA
  6
CONTINUOUS
370
35
100
AcDb2dPolyline
 66
1
 70
128
  0
VERTEX
  5
2AD
100
AcDbEntity
  8
MK_KAN_SAN_PLYTA
100
AcDbVertex
100
AcDb2dVertex
 10
7565457.61590456031
 20
5719048.66545236949
  0
VERTEX
  5
2AE
100
AcDbEntity
  8
MK_KAN_SAN_PLYTA
100
AcDbVertex
100
AcDb2dVertex
 10
7565457.77696934994
 20
5719047.31061770674
  0
SEQEND
  5
2AF
100
AcDbEntity
  8
MK_KAN_SAN_PLYTA
  0
POLYLINE
  5
2B0
100
AcDbEntity
  8
MK_KAN_SAN_PLYTA
  6
CONTINUOUS
370
35
100
AcDb2dPolyline
 66
1
 70
128
  0
VERTEX
  5
2B1
100
AcDbEntity
  8
MK_KAN_SAN_PLYTA
100
AcDbVertex
100
AcDb2dVertex
 10
7565457.86509832274
 20
5719048.98188914359
  0
VERTEX
  5
2B2
100
AcDbEntity
  8
MK_KAN_SAN_PLYTA
100
AcDbVertex
100
AcDb2dVertex
 10
7565457.61590456031
 20
5719048.66545236949
  0
SEQEND
  5
2B3
100
AcDbEntity
  8
MK_KAN_SAN_PLYTA
  0
POLYLINE
  5
2B4
100
AcDbEntity
  8
MK_KAN_SAN_PLYTA
  6
CONTINUOUS
370
35
100
AcDb2dPolyline
 66
1
 70
128
  0
VERTEX
  5
2B5
100
AcDbEntity
  8
MK_KAN_SAN_PLYTA
100
AcDbVertex
100
AcDb2dVertex
 10
7565456.06327353138
 20
5719042.33321153093
  0
VERTEX
  5
2B6
100
AcDbEntity
  8
MK_KAN_SAN_PLYTA
100
AcDbVertex
100
AcDb2dVertex
 10
7565455.39855436329
 20
5719041.48912303057
  0
SEQEND
  5
2B7
100
AcDbEntity
  8
MK_KAN_SAN_PLYTA
  0
POLYLINE
  5
2B8
100
AcDbEntity
  8
MK_KAN_SAN_PLYTA
  6
CONTINUOUS
370
35
100
AcDb2dPolyline
 66
1
 70
128
  0
VERTEX
  5
2B9
100
AcDbEntity
  8
MK_KAN_SAN_PLYTA
100
AcDbVertex
100
AcDb2dVertex
 10
7565461.33292635996
 20
5719045.08419224061
  0
VERTEX
  5
2BA
100
AcDbEntity
  8
MK_KAN_SAN_PLYTA
100
AcDbVertex
100
AcDb2dVertex
 10
7565461.40345882624
 20
5719044.49089167826
  0
SEQEND
  5
2BB
100
AcDbEntity
  8
MK_KAN_SAN_PLYTA
  0
POLYLINE
  5
2BC
100
AcDbEntity
  8
MK_KAN_SAN_PLYTA
  6
CONTINUOUS
370
35
100
AcDb2dPolyline
 66
1
 70
128
  0
VERTEX
  5
2BD
100
AcDbEntity
  8
MK_KAN_SAN_PLYTA
100
AcDbVertex
100
AcDb2dVertex
 10
7565454.16370765958
 20
5719044.87372507434
  0
VERTEX
  5
2BE
100
AcDbEntity
  8
MK_KAN_SAN_PLYTA
100
AcDbVertex
100
AcDb2dVertex
 10
7565454.57416808046
 20
5719044.55048774835
  0
SEQEND
  5
2BF
100
AcDbEntity
  8
MK_KAN_SAN_PLYTA
  0
POLYLINE
  5
2C0
100
AcDbEntity
  8
MK_KAN_SAN_PLYTA
  6
CONTINUOUS
370
35
100
AcDb2dPolyline
 66
1
 70
128
  0
VERTEX
  5
2C1
100
AcDbEntity
  8
MK_KAN_SAN_PLYTA
100
AcDbVertex
100
AcDb2dVertex
 10
7565448.59510959126
 20
5719038.04771755543
  0
VERTEX
  5
2C2
100
AcDbEntity
  8
MK_KAN_SAN_PLYTA
100
AcDbVertex
100
AcDb2dVertex
 10
7565448.47431074455
 20
5719039.06384569872
  0
SEQEND
  5
2C3
100
AcDbEntity
  8
MK_KAN_SAN_PLYTA
  0
POLYLINE
  5
2C4
100
AcDbEntity
  8
MK_KAN_SAN_PLYTA
  6
CONTINUOUS
370
35
100
AcDb2dPolyline
 66
1
 70
128
  0
VERTEX
  5
2C5
100
AcDbEntity
  8
MK_KAN_SAN_PLYTA
100
AcDbVertex
100
AcDb2dVertex
 10
7565460.46538318135
 20
5719044.13017412554
  0
VERTEX
  5
2C6
100
AcDbEntity
  8
MK_KAN_SAN_PLYTA
100
AcDbVertex
100
AcDb2dVertex
 10
7565459.76191947237
 20
5719044.04654529784
  0
SEQEND
  5
2C7
100
AcDbEntity
  8
MK_KAN_SAN_PLYTA
  0
POLYLINE
  5
2C8
100
AcDbEntity
  8
MK_KAN_SAN_PLYTA
  6
CONTINUOUS
370
35
100
AcDb2dPolyline
 66
1
 70
128
  0
VERTEX
  5
2C9
100
AcDbEntity
  8
MK_KAN_SAN_PLYTA
100
AcDbVertex
100
AcDb2dVertex
 10
7565459.54807561077
 20
5719044.06644008961
  0
VERTEX
  5
2CA
100
AcDbEntity
  8
MK_KAN_SAN_PLYTA
100
AcDbVertex
100
AcDb2dVertex
 10
7565459.73744150437
 20
5719043.99831844773
  0
SEQEND
  5
2CB
100
AcDbEntity
  8
MK_KAN_SAN_PLYTA
  0
POLYLINE
  5
2CC
100
AcDbEntity
  8
MK_KAN_SAN_PLYTA
  6
CONTINUOUS
370
35
100
AcDb2dPolyline
 66
1
 70
128
  0
VERTEX
  5
2CD
100
AcDbEntity
  8
MK_KAN_SAN_PLYTA
100
AcDbVertex
100
AcDb2dVertex
 10
7565459.72681698296
 20
5719044.08768913336
  0
VERTEX
  5
2CE
100
AcDbEntity
  8
MK_KAN_SAN_PLYTA
100
AcDbVertex
100
AcDb2dVertex
 10
7565459.55870013218
 20
5719043.97706940398
  0
SEQEND
  5
2CF
100
AcDbEntity
  8
MK_KAN_SAN_PLYTA
  0
POLYLINE
  5
2D0
100
AcDbEntity
  8
MK_KAN_SAN_PLYTA
  6
CONTINUOUS
370
35
100
AcDb2dPolyline
 66
1
 70
128
  0
VERTEX
  5
2D1
100
AcDbEntity
  8
MK_KAN_SAN_PLYTA
100
AcDbVertex
100
AcDb2dVertex
 10
7565459.55870013218
 20
5719043.97706940398
  0
VERTEX
  5
2D2
100
AcDbEntity
  8
MK_KAN_SAN_PLYTA
100
AcDbVertex
100
AcDb2dVertex
 10
7565459.54807561077
 20
5719044.06644008961
  0
SEQEND
  5
2D3
100
AcDbEntity
  8
MK_KAN_SAN_PLYTA
  0
POLYLINE
  5
2D4
100
AcDbEntity
  8
MK_KAN_SAN_PLYTA
  6
CONTINUOUS
370
35
100
AcDb2dPolyline
 66
1
 70
128
  0
VERTEX
  5
2D5
100
AcDbEntity
  8
MK_KAN_SAN_PLYTA
100
AcDbVertex
100
AcDb2dVertex
 10
7565459.73744150437
 20
5719043.99831844773
  0
VERTEX
  5
2D6
100
AcDbEntity
  8
MK_KAN_SAN_PLYTA
100
AcDbVertex
100
AcDb2dVertex
 10
7565459.72681698296
 20
5719044.08768913336
  0
SEQEND
  5
2D7
100
AcDbEntity
  8
MK_KAN_SAN_PLYTA
  0
POLYLINE
  5
2D8
100
AcDbEntity
  8
MK_KAN_SAN_PLYTA
  6
CONTINUOUS
370
35
100
AcDb2dPolyline
 66
1
 70
128
  0
VERTEX
  5
2D9
100
AcDbEntity
  8
MK_KAN_SAN_PLYTA
100
AcDbVertex
100
AcDb2dVertex
 10
7565459.52890990395
 20
5719043.97352789622
  0
VERTEX
  5
2DA
100
AcDbEntity
  8
MK_KAN_SAN_PLYTA
100
AcDbVertex
100
AcDb2dVertex
 10
7565459.51828538161
 20
5719044.06289858278
  0
SEQEND
  5
2DB
100
AcDbEntity
  8
MK_KAN_SAN_PLYTA
  0
POLYLINE
  5
2DC
100
AcDbEntity
  8
MK_KAN_SAN_PLYTA
  6
CONTINUOUS
370
35
100
AcDb2dPolyline
 66
1
 70
128
  0
VERTEX
  5
2DD
100
AcDbEntity
  8
MK_KAN_SAN_PLYTA
100
AcDbVertex
100
AcDb2dVertex
 10
7565459.76723173354
 20
5719044.00185995456
  0
VERTEX
  5
2DE
100
AcDbEntity
  8
MK_KAN_SAN_PLYTA
100
AcDbVertex
100
AcDb2dVertex
 10
7565459.7566072112
 20
5719044.09123064112
  0
SEQEND
  5
2DF
100
AcDbEntity
  8
MK_KAN_SAN_PLYTA
  0
POLYLINE
  5
2E0
100
AcDbEntity
  8
MK_KAN_SAN_PLYTA
  6
CONTINUOUS
370
35
100
AcDb2dPolyline
 66
1
 70
128
  0
VERTEX
  5
2E1
100
AcDbEntity
  8
MK_KAN_SAN_PLYTA
100
AcDbVertex
100
AcDb2dVertex
 10
7565459.64807081874
 20
5719043.98769392539
  0
VERTEX
  5
2E2
100
AcDbEntity
  8
MK_KAN_SAN_PLYTA
100
AcDbVertex
100
AcDb2dVertex
 10
7565459.6374462964
 20
5719044.07706461195
  0
SEQEND
  5
2E3
100
AcDbEntity
  8
MK_KAN_SAN_PLYTA
  0
POLYLINE
  5
2E4
100
AcDbEntity
  8
MK_KAN_SAN_PLYTA
  6
CONTINUOUS
370
35
100
AcDb2dPolyline
 66
1
 70
128
  0
VERTEX
  5
2E5
100
AcDbEntity
  8
MK_KAN_SAN_PLYTA
100
AcDbVertex
100
AcDb2dVertex
 10
7565459.52359764278
 20
5719044.0182132395
  0
VERTEX
  5
2E6
100
AcDbEntity
  8
MK_KAN_SAN_PLYTA
100
AcDbVertex
100
AcDb2dVertex
 10
7565454.48764067888
 20
5719043.41953107528
  0
SEQEND
  5
2E7
100
AcDbEntity
  8
MK_KAN_SAN_PLYTA
  0
POLYLINE
  5
2E8
100
AcDbEntity
  8
MK_KAN_SAN_PLYTA
  6
CONTINUOUS
370
35
100
AcDb2dPolyline
 66
1
 70
129
  0
VERTEX
  5
2E9
100
AcDbEntity
  8
MK_KAN_SAN_PLYTA
100
AcDbVertex
100
AcDb2dVertex
 10
7565460.16212979052
 20
5719044.40556213539
  0
VERTEX
  5
2EA
100
AcDbEntity
  8
MK_KAN_SAN_PLYTA
100
AcDbVertex
100
AcDb2dVertex
 10
7565460.75793436449
 20
5719044.47639228217
  0
VERTEX
  5
2EB
100
AcDbEntity
  8
MK_KAN_SAN_PLYTA
100
AcDbVertex
100
AcDb2dVertex
 10
7565460.82876451127
 20
5719043.8805877082
  0
VERTEX
  5
2EC
100
AcDbEntity
  8
MK_KAN_SAN_PLYTA
100
AcDbVertex
100
AcDb2dVertex
 10
7565460.2329599373
 20
5719043.80975756142
  0
SEQEND
  5
2ED
100
AcDbEntity
  8
MK_KAN_SAN_PLYTA
  0
POLYLINE
  5
2EE
100
AcDbEntity
  8
MK_KAN_SAN_PLYTA
  6
CONTINUOUS
370
35
100
AcDb2dPolyline
 66
1
 70
129
  0
VERTEX
  5
2EF
100
AcDbEntity
  8
MK_KAN_SAN_PLYTA
100
AcDbVertex
100
AcDb2dVertex
 10
7565459.4044842599
 20
5719044.25581326429
  0
VERTEX
  5
2F0
100
AcDbEntity
  8
MK_KAN_SAN_PLYTA
100
AcDbVertex
100
AcDb2dVertex
 10
7565459.90098807216
 20
5719044.31483838707
  0
VERTEX
  5
2F1
100
AcDbEntity
  8
MK_KAN_SAN_PLYTA
100
AcDbVertex
100
AcDb2dVertex
 10
7565459.96001319401
 20
5719043.81833457481
  0
VERTEX
  5
2F2
100
AcDbEntity
  8
MK_KAN_SAN_PLYTA
100
AcDbVertex
100
AcDb2dVertex
 10
7565459.46350938268
 20
5719043.75930945296
  0
SEQEND
  5
2F3
100
AcDbEntity
  8
MK_KAN_SAN_PLYTA
  0
POLYLINE
  5
2F4
100
AcDbEntity
  8
MK_KAN_SAN_PLYTA
  6
CONTINUOUS
370
35
100
AcDb2dPolyline
 66
1
 70
129
  0
VERTEX
  5
2F5
100
AcDbEntity
  8
MK_KAN_SAN_PLYTA
100
AcDbVertex
100
AcDb2dVertex
 10
7565459.97077627294
 20
5719044.57489531674
  0
VERTEX
  5
2F6
100
AcDbEntity
  8
MK_KAN_SAN_PLYTA
100
AcDbVertex
100
AcDb2dVertex
 10
7565460.96378389653
 20
5719044.6929455623
  0
VERTEX
  5
2F7
100
AcDbEntity
  8
MK_KAN_SAN_PLYTA
100
AcDbVertex
100
AcDb2dVertex
 10
7565461.08183414116
 20
5719043.69993793871
  0
VERTEX
  5
2F8
100
AcDbEntity
  8
MK_KAN_SAN_PLYTA
100
AcDbVertex
100
AcDb2dVertex
 10
7565460.08882651757
 20
5719043.58188769408
  0
SEQEND
  5
2F9
100
AcDbEntity
  8
MK_KAN_SAN_PLYTA
  0
CIRCLE
  5
2FA
100
AcDbEntity
  8
MK_KAN_TECHN1_PRZ
  6
ByLayer
370
35
100
AcDbCircle
 10
7565461.09406676516
 20
5719052.83355748747
 40
0.05999999959
  0
CIRCLE
  5
2FB
100
AcDbEntity
  8
MK_KAN_TECHN1_PRZ
  6
ByLayer
370
35
100
AcDbCircle
 10
7565459.62026701868
 20
5719052.8205904616
 40
0.05999999959
  0
CIRCLE
  5
2FC
100
AcDbEntity
  8
MK_KAN_TECHN1_PRZ
  6
ByLayer
370
35
100
AcDbCircle
 10
7565455.03828096483
 20
5719051.56547685526
 40
0.05999999959
  0
CIRCLE
  5
2FD
100
AcDbEntity
  8
MK_KAN_TECHN1_PRZ
  6
ByLayer
370
35
100
AcDbCircle
 10
7565463.49026262853
 20
5719038.84682584368
 40
0.05999999959
  0
POLYLINE
  5
2FE
100
AcDbEntity
  8
MK_KAN_TECHN1_PRZ
  6
CONTINUOUS
370
35
100
AcDb2dPolyline
 66
1
 70
128
  0
VERTEX
  5
2FF
100
AcDbEntity
  8
MK_KAN_TECHN1_PRZ
100
AcDbVertex
100
AcDb2dVertex
 10
7565462.22277951054
 20
5719040.07028091792
  0
VERTEX
  5
300
100
AcDbEntity
  8
MK_KAN_TECHN1_PRZ
100
AcDbVertex
100
AcDb2dVertex
 10
7565462.56041468214
 20
5719040.4990243325
  0
SEQEND
  5
301
100
AcDbEntity
  8
MK_KAN_TECHN1_PRZ
  0
POLYLINE
  5
302
100
AcDbEntity
  8
MK_KAN_TECHN1_PRZ
  6
CONTINUOUS
370
35
100
AcDb2dPolyline
 66
1
 70
128
  0
VERTEX
  5
303
100
AcDbEntity
  8
MK_KAN_TECHN1_PRZ
100
AcDbVertex
100
AcDb2dVertex
 10
7565458.44270789251
 20
5719057.89335954748
  0
VERTEX
  5
304
100
AcDbEntity
  8
MK_KAN_TECHN1_PRZ
100
AcDbVertex
100
AcDb2dVertex
 10
7565461.12191531435
 20
5719052.78041185439
  0
SEQEND
  5
305
100
AcDbEntity
  8
MK_KAN_TECHN1_PRZ
  0
POLYLINE
  5
306
100
AcDbEntity
  8
MK_KAN_TECHN1_PRZ
  6
CONTINUOUS
370
35
100
AcDb2dPolyline
 66
1
 70
128
  0
VERTEX
  5
307
100
AcDbEntity
  8
MK_KAN_TECHN1_PRZ
100
AcDbVertex
100
AcDb2dVertex
 10
7565461.09406676516
 20
5719052.83355748747
  0
VERTEX
  5
308
100
AcDbEntity
  8
MK_KAN_TECHN1_PRZ
100
AcDbVertex
100
AcDb2dVertex
 10
7565462.60057057161
 20
5719040.16124354675
  0
SEQEND
  5
309
100
AcDbEntity
  8
MK_KAN_TECHN1_PRZ
  0
CIRCLE
  5
30A
100
AcDbEntity
  8
MK_KAN_TECHN2_POD
  6
ByLayer
370
35
100
AcDbCircle
 10
7565470.47920056246
 20
5718982.77095392346
 40
0.05999999959
  0
CIRCLE
  5
30B
100
AcDbEntity
  8
MK_KAN_TECHN2_POD
  6
ByLayer
370
35
100
AcDbCircle
 10
7565458.87481025048
 20
5718996.55182181951
 40
0.05999999959
  0
CIRCLE
  5
30C
100
AcDbEntity
  8
MK_KAN_TECHN2_POD
  6
ByLayer
370
35
100
AcDbCircle
 10
7565448.21795575973
 20
5718995.85528240167
 40
0.05999999959
  0
CIRCLE
  5
30D
100
AcDbEntity
  8
MK_KAN_TECHN2_POD
  6
ByLayer
370
35
100
AcDbCircle
 10
7565448.53441670164
 20
5718995.89290375635
 40
0.05999999959
  0
CIRCLE
  5
30E
100
AcDbEntity
  8
MK_KAN_TECHN2_POD
  6
ByLayer
370
35
100
AcDbCircle
 10
7565461.51262119506
 20
5718988.74408253841
 40
0.05999999959
  0
CIRCLE
  5
30F
100
AcDbEntity
  8
MK_KAN_TECHN2_POD
  6
ByLayer
370
35
100
AcDbCircle
 10
7565461.51262119506
 20
5718988.74408253841
 40
0.05999999959
  0
CIRCLE
  5
310
100
AcDbEntity
  8
MK_KAN_TECHN2_POD
  6
ByLayer
370
35
100
AcDbCircle
 10
7565461.51262119506
 20
5718988.74408253841
 40
0.05999999959
  0
CIRCLE
  5
311
100
AcDbEntity
  8
MK_KAN_TECHN2_PRZ
  6
ByLayer
370
35
100
AcDbCircle
 10
7565459.74186752178
 20
5719003.63919688575
 40
0.05999999959
  0
CIRCLE
  5
312
100
AcDbEntity
  8
MK_KAN_TECHN2_PRZ
  6
ByLayer
370
35
100
AcDbCircle
 10
7565456.19002241828
 20
5719033.51638408192
 40
0.05999999959
  0
CIRCLE
  5
313
100
AcDbEntity
  8
MK_KAN_TECHN2_PRZ
  6
ByLayer
370
35
100
AcDbCircle
 10
7565458.90753366239
 20
5719033.83944591973
 40
0.05999999959
  0
CIRCLE
  5
314
100
AcDbEntity
  8
MK_KAN_TECHN2_PRZ
  6
ByLayer
370
35
100
AcDbCircle
 10
7565461.68286202755
 20
5718987.31206141319
 40
0.05999999959
  0
CIRCLE
  5
315
100
AcDbEntity
  8
MK_KAN_TECHN2_PRZ
  6
ByLayer
370
35
100
AcDbCircle
 10
7565455.71088941954
 20
5719021.97132140026
 40
0.05999999959
  0
POLYLINE
  5
316
100
AcDbEntity
  8
MK_KAN_TECHN2_PRZ
  6
CONTINUOUS
370
35
100
AcDb2dPolyline
 66
1
 70
128
  0
VERTEX
  5
317
100
AcDbEntity
  8
MK_KAN_TECHN2_PRZ
100
AcDbVertex
100
AcDb2dVertex
 10
7565457.28034243174
 20
5719057.28427485656
  0
VERTEX
  5
318
100
AcDbEntity
  8
MK_KAN_TECHN2_PRZ
100
AcDbVertex
100
AcDb2dVertex
 10
7565459.61887812894
 20
5719052.82145850267
  0
SEQEND
  5
319
100
AcDbEntity
  8
MK_KAN_TECHN2_PRZ
  0
POLYLINE
  5
31A
100
AcDbEntity
  8
MK_KAN_TECHN2_PRZ
  6
CONTINUOUS
370
35
100
AcDb2dPolyline
 66
1
 70
128
  0
VERTEX
  5
31B
100
AcDbEntity
  8
MK_KAN_TECHN2_PRZ
100
AcDbVertex
100
AcDb2dVertex
 10
7565448.21795575973
 20
5718995.85528240167
  0
VERTEX
  5
31C
100
AcDbEntity
  8
MK_KAN_TECHN2_PRZ
100
AcDbVertex
100
AcDb2dVertex
 10
7565460.34478851873
 20
5718997.29693858139
  0
SEQEND
  5
31D
100
AcDbEntity
  8
MK_KAN_TECHN2_PRZ
  0
POLYLINE
  5
31E
100
AcDbEntity
  8
MK_KAN_TECHN2_PRZ
  6
CONTINUOUS
370
35
100
AcDb2dPolyline
 66
1
 70
128
  0
VERTEX
  5
31F
100
AcDbEntity
  8
MK_KAN_TECHN2_PRZ
100
AcDbVertex
100
AcDb2dVertex
 10
7565460.47603212576
 20
5718997.46359726135
  0
VERTEX
  5
320
100
AcDbEntity
  8
MK_KAN_TECHN2_PRZ
100
AcDbVertex
100
AcDb2dVertex
 10
7565460.34478851873
 20
5718997.29693858139
  0
SEQEND
  5
321
100
AcDbEntity
  8
MK_KAN_TECHN2_PRZ
  0
POLYLINE
  5
322
100
AcDbEntity
  8
MK_KAN_TECHN2_PRZ
  6
CONTINUOUS
370
35
100
AcDb2dPolyline
 66
1
 70
128
  0
VERTEX
  5
323
100
AcDbEntity
  8
MK_KAN_TECHN2_PRZ
100
AcDbVertex
100
AcDb2dVertex
 10
7565454.11483574286
 20
5719050.97230880242
  0
VERTEX
  5
324
100
AcDbEntity
  8
MK_KAN_TECHN2_PRZ
100
AcDbVertex
100
AcDb2dVertex
 10
7565461.68239042535
 20
5718987.31602840591
  0
SEQEND
  5
325
100
AcDbEntity
  8
MK_KAN_TECHN2_PRZ
  0
POLYLINE
  5
326
100
AcDbEntity
  8
MK_KAN_TECHN2_PRZ
  6
CONTINUOUS
370
35
100
AcDb2dPolyline
 66
1
 70
128
  0
VERTEX
  5
327
100
AcDbEntity
  8
MK_KAN_TECHN2_PRZ
100
AcDbVertex
100
AcDb2dVertex
 10
7565470.48024625797
 20
5718982.77107823733
  0
VERTEX
  5
328
100
AcDbEntity
  8
MK_KAN_TECHN2_PRZ
100
AcDbVertex
100
AcDb2dVertex
 10
7565469.84607652854
 20
5718982.69568718225
  0
SEQEND
  5
329
100
AcDbEntity
  8
MK_KAN_TECHN2_PRZ
  0
POLYLINE
  5
32A
100
AcDbEntity
  8
MK_KAN_TECHN2_PRZ
  6
CONTINUOUS
370
35
100
AcDb2dPolyline
 66
1
 70
128
  0
VERTEX
  5
32B
100
AcDbEntity
  8
MK_KAN_TECHN2_PRZ
100
AcDbVertex
100
AcDb2dVertex
 10
7565469.84607652854
 20
5718982.69568718225
  0
VERTEX
  5
32C
100
AcDbEntity
  8
MK_KAN_TECHN2_PRZ
100
AcDbVertex
100
AcDb2dVertex
 10
7565461.44517897442
 20
5718989.31138876826
  0
SEQEND
  5
32D
100
AcDbEntity
  8
MK_KAN_TECHN2_PRZ
  0
POLYLINE
  5
32E
100
AcDbEntity
  8
MK_KAN_TECHN2_PRZ
  6
CONTINUOUS
370
35
100
AcDb2dPolyline
 66
1
 70
128
  0
VERTEX
  5
32F
100
AcDbEntity
  8
MK_KAN_TECHN2_PRZ
100
AcDbVertex
100
AcDb2dVertex
 10
7565454.11483574286
 20
5719050.97230880242
  0
VERTEX
  5
330
100
AcDbEntity
  8
MK_KAN_TECHN2_PRZ
100
AcDbVertex
100
AcDb2dVertex
 10
7565454.85595841054
 20
5719051.91341769602
  0
SEQEND
  5
331
100
AcDbEntity
  8
MK_KAN_TECHN2_PRZ
  0
POLYLINE
  5
332
100
AcDbEntity
  8
MK_KAN_TECHN2_PRZ
  6
CONTINUOUS
370
35
100
AcDb2dPolyline
 66
1
 70
128
  0
VERTEX
  5
333
100
AcDbEntity
  8
MK_KAN_TECHN2_PRZ
100
AcDbVertex
100
AcDb2dVertex
 10
7565470.47920056246
 20
5718982.77095392346
  0
VERTEX
  5
334
100
AcDbEntity
  8
MK_KAN_TECHN2_PRZ
100
AcDbVertex
100
AcDb2dVertex
 10
7565469.84607652854
 20
5718982.69568718225
  0
SEQEND
  5
335
100
AcDbEntity
  8
MK_KAN_TECHN2_PRZ
  0
POLYLINE
  5
336
100
AcDbEntity
  8
MK_KAN_TECHN2_PRZ
  6
CONTINUOUS
370
35
100
AcDb2dPolyline
 66
1
 70
128
  0
VERTEX
  5
337
100
AcDbEntity
  8
MK_KAN_TECHN2_PRZ
100
AcDbVertex
100
AcDb2dVertex
 10
7565458.87481025048
 20
5718996.55182181951
  0
VERTEX
  5
338
100
AcDbEntity
  8
MK_KAN_TECHN2_PRZ
100
AcDbVertex
100
AcDb2dVertex
 10
7565459.37036452442
 20
5718997.18109758664
  0
SEQEND
  5
339
100
AcDbEntity
  8
MK_KAN_TECHN2_PRZ
  0
CIRCLE
  5
33A
100
AcDbEntity
  8
MK_KAN_TECHN3_POD
  6
ByLayer
370
35
100
AcDbCircle
 10
7565463.49026262853
 20
5719038.84682584368
 40
0.05999999959
  0
POLYLINE
  5
33B
100
AcDbEntity
  8
MK_KAN_TECHN3_POD
  6
CONTINUOUS
370
35
100
AcDb2dPolyline
 66
1
 70
128
  0
VERTEX
  5
33C
100
AcDbEntity
  8
MK_KAN_TECHN3_POD
100
AcDbVertex
100
AcDb2dVertex
 10
7565462.22277951054
 20
5719040.07028091792
  0
VERTEX
  5
33D
100
AcDbEntity
  8
MK_KAN_TECHN3_POD
100
AcDbVertex
100
AcDb2dVertex
 10
7565462.56041468214
 20
5719040.4990243325
  0
SEQEND
  5
33E
100
AcDbEntity
  8
MK_KAN_TECHN3_POD
  0
POLYLINE
  5
33F
100
AcDbEntity
  8
MK_KAN_TECHN3_POD
  6
CONTINUOUS
370
35
100
AcDb2dPolyline
 66
1
 70
128
  0
VERTEX
  5
340
100
AcDbEntity
  8
MK_KAN_TECHN3_POD
100
AcDbVertex
100
AcDb2dVertex
 10
7565463.49026262853
 20
5719038.84682584368
  0
VERTEX
  5
341
100
AcDbEntity
  8
MK_KAN_TECHN3_POD
100
AcDbVertex
100
AcDb2dVertex
 10
7565463.10064325388
 20
5719038.80050730426
  0
SEQEND
  5
342
100
AcDbEntity
  8
MK_KAN_TECHN3_POD
  0
POLYLINE
  5
343
100
AcDbEntity
  8
MK_KAN_TECHN3_POD
  6
CONTINUOUS
370
35
100
AcDb2dPolyline
 66
1
 70
128
  0
VERTEX
  5
344
100
AcDbEntity
  8
MK_KAN_TECHN3_POD
100
AcDbVertex
100
AcDb2dVertex
 10
7565463.10064325388
 20
5719038.80050730426
  0
VERTEX
  5
345
100
AcDbEntity
  8
MK_KAN_TECHN3_POD
100
AcDbVertex
100
AcDb2dVertex
 10
7565463.03811766394
 20
5719038.84974616673
  0
SEQEND
  5
346
100
AcDbEntity
  8
MK_KAN_TECHN3_POD
  0
POLYLINE
  5
347
100
AcDbEntity
  8
MK_KAN_TECHN3_POD
  6
CONTINUOUS
370
35
100
AcDb2dPolyline
 66
1
 70
128
  0
VERTEX
  5
348
100
AcDbEntity
  8
MK_KAN_TECHN3_POD
100
AcDbVertex
100
AcDb2dVertex
 10
7565463.03811766394
 20
5719038.84974616673
  0
VERTEX
  5
349
100
AcDbEntity
  8
MK_KAN_TECHN3_POD
100
AcDbVertex
100
AcDb2dVertex
 10
7565462.91129458323
 20
5719039.91654858179
  0
SEQEND
  5
34A
100
AcDbEntity
  8
MK_KAN_TECHN3_POD
  0
POLYLINE
  5
34B
100
AcDbEntity
  8
MK_KAN_TECHN3_POD
  6
CONTINUOUS
370
35
100
AcDb2dPolyline
 66
1
 70
128
  0
VERTEX
  5
34C
100
AcDbEntity
  8
MK_KAN_TECHN3_POD
100
AcDbVertex
100
AcDb2dVertex
 10
7565462.91129458323
 20
5719039.91654858179
  0
VERTEX
  5
34D
100
AcDbEntity
  8
MK_KAN_TECHN3_POD
100
AcDbVertex
100
AcDb2dVertex
 10
7565462.60057057161
 20
5719040.16124354675
  0
SEQEND
  5
34E
100
AcDbEntity
  8
MK_KAN_TECHN3_POD
  0
POLYLINE
  5
34F
100
AcDbEntity
  8
MK_KAN_TECHN3_POD
  6
CONTINUOUS
370
35
100
AcDb2dPolyline
 66
1
 70
128
  0
VERTEX
  5
350
100
AcDbEntity
  8
MK_KAN_TECHN3_POD
100
AcDbVertex
100
AcDb2dVertex
 10
7565460.64757401124
 20
5719040.38003098313
  0
VERTEX
  5
351
100
AcDbEntity
  8
MK_KAN_TECHN3_POD
100
AcDbVertex
100
AcDb2dVertex
 10
7565462.40727256611
 20
5719040.58923958242
  0
SEQEND
  5
352
100
AcDbEntity
  8
MK_KAN_TECHN3_POD
  0
POLYLINE
  5
353
100
AcDbEntity
  8
MK_KAN_TECHN3_POD
  6
CONTINUOUS
370
35
100
AcDb2dPolyline
 66
1
 70
128
  0
VERTEX
  5
354
100
AcDbEntity
  8
MK_KAN_TECHN3_POD
100
AcDbVertex
100
AcDb2dVertex
 10
7565462.40727256611
 20
5719040.58923958242
  0
VERTEX
  5
355
100
AcDbEntity
  8
MK_KAN_TECHN3_POD
100
AcDbVertex
100
AcDb2dVertex
 10
7565462.53101022542
 20
5719040.74636689294
  0
SEQEND
  5
356
100
AcDbEntity
  8
MK_KAN_TECHN3_POD
  0
POLYLINE
  5
357
100
AcDbEntity
  8
MK_KAN_TECHN3_POD
  6
CONTINUOUS
370
35
100
AcDb2dPolyline
 66
1
 70
128
  0
VERTEX
  5
358
100
AcDbEntity
  8
MK_KAN_TECHN3_POD
100
AcDbVertex
100
AcDb2dVertex
 10
7565461.87963172886
 20
5719041.10668359045
  0
VERTEX
  5
359
100
AcDbEntity
  8
MK_KAN_TECHN3_POD
100
AcDbVertex
100
AcDb2dVertex
 10
7565461.93094729818
 20
5719040.67503050715
  0
SEQEND
  5
35A
100
AcDbEntity
  8
MK_KAN_TECHN3_POD
  0
POLYLINE
  5
35B
100
AcDbEntity
  8
MK_KAN_TECHN3_POD
  6
CONTINUOUS
370
35
100
AcDb2dPolyline
 66
1
 70
128
  0
VERTEX
  5
35C
100
AcDbEntity
  8
MK_KAN_TECHN3_POD
100
AcDbVertex
100
AcDb2dVertex
 10
7565461.93094729818
 20
5719040.67503050715
  0
VERTEX
  5
35D
100
AcDbEntity
  8
MK_KAN_TECHN3_POD
100
AcDbVertex
100
AcDb2dVertex
 10
7565462.08807460871
 20
5719040.55129284784
  0
SEQEND
  5
35E
100
AcDbEntity
  8
MK_KAN_TECHN3_POD
  0
POLYLINE
  5
35F
100
AcDbEntity
  8
MK_KAN_TECHN3_POD
  6
CONTINUOUS
370
35
100
AcDb2dPolyline
 66
1
 70
128
  0
VERTEX
  5
360
100
AcDbEntity
  8
MK_KAN_TECHN3_POD
100
AcDbVertex
100
AcDb2dVertex
 10
7565460.01039168984
 20
5719040.88181166351
  0
VERTEX
  5
361
100
AcDbEntity
  8
MK_KAN_TECHN3_POD
100
AcDbVertex
100
AcDb2dVertex
 10
7565460.64757401124
 20
5719040.38003098313
  0
SEQEND
  5
362
100
AcDbEntity
  8
MK_KAN_TECHN3_POD
  0
POLYLINE
  5
363
100
AcDbEntity
  8
MK_KAN_TECHN3_POD
  6
CONTINUOUS
370
35
100
AcDb2dPolyline
 66
1
 70
128
  0
VERTEX
  5
364
100
AcDbEntity
  8
MK_KAN_TECHN3_POD
100
AcDbVertex
100
AcDb2dVertex
 10
7565470.47920056246
 20
5718982.77095392346
  0
VERTEX
  5
365
100
AcDbEntity
  8
MK_KAN_TECHN3_POD
100
AcDbVertex
100
AcDb2dVertex
 10
7565469.84607652854
 20
5718982.69568718225
  0
SEQEND
  5
366
100
AcDbEntity
  8
MK_KAN_TECHN3_POD
  0
POLYLINE
  5
367
100
AcDbEntity
  8
MK_KAN_TECHN3_PRZ
  6
CONTINUOUS
370
35
100
AcDb2dPolyline
 66
1
 70
128
  0
VERTEX
  5
368
100
AcDbEntity
  8
MK_KAN_TECHN3_PRZ
100
AcDbVertex
100
AcDb2dVertex
 10
7565459.03703287523
 20
5719032.7501325896
  0
VERTEX
  5
369
100
AcDbEntity
  8
MK_KAN_TECHN3_PRZ
100
AcDbVertex
100
AcDb2dVertex
 10
7565456.85465642437
 20
5719051.10770951863
  0
SEQEND
  5
36A
100
AcDbEntity
  8
MK_KAN_TECHN3_PRZ
  0
POLYLINE
  5
36B
100
AcDbEntity
  8
MK_KAN_TECHN3_PRZ
  6
CONTINUOUS
370
35
100
AcDb2dPolyline
 66
1
 70
128
  0
VERTEX
  5
36C
100
AcDbEntity
  8
MK_KAN_TECHN3_PRZ
100
AcDbVertex
100
AcDb2dVertex
 10
7565458.45020178892
 20
5719053.13380047493
  0
VERTEX
  5
36D
100
AcDbEntity
  8
MK_KAN_TECHN3_PRZ
100
AcDbVertex
100
AcDb2dVertex
 10
7565459.39627447166
 20
5719053.24627102353
  0
SEQEND
  5
36E
100
AcDbEntity
  8
MK_KAN_TECHN3_PRZ
  0
POLYLINE
  5
36F
100
AcDbEntity
  8
MK_KAN_TECHN3_PRZ
  6
CONTINUOUS
370
35
100
AcDb2dPolyline
 66
1
 70
128
  0
VERTEX
  5
370
100
AcDbEntity
  8
MK_KAN_TECHN3_PRZ
100
AcDbVertex
100
AcDb2dVertex
 10
7565456.85465642437
 20
5719051.10770951863
  0
VERTEX
  5
371
100
AcDbEntity
  8
MK_KAN_TECHN3_PRZ
100
AcDbVertex
100
AcDb2dVertex
 10
7565458.45020178892
 20
5719053.13380047493
  0
SEQEND
  5
372
100
AcDbEntity
  8
MK_KAN_TECHN3_PRZ
  0
POLYLINE
  5
373
100
AcDbEntity
  8
MK_KAN_TECHN3_PRZ
  6
CONTINUOUS
370
35
100
AcDb2dPolyline
 66
1
 70
128
  0
VERTEX
  5
374
100
AcDbEntity
  8
MK_KAN_TECHN3_PRZ
100
AcDbVertex
100
AcDb2dVertex
 10
7565453.13093292341
 20
5719055.20542301517
  0
VERTEX
  5
375
100
AcDbEntity
  8
MK_KAN_TECHN3_PRZ
100
AcDbVertex
100
AcDb2dVertex
 10
7565455.03828096483
 20
5719051.56547685526
  0
SEQEND
  5
376
100
AcDbEntity
  8
MK_KAN_TECHN3_PRZ
  0
CIRCLE
  5
377
100
AcDbEntity
  8
MK_KAN_TECHN_OPIS
  6
ByLayer
370
18
100
AcDbCircle
 10
7565447.37490724865
 20
5718995.83996634185
 40
0.25
  0
CIRCLE
  5
378
100
AcDbEntity
  8
MK_KAN_TECHN_OPIS
  6
ByLayer
370
18
100
AcDbCircle
 10
7565470.51065318007
 20
5718982.31976666953
 40
0.25
  0
CIRCLE
  5
379
100
AcDbEntity
  8
MK_KAN_TECHN_OPIS
  6
ByLayer
370
18
100
AcDbCircle
 10
7565463.40520879068
 20
5719038.14847094938
 40
0.25
  0
CIRCLE
  5
37A
100
AcDbEntity
  8
MK_KAN_TECHN_OPIS
  6
ByLayer
370
18
100
AcDbCircle
 10
7565445.91630214918
 20
5719008.10936895851
 40
0.25
  0
POLYLINE
  5
37B
100
AcDbEntity
  8
MK_KAN_TECHN_OPIS
  6
CONTINUOUS
370
18
100
AcDb2dPolyline
 66
1
 70
128
  0
VERTEX
  5
37C
100
AcDbEntity
  8
MK_KAN_TECHN_OPIS
100
AcDbVertex
100
AcDb2dVertex
 10
7565453.55304499064
 20
5719055.56337287929
  0
VERTEX
  5
37D
100
AcDbEntity
  8
MK_KAN_TECHN_OPIS
100
AcDbVertex
100
AcDb2dVertex
 10
7565453.52179129329
 20
5719054.45951645263
  0
SEQEND
  5
37E
100
AcDbEntity
  8
MK_KAN_TECHN_OPIS
  0
POLYLINE
  5
37F
100
AcDbEntity
  8
MK_KAN_TECHN_OPIS
  6
CONTINUOUS
370
18
100
AcDb2dPolyline
 66
1
 70
128
  0
VERTEX
  5
380
100
AcDbEntity
  8
MK_KAN_TECHN_OPIS
100
AcDbVertex
100
AcDb2dVertex
 10
7565453.11744268611
 20
5719059.22754493915
  0
VERTEX
  5
381
100
AcDbEntity
  8
MK_KAN_TECHN_OPIS
100
AcDbVertex
100
AcDb2dVertex
 10
7565453.55309840012
 20
5719055.56292361487
  0
SEQEND
  5
382
100
AcDbEntity
  8
MK_KAN_TECHN_OPIS
  0
POLYLINE
  5
383
100
AcDbEntity
  8
MK_KAN_TECHN_OPIS
  6
CONTINUOUS
370
18
100
AcDb2dPolyline
 66
1
 70
128
  0
VERTEX
  5
384
100
AcDbEntity
  8
MK_KAN_TECHN_OPIS
100
AcDbVertex
100
AcDb2dVertex
 10
7565456.75411943439
 20
5719057.61407894734
  0
VERTEX
  5
385
100
AcDbEntity
  8
MK_KAN_TECHN_OPIS
100
AcDbVertex
100
AcDb2dVertex
 10
7565457.6420809254
 20
5719056.5939401025
  0
SEQEND
  5
386
100
AcDbEntity
  8
MK_KAN_TECHN_OPIS
  0
POLYLINE
  5
387
100
AcDbEntity
  8
MK_KAN_TECHN_OPIS
  6
CONTINUOUS
370
18
100
AcDb2dPolyline
 66
1
 70
128
  0
VERTEX
  5
388
100
AcDbEntity
  8
MK_KAN_TECHN_OPIS
100
AcDbVertex
100
AcDb2dVertex
 10
7565456.31846372038
 20
5719061.27870027162
  0
VERTEX
  5
389
100
AcDbEntity
  8
MK_KAN_TECHN_OPIS
100
AcDbVertex
100
AcDb2dVertex
 10
7565456.75411943439
 20
5719057.61407894734
  0
SEQEND
  5
38A
100
AcDbEntity
  8
MK_KAN_TECHN_OPIS
  0
POLYLINE
  5
38B
100
AcDbEntity
  8
MK_KAN_TECHN_OPIS
  6
CONTINUOUS
370
18
100
AcDb2dPolyline
 66
1
 70
128
  0
VERTEX
  5
38C
100
AcDbEntity
  8
MK_KAN_TECHN_OPIS
100
AcDbVertex
100
AcDb2dVertex
 10
7565459.13456681743
 20
5719058.34901304264
  0
VERTEX
  5
38D
100
AcDbEntity
  8
MK_KAN_TECHN_OPIS
100
AcDbVertex
100
AcDb2dVertex
 10
7565458.81349383481
 20
5719057.18575881701
  0
SEQEND
  5
38E
100
AcDbEntity
  8
MK_KAN_TECHN_OPIS
  0
POLYLINE
  5
38F
100
AcDbEntity
  8
MK_KAN_TECHN_OPIS
  6
CONTINUOUS
370
18
100
AcDb2dPolyline
 66
1
 70
128
  0
VERTEX
  5
390
100
AcDbEntity
  8
MK_KAN_TECHN_OPIS
100
AcDbVertex
100
AcDb2dVertex
 10
7565458.69891110435
 20
5719062.01363436691
  0
VERTEX
  5
391
100
AcDbEntity
  8
MK_KAN_TECHN_OPIS
100
AcDbVertex
100
AcDb2dVertex
 10
7565459.13456681743
 20
5719058.34901304264
  0
SEQEND
  5
392
100
AcDbEntity
  8
MK_KAN_TECHN_OPIS
  0
POLYLINE
  5
393
100
AcDbEntity
  8
MK_KAN_TECH_OPIS
  6
CONTINUOUS
370
18
100
AcDb2dPolyline
 66
1
 70
128
  0
VERTEX
  5
394
100
AcDbEntity
  8
MK_KAN_TECH_OPIS
100
AcDbVertex
100
AcDb2dVertex
 10
7565470.49227590952
 20
5718982.77250833996
  0
VERTEX
  5
395
100
AcDbEntity
  8
MK_KAN_TECH_OPIS
100
AcDbVertex
100
AcDb2dVertex
 10
7565469.29790837783
 20
5718984.52570952103
  0
SEQEND
  5
396
100
AcDbEntity
  8
MK_KAN_TECH_OPIS
  0
POLYLINE
  5
397
100
AcDbEntity
  8
MK_KAN_TECH_OPIS
  6
CONTINUOUS
370
18
100
AcDb2dPolyline
 66
1
 70
128
  0
VERTEX
  5
398
100
AcDbEntity
  8
MK_KAN_TECH_OPIS
100
AcDbVertex
100
AcDb2dVertex
 10
7565468.95108169131
 20
5718987.45214609709
  0
VERTEX
  5
399
100
AcDbEntity
  8
MK_KAN_TECH_OPIS
100
AcDbVertex
100
AcDb2dVertex
 10
7565469.29790837783
 20
5718984.52570952103
  0
SEQEND
  5
39A
100
AcDbEntity
  8
MK_KAN_TECH_OPIS
  0
POLYLINE
  5
39B
100
AcDbEntity
  8
MK_KAN_TECH_OPIS
  6
CONTINUOUS
370
18
100
AcDb2dPolyline
 66
1
 70
128
  0
VERTEX
  5
39C
100
AcDbEntity
  8
MK_KAN_TECH_OPIS
100
AcDbVertex
100
AcDb2dVertex
 10
7565460.01039168984
 20
5719040.88181166351
  0
VERTEX
  5
39D
100
AcDbEntity
  8
MK_KAN_TECH_OPIS
100
AcDbVertex
100
AcDb2dVertex
 10
7565459.63777601626
 20
5719037.91896199994
  0
SEQEND
  5
39E
100
AcDbEntity
  8
MK_KAN_TECH_OPIS
  0
POLYLINE
  5
39F
100
AcDbEntity
  8
MK_KAN_TECH_OPIS
  6
CONTINUOUS
370
18
100
AcDb2dPolyline
 66
1
 70
128
  0
VERTEX
  5
3A0
100
AcDbEntity
  8
MK_KAN_TECH_OPIS
100
AcDbVertex
100
AcDb2dVertex
 10
7565459.63777601626
 20
5719037.91896199994
  0
VERTEX
  5
3A1
100
AcDbEntity
  8
MK_KAN_TECH_OPIS
100
AcDbVertex
100
AcDb2dVertex
 10
7565461.87963172886
 20
5719041.10668359045
  0
SEQEND
  5
3A2
100
AcDbEntity
  8
MK_KAN_TECH_OPIS
  0
POLYLINE
  5
3A3
100
AcDbEntity
  8
MK_KAN_TECH_OPIS
  6
CONTINUOUS
370
18
100
AcDb2dPolyline
 66
1
 70
128
  0
VERTEX
  5
3A4
100
AcDbEntity
  8
MK_KAN_TECH_OPIS
100
AcDbVertex
100
AcDb2dVertex
 10
7565459.63777601626
 20
5719037.91896199994
  0
VERTEX
  5
3A5
100
AcDbEntity
  8
MK_KAN_TECH_OPIS
100
AcDbVertex
100
AcDb2dVertex
 10
7565463.49026262853
 20
5719038.84682584368
  0
SEQEND
  5
3A6
100
AcDbEntity
  8
MK_KAN_TECH_OPIS
  0
POLYLINE
  5
3A7
100
AcDbEntity
  8
MK_KAN_TECH_OPIS
  6
CONTINUOUS
370
18
100
AcDb2dPolyline
 66
1
 70
128
  0
VERTEX
  5
3A8
100
AcDbEntity
  8
MK_KAN_TECH_OPIS
100
AcDbVertex
100
AcDb2dVertex
 10
7565448.21795575973
 20
5718995.85528240167
  0
VERTEX
  5
3A9
100
AcDbEntity
  8
MK_KAN_TECH_OPIS
100
AcDbVertex
100
AcDb2dVertex
 10
7565449.26485638134
 20
5718998.0436404096
  0
SEQEND
  5
3AA
100
AcDbEntity
  8
MK_KAN_TECH_OPIS
  0
POLYLINE
  5
3AB
100
AcDbEntity
  8
MK_KAN_TECH_OPIS
  6
CONTINUOUS
370
18
100
AcDb2dPolyline
 66
1
 70
128
  0
VERTEX
  5
3AC
100
AcDbEntity
  8
MK_KAN_TECH_OPIS
100
AcDbVertex
100
AcDb2dVertex
 10
7565448.91802969575
 20
5719000.97007698659
  0
VERTEX
  5
3AD
100
AcDbEntity
  8
MK_KAN_TECH_OPIS
100
AcDbVertex
100
AcDb2dVertex
 10
7565449.26485638134
 20
5718998.0436404096
  0
SEQEND
  5
3AE
100
AcDbEntity
  8
MK_KAN_TECH_OPIS
  0
POLYLINE
  5
3AF
100
AcDbEntity
  8
MK_KAN_TECH_OPIS
  6
CONTINUOUS
370
18
100
AcDb2dPolyline
 66
1
 70
128
  0
VERTEX
  5
3B0
100
AcDbEntity
  8
MK_KAN_TECH_OPIS
100
AcDbVertex
100
AcDb2dVertex
 10
7565459.63777601626
 20
5719037.91896199994
  0
VERTEX
  5
3B1
100
AcDbEntity
  8
MK_KAN_TECH_OPIS
100
AcDbVertex
100
AcDb2dVertex
 10
7565459.98460270185
 20
5719034.99252542295
  0
SEQEND
  5
3B2
100
AcDbEntity
  8
MK_KAN_TECH_OPIS
  0
POLYLINE
  5
3B3
100
AcDbEntity
  8
MK_KAN_TECH_OPIS
  6
CONTINUOUS
370
18
100
AcDb2dPolyline
 66
1
 70
128
  0
VERTEX
  5
3B4
100
AcDbEntity
  8
MK_KAN_TECH_OPIS
100
AcDbVertex
100
AcDb2dVertex
 10
7565446.84433378372
 20
5719007.89112890698
  0
VERTEX
  5
3B5
100
AcDbEntity
  8
MK_KAN_TECH_OPIS
100
AcDbVertex
100
AcDb2dVertex
 10
7565447.89123440627
 20
5719010.07948691584
  0
SEQEND
  5
3B6
100
AcDbEntity
  8
MK_KAN_TECH_OPIS
  0
POLYLINE
  5
3B7
100
AcDbEntity
  8
MK_KAN_TECH_OPIS
  6
CONTINUOUS
370
18
100
AcDb2dPolyline
 66
1
 70
128
  0
VERTEX
  5
3B8
100
AcDbEntity
  8
MK_KAN_TECH_OPIS
100
AcDbVertex
100
AcDb2dVertex
 10
7565447.54440772068
 20
5719013.0059234919
  0
VERTEX
  5
3B9
100
AcDbEntity
  8
MK_KAN_TECH_OPIS
100
AcDbVertex
100
AcDb2dVertex
 10
7565447.89123440627
 20
5719010.07948691584
  0
SEQEND
  5
3BA
100
AcDbEntity
  8
MK_KAN_TECH_OPIS
  0
CIRCLE
  5
3BB
100
AcDbEntity
  8
SV_KAN_PODEJSCIA_KS_2021
  6
ByLayer
370
35
100
AcDbCircle
 10
7565449.05332370661
 20
5719031.42452712823
 40
0.05999999959
  0
CIRCLE
  5
3BC
100
AcDbEntity
  8
SV_KAN_PODEJSCIA_KS_2021
  6
ByLayer
370
35
100
AcDbCircle
 10
7565449.05332370661
 20
5719031.42452712823
 40
0.05999999959
  0
CIRCLE
  5
3BD
100
AcDbEntity
  8
SV_KAN_PODEJSCIA_KS_2021
  6
ByLayer
370
35
100
AcDbCircle
 10
7565451.793395821
 20
5719033.13185959309
 40
0.054999999702
  0
CIRCLE
  5
3BE
100
AcDbEntity
  8
SV_KAN_PODEJSCIA_KS_2021
  6
ByLayer
370
35
100
AcDbCircle
 10
7565450.31735763326
 20
5719028.60596617125
 40
0.054999999702
  0
CIRCLE
  5
3BF
100
AcDbEntity
  8
SV_KAN_PODEJSCIA_KS_2021
  6
ByLayer
370
35
100
AcDbCircle
 10
7565452.90897063538
 20
5719023.74793755356
 40
0.054999999702
  0
CIRCLE
  5
3C0
100
AcDbEntity
  8
SV_KAN_PODEJSCIA_KS_2021
  6
ByLayer
370
35
100
AcDbCircle
 10
7565450.03278805967
 20
5719023.18553050142
 40
0.05999999959
  0
CIRCLE
  5
3C1
100
AcDbEntity
  8
SV_KAN_PODEJSCIA_KS_2021
  6
ByLayer
370
35
100
AcDbCircle
 10
7565450.03278805967
 20
5719023.18553050142
 40
0.05999999959
  0
CIRCLE
  5
3C2
100
AcDbEntity
  8
SV_KAN_PODEJSCIA_tech_2021
  6
ByLayer
370
35
100
AcDbCircle
 10
7565449.37782455422
 20
5719015.7551966384
 40
0.054999999702
  0
CIRCLE
  5
3C3
100
AcDbEntity
  8
SV_KAN_PODEJSCIA_tech_2021
  6
ByLayer
370
35
100
AcDbCircle
 10
7565450.49992316775
 20
5719015.8885934148
 40
0.054999999702
  0
CIRCLE
  5
3C4
100
AcDbEntity
  8
SV_KAN_PODEJSCIA_tech_2021
  6
ByLayer
370
35
100
AcDbCircle
 10
7565451.62202178221
 20
5719016.02199019119
 40
0.054999999702
  0
CIRCLE
  5
3C5
100
AcDbEntity
  8
SV_KAN_PODEJSCIA_tech_2021
  6
ByLayer
370
35
100
AcDbCircle
 10
7565446.84433378372
 20
5719007.89112890698
 40
0.054999999702
  0
CIRCLE
  5
3C6
100
AcDbEntity
  8
SV_KAN_PODEJSCIA_tech_2021
  6
ByLayer
370
35
100
AcDbCircle
 10
7565455.2890398968
 20
5719008.89504831471
 40
0.05999999959
  0
POLYLINE
  5
3C7
100
AcDbEntity
  8
SV_KAN_PRZEWODY_KS_2021
  6
CONTINUOUS
370
35
100
AcDb2dPolyline
 66
1
 70
128
  0
VERTEX
  5
3C8
100
AcDbEntity
  8
SV_KAN_PRZEWODY_KS_2021
100
AcDbVertex
100
AcDb2dVertex
 10
7565450.15589323174
 20
5719023.42064755689
  0
VERTEX
  5
3C9
100
AcDbEntity
  8
SV_KAN_PRZEWODY_KS_2021
100
AcDbVertex
100
AcDb2dVertex
 10
7565452.90897063538
 20
5719023.74793755356
  0
SEQEND
  5
3CA
100
AcDbEntity
  8
SV_KAN_PRZEWODY_KS_2021
  0
POLYLINE
  5
3CB
100
AcDbEntity
  8
SV_KAN_PRZEWODY_KS_2021
  6
CONTINUOUS
370
35
100
AcDb2dPolyline
 66
1
 70
128
  0
VERTEX
  5
3CC
100
AcDbEntity
  8
SV_KAN_PRZEWODY_KS_2021
100
AcDbVertex
100
AcDb2dVertex
 10
7565450.15589323174
 20
5719023.42064755689
  0
VERTEX
  5
3CD
100
AcDbEntity
  8
SV_KAN_PRZEWODY_KS_2021
100
AcDbVertex
100
AcDb2dVertex
 10
7565449.98923455179
 20
5719023.55189116392
  0
SEQEND
  5
3CE
100
AcDbEntity
  8
SV_KAN_PRZEWODY_KS_2021
  0
POLYLINE
  5
3CF
100
AcDbEntity
  8
SV_KAN_PRZEWODY_KS_2021
  6
CONTINUOUS
370
35
100
AcDb2dPolyline
 66
1
 70
128
  0
VERTEX
  5
3D0
100
AcDbEntity
  8
SV_KAN_PRZEWODY_KS_2021
100
AcDbVertex
100
AcDb2dVertex
 10
7565449.55029547587
 20
5719028.51477666386
  0
VERTEX
  5
3D1
100
AcDbEntity
  8
SV_KAN_PRZEWODY_KS_2021
100
AcDbVertex
100
AcDb2dVertex
 10
7565450.31735763326
 20
5719028.60596617125
  0
SEQEND
  5
3D2
100
AcDbEntity
  8
SV_KAN_PRZEWODY_KS_2021
  0
POLYLINE
  5
3D3
100
AcDbEntity
  8
SV_KAN_PRZEWODY_KS_2021
  6
CONTINUOUS
370
35
100
AcDb2dPolyline
 66
1
 70
128
  0
VERTEX
  5
3D4
100
AcDbEntity
  8
SV_KAN_PRZEWODY_KS_2021
100
AcDbVertex
100
AcDb2dVertex
 10
7565449.55029547587
 20
5719028.51477666386
  0
VERTEX
  5
3D5
100
AcDbEntity
  8
SV_KAN_PRZEWODY_KS_2021
100
AcDbVertex
100
AcDb2dVertex
 10
7565449.38363679498
 20
5719028.64602027088
  0
SEQEND
  5
3D6
100
AcDbEntity
  8
SV_KAN_PRZEWODY_KS_2021
  0
POLYLINE
  5
3D7
100
AcDbEntity
  8
SV_KAN_PRZEWODY_KS_2021
  6
CONTINUOUS
370
35
100
AcDb2dPolyline
 66
1
 70
128
  0
VERTEX
  5
3D8
100
AcDbEntity
  8
SV_KAN_PRZEWODY_KS_2021
100
AcDbVertex
100
AcDb2dVertex
 10
7565449.04031841736
 20
5719032.80456959642
  0
VERTEX
  5
3D9
100
AcDbEntity
  8
SV_KAN_PRZEWODY_KS_2021
100
AcDbVertex
100
AcDb2dVertex
 10
7565451.793395821
 20
5719033.13185959309
  0
SEQEND
  5
3DA
100
AcDbEntity
  8
SV_KAN_PRZEWODY_KS_2021
  0
POLYLINE
  5
3DB
100
AcDbEntity
  8
SV_KAN_PRZEWODY_KS_2021
  6
CONTINUOUS
370
35
100
AcDb2dPolyline
 66
1
 70
128
  0
VERTEX
  5
3DC
100
AcDbEntity
  8
SV_KAN_PRZEWODY_KS_2021
100
AcDbVertex
100
AcDb2dVertex
 10
7565449.04031841736
 20
5719032.80456959642
  0
VERTEX
  5
3DD
100
AcDbEntity
  8
SV_KAN_PRZEWODY_KS_2021
100
AcDbVertex
100
AcDb2dVertex
 10
7565448.87365973741
 20
5719032.93581320345
  0
SEQEND
  5
3DE
100
AcDbEntity
  8
SV_KAN_PRZEWODY_KS_2021
  0
POLYLINE
  5
3DF
100
AcDbEntity
  8
SV_KAN_PRZEWODY_tech_2021
  6
CONTINUOUS
370
35
100
AcDb2dPolyline
 66
1
 70
128
  0
VERTEX
  5
3E0
100
AcDbEntity
  8
SV_KAN_PRZEWODY_tech_2021
100
AcDbVertex
100
AcDb2dVertex
 10
7565449.37782455422
 20
5719015.7551966384
  0
VERTEX
  5
3E1
100
AcDbEntity
  8
SV_KAN_PRZEWODY_tech_2021
100
AcDbVertex
100
AcDb2dVertex
 10
7565452.06663894467
 20
5719016.07484695036
  0
SEQEND
  5
3E2
100
AcDbEntity
  8
SV_KAN_PRZEWODY_tech_2021
  0
POLYLINE
  5
3E3
100
AcDbEntity
  8
SV_KAN_PRZEWODY_tech_2021
  6
CONTINUOUS
370
35
100
AcDb2dPolyline
 66
1
 70
128
  0
VERTEX
  5
3E4
100
AcDbEntity
  8
SV_KAN_PRZEWODY_tech_2021
100
AcDbVertex
100
AcDb2dVertex
 10
7565446.89894920308
 20
5719007.89762167074
  0
VERTEX
  5
3E5
100
AcDbEntity
  8
SV_KAN_PRZEWODY_tech_2021
100
AcDbVertex
100
AcDb2dVertex
 10
7565458.91474629846
 20
5719009.32607776392
  0
SEQEND
  5
3E6
100
AcDbEntity
  8
SV_KAN_PRZEWODY_tech_2021
  0
POLYLINE
  5
3E7
100
AcDbEntity
  8
SV_KAN_PRZEWODY_tech_2021
  6
CONTINUOUS
370
35
100
AcDb2dPolyline
 66
1
 70
128
  0
VERTEX
  5
3E8
100
AcDbEntity
  8
SV_KAN_PRZEWODY_tech_2021
100
AcDbVertex
100
AcDb2dVertex
 10
7565458.91474629846
 20
5719009.32607776392
  0
VERTEX
  5
3E9
100
AcDbEntity
  8
SV_KAN_PRZEWODY_tech_2021
100
AcDbVertex
100
AcDb2dVertex
 10
7565459.04598990548
 20
5719009.49273644388
  0
SEQEND
  5
3EA
100
AcDbEntity
  8
SV_KAN_PRZEWODY_tech_2021
  0
POLYLINE
  5
3EB
100
AcDbEntity
  8
SV_KAN_PRZEWODY_tech_2021
  6
CONTINUOUS
370
35
100
AcDb2dPolyline
 66
1
 70
128
  0
VERTEX
  5
3EC
100
AcDbEntity
  8
SV_KAN_PRZEWODY_tech_2021
100
AcDbVertex
100
AcDb2dVertex
 10
7565454.66035685874
 20
5719032.07877049781
  0
VERTEX
  5
3ED
100
AcDbEntity
  8
SV_KAN_PRZEWODY_tech_2021
100
AcDbVertex
100
AcDb2dVertex
 10
7565458.9057892682
 20
5719032.58347390965
  0
SEQEND
  5
3EE
100
AcDbEntity
  8
SV_KAN_PRZEWODY_tech_2021
  0
POLYLINE
  5
3EF
100
AcDbEntity
  8
SV_KAN_PRZEWODY_tech_2021
  6
CONTINUOUS
370
35
100
AcDb2dPolyline
 66
1
 70
128
  0
VERTEX
  5
3F0
100
AcDbEntity
  8
SV_KAN_PRZEWODY_tech_2021
100
AcDbVertex
100
AcDb2dVertex
 10
7565458.9057892682
 20
5719032.58347390965
  0
VERTEX
  5
3F1
100
AcDbEntity
  8
SV_KAN_PRZEWODY_tech_2021
100
AcDbVertex
100
AcDb2dVertex
 10
7565459.03703287523
 20
5719032.7501325896
  0
SEQEND
  5
3F2
100
AcDbEntity
  8
SV_KAN_PRZEWODY_tech_2021
  0
POLYLINE
  5
3F3
100
AcDbEntity
  8
SV_KAN_PRZEWODY_tech_2021
  6
CONTINUOUS
370
35
100
AcDb2dPolyline
 66
1
 70
128
  0
VERTEX
  5
3F4
100
AcDbEntity
  8
SV_KAN_PRZEWODY_tech_2021
100
AcDbVertex
100
AcDb2dVertex
 10
7565454.52911325265
 20
5719031.91211181693
  0
VERTEX
  5
3F5
100
AcDbEntity
  8
SV_KAN_PRZEWODY_tech_2021
100
AcDbVertex
100
AcDb2dVertex
 10
7565454.66035685874
 20
5719032.07877049781
  0
SEQEND
  5
3F6
100
AcDbEntity
  8
SV_KAN_PRZEWODY_tech_2021
  0
POLYLINE
  5
3F7
100
AcDbEntity
  8
SV_KAN_PRZEWODY_tech_2021
  6
CONTINUOUS
370
35
100
AcDb2dPolyline
 66
1
 70
128
  0
VERTEX
  5
3F8
100
AcDbEntity
  8
SV_KAN_PRZEWODY_tech_2021
100
AcDbVertex
100
AcDb2dVertex
 10
7565455.84194769897
 20
5719020.86889360938
  0
VERTEX
  5
3F9
100
AcDbEntity
  8
SV_KAN_PRZEWODY_tech_2021
100
AcDbVertex
100
AcDb2dVertex
 10
7565452.06663894467
 20
5719016.07484695036
  0
SEQEND
  5
3FA
100
AcDbEntity
  8
SV_KAN_PRZEWODY_tech_2021
  0
POLYLINE
  5
3FB
100
AcDbEntity
  8
SV_KAN_PRZEWODY_tech_2021
  6
CONTINUOUS
370
35
100
AcDb2dPolyline
 66
1
 70
128
  0
VERTEX
  5
3FC
100
AcDbEntity
  8
SV_KAN_PRZEWODY_tech_2021
100
AcDbVertex
100
AcDb2dVertex
 10
7565455.84194769897
 20
5719020.86889360938
  0
VERTEX
  5
3FD
100
AcDbEntity
  8
SV_KAN_PRZEWODY_tech_2021
100
AcDbVertex
100
AcDb2dVertex
 10
7565454.52911325265
 20
5719031.91211181693
  0
SEQEND
  5
3FE
100
AcDbEntity
  8
SV_KAN_PRZEWODY_tech_2021
  0
POLYLINE
  5
3FF
100
AcDbEntity
  8
SV_POMOC
  6
CONTINUOUS
370
18
100
AcDb2dPolyline
 66
1
 70
128
  0
VERTEX
  5
400
100
AcDbEntity
  8
SV_POMOC
100
AcDbVertex
100
AcDb2dVertex
 10
7565442.61377202533
 20
5719057.31731658522
  0
VERTEX
  5
401
100
AcDbEntity
  8
SV_POMOC
100
AcDbVertex
100
AcDb2dVertex
 10
7565438.86841197126
 20
5719056.87206252944
  0
SEQEND
  5
402
100
AcDbEntity
  8
SV_POMOC
  0
POLYLINE
  5
403
100
AcDbEntity
  8
SV_POMOC
  6
CONTINUOUS
370
18
100
AcDb2dPolyline
 66
1
 70
128
  0
VERTEX
  5
404
100
AcDbEntity
  8
SV_POMOC
100
AcDbVertex
100
AcDb2dVertex
 10
7565440.65087742172
 20
5719057.82139509823
  0
VERTEX
  5
405
100
AcDbEntity
  8
SV_POMOC
100
AcDbVertex
100
AcDb2dVertex
 10
7565440.9263198711
 20
5719055.50444563571
  0
SEQEND
  5
406
100
AcDbEntity
  8
SV_POMOC
  0
POLYLINE
  5
407
100
AcDbEntity
  8
SV_POMOC
  6
CONTINUOUS
370
18
100
AcDb2dPolyline
 66
1
 70
128
  0
VERTEX
  5
408
100
AcDbEntity
  8
SV_POMOC
100
AcDbVertex
100
AcDb2dVertex
 10
7565473.00539189763
 20
5718979.56135577429
  0
VERTEX
  5
409
100
AcDbEntity
  8
SV_POMOC
100
AcDbVertex
100
AcDb2dVertex
 10
7565469.26003184356
 20
5718979.11610171944
  0
SEQEND
  5
40A
100
AcDbEntity
  8
SV_POMOC
  0
POLYLINE
  5
40B
100
AcDbEntity
  8
SV_POMOC
  6
CONTINUOUS
370
18
100
AcDb2dPolyline
 66
1
 70
128
  0
VERTEX
  5
40C
100
AcDbEntity
  8
SV_POMOC
100
AcDbVertex
100
AcDb2dVertex
 10
7565471.04249729402
 20
5718980.06543428823
  0
VERTEX
  5
40D
100
AcDbEntity
  8
SV_POMOC
100
AcDbVertex
100
AcDb2dVertex
 10
7565471.31793974247
 20
5718977.74848482572
  0
SEQEND
  5
40E
100
AcDbEntity
  8
SV_POMOC
  0
POLYLINE
  5
40F
100
AcDbEntity
  8
SV_PRZEBICIA_SCIANA_FUND
  6
CONTINUOUS
370
25
100
AcDb2dPolyline
 66
1
 70
128
  0
VERTEX
  5
410
100
AcDbEntity
  8
SV_PRZEBICIA_SCIANA_FUND
100
AcDbVertex
100
AcDb2dVertex
 10
7565457.70098652132
 20
5719035.05514607392
  0
VERTEX
  5
411
100
AcDbEntity
  8
SV_PRZEBICIA_SCIANA_FUND
100
AcDbVertex
100
AcDb2dVertex
 10
7565457.49658954702
 20
5719036.77447968721
  0
SEQEND
  5
412
100
AcDbEntity
  8
SV_PRZEBICIA_SCIANA_FUND
  0
POLYLINE
  5
413
100
AcDbEntity
  8
SV_PRZEBICIA_SCIANA_FUND
  6
CONTINUOUS
370
25
100
AcDb2dPolyline
 66
1
 70
128
  0
VERTEX
  5
414
100
AcDbEntity
  8
SV_PRZEBICIA_SCIANA_FUND
100
AcDbVertex
100
AcDb2dVertex
 10
7565457.49658954702
 20
5719036.77447968721
  0
VERTEX
  5
415
100
AcDbEntity
  8
SV_PRZEBICIA_SCIANA_FUND
100
AcDbVertex
100
AcDb2dVertex
 10
7565458.213522451
 20
5719038.40664036851
  0
SEQEND
  5
416
100
AcDbEntity
  8
SV_PRZEBICIA_SCIANA_FUND
  0
POLYLINE
  5
417
100
AcDbEntity
  8
SV_PRZEBICIA_SCIANA_FUND
  6
CONTINUOUS
370
25
100
AcDb2dPolyline
 66
1
 70
128
  0
VERTEX
  5
418
100
AcDbEntity
  8
SV_PRZEBICIA_SCIANA_FUND
100
AcDbVertex
100
AcDb2dVertex
 10
7565454.9834752772
 20
5719034.73208423611
  0
VERTEX
  5
419
100
AcDbEntity
  8
SV_PRZEBICIA_SCIANA_FUND
100
AcDbVertex
100
AcDb2dVertex
 10
7565454.7790783029
 20
5719036.4514178494
  0
SEQEND
  5
41A
100
AcDbEntity
  8
SV_PRZEBICIA_SCIANA_FUND
  0
POLYLINE
  5
41B
100
AcDbEntity
  8
SV_PRZEBICIA_SCIANA_FUND
  6
CONTINUOUS
370
25
100
AcDb2dPolyline
 66
1
 70
128
  0
VERTEX
  5
41C
100
AcDbEntity
  8
SV_PRZEBICIA_SCIANA_FUND
100
AcDbVertex
100
AcDb2dVertex
 10
7565454.7790783029
 20
5719036.4514178494
  0
VERTEX
  5
41D
100
AcDbEntity
  8
SV_PRZEBICIA_SCIANA_FUND
100
AcDbVertex
100
AcDb2dVertex
 10
7565455.49601120688
 20
5719038.0835785307
  0
SEQEND
  5
41E
100
AcDbEntity
  8
SV_PRZEBICIA_SCIANA_FUND
  0
POLYLINE
  5
41F
100
AcDbEntity
  8
SV_PRZEBICIA_SCIANA_FUND
  6
CONTINUOUS
370
25
100
AcDb2dPolyline
 66
1
 70
128
  0
VERTEX
  5
420
100
AcDbEntity
  8
SV_PRZEBICIA_SCIANA_FUND
100
AcDbVertex
100
AcDb2dVertex
 10
7565447.55209830031
 20
5719034.68145006336
  0
VERTEX
  5
421
100
AcDbEntity
  8
SV_PRZEBICIA_SCIANA_FUND
100
AcDbVertex
100
AcDb2dVertex
 10
7565447.34770132601
 20
5719036.40078367665
  0
SEQEND
  5
422
100
AcDbEntity
  8
SV_PRZEBICIA_SCIANA_FUND
  0
POLYLINE
  5
423
100
AcDbEntity
  8
SV_PRZEBICIA_SCIANA_FUND
  6
CONTINUOUS
370
25
100
AcDb2dPolyline
 66
1
 70
128
  0
VERTEX
  5
424
100
AcDbEntity
  8
SV_PRZEBICIA_SCIANA_FUND
100
AcDbVertex
100
AcDb2dVertex
 10
7565447.34770132601
 20
5719036.40078367665
  0
VERTEX
  5
425
100
AcDbEntity
  8
SV_PRZEBICIA_SCIANA_FUND
100
AcDbVertex
100
AcDb2dVertex
 10
7565448.21355103329
 20
5719037.21782867517
  0
SEQEND
  5
426
100
AcDbEntity
  8
SV_PRZEBICIA_SCIANA_FUND
  0
POLYLINE
  5
427
100
AcDbEntity
  8
SV_PRZEBICIA_SCIANA_FUND
  6
CONTINUOUS
370
25
100
AcDb2dPolyline
 66
1
 70
128
  0
VERTEX
  5
428
100
AcDbEntity
  8
SV_PRZEBICIA_SCIANA_FUND
100
AcDbVertex
100
AcDb2dVertex
 10
7565461.81093313731
 20
5719037.87000885978
  0
VERTEX
  5
429
100
AcDbEntity
  8
SV_PRZEBICIA_SCIANA_FUND
100
AcDbVertex
100
AcDb2dVertex
 10
7565461.60653616302
 20
5719039.58934247308
  0
SEQEND
  5
42A
100
AcDbEntity
  8
SV_PRZEBICIA_SCIANA_FUND
  0
POLYLINE
  5
42B
100
AcDbEntity
  8
SV_PRZEBICIA_SCIANA_FUND
  6
CONTINUOUS
370
25
100
AcDb2dPolyline
 66
1
 70
128
  0
VERTEX
  5
42C
100
AcDbEntity
  8
SV_PRZEBICIA_SCIANA_FUND
100
AcDbVertex
100
AcDb2dVertex
 10
7565461.60653616302
 20
5719039.58934247308
  0
VERTEX
  5
42D
100
AcDbEntity
  8
SV_PRZEBICIA_SCIANA_FUND
100
AcDbVertex
100
AcDb2dVertex
 10
7565462.32346906699
 20
5719041.22150315438
  0
SEQEND
  5
42E
100
AcDbEntity
  8
SV_PRZEBICIA_SCIANA_FUND
  0
POLYLINE
  5
42F
100
AcDbEntity
  8
SV_PRZEBICIA_SCIANA_FUND
  6
CONTINUOUS
370
25
100
AcDb2dPolyline
 66
1
 70
128
  0
VERTEX
  5
430
100
AcDbEntity
  8
SV_PRZEBICIA_SCIANA_FUND
100
AcDbVertex
100
AcDb2dVertex
 10
7565461.21184829064
 20
5719047.16186483577
  0
VERTEX
  5
431
100
AcDbEntity
  8
SV_PRZEBICIA_SCIANA_FUND
100
AcDbVertex
100
AcDb2dVertex
 10
7565461.00745131541
 20
5719048.88119844906
  0
SEQEND
  5
432
100
AcDbEntity
  8
SV_PRZEBICIA_SCIANA_FUND
  0
POLYLINE
  5
433
100
AcDbEntity
  8
SV_PRZEBICIA_SCIANA_FUND
  6
CONTINUOUS
370
25
100
AcDb2dPolyline
 66
1
 70
128
  0
VERTEX
  5
434
100
AcDbEntity
  8
SV_PRZEBICIA_SCIANA_FUND
100
AcDbVertex
100
AcDb2dVertex
 10
7565461.8371270271
 20
5719046.68163629342
  0
VERTEX
  5
435
100
AcDbEntity
  8
SV_PRZEBICIA_SCIANA_FUND
100
AcDbVertex
100
AcDb2dVertex
 10
7565461.21184829064
 20
5719047.16186483577
  0
SEQEND
  5
436
100
AcDbEntity
  8
SV_PRZEBICIA_SCIANA_FUND
  0
POLYLINE
  5
437
100
AcDbEntity
  8
SV_PRZEBICIA_SCIANA_FUND
  6
CONTINUOUS
370
25
100
AcDb2dPolyline
 66
1
 70
128
  0
VERTEX
  5
438
100
AcDbEntity
  8
SV_PRZEBICIA_SCIANA_FUND
100
AcDbVertex
100
AcDb2dVertex
 10
7565459.13234456722
 20
5719044.94126238301
  0
VERTEX
  5
439
100
AcDbEntity
  8
SV_PRZEBICIA_SCIANA_FUND
100
AcDbVertex
100
AcDb2dVertex
 10
7565458.92794759199
 20
5719046.66059599537
  0
SEQEND
  5
43A
100
AcDbEntity
  8
SV_PRZEBICIA_SCIANA_FUND
  0
POLYLINE
  5
43B
100
AcDbEntity
  8
SV_PRZEBICIA_SCIANA_FUND
  6
CONTINUOUS
370
25
100
AcDb2dPolyline
 66
1
 70
128
  0
VERTEX
  5
43C
100
AcDbEntity
  8
SV_PRZEBICIA_SCIANA_FUND
100
AcDbVertex
100
AcDb2dVertex
 10
7565449.26793308184
 20
5719053.35740881972
  0
VERTEX
  5
43D
100
AcDbEntity
  8
SV_PRZEBICIA_SCIANA_FUND
100
AcDbVertex
100
AcDb2dVertex
 10
7565448.83807348832
 20
5719056.97327469941
  0
SEQEND
  5
43E
100
AcDbEntity
  8
SV_PRZEBICIA_SCIANA_FUND
  0
POLYLINE
  5
43F
100
AcDbEntity
  8
SV_PRZEBICIA_SCIANA_FUND
  6
CONTINUOUS
370
25
100
AcDb2dPolyline
 66
1
 70
128
  0
VERTEX
  5
440
100
AcDbEntity
  8
SV_PRZEBICIA_SCIANA_FUND
100
AcDbVertex
100
AcDb2dVertex
 10
7565451.63265660126
 20
5719054.81517712213
  0
VERTEX
  5
441
100
AcDbEntity
  8
SV_PRZEBICIA_SCIANA_FUND
100
AcDbVertex
100
AcDb2dVertex
 10
7565451.20279700775
 20
5719058.43104300275
  0
SEQEND
  5
442
100
AcDbEntity
  8
SV_PRZEBICIA_SCIANA_FUND
  0
POLYLINE
  5
443
100
AcDbEntity
  8
SV_PRZEBICIA_SCIANA_FUND
  6
CONTINUOUS
370
25
100
AcDb2dPolyline
 66
1
 70
128
  0
VERTEX
  5
444
100
AcDbEntity
  8
SV_PRZEBICIA_SCIANA_FUND
100
AcDbVertex
100
AcDb2dVertex
 10
7565453.6021205103
 20
5719054.20163627341
  0
VERTEX
  5
445
100
AcDbEntity
  8
SV_PRZEBICIA_SCIANA_FUND
100
AcDbVertex
100
AcDb2dVertex
 10
7565451.63265660126
 20
5719054.81517712213
  0
SEQEND
  5
446
100
AcDbEntity
  8
SV_PRZEBICIA_SCIANA_FUND
  0
POLYLINE
  5
447
100
AcDbEntity
  8
SV_PRZEBICIA_SCIANA_FUND
  6
CONTINUOUS
370
25
100
AcDb2dPolyline
 66
1
 70
128
  0
VERTEX
  5
448
100
AcDbEntity
  8
SV_PRZEBICIA_SCIANA_FUND
100
AcDbVertex
100
AcDb2dVertex
 10
7565454.92490468174
 20
5719056.66609522421
  0
VERTEX
  5
449
100
AcDbEntity
  8
SV_PRZEBICIA_SCIANA_FUND
100
AcDbVertex
100
AcDb2dVertex
 10
7565454.49504508916
 20
5719060.28196110483
  0
SEQEND
  5
44A
100
AcDbEntity
  8
SV_PRZEBICIA_SCIANA_FUND
  0
POLYLINE
  5
44B
100
AcDbEntity
  8
SV_PRZEBICIA_SCIANA_FUND
  6
CONTINUOUS
370
25
100
AcDb2dPolyline
 66
1
 70
128
  0
VERTEX
  5
44C
100
AcDbEntity
  8
SV_PRZEBICIA_SCIANA_FUND
100
AcDbVertex
100
AcDb2dVertex
 10
7565457.68260473385
 20
5719058.11819294747
  0
VERTEX
  5
44D
100
AcDbEntity
  8
SV_PRZEBICIA_SCIANA_FUND
100
AcDbVertex
100
AcDb2dVertex
 10
7565457.25274514034
 20
5719061.73405882809
  0
SEQEND
  5
44E
100
AcDbEntity
  8
SV_PRZEBICIA_SCIANA_FUND
  0
POLYLINE
  5
44F
100
AcDbEntity
  8
SV_PRZEBICIA_SCIANA_FUND
  6
CONTINUOUS
370
25
100
AcDb2dPolyline
 66
1
 70
128
  0
VERTEX
  5
450
100
AcDbEntity
  8
SV_PRZEBICIA_SCIANA_FUND
100
AcDbVertex
100
AcDb2dVertex
 10
7565458.82005786244
 20
5719056.94132255949
  0
VERTEX
  5
451
100
AcDbEntity
  8
SV_PRZEBICIA_SCIANA_FUND
100
AcDbVertex
100
AcDb2dVertex
 10
7565457.68260473385
 20
5719058.11819294747
  0
SEQEND
  5
452
100
AcDbEntity
  8
SV_PRZEBICIA_SCIANA_FUND
  0
POLYLINE
  5
453
100
AcDbEntity
  8
SV_PRZEBICIA_SCIANA_FUND
  6
CONTINUOUS
370
25
100
AcDb2dPolyline
 66
1
 70
128
  0
VERTEX
  5
454
100
AcDbEntity
  8
SV_PRZEBICIA_SCIANA_FUND
100
AcDbVertex
100
AcDb2dVertex
 10
7565457.62092803419
 20
5719056.31315607112
  0
VERTEX
  5
455
100
AcDbEntity
  8
SV_PRZEBICIA_SCIANA_FUND
100
AcDbVertex
100
AcDb2dVertex
 10
7565454.92490468174
 20
5719056.66609522421
  0
SEQEND
  5
456
100
AcDbEntity
  8
SV_PRZEBICIA_SCIANA_FUND
  0
POLYLINE
  5
457
100
AcDbEntity
  8
SV_PRZEBICIA_SCIANA_FUND
  6
CONTINUOUS
370
25
100
AcDb2dPolyline
 66
1
 70
128
  0
VERTEX
  5
458
100
AcDbEntity
  8
SV_PRZEBICIA_SCIANA_FUND
100
AcDbVertex
100
AcDb2dVertex
 10
7565465.24776425958
 20
5719041.01220885012
  0
VERTEX
  5
459
100
AcDbEntity
  8
SV_PRZEBICIA_SCIANA_FUND
100
AcDbVertex
100
AcDb2dVertex
 10
7565464.81790466607
 20
5719044.62807472982
  0
SEQEND
  5
45A
100
AcDbEntity
  8
SV_PRZEBICIA_SCIANA_FUND
  0
POLYLINE
  5
45B
100
AcDbEntity
  8
SV_PRZEBICIA_SCIANA_FUND
  6
CONTINUOUS
370
25
100
AcDb2dPolyline
 66
1
 70
128
  0
VERTEX
  5
45C
100
AcDbEntity
  8
SV_PRZEBICIA_SCIANA_FUND
100
AcDbVertex
100
AcDb2dVertex
 10
7565464.81790466607
 20
5719044.62807472982
  0
VERTEX
  5
45D
100
AcDbEntity
  8
SV_PRZEBICIA_SCIANA_FUND
100
AcDbVertex
100
AcDb2dVertex
 10
7565463.16807441972
 20
5719046.30300924089
  0
SEQEND
  5
45E
100
AcDbEntity
  8
SV_PRZEBICIA_SCIANA_FUND
  0
POLYLINE
  5
45F
100
AcDbEntity
  8
SV_PRZEBICIA_SCIANA_FUND
  6
CONTINUOUS
370
25
100
AcDb2dPolyline
 66
1
 70
128
  0
VERTEX
  5
460
100
AcDbEntity
  8
SV_PRZEBICIA_SCIANA_FUND
100
AcDbVertex
100
AcDb2dVertex
 10
7565459.13234456722
 20
5719044.94126238301
  0
VERTEX
  5
461
100
AcDbEntity
  8
SV_PRZEBICIA_SCIANA_FUND
100
AcDbVertex
100
AcDb2dVertex
 10
7565458.7836401742
 20
5719044.03095014021
  0
SEQEND
  5
462
100
AcDbEntity
  8
SV_PRZEBICIA_SCIANA_FUND
  0
POLYLINE
  5
463
100
AcDbEntity
  8
SV_PRZEBICIA_SCIANA_FUND
  6
CONTINUOUS
370
25
100
AcDb2dPolyline
 66
1
 70
128
  0
VERTEX
  5
464
100
AcDbEntity
  8
SV_PRZEBICIA_SCIANA_FUND
100
AcDbVertex
100
AcDb2dVertex
 10
7565462.36126380693
 20
5719035.60980568547
  0
VERTEX
  5
465
100
AcDbEntity
  8
SV_PRZEBICIA_SCIANA_FUND
100
AcDbVertex
100
AcDb2dVertex
 10
7565462.1568668317
 20
5719037.32913929876
  0
SEQEND
  5
466
100
AcDbEntity
  8
SV_PRZEBICIA_SCIANA_FUND
  0
POLYLINE
  5
467
100
AcDbEntity
  8
SV_PRZEBICIA_SCIANA_FUND
  6
CONTINUOUS
370
25
100
AcDb2dPolyline
 66
1
 70
128
  0
VERTEX
  5
468
100
AcDbEntity
  8
SV_PRZEBICIA_SCIANA_FUND
100
AcDbVertex
100
AcDb2dVertex
 10
7565462.1568668317
 20
5719037.32913929876
  0
VERTEX
  5
469
100
AcDbEntity
  8
SV_PRZEBICIA_SCIANA_FUND
100
AcDbVertex
100
AcDb2dVertex
 10
7565462.87379973661
 20
5719038.96129998006
  0
SEQEND
  5
46A
100
AcDbEntity
  8
SV_PRZEBICIA_SCIANA_FUND
  0
POLYLINE
  5
46B
100
AcDbEntity
  8
SV_PRZEBICIA_SCIANA_FUND
  6
CONTINUOUS
370
25
100
AcDb2dPolyline
 66
1
 70
129
  0
VERTEX
  5
46C
100
AcDbEntity
  8
SV_PRZEBICIA_SCIANA_FUND
100
AcDbVertex
100
AcDb2dVertex
 10
7565448.21355103329
 20
5719037.21782867517
  0
VERTEX
  5
46D
100
AcDbEntity
  8
SV_PRZEBICIA_SCIANA_FUND
100
AcDbVertex
100
AcDb2dVertex
 10
7565448.18521897495
 20
5719037.45615050476
  0
VERTEX
  5
46E
100
AcDbEntity
  8
SV_PRZEBICIA_SCIANA_FUND
100
AcDbVertex
100
AcDb2dVertex
 10
7565448.48312126193
 20
5719037.49156557769
  0
VERTEX
  5
46F
100
AcDbEntity
  8
SV_PRZEBICIA_SCIANA_FUND
100
AcDbVertex
100
AcDb2dVertex
 10
7565448.51145332027
 20
5719037.2532437481
  0
SEQEND
  5
470
100
AcDbEntity
  8
SV_PRZEBICIA_SCIANA_FUND
  0
POLYLINE
  5
471
100
AcDbEntity
  8
SV_PRZEBICIA_SCIANA_FUND
  6
CONTINUOUS
370
25
100
AcDb2dPolyline
 66
1
 70
129
  0
VERTEX
  5
472
100
AcDbEntity
  8
SV_PRZEBICIA_SCIANA_FUND
100
AcDbVertex
100
AcDb2dVertex
 10
7565455.49601120688
 20
5719038.0835785307
  0
VERTEX
  5
473
100
AcDbEntity
  8
SV_PRZEBICIA_SCIANA_FUND
100
AcDbVertex
100
AcDb2dVertex
 10
7565455.46767914854
 20
5719038.32190036029
  0
VERTEX
  5
474
100
AcDbEntity
  8
SV_PRZEBICIA_SCIANA_FUND
100
AcDbVertex
100
AcDb2dVertex
 10
7565455.76558143552
 20
5719038.35731543414
  0
VERTEX
  5
475
100
AcDbEntity
  8
SV_PRZEBICIA_SCIANA_FUND
100
AcDbVertex
100
AcDb2dVertex
 10
7565455.79391349386
 20
5719038.11899360456
  0
SEQEND
  5
476
100
AcDbEntity
  8
SV_PRZEBICIA_SCIANA_FUND
  0
POLYLINE
  5
477
100
AcDbEntity
  8
SV_PRZEBICIA_SCIANA_FUND
  6
CONTINUOUS
370
25
100
AcDb2dPolyline
 66
1
 70
129
  0
VERTEX
  5
478
100
AcDbEntity
  8
SV_PRZEBICIA_SCIANA_FUND
100
AcDbVertex
100
AcDb2dVertex
 10
7565458.213522451
 20
5719038.40664036851
  0
VERTEX
  5
479
100
AcDbEntity
  8
SV_PRZEBICIA_SCIANA_FUND
100
AcDbVertex
100
AcDb2dVertex
 10
7565458.18519039266
 20
5719038.6449621981
  0
VERTEX
  5
47A
100
AcDbEntity
  8
SV_PRZEBICIA_SCIANA_FUND
100
AcDbVertex
100
AcDb2dVertex
 10
7565458.48309267964
 20
5719038.68037727196
  0
VERTEX
  5
47B
100
AcDbEntity
  8
SV_PRZEBICIA_SCIANA_FUND
100
AcDbVertex
100
AcDb2dVertex
 10
7565458.51142473798
 20
5719038.44205544237
  0
SEQEND
  5
47C
100
AcDbEntity
  8
SV_PRZEBICIA_SCIANA_FUND
  0
POLYLINE
  5
47D
100
AcDbEntity
  8
SV_PRZEBICIA_SCIANA_FUND
  6
CONTINUOUS
370
25
100
AcDb2dPolyline
 66
1
 70
129
  0
VERTEX
  5
47E
100
AcDbEntity
  8
SV_PRZEBICIA_SCIANA_FUND
100
AcDbVertex
100
AcDb2dVertex
 10
7565462.32353017852
 20
5719041.22098910436
  0
VERTEX
  5
47F
100
AcDbEntity
  8
SV_PRZEBICIA_SCIANA_FUND
100
AcDbVertex
100
AcDb2dVertex
 10
7565462.29519811925
 20
5719041.45931093395
  0
VERTEX
  5
480
100
AcDbEntity
  8
SV_PRZEBICIA_SCIANA_FUND
100
AcDbVertex
100
AcDb2dVertex
 10
7565462.59310040623
 20
5719041.49472600687
  0
VERTEX
  5
481
100
AcDbEntity
  8
SV_PRZEBICIA_SCIANA_FUND
100
AcDbVertex
100
AcDb2dVertex
 10
7565462.6214324655
 20
5719041.25640417729
  0
SEQEND
  5
482
100
AcDbEntity
  8
SV_PRZEBICIA_SCIANA_FUND
  0
POLYLINE
  5
483
100
AcDbEntity
  8
SV_PRZEBICIA_SCIANA_FUND
  6
CONTINUOUS
370
25
100
AcDb2dPolyline
 66
1
 70
129
  0
VERTEX
  5
484
100
AcDbEntity
  8
SV_PRZEBICIA_SCIANA_FUND
100
AcDbVertex
100
AcDb2dVertex
 10
7565461.70496055391
 20
5719046.42423415557
  0
VERTEX
  5
485
100
AcDbEntity
  8
SV_PRZEBICIA_SCIANA_FUND
100
AcDbVertex
100
AcDb2dVertex
 10
7565461.67662849464
 20
5719046.66255598515
  0
VERTEX
  5
486
100
AcDbEntity
  8
SV_PRZEBICIA_SCIANA_FUND
100
AcDbVertex
100
AcDb2dVertex
 10
7565461.97453078162
 20
5719046.69797105901
  0
VERTEX
  5
487
100
AcDbEntity
  8
SV_PRZEBICIA_SCIANA_FUND
100
AcDbVertex
100
AcDb2dVertex
 10
7565462.00286284089
 20
5719046.45964922942
  0
SEQEND
  5
488
100
AcDbEntity
  8
SV_PRZEBICIA_SCIANA_FUND
  0
POLYLINE
  5
489
100
AcDbEntity
  8
SV_PRZEBICIA_SCIANA_FUND
  6
CONTINUOUS
370
25
100
AcDb2dPolyline
 66
1
 70
129
  0
VERTEX
  5
48A
100
AcDbEntity
  8
SV_PRZEBICIA_SCIANA_FUND
100
AcDbVertex
100
AcDb2dVertex
 10
7565458.57097327989
 20
5719043.804259656
  0
VERTEX
  5
48B
100
AcDbEntity
  8
SV_PRZEBICIA_SCIANA_FUND
100
AcDbVertex
100
AcDb2dVertex
 10
7565458.54736323096
 20
5719044.00286118034
  0
VERTEX
  5
48C
100
AcDbEntity
  8
SV_PRZEBICIA_SCIANA_FUND
100
AcDbVertex
100
AcDb2dVertex
 10
7565458.78568506055
 20
5719044.03119323961
  0
VERTEX
  5
48D
100
AcDbEntity
  8
SV_PRZEBICIA_SCIANA_FUND
100
AcDbVertex
100
AcDb2dVertex
 10
7565458.80929510947
 20
5719043.83259171527
  0
SEQEND
  5
48E
100
AcDbEntity
  8
SV_PRZEBICIA_SCIANA_FUND
  0
POLYLINE
  5
48F
100
AcDbEntity
  8
SV_PRZEBICIA_SCIANA_FUND
  6
CONTINUOUS
370
25
100
AcDb2dPolyline
 66
1
 70
129
  0
VERTEX
  5
490
100
AcDbEntity
  8
SV_PRZEBICIA_SCIANA_FUND
100
AcDbVertex
100
AcDb2dVertex
 10
7565459.05161467008
 20
5719057.05653011333
  0
VERTEX
  5
491
100
AcDbEntity
  8
SV_PRZEBICIA_SCIANA_FUND
100
AcDbVertex
100
AcDb2dVertex
 10
7565459.16217658762
 20
5719056.84351353627
  0
VERTEX
  5
492
100
AcDbEntity
  8
SV_PRZEBICIA_SCIANA_FUND
100
AcDbVertex
100
AcDb2dVertex
 10
7565458.89590586629
 20
5719056.70531113818
  0
VERTEX
  5
493
100
AcDbEntity
  8
SV_PRZEBICIA_SCIANA_FUND
100
AcDbVertex
100
AcDb2dVertex
 10
7565458.78534394782
 20
5719056.91832771525
  0
SEQEND
  5
494
100
AcDbEntity
  8
SV_PRZEBICIA_SCIANA_FUND
  0
POLYLINE
  5
495
100
AcDbEntity
  8
SV_PRZEBICIA_SCIANA_FUND
  6
CONTINUOUS
370
25
100
AcDb2dPolyline
 66
1
 70
129
  0
VERTEX
  5
496
100
AcDbEntity
  8
SV_PRZEBICIA_SCIANA_FUND
100
AcDbVertex
100
AcDb2dVertex
 10
7565457.88924921025
 20
5719056.44744542241
  0
VERTEX
  5
497
100
AcDbEntity
  8
SV_PRZEBICIA_SCIANA_FUND
100
AcDbVertex
100
AcDb2dVertex
 10
7565457.99981112778
 20
5719056.23442884535
  0
VERTEX
  5
498
100
AcDbEntity
  8
SV_PRZEBICIA_SCIANA_FUND
100
AcDbVertex
100
AcDb2dVertex
 10
7565457.73354040645
 20
5719056.09622644726
  0
VERTEX
  5
499
100
AcDbEntity
  8
SV_PRZEBICIA_SCIANA_FUND
100
AcDbVertex
100
AcDb2dVertex
 10
7565457.62297848798
 20
5719056.30924302433
  0
SEQEND
  5
49A
100
AcDbEntity
  8
SV_PRZEBICIA_SCIANA_FUND
  0
POLYLINE
  5
49B
100
AcDbEntity
  8
SV_PRZEBICIA_SCIANA_FUND
  6
CONTINUOUS
370
25
100
AcDb2dPolyline
 66
1
 70
129
  0
VERTEX
  5
49C
100
AcDbEntity
  8
SV_PRZEBICIA_SCIANA_FUND
100
AcDbVertex
100
AcDb2dVertex
 10
7565452.40841053519
 20
5719053.57546148263
  0
VERTEX
  5
49D
100
AcDbEntity
  8
SV_PRZEBICIA_SCIANA_FUND
100
AcDbVertex
100
AcDb2dVertex
 10
7565452.51897245273
 20
5719053.36244490556
  0
VERTEX
  5
49E
100
AcDbEntity
  8
SV_PRZEBICIA_SCIANA_FUND
100
AcDbVertex
100
AcDb2dVertex
 10
7565452.2527017314
 20
5719053.22424250748
  0
VERTEX
  5
49F
100
AcDbEntity
  8
SV_PRZEBICIA_SCIANA_FUND
100
AcDbVertex
100
AcDb2dVertex
 10
7565452.14213981293
 20
5719053.43725908455
  0
SEQEND
  5
4A0
100
AcDbEntity
  8
SV_PRZEBICIA_SCIANA_FUND
  0
POLYLINE
  5
4A1
100
AcDbEntity
  8
SV_PRZEBICIA_SCIANA_FUND
  6
CONTINUOUS
370
25
100
AcDb2dPolyline
 66
1
 70
129
  0
VERTEX
  5
4A2
100
AcDbEntity
  8
SV_PRZEBICIA_SCIANA_FUND
100
AcDbVertex
100
AcDb2dVertex
 10
7565453.77766523138
 20
5719054.29335187376
  0
VERTEX
  5
4A3
100
AcDbEntity
  8
SV_PRZEBICIA_SCIANA_FUND
100
AcDbVertex
100
AcDb2dVertex
 10
7565453.88822714891
 20
5719054.08033529669
  0
VERTEX
  5
4A4
100
AcDbEntity
  8
SV_PRZEBICIA_SCIANA_FUND
100
AcDbVertex
100
AcDb2dVertex
 10
7565453.62195642758
 20
5719053.94213289861
  0
VERTEX
  5
4A5
100
AcDbEntity
  8
SV_PRZEBICIA_SCIANA_FUND
100
AcDbVertex
100
AcDb2dVertex
 10
7565453.51139450911
 20
5719054.15514947567
  0
SEQEND
  5
4A6
100
AcDbEntity
  8
SV_PRZEBICIA_SCIANA_FUND
  0
POLYLINE
  5
4A7
100
AcDbEntity
  8
SV_PRZEBICIA_SCIANA_FUND
  6
CONTINUOUS
370
25
100
AcDb2dPolyline
 66
1
 70
129
  0
VERTEX
  5
4A8
100
AcDbEntity
  8
SV_PRZEBICIA_SCIANA_FUND
100
AcDbVertex
100
AcDb2dVertex
 10
7565463.04891350493
 20
5719046.28884321172
  0
VERTEX
  5
4A9
100
AcDbEntity
  8
SV_PRZEBICIA_SCIANA_FUND
100
AcDbVertex
100
AcDb2dVertex
 10
7565463.01940094307
 20
5719046.53709511738
  0
VERTEX
  5
4AA
100
AcDbEntity
  8
SV_PRZEBICIA_SCIANA_FUND
100
AcDbVertex
100
AcDb2dVertex
 10
7565463.25772277266
 20
5719046.56542717665
  0
VERTEX
  5
4AB
100
AcDbEntity
  8
SV_PRZEBICIA_SCIANA_FUND
100
AcDbVertex
100
AcDb2dVertex
 10
7565463.28723533452
 20
5719046.31717527099
  0
SEQEND
  5
4AC
100
AcDbEntity
  8
SV_PRZEBICIA_SCIANA_FUND
  0
POLYLINE
  5
4AD
100
AcDbEntity
  8
SV_PRZEBICIA_SCIANA_FUND
  6
CONTINUOUS
370
25
100
AcDb2dPolyline
 66
1
 70
129
  0
VERTEX
  5
4AE
100
AcDbEntity
  8
SV_PRZEBICIA_SCIANA_FUND
100
AcDbVertex
100
AcDb2dVertex
 10
7565462.8738608472
 20
5719038.96078593004
  0
VERTEX
  5
4AF
100
AcDbEntity
  8
SV_PRZEBICIA_SCIANA_FUND
100
AcDbVertex
100
AcDb2dVertex
 10
7565462.84552878886
 20
5719039.19910775963
  0
VERTEX
  5
4B0
100
AcDbEntity
  8
SV_PRZEBICIA_SCIANA_FUND
100
AcDbVertex
100
AcDb2dVertex
 10
7565463.14343107585
 20
5719039.23452283349
  0
VERTEX
  5
4B1
100
AcDbEntity
  8
SV_PRZEBICIA_SCIANA_FUND
100
AcDbVertex
100
AcDb2dVertex
 10
7565463.17176313419
 20
5719038.9962010039
  0
SEQEND
  5
4B2
100
AcDbEntity
  8
SV_PRZEBICIA_SCIANA_FUND
  0
TEXT
  5
4B3
100
AcDbEntity
  8
MK_KAN_DESZ_OPIS
370
9
100
AcDbText
 39
0.09
 10
7565473.70053079538
 20
5718979.88248961698
 40
0.10
  1
\U+2205160 i=0,8%
 50
186.80
 41
0.66
  7
STANDARD
 72
0
 11
7565473.71237119194
 21
5718979.78319306578
100
AcDbText
 73
3
  0
TEXT
  5
4B4
100
AcDbEntity
  8
MK_KAN_DESZ_OPIS
370
9
100
AcDbText
 39
0.09
 10
7565470.46712870896
 20
5719004.50325521454
 40
0.10
  1
KANALIZACJA DESZCZOWA
 50
96.80
 41
0.66
  7
STANDARD
 72
0
 11
7565470.36783215776
 21
5719004.49141481798
100
AcDbText
 73
3
  0
TEXT
  5
4B5
100
AcDbEntity
  8
MK_KAN_DESZ_OPIS
370
9
100
AcDbText
 39
0.09
 10
7565470.80311989784
 20
5719004.54299694579
 40
0.10
  1
DALSZE PROWADZENIE NA PZT
 50
96.80
 41
0.66
  7
STANDARD
 72
0
 11
7565470.70382334664
 21
5719004.53115654923
100
AcDbText
 73
3
  0
TEXT
  5
4B6
100
AcDbEntity
  8
MK_KAN_DESZ_OPIS
370
9
100
AcDbText
 39
0.09
 10
7565473.30033458583
 20
5718980.67107225861
 40
0.10
  1
KANALIZACJA DESZCZOWA
 50
96.80
 41
0.66
  7
STANDARD
 72
0
 11
7565473.20103803463
 21
5718980.65923186205
100
AcDbText
 73
3
  0
TEXT
  5
4B7
100
AcDbEntity
  8
MK_KAN_DESZ_OPIS
370
9
100
AcDbText
 39
0.09
 10
7565473.63632577471
 20
5718980.71081398986
 40
0.10
  1
DALSZE PROWADZENIE NA PZT
 50
96.80
 41
0.66
  7
STANDARD
 72
0
 11
7565473.53702922352
 21
5718980.6989735933
100
AcDbText
 73
3
  0
TEXT
  5
4B8
100
AcDbEntity
  8
MK_KAN_DESZ_OPIS
370
9
100
AcDbText
 39
0.09
 10
7565472.9922293257
 20
5718985.84053535573
 40
0.10
  1
\U+2205160 i=0,8%
 50
186.80
 41
0.66
  7
STANDARD
 72
0
 11
7565473.00406972226
 21
5718985.74123880453
100
AcDbText
 73
3
  0
TEXT
  5
4B9
100
AcDbEntity
  8
MK_KAN_DESZ_OPIS
370
9
100
AcDbText
 39
0.09
 10
7565472.28392785694
 20
5718991.79858109541
 40
0.10
  1
\U+2205160 i=0,8%
 50
186.80
 41
0.66
  7
STANDARD
 72
0
 11
7565472.29576825351
 21
5718991.69928454421
100
AcDbText
 73
3
  0
TEXT
  5
4BA
100
AcDbEntity
  8
MK_KAN_DESZ_OPIS
370
9
100
AcDbText
 39
0.09
 10
7565471.57562638726
 20
5718997.75662683416
 40
0.10
  1
\U+2205160 i=0,8%
 50
186.80
 41
0.66
  7
STANDARD
 72
0
 11
7565471.58746678382
 21
5718997.65733028296
100
AcDbText
 73
3
  0
TEXT
  5
4BB
100
AcDbEntity
  8
MK_KAN_DESZ_OPIS
370
9
100
AcDbText
 39
0.09
 10
7565470.86732491851
 20
5719003.71467257291
 40
0.10
  1
\U+2205160 i=0,8%
 50
186.80
 41
0.66
  7
STANDARD
 72
0
 11
7565470.87916531507
 21
5719003.61537602171
100
AcDbText
 73
3
  0
TEXT
  5
4BC
100
AcDbEntity
  8
MK_KAN_DESZ_OPIS
370
9
100
AcDbText
 39
0.09
 10
7565470.15902344882
 20
5719009.67271831259
 40
0.10
  1
\U+2205160 i=0,8%
 50
186.80
 41
0.66
  7
STANDARD
 72
0
 11
7565470.17086384539
 21
5719009.57342176139
100
AcDbText
 73
3
  0
TEXT
  5
4BD
100
AcDbEntity
  8
MK_KAN_DESZ_OPIS
370
9
100
AcDbText
 39
0.09
 10
7565469.45072198007
 20
5719015.63076405134
 40
0.10
  1
\U+2205160 i=0,8%
 50
186.80
 41
0.66
  7
STANDARD
 72
0
 11
7565469.46256237663
 21
5719015.53146750014
100
AcDbText
 73
3
  0
TEXT
  5
4BE
100
AcDbEntity
  8
MK_KAN_DESZ_OPIS
370
9
100
AcDbText
 39
0.09
 10
7565468.74242051039
 20
5719021.58880979009
 40
0.10
  1
\U+2205160 i=0,8%
 50
186.80
 41
0.66
  7
STANDARD
 72
0
 11
7565468.75426090695
 21
5719021.48951323889
100
AcDbText
 73
3
  0
TEXT
  5
4BF
100
AcDbEntity
  8
MK_KAN_DESZ_OPIS
370
9
100
AcDbText
 39
0.09
 10
7565468.03411904164
 20
5719027.54685552977
 40
0.10
  1
\U+2205160 i=0,8%
 50
186.80
 41
0.66
  7
STANDARD
 72
0
 11
7565468.0459594382
 21
5719027.44755897857
100
AcDbText
 73
3
  0
TEXT
  5
4C0
100
AcDbEntity
  8
MK_KAN_DESZ_OPIS
370
9
100
AcDbText
 39
0.09
 10
7565467.32581757195
 20
5719033.50490126852
 40
0.10
  1
\U+2205160 i=0,8%
 50
186.80
 41
0.66
  7
STANDARD
 72
0
 11
7565467.33765796851
 21
5719033.40560471732
100
AcDbText
 73
3
  0
TEXT
  5
4C1
100
AcDbEntity
  8
MK_KAN_DESZ_OPIS
370
9
100
AcDbText
 39
0.09
 10
7565472.59203311615
 20
5718986.62911799736
 40
0.10
  1
KANALIZACJA DESZCZOWA
 50
96.80
 41
0.66
  7
STANDARD
 72
0
 11
7565472.49273656495
 21
5718986.6172776008
100
AcDbText
 73
3
  0
TEXT
  5
4C2
100
AcDbEntity
  8
MK_KAN_DESZ_OPIS
370
9
100
AcDbText
 39
0.09
 10
7565472.92802430596
 20
5718986.66885972861
 40
0.10
  1
DALSZE PROWADZENIE NA PZT
 50
96.80
 41
0.66
  7
STANDARD
 72
0
 11
7565472.82872775476
 21
5718986.65701933205
100
AcDbText
 73
3
  0
TEXT
  5
4C3
100
AcDbEntity
  8
MK_KAN_DESZ_OPIS
370
9
100
AcDbText
 39
0.09
 10
7565471.88373164739
 20
5718992.58716373704
 40
0.10
  1
KANALIZACJA DESZCZOWA
 50
96.80
 41
0.66
  7
STANDARD
 72
0
 11
7565471.7844350962
 21
5718992.57532334048
100
AcDbText
 73
3
  0
TEXT
  5
4C4
100
AcDbEntity
  8
MK_KAN_DESZ_OPIS
370
9
100
AcDbText
 39
0.09
 10
7565472.21972283628
 20
5718992.62690546829
 40
0.10
  1
DALSZE PROWADZENIE NA PZT
 50
96.80
 41
0.66
  7
STANDARD
 72
0
 11
7565472.12042628508
 21
5718992.61506507173
100
AcDbText
 73
3
  0
TEXT
  5
4C5
100
AcDbEntity
  8
MK_KAN_DESZ_OPIS
370
9
100
AcDbText
 39
0.09
 10
7565471.17543017771
 20
5718998.54520947579
 40
0.10
  1
KANALIZACJA DESZCZOWA
 50
96.80
 41
0.66
  7
STANDARD
 72
0
 11
7565471.07613362651
 21
5718998.53336907923
100
AcDbText
 73
3
  0
TEXT
  5
4C6
100
AcDbEntity
  8
MK_KAN_DESZ_OPIS
370
9
100
AcDbText
 39
0.09
 10
7565471.51142136753
 20
5718998.58495120704
 40
0.10
  1
DALSZE PROWADZENIE NA PZT
 50
96.80
 41
0.66
  7
STANDARD
 72
0
 11
7565471.41212481633
 21
5718998.57311081048
100
AcDbText
 73
3
  0
TEXT
  5
4C7
100
AcDbEntity
  8
MK_KAN_DESZ_OPIS
370
9
100
AcDbText
 39
0.09
 10
7565470.46712870896
 20
5719004.50325521454
 40
0.10
  1
KANALIZACJA DESZCZOWA
 50
96.80
 41
0.66
  7
STANDARD
 72
0
 11
7565470.36783215776
 21
5719004.49141481798
100
AcDbText
 73
3
  0
TEXT
  5
4C8
100
AcDbEntity
  8
MK_KAN_DESZ_OPIS
370
9
100
AcDbText
 39
0.09
 10
7565470.80311989784
 20
5719004.54299694579
 40
0.10
  1
DALSZE PROWADZENIE NA PZT
 50
96.80
 41
0.66
  7
STANDARD
 72
0
 11
7565470.70382334664
 21
5719004.53115654923
100
AcDbText
 73
3
  0
TEXT
  5
4C9
100
AcDbEntity
  8
MK_KAN_DESZ_OPIS
370
9
100
AcDbText
 39
0.09
 10
7565469.75882723928
 20
5719010.46130095422
 40
0.10
  1
KANALIZACJA DESZCZOWA
 50
96.80
 41
0.66
  7
STANDARD
 72
0
 11
7565469.65953068808
 21
5719010.44946055766
100
AcDbText
 73
3
  0
TEXT
  5
4CA
100
AcDbEntity
  8
MK_KAN_DESZ_OPIS
370
9
100
AcDbText
 39
0.09
 10
7565470.09481842909
 20
5719010.50104268547
 40
0.10
  1
DALSZE PROWADZENIE NA PZT
 50
96.80
 41
0.66
  7
STANDARD
 72
0
 11
7565469.99552187789
 21
5719010.48920228891
100
AcDbText
 73
3
  0
TEXT
  5
4CB
100
AcDbEntity
  8
MK_KAN_DESZ_OPIS
370
9
100
AcDbText
 39
0.09
 10
7565469.05052577052
 20
5719016.41934669297
 40
0.10
  1
KANALIZACJA DESZCZOWA
 50
96.80
 41
0.66
  7
STANDARD
 72
0
 11
7565468.95122921932
 21
5719016.40750629641
100
AcDbText
 73
3
  0
TEXT
  5
4CC
100
AcDbEntity
  8
MK_KAN_DESZ_OPIS
370
9
100
AcDbText
 39
0.09
 10
7565469.38651695941
 20
5719016.45908842422
 40
0.10
  1
DALSZE PROWADZENIE NA PZT
 50
96.80
 41
0.66
  7
STANDARD
 72
0
 11
7565469.28722040821
 21
5719016.44724802766
100
AcDbText
 73
3
  0
TEXT
  5
4CD
100
AcDbEntity
  8
MK_KAN_DESZ_OPIS
370
9
100
AcDbText
 39
0.09
 10
7565468.34222430084
 20
5719022.37739243172
 40
0.10
  1
KANALIZACJA DESZCZOWA
 50
96.80
 41
0.66
  7
STANDARD
 72
0
 11
7565468.24292774964
 21
5719022.36555203516
100
AcDbText
 73
3
  0
TEXT
  5
4CE
100
AcDbEntity
  8
MK_KAN_DESZ_OPIS
370
9
100
AcDbText
 39
0.09
 10
7565468.67821549065
 20
5719022.41713416297
 40
0.10
  1
DALSZE PROWADZENIE NA PZT
 50
96.80
 41
0.66
  7
STANDARD
 72
0
 11
7565468.57891893946
 21
5719022.40529376641
100
AcDbText
 73
3
  0
TEXT
  5
4CF
100
AcDbEntity
  8
MK_KAN_DESZ_OPIS
370
9
100
AcDbText
 39
0.09
 10
7565467.63392283209
 20
5719028.3354381714
 40
0.10
  1
KANALIZACJA DESZCZOWA
 50
96.80
 41
0.66
  7
STANDARD
 72
0
 11
7565467.53462628089
 21
5719028.32359777484
100
AcDbText
 73
3
  0
TEXT
  5
4D0
100
AcDbEntity
  8
MK_KAN_DESZ_OPIS
370
9
100
AcDbText
 39
0.09
 10
7565467.96991402097
 20
5719028.37517990265
 40
0.10
  1
DALSZE PROWADZENIE NA PZT
 50
96.80
 41
0.66
  7
STANDARD
 72
0
 11
7565467.87061746977
 21
5719028.36333950609
100
AcDbText
 73
3
  0
TEXT
  5
4D1
100
AcDbEntity
  8
MK_KAN_DESZ_OPIS
370
9
100
AcDbText
 39
0.09
 10
7565466.9256213624
 20
5719034.29348391015
 40
0.10
  1
KANALIZACJA DESZCZOWA
 50
96.80
 41
0.66
  7
STANDARD
 72
0
 11
7565466.82632481121
 21
5719034.28164351359
100
AcDbText
 73
3
  0
TEXT
  5
4D2
100
AcDbEntity
  8
MK_KAN_DESZ_OPIS
370
9
100
AcDbText
 39
0.09
 10
7565467.26161255222
 20
5719034.3332256414
 40
0.10
  1
DALSZE PROWADZENIE NA PZT
 50
96.80
 41
0.66
  7
STANDARD
 72
0
 11
7565467.16231600102
 21
5719034.32138524484
100
AcDbText
 73
3
  0
TEXT
  5
4D3
100
AcDbEntity
  8
MK_KAN_DESZ_OPIS
370
9
100
AcDbText
 39
0.09
 10
7565465.32471030578
 20
5719047.7599268239
 40
0.10
  1
KANALIZACJA DESZCZOWA
 50
96.80
 41
0.66
  7
STANDARD
 72
0
 11
7565465.22541375458
 21
5719047.74808642734
100
AcDbText
 73
3
  0
TEXT
  5
4D4
100
AcDbEntity
  8
MK_KAN_DESZ_OPIS
370
9
100
AcDbText
 39
0.09
 10
7565465.66070149466
 20
5719047.79966855515
 40
0.10
  1
DALSZE PROWADZENIE NA PZT
 50
96.80
 41
0.66
  7
STANDARD
 72
0
 11
7565465.56140494347
 21
5719047.78782815859
100
AcDbText
 73
3
  0
TEXT
  5
4D5
100
AcDbEntity
  8
MK_KAN_DESZ_PION
100
AcDbText
 10
7565462.58555039298
 20
5719045.80826264992
 40
0.10
  1
KD1
 50
96.80
 41
0.78
  7
arial.ttf
 72
0
 11
7565462.48625384178
 21
5719045.79642225336
100
AcDbText
 73
3
  0
TEXT
  5
4D6
100
AcDbEntity
  8
MK_KAN_DESZ_PION
100
AcDbText
 10
7565471.70480019692
 20
5718978.65377320815
 40
0.10
  1
KD11
 50
96.80
 41
0.78
  7
arial.ttf
 72
0
 11
7565471.60550364573
 21
5718978.64193281159
100
AcDbText
 73
3
  0
TEXT
  5
4D7
100
AcDbEntity
  8
MK_KAN_DESZ_PION
100
AcDbText
 10
7565470.99649872817
 20
5718984.61181894783
 40
0.10
  1
KD10
 50
96.80
 41
0.78
  7
arial.ttf
 72
0
 11
7565470.89720217697
 21
5718984.59997855127
100
AcDbText
 73
3
  0
TEXT
  5
4D8
100
AcDbEntity
  8
MK_KAN_DESZ_PION
100
AcDbText
 10
7565470.28077062406
 20
5718990.63233561628
 40
0.10
  1
KD9
 50
96.80
 41
0.78
  7
arial.ttf
 72
0
 11
7565470.18147407286
 21
5718990.62049521972
100
AcDbText
 73
3
  0
TEXT
  5
4D9
100
AcDbEntity
  8
MK_KAN_DESZ_PION
100
AcDbText
 10
7565469.5724691553
 20
5718996.59038135502
 40
0.10
  1
KD8
 50
96.80
 41
0.78
  7
arial.ttf
 72
0
 11
7565469.47317260411
 21
5718996.57854095846
100
AcDbText
 73
3
  0
TEXT
  5
4DA
100
AcDbEntity
  8
MK_KAN_DESZ_PION
100
AcDbText
 10
7565468.86416768562
 20
5719002.54842709471
 40
0.10
  1
KD7
 50
96.80
 41
0.78
  7
arial.ttf
 72
0
 11
7565468.76487113442
 21
5719002.53658669814
100
AcDbText
 73
3
  0
TEXT
  5
4DB
100
AcDbEntity
  8
MK_KAN_DESZ_PION
100
AcDbText
 10
7565468.15586621687
 20
5719008.50647283345
 40
0.10
  1
KD6
 50
96.80
 41
0.78
  7
arial.ttf
 72
0
 11
7565468.05656966567
 21
5719008.49463243689
100
AcDbText
 73
3
  0
TEXT
  5
4DC
100
AcDbEntity
  8
MK_KAN_DESZ_PION
100
AcDbText
 10
7565467.44756474718
 20
5719014.4645185722
 40
0.10
  1
KD5
 50
96.80
 41
0.78
  7
arial.ttf
 72
0
 11
7565467.34826819599
 21
5719014.45267817564
100
AcDbText
 73
3
  0
TEXT
  5
4DD
100
AcDbEntity
  8
MK_KAN_DESZ_PION
100
AcDbText
 10
7565466.73926327843
 20
5719020.42256431188
 40
0.10
  1
KD4
 50
96.80
 41
0.78
  7
arial.ttf
 72
0
 11
7565466.63996672723
 21
5719020.41072391532
100
AcDbText
 73
3
  0
TEXT
  5
4DE
100
AcDbEntity
  8
MK_KAN_DESZ_PION
100
AcDbText
 10
7565466.03096180875
 20
5719026.38061005063
 40
0.10
  1
KD3
 50
96.80
 41
0.78
  7
arial.ttf
 72
0
 11
7565465.93166525755
 21
5719026.36876965407
100
AcDbText
 73
3
  0
TEXT
  5
4DF
100
AcDbEntity
  8
MK_KAN_DESZ_PION
100
AcDbText
 10
7565465.32266034
 20
5719032.33865578938
 40
0.10
  1
KD2
 50
96.80
 41
0.78
  7
arial.ttf
 72
0
 11
7565465.2233637888
 21
5719032.32681539282
100
AcDbText
 73
3
  0
TEXT
  5
4E0
100
AcDbEntity
  8
MK_KAN_RZEDNE
370
9
100
AcDbText
 39
0.09
 10
7565457.30089970492
 20
5719042.04697469529
 40
0.10
  1
Rz.S.=-0,87
 50
96.80
 41
0.66
  7
STANDARD
 72
0
 11
7565457.20160315372
 21
5719042.03513429873
100
AcDbText
 73
3
  0
TEXT
  5
4E1
100
AcDbEntity
  8
MK_KAN_RZEDNE
370
9
100
AcDbText
 39
0.09
 10
7565456.47408379428
 20
5719047.3031948749
 40
0.10
  1
Rz.S.=-0,90
 50
96.80
 41
0.66
  7
STANDARD
 72
0
 11
7565456.37478724308
 21
5719047.29135447834
100
AcDbText
 73
3
  0
TEXT
  5
4E2
100
AcDbEntity
  8
MK_KAN_RZEDNE
370
9
100
AcDbText
 39
0.09
 10
7565454.72589967772
 20
5719041.70588267315
 40
0.10
  1
Rz.S.=-1,05
 50
96.80
 41
0.66
  7
STANDARD
 72
0
 11
7565454.62660312653
 21
5719041.69404227659
100
AcDbText
 73
3
  0
TEXT
  5
4E3
100
AcDbEntity
  8
MK_KAN_RZEDNE
370
9
100
AcDbText
 39
0.09
 10
7565455.30166474637
 20
5719044.45918333624
 40
0.10
  1
Rz.S.=-1,08
 50
96.80
 41
0.66
  7
STANDARD
 72
0
 11
7565455.20236819517
 21
5719044.44734293967
100
AcDbText
 73
3
  0
TEXT
  5
4E4
100
AcDbEntity
  8
MK_KAN_RZEDNE
370
9
100
AcDbText
 39
0.09
 10
7565454.78638698254
 20
5719047.73159117624
 40
0.10
  1
Rz.S.=-1,10
 50
96.80
 41
0.66
  7
STANDARD
 72
0
 11
7565454.68709043134
 21
5719047.71975077968
100
AcDbText
 73
3
  0
TEXT
  5
4E5
100
AcDbEntity
  8
MK_KAN_RZEDNE
370
9
100
AcDbText
 39
0.09
 10
7565448.95150072407
 20
5719036.30093266629
 40
0.10
  1
Rz.S.=-0,91
 50
96.80
 41
0.66
  7
STANDARD
 72
0
 11
7565448.85220417287
 21
5719036.28909226973
100
AcDbText
 73
3
  0
TEXT
  5
4E6
100
AcDbEntity
  8
MK_KAN_RZEDNE
370
9
100
AcDbText
 39
0.09
 10
7565449.03614591993
 20
5719040.34882061463
 40
0.10
  1
Rz.S.=-0,92
 50
96.80
 41
0.66
  7
STANDARD
 72
0
 11
7565448.93684936874
 21
5719040.33698021807
100
AcDbText
 73
3
  0
TEXT
  5
4E7
100
AcDbEntity
  8
MK_KAN_RZEDNE
370
9
100
AcDbText
 39
0.09
 10
7565453.74743472878
 20
5719041.08567026537
 40
0.10
  1
Rz.S.=-0,93
 50
96.80
 41
0.66
  7
STANDARD
 72
0
 11
7565453.64813817758
 21
5719041.07382986881
100
AcDbText
 73
3
  0
TEXT
  5
4E8
100
AcDbEntity
  8
MK_KAN_RZEDNE
370
9
100
AcDbText
 39
0.09
 10
7565454.95488571655
 20
5719041.7163979942
 40
0.10
  1
Rz.S.=-0,54
 50
96.80
 41
0.66
  7
STANDARD
 72
0
 11
7565454.85558916535
 21
5719041.70455759764
100
AcDbText
 73
3
  0
TEXT
  5
4E9
100
AcDbEntity
  8
MK_KAN_RZEDNE
370
9
100
AcDbText
 39
0.09
 10
7565456.72678702697
 20
5719047.35755991098
 40
0.10
  1
Rz.S.=-0,61
 50
96.80
 41
0.66
  7
STANDARD
 72
0
 11
7565456.62749047577
 21
5719047.34571951441
100
AcDbText
 73
3
  0
TEXT
  5
4EA
100
AcDbEntity
  8
MK_KAN_RZEDNE
370
9
100
AcDbText
 39
0.09
 10
7565455.07796739787
 20
5719047.74643899873
 40
0.10
  1
Rz.S.=-0,65
 50
96.80
 41
0.66
  7
STANDARD
 72
0
 11
7565454.97867084667
 21
5719047.73459860217
100
AcDbText
 73
3
  0
TEXT
  5
4EB
100
AcDbEntity
  8
MK_KAN_RZEDNE
370
9
100
AcDbText
 39
0.09
 10
7565460.11984364502
 20
5719041.6167908255
 40
0.10
  1
Rz.S.=-0,50
 50
96.80
 41
0.66
  7
STANDARD
 72
0
 11
7565460.02054709382
 21
5719041.60495042894
100
AcDbText
 73
3
  0
TEXT
  5
4EC
100
AcDbEntity
  8
MK_KAN_RZEDNE
370
9
100
AcDbText
 39
0.09
 10
7565459.42906998657
 20
5719041.34418494347
 40
0.10
  1
Rz.S.=-0,52
 50
96.80
 41
0.66
  7
STANDARD
 72
0
 11
7565459.32977343537
 21
5719041.33234454691
100
AcDbText
 73
3
  0
TEXT
  5
4ED
100
AcDbEntity
  8
MK_KAN_RZEDNE
370
9
100
AcDbText
 39
0.09
 10
7565455.54221005645
 20
5719044.48245173879
 40
0.10
  1
Rz.S.=-0,60
 50
96.80
 41
0.66
  7
STANDARD
 72
0
 11
7565455.44291350525
 21
5719044.47061134223
100
AcDbText
 73
3
  0
TEXT
  5
4EE
100
AcDbEntity
  8
MK_KAN_RZEDNE
370
9
100
AcDbText
 39
0.09
 10
7565457.5522156693
 20
5719042.06159313023
 40
0.10
  1
Rz.S.=-0,54
 50
96.80
 41
0.66
  7
STANDARD
 72
0
 11
7565457.45291911811
 21
5719042.04975273367
100
AcDbText
 73
3
  0
TEXT
  5
4EF
100
AcDbEntity
  8
MK_KAN_RZEDNE
370
9
100
AcDbText
 39
0.09
 10
7565450.8761593774
 20
5719033.37571653817
 40
0.10
  1
Rz.S.=-0,79
 50
96.80
 41
0.66
  7
STANDARD
 72
0
 11
7565450.7768628262
 21
5719033.36387614161
100
AcDbText
 73
3
  0
TEXT
  5
4F0
100
AcDbEntity
  8
MK_KAN_RZEDNE
370
9
100
AcDbText
 39
0.09
 10
7565448.21201520041
 20
5719031.72612810973
 40
0.10
  1
Rz.S.=-0,84
 50
96.80
 41
0.66
  7
STANDARD
 72
0
 11
7565448.11271864921
 21
5719031.71428771317
100
AcDbText
 73
3
  0
TEXT
  5
4F1
100
AcDbEntity
  8
MK_KAN_RZEDNE
370
9
100
AcDbText
 39
0.09
 10
7565447.99844125751
 20
5719033.29212939367
 40
0.10
  1
Rz.S.=-0,85
 50
96.80
 41
0.66
  7
STANDARD
 72
0
 11
7565447.89914470632
 21
5719033.28028899711
100
AcDbText
 73
3
  0
TEXT
  5
4F2
100
AcDbEntity
  8
MK_KAN_RZEDNE
370
9
100
AcDbText
 39
0.09
 10
7565448.52101577073
 20
5719028.89636997972
 40
0.10
  1
Rz.S.=-0,82
 50
96.80
 41
0.66
  7
STANDARD
 72
0
 11
7565448.42171921954
 21
5719028.88452958316
100
AcDbText
 73
3
  0
TEXT
  5
4F3
100
AcDbEntity
  8
MK_KAN_RZEDNE
370
9
100
AcDbText
 39
0.09
 10
7565449.12603130844
 20
5719023.80713833962
 40
0.10
  1
Rz.S.=-0,77
 50
96.80
 41
0.66
  7
STANDARD
 72
0
 11
7565449.02673475724
 21
5719023.79529794306
100
AcDbText
 73
3
  0
TEXT
  5
4F4
100
AcDbEntity
  8
MK_KAN_RZEDNE
370
9
100
AcDbText
 39
0.09
 10
7565449.31480282731
 20
5719022.21924195346
 40
0.10
  1
Rz.S.=-0,77
 50
96.80
 41
0.66
  7
STANDARD
 72
0
 11
7565449.21550627612
 21
5719022.20740155689
100
AcDbText
 73
3
  0
TEXT
  5
4F5
100
AcDbEntity
  8
MK_KAN_RZEDNE
370
9
100
AcDbText
 39
0.09
 10
7565451.93747734651
 20
5719024.32015428785
 40
0.10
  1
Rz.S.=-0,71
 50
96.80
 41
0.66
  7
STANDARD
 72
0
 11
7565451.83818079531
 21
5719024.30831389129
100
AcDbText
 73
3
  0
TEXT
  5
4F6
100
AcDbEntity
  8
MK_KAN_RZEDNE
370
9
100
AcDbText
 39
0.09
 10
7565450.66305749584
 20
5719029.35963116121
 40
0.10
  1
Rz.S.=-0,80
 50
96.80
 41
0.66
  7
STANDARD
 72
0
 11
7565450.56376094464
 21
5719029.34779076464
100
AcDbText
 73
3
  0
TEXT
  5
4F7
100
AcDbEntity
  8
MK_KAN_RZEDNE
370
9
100
AcDbText
 39
0.09
 10
7565448.54359906167
 20
5719015.99721716158
 40
0.10
  1
Rz.S.=-0,5+
 50
96.80
 41
0.66
  7
STANDARD
 72
0
 11
7565448.44430251047
 21
5719015.98537676502
100
AcDbText
 73
3
  0
TEXT
  5
4F8
100
AcDbEntity
  8
MK_KAN_RZEDNE
370
9
100
AcDbText
 39
0.09
 10
7565449.66569767613
 20
5719016.13061393891
 40
0.10
  1
Rz.S.=-0,57
 50
96.80
 41
0.66
  7
STANDARD
 72
0
 11
7565449.56640112493
 21
5719016.11877354234
100
AcDbText
 73
3
  0
TEXT
  5
4F9
100
AcDbEntity
  8
MK_KAN_RZEDNE
370
9
100
AcDbText
 39
0.09
 10
7565450.78779629059
 20
5719016.2640107153
 40
0.10
  1
Rz.S.=-0,58
 50
96.80
 41
0.66
  7
STANDARD
 72
0
 11
7565450.68849973939
 21
5719016.25217031874
100
AcDbText
 73
3
  0
TEXT
  5
4FA
100
AcDbEntity
  8
MK_KAN_RZEDNE
370
9
100
AcDbText
 39
0.09
 10
7565454.87666392792
 20
5719022.21334192343
 40
0.10
  1
Rz.S.=-0,64
 50
96.80
 41
0.66
  7
STANDARD
 72
0
 11
7565454.77736737672
 21
5719022.20150152687
100
AcDbText
 73
3
  0
TEXT
  5
4FB
100
AcDbEntity
  8
MK_KAN_RZEDNE
370
9
100
AcDbText
 39
0.09
 10
7565458.07330817077
 20
5719034.08146644291
 40
0.10
  1
Rz.S.=-0,78
 50
96.80
 41
0.66
  7
STANDARD
 72
0
 11
7565457.97401161958
 21
5719034.06962604634
100
AcDbText
 73
3
  0
TEXT
  5
4FC
100
AcDbEntity
  8
MK_KAN_RZEDNE
370
9
100
AcDbText
 39
0.09
 10
7565455.35579692665
 20
5719033.75840460509
 40
0.10
  1
Rz.S.=-0,98
 50
96.80
 41
0.66
  7
STANDARD
 72
0
 11
7565455.25650037546
 21
5719033.74656420853
100
AcDbText
 73
3
  0
TEXT
  5
4FD
100
AcDbEntity
  8
MK_KAN_RZEDNE
370
9
100
AcDbText
 39
0.09
 10
7565458.21176441386
 20
5719009.73475696798
 40
0.10
  1
Rz.S.=-0,78
 50
96.80
 41
0.66
  7
STANDARD
 72
0
 11
7565458.11246786267
 21
5719009.72291657142
100
AcDbText
 73
3
  0
TEXT
  5
4FE
100
AcDbEntity
  8
MK_KAN_RZEDNE
370
9
100
AcDbText
 39
0.09
 10
7565454.51407034695
 20
5719009.14648627956
 40
0.10
  1
Rz.S.=-0,72
 50
96.80
 41
0.66
  7
STANDARD
 72
0
 11
7565454.41477379575
 21
5719009.13464588299
100
AcDbText
 73
3
  0
TEXT
  5
4FF
100
AcDbEntity
  8
MK_KAN_RZEDNE
370
9
100
AcDbText
 39
0.09
 10
7565446.9132545758
 20
5719008.69115702622
 40
0.10
  1
Rz.S.=-0,59
 50
96.80
 41
0.66
  7
STANDARD
 72
0
 11
7565446.81395802461
 21
5719008.67931662966
100
AcDbText
 73
3
  0
TEXT
  5
500
100
AcDbEntity
  8
MK_KAN_RZEDNE
370
9
100
AcDbText
 39
0.09
 10
7565455.47460814286
 20
5719032.52846931666
 40
0.10
  1
Rz.S.=-0,75
 50
96.80
 41
0.66
  7
STANDARD
 72
0
 11
7565455.37531159166
 21
5719032.5166289201
100
AcDbText
 73
3
  0
TEXT
  5
501
100
AcDbEntity
  8
MK_KAN_RZEDNE
370
9
100
AcDbText
 39
0.09
 10
7565455.74921702407
 20
5719032.56064319331
 40
0.10
  1
Rz.S.=-0,98
 50
96.80
 41
0.66
  7
STANDARD
 72
0
 11
7565455.64992047288
 21
5719032.54880279675
100
AcDbText
 73
3
  0
TEXT
  5
502
100
AcDbEntity
  8
MK_KAN_RZEDNE
370
9
100
AcDbText
 39
0.09
 10
7565456.70248737931
 20
5719022.4303985713
 40
0.10
  1
Rz.S.=-0,88
 50
96.80
 41
0.66
  7
STANDARD
 72
0
 11
7565456.60319082812
 21
5719022.41855817474
100
AcDbText
 73
3
  0
TEXT
  5
503
100
AcDbEntity
  8
MK_KAN_SAN_OPIS
370
9
100
AcDbText
 39
0.09
 10
7565462.26679144986
 20
5719039.55711828265
 40
0.10
  1
KR
 50
96.80
 41
0.66
  7
STANDARD
 72
0
 11
7565462.16749489866
 21
5719039.54527788609
100
AcDbText
 73
3
  0
TEXT
  5
504
100
AcDbEntity
  8
MK_KAN_SAN_OPIS
370
9
100
AcDbText
 39
0.09
 10
7565462.85942678154
 20
5719047.15775411762
 40
0.10
  1
PROJ. STUDZIENKA 
 50
96.80
 41
0.66
  7
STANDARD
 72
0
 11
7565462.76013023034
 21
5719047.14591372106
100
AcDbText
 73
3
  0
TEXT
  5
505
100
AcDbEntity
  8
MK_KAN_SAN_OPIS
370
9
100
AcDbText
 39
0.09
 10
7565463.0083716074
 20
5719047.17551471293
 40
0.10
  1
SCHLADZAJYCA 1000x1000
 50
96.80
 41
0.66
  7
STANDARD
 72
0
 11
7565462.9090750562
 21
5719047.16367431637
100
AcDbText
 73
3
  0
TEXT
  5
506
100
AcDbEntity
  8
MK_KAN_SAN_OPIS
370
9
100
AcDbText
 39
0.09
 10
7565462.18237305991
 20
5719047.02827259339
 40
0.10
  1
PROJ. STUDZIENKA 500x500 
 50
96.80
 41
0.66
  7
STANDARD
 72
0
 11
7565462.08307650872
 21
5719047.01643219683
100
AcDbText
 73
3
  0
TEXT
  5
507
100
AcDbEntity
  8
MK_KAN_SAN_OPIS
370
9
100
AcDbText
 39
0.09
 10
7565462.33131788578
 20
5719047.0460331887
 40
0.10
  1
Z ZASUWY ODCINAJYCY
 50
96.80
 41
0.66
  7
STANDARD
 72
0
 11
7565462.23202133458
 21
5719047.03419279214
100
AcDbText
 73
3
  0
TEXT
  5
508
100
AcDbEntity
  8
MK_KAN_SAN_OPIS
370
9
100
AcDbText
 39
0.09
 10
7565448.98933994491
 20
5719029.56314459629
 40
0.10
  1
200 i=1.0%
 50
96.80
 41
0.66
  7
STANDARD
 72
0
 11
7565448.89004339371
 21
5719029.55130419973
100
AcDbText
 73
3
  0
TEXT
  5
509
100
AcDbEntity
  8
MK_KAN_SAN_OPIS
370
9
100
AcDbText
 39
0.09
 10
7565456.44049447868
 20
5719044.09693048242
 40
0.10
  1
DN100 i=2,0%
 50
186.80
 41
0.66
  7
STANDARD
 72
0
 11
7565456.45233487524
 21
5719043.99763393123
100
AcDbText
 73
3
  0
TEXT
  5
50A
100
AcDbEntity
  8
MK_KAN_SAN_OPIS
370
9
100
AcDbText
 39
0.09
 10
7565453.53924425598
 20
5719048.64888521563
 40
0.10
  1
\U+2205200 i=7,6%
 50
96.80
 41
0.66
  7
STANDARD
 72
0
 11
7565453.43994770478
 21
5719048.63704481907
100
AcDbText
 73
3
  0
TEXT
  5
50B
100
AcDbEntity
  8
MK_KAN_SAN_OPIS
370
9
100
AcDbText
 39
0.09
 10
7565454.25388537534
 20
5719041.99276601337
 40
0.10
  1
\U+2205200 i=1,0%
 50
96.80
 41
0.66
  7
STANDARD
 72
0
 11
7565454.15458882414
 21
5719041.98092561681
100
AcDbText
 73
3
  0
TEXT
  5
50C
100
AcDbEntity
  8
MK_KAN_SAN_OPIS
370
9
100
AcDbText
 39
0.09
 10
7565450.48318818305
 20
5719053.60306545626
 40
0.10
  1
PRZY£¥CZE KAN. SAN.
 50
96.80
 41
0.66
  7
STANDARD
 72
0
 11
7565450.38389163185
 21
5719053.5912250597
100
AcDbText
 73
3
  0
TEXT
  5
50D
100
AcDbEntity
  8
MK_KAN_SAN_OPIS
370
9
100
AcDbText
 39
0.09
 10
7565450.81917937193
 20
5719053.64280718751
 40
0.10
  1
DALSZE PROWADZENIE NA PZT
 50
96.80
 41
0.66
  7
STANDARD
 72
0
 11
7565450.71988282073
 21
5719053.63096679095
100
AcDbText
 73
3
  0
TEXT
  5
50E
100
AcDbEntity
  8
MK_KAN_SAN_OPIS
370
9
100
AcDbText
 39
0.09
 10
7565453.53947483282
 20
5719039.93674089108
 40
0.10
  1
\U+2205200 i=1,0%
 50
186.80
 41
0.66
  7
STANDARD
 72
0
 11
7565453.55131522939
 21
5719039.83744433988
100
AcDbText
 73
3
  0
TEXT
  5
50F
100
AcDbEntity
  8
MK_KAN_SAN_OPIS
370
9
100
AcDbText
 39
0.09
 10
7565450.94372777361
 20
5719039.62815456372
 40
0.10
  1
\U+2205200 i=1,0%
 50
186.80
 41
0.66
  7
STANDARD
 72
0
 11
7565450.95556817018
 21
5719039.52885801252
100
AcDbText
 73
3
  0
TEXT
  5
510
100
AcDbEntity
  8
MK_KAN_SAN_OPIS
370
9
100
AcDbText
 39
0.09
 10
7565453.95321670081
 20
5719045.19449140225
 40
0.10
  1
\U+2205200 i=1,0%
 50
96.80
 41
0.66
  7
STANDARD
 72
0
 11
7565453.85392014962
 21
5719045.18265100569
100
AcDbText
 73
3
  0
TEXT
  5
511
100
AcDbEntity
  8
MK_KAN_SAN_OPIS
370
9
100
AcDbText
 39
0.09
 10
7565457.57221354078
 20
5719047.72991768271
 40
0.10
  1
\U+2205110 i=2,0%
 50
96.80
 41
0.66
  7
STANDARD
 72
0
 11
7565457.47291698959
 21
5719047.71807728615
100
AcDbText
 73
3
  0
TEXT
  5
512
100
AcDbEntity
  8
MK_KAN_SAN_OPIS
370
9
100
AcDbText
 39
0.09
 10
7565460.44916714542
 20
5719047.64745049272
 40
0.10
  1
\U+2205110 i=2,0%
 50
186.80
 41
0.66
  7
STANDARD
 72
0
 11
7565460.46100754198
 21
5719047.54815394152
100
AcDbText
 73
3
  0
TEXT
  5
513
100
AcDbEntity
  8
MK_KAN_SAN_OPIS
370
9
100
AcDbText
 39
0.09
 10
7565456.16989691369
 20
5719046.73090984579
 40
0.10
  1
\U+2205200 i=1,0%
 50
186.80
 41
0.66
  7
STANDARD
 72
0
 11
7565456.18173731025
 21
5719046.63161329459
100
AcDbText
 73
3
  0
TEXT
  5
514
100
AcDbEntity
  8
MK_KAN_SAN_OPIS
370
9
100
AcDbText
 39
0.09
 10
7565459.00256589241
 20
5719048.03317055758
 40
0.10
  1
\U+2205110 i=2,0%
 50
96.80
 41
0.66
  7
STANDARD
 72
0
 11
7565458.90326934122
 21
5719048.02133016102
100
AcDbText
 73
3
  0
TEXT
  5
515
100
AcDbEntity
  8
MK_KAN_SAN_OPIS
370
9
100
AcDbText
 39
0.09
 10
7565456.89007646218
 20
5719046.63636690006
 40
0.10
  1
\U+2205110
 50
141.80
 41
0.66
  7
STANDARD
 72
0
 11
7565456.8282356225
 21
5719046.5577812111
100
AcDbText
 73
3
  0
TEXT
  5
516
100
AcDbEntity
  8
MK_KAN_SAN_OPIS
370
9
100
AcDbText
 39
0.09
 10
7565458.00088869128
 20
5719044.2824325012
 40
0.10
  1
DN100 i=2,0%
 50
186.80
 41
0.66
  7
STANDARD
 72
0
 11
7565458.01272908784
 21
5719044.18313595001
100
AcDbText
 73
3
  0
TEXT
  5
517
100
AcDbEntity
  8
MK_KAN_SAN_OPIS
370
9
100
AcDbText
 39
0.09
 10
7565456.35416931752
 20
5719039.44939948339
 40
0.10
  1
\U+2205110 i=2,0%
 50
96.80
 41
0.66
  7
STANDARD
 72
0
 11
7565456.25487276632
 21
5719039.43755908683
100
AcDbText
 73
3
  0
TEXT
  5
518
100
AcDbEntity
  8
MK_KAN_SAN_OPIS
370
9
100
AcDbText
 39
0.09
 10
7565457.32937900443
 20
5719041.88102069031
 40
0.10
  1
\U+2205110 i=2,0%
 50
186.80
 41
0.66
  7
STANDARD
 72
0
 11
7565457.34121940099
 21
5719041.78172413912
100
AcDbText
 73
3
  0
TEXT
  5
519
100
AcDbEntity
  8
MK_KAN_SAN_OPIS
370
9
100
AcDbText
 39
0.09
 10
7565455.21897433512
 20
5719041.28883708734
 40
0.10
  1
\U+2205160
 50
186.80
 41
0.66
  7
STANDARD
 72
0
 11
7565455.23081473168
 21
5719041.18954053614
100
AcDbText
 73
3
  0
TEXT
  5
51A
100
AcDbEntity
  8
MK_KAN_SAN_OPIS
370
9
100
AcDbText
 39
0.09
 10
7565452.96282931883
 20
5719051.87162399106
 40
0.10
  1
\U+2205200 i=1,0%
 50
117.70
 41
0.66
  7
STANDARD
 72
0
 11
7565452.87428995594
 21
5719051.82513978612
100
AcDbText
 73
3
  0
TEXT
  5
51B
100
AcDbEntity
  8
MK_KAN_SAN_OPIS
370
9
100
AcDbText
 39
0.09
 10
7565450.98960373271
 20
5719033.32945956197
 40
0.10
  1
DN100 i=2,0%
 50
186.80
 41
0.66
  7
STANDARD
 72
0
 11
7565451.00144412927
 21
5719033.23016301077
100
AcDbText
 73
3
  0
TEXT
  5
51C
100
AcDbEntity
  8
MK_KAN_SAN_OPIS
370
9
100
AcDbText
 39
0.09
 10
7565451.83615960553
 20
5719023.57729655225
 40
0.10
  1
DN100 i=2,0%
 50
186.80
 41
0.66
  7
STANDARD
 72
0
 11
7565451.84800000209
 21
5719023.47800000105
100
AcDbText
 73
3
  0
TEXT
  5
51D
100
AcDbEntity
  8
MK_KAN_SAN_OPIS
370
9
100
AcDbText
 39
0.09
 10
7565450.39115960524
 20
5719028.90429655276
 40
0.10
  1
DN100 i=2,0%
 50
186.80
 41
0.66
  7
STANDARD
 72
0
 11
7565450.4030000018
 21
5719028.80500000156
100
AcDbText
 73
3
  0
TEXT
  5
51E
100
AcDbEntity
  8
MK_KAN_SAN_PION
370
9
100
AcDbText
 39
0.09
 10
7565456.25825629849
 20
5719034.39938665926
 40
0.10
  1
PION KAN. SAN. \U+2205110
 50
96.80
 41
0.66
  7
STANDARD
 72
0
 11
7565456.15895974729
 21
5719034.3875462627
100
AcDbText
 73
3
  0
TEXT
  5
51F
100
AcDbEntity
  8
MK_KAN_SAN_PION
370
9
100
AcDbText
 39
0.09
 10
7565456.57808884326
 20
5719034.38728016522
 40
0.10
  1
WYPROWADZONY NAD DACH
 50
96.80
 41
0.66
  7
STANDARD
 72
0
 11
7565456.47879229207
 21
5719034.37543976866
100
AcDbText
 73
3
  0
TEXT
  5
520
100
AcDbEntity
  8
MK_KAN_SAN_PION
370
9
100
AcDbText
 39
0.09
 10
7565456.81734789628
 20
5719034.43460567389
 40
0.10
  1
I ZAKOÑCZONY WYWIEWK¥
 50
96.80
 41
0.66
  7
STANDARD
 72
0
 11
7565456.71805134509
 21
5719034.42276527733
100
AcDbText
 73
3
  0
TEXT
  5
521
100
AcDbEntity
  8
MK_KAN_SAN_PION
370
9
100
AcDbText
 39
0.09
 10
7565445.43713741656
 20
5719035.84809609223
 40
0.10
  1
PION KAN. SAN. \U+2205110
 50
96.80
 41
0.66
  7
STANDARD
 72
0
 11
7565445.33784086537
 21
5719035.83625569567
100
AcDbText
 73
3
  0
TEXT
  5
522
100
AcDbEntity
  8
MK_KAN_SAN_PION
370
9
100
AcDbText
 39
0.09
 10
7565445.75696996134
 20
5719035.83598959725
 40
0.10
  1
WYPROWADZONY NAD DACH
 50
96.80
 41
0.66
  7
STANDARD
 72
0
 11
7565445.65767341014
 21
5719035.82414920069
100
AcDbText
 73
3
  0
TEXT
  5
523
100
AcDbEntity
  8
MK_KAN_SAN_PION
370
9
100
AcDbText
 39
0.09
 10
7565445.99622901436
 20
5719035.88331510592
 40
0.10
  1
I ZAKOÑCZONY WYWIEWK¥
 50
96.80
 41
0.66
  7
STANDARD
 72
0
 11
7565445.89693246316
 21
5719035.87147470936
100
AcDbText
 73
3
  0
TEXT
  5
524
100
AcDbEntity
  8
MK_KAN_SAN_PION
370
9
100
AcDbText
 39
0.09
 10
7565458.37346159015
 20
5719045.07223636564
 40
0.10
  1
K02
 50
96.80
 41
0.66
  7
STANDARD
 72
0
 11
7565458.27416503895
 21
5719045.06039596908
100
AcDbText
 73
3
  0
TEXT
  5
525
100
AcDbEntity
  8
MK_KAN_SAN_PION
370
9
100
AcDbText
 39
0.09
 10
7565456.96612556279
 20
5719044.79548127577
 40
0.10
  1
K03
 50
96.80
 41
0.66
  7
STANDARD
 72
0
 11
7565456.86682901159
 21
5719044.78364087921
100
AcDbText
 73
3
  0
TEXT
  5
526
100
AcDbEntity
  8
MK_KAN_SAN_PION
370
9
100
AcDbText
 39
0.09
 10
7565446.52717600763
 20
5719039.54980429076
 40
0.10
  1
K01
 50
96.80
 41
0.66
  7
STANDARD
 72
0
 11
7565446.42787945643
 21
5719039.5379638942
100
AcDbText
 73
3
  0
TEXT
  5
527
100
AcDbEntity
  8
MK_KAN_SAN_PION
370
9
100
AcDbText
 39
0.09
 10
7565456.834493584
 20
5719037.91865887865
 40
0.10
  1
K04
 50
96.80
 41
0.66
  7
STANDARD
 72
0
 11
7565456.7351970328
 21
5719037.90681848209
100
AcDbText
 73
3
  0
TEXT
  5
528
100
AcDbEntity
  8
MK_KAN_SAN_PODP_OPIS
370
9
100
AcDbText
 39
0.09
 10
7565460.5475490978
 20
5719049.76872545574
 40
0.10
  1
2XZL
 50
96.80
 41
0.66
  7
STANDARD
 72
0
 11
7565460.4482525466
 21
5719049.75688505918
100
AcDbText
 73
3
  0
TEXT
  5
529
100
AcDbEntity
  8
MK_KAN_SAN_PODP_OPIS
370
9
100
AcDbText
 39
0.09
 10
7565458.94434893969
 20
5719039.13060713466
 40
0.10
  1
N
 50
96.80
 41
0.66
  7
STANDARD
 72
0
 11
7565458.8450523885
 21
5719039.1187667381
100
AcDbText
 73
3
  0
TEXT
  5
52A
100
AcDbEntity
  8
MK_KAN_SAN_PODP_OPIS
370
9
100
AcDbText
 39
0.09
 10
7565458.9629132254
 20
5719049.58034155145
 40
0.10
  1
2XZL
 50
96.80
 41
0.66
  7
STANDARD
 72
0
 11
7565458.86361667421
 21
5719049.56850115489
100
AcDbText
 73
3
  0
TEXT
  5
52B
100
AcDbEntity
  8
MK_KAN_SAN_PODP_OPIS
370
9
100
AcDbText
 39
0.09
 10
7565458.83574271482
 20
5719040.04417414777
 40
0.10
  1
N
 50
96.80
 41
0.66
  7
STANDARD
 72
0
 11
7565458.73644616362
 21
5719040.03233375121
100
AcDbText
 73
3
  0
TEXT
  5
52C
100
AcDbEntity
  8
MK_KAN_SAN_PODP_OPIS
370
9
100
AcDbText
 39
0.09
 10
7565458.72713648994
 20
5719040.95774116088
 40
0.10
  1
N
 50
96.80
 41
0.66
  7
STANDARD
 72
0
 11
7565458.62783993874
 21
5719040.94590076432
100
AcDbText
 73
3
  0
TEXT
  5
52D
100
AcDbEntity
  8
MK_KAN_SAN_PODP_OPIS
370
9
100
AcDbText
 39
0.09
 10
7565458.61853026412
 20
5719041.87130817492
 40
0.10
  1
N
 50
96.80
 41
0.66
  7
STANDARD
 72
0
 11
7565458.51923371293
 21
5719041.85946777836
100
AcDbText
 73
3
  0
TEXT
  5
52E
100
AcDbEntity
  8
MK_KAN_SAN_PODP_OPIS
370
9
100
AcDbText
 39
0.09
 10
7565458.50992403924
 20
5719042.78487518802
 40
0.10
  1
N
 50
96.80
 41
0.66
  7
STANDARD
 72
0
 11
7565458.41062748805
 21
5719042.77303479146
100
AcDbText
 73
3
  0
TEXT
  5
52F
100
AcDbEntity
  8
MK_KAN_SAN_PODP_OPIS
370
9
100
AcDbText
 39
0.09
 10
7565453.76678474247
 20
5719051.10635533649
 40
0.10
  1
K
 50
96.80
 41
0.66
  7
STANDARD
 72
0
 11
7565453.66748819128
 21
5719051.09451493993
100
AcDbText
 73
3
  0
TEXT
  5
530
100
AcDbEntity
  8
MK_KAN_SAN_PODP_OPIS
370
9
100
AcDbText
 39
0.09
 10
7565446.46190988645
 20
5719038.69061939605
 40
0.10
  1
KR
 50
96.80
 41
0.66
  7
STANDARD
 72
0
 11
7565446.36261333525
 21
5719038.67877899949
100
AcDbText
 73
3
  0
TEXT
  5
531
100
AcDbEntity
  8
MK_KAN_SAN_PODP_OPIS
370
9
100
AcDbText
 39
0.09
 10
7565454.46332230326
 20
5719044.0585783869
 40
0.10
  1
UM
 50
96.80
 41
0.66
  7
STANDARD
 72
0
 11
7565454.36402575206
 21
5719044.04673799034
100
AcDbText
 73
3
  0
TEXT
  5
532
100
AcDbEntity
  8
MK_KAN_SAN_PODP_OPIS
370
9
100
AcDbText
 39
0.09
 10
7565457.19980068505
 20
5719046.69497264922
 40
0.10
  1
KR
 50
96.80
 41
0.66
  7
STANDARD
 72
0
 11
7565457.10050413385
 21
5719046.68313225266
100
AcDbText
 73
3
  0
TEXT
  5
533
100
AcDbEntity
  8
MK_KAN_SAN_PODP_OPIS
370
9
100
AcDbText
 39
0.09
 10
7565461.06574874651
 20
5719044.87067713216
 40
0.10
  1
KR
 50
96.80
 41
0.66
  7
STANDARD
 72
0
 11
7565460.96645219531
 21
5719044.8588367356
100
AcDbText
 73
3
  0
TEXT
  5
534
100
AcDbEntity
  8
MK_KAN_SAN_PODP_OPIS
370
9
100
AcDbText
 39
0.09
 10
7565457.93360430282
 20
5719048.52895025257
 40
0.10
  1
UM
 50
96.80
 41
0.66
  7
STANDARD
 72
0
 11
7565457.83430775162
 21
5719048.51710985601
100
AcDbText
 73
3
  0
TEXT
  5
535
100
AcDbEntity
  8
MK_KAN_SAN_PODP_OPIS
370
9
100
AcDbText
 39
0.09
 10
7565456.10728208721
 20
5719042.4900656566
 40
0.10
  1
2XUM
 50
96.80
 41
0.66
  7
STANDARD
 72
0
 11
7565456.00798553601
 21
5719042.47822526004
100
AcDbText
 73
3
  0
TEXT
  5
536
100
AcDbEntity
  8
MK_KAN_SAN_PODP_OPIS
370
9
100
AcDbText
 39
0.09
 10
7565454.78503346164
 20
5719039.65802954976
 40
0.10
  1
K
 50
96.80
 41
0.66
  7
STANDARD
 72
0
 11
7565454.68573691044
 21
5719039.64618915319
100
AcDbText
 73
3
  0
TEXT
  5
537
100
AcDbEntity
  8
MK_KAN_SAN_PODP_OPIS
370
9
100
AcDbText
 39
0.09
 10
7565448.38036277425
 20
5719038.23220111895
 40
0.10
  1
KR
 50
96.80
 41
0.66
  7
STANDARD
 72
0
 11
7565448.28106622305
 21
5719038.22036072239
100
AcDbText
 73
3
  0
TEXT
  5
538
100
AcDbEntity
  8
MK_KAN_SAN_TROJNIK
370
9
100
AcDbText
 39
0.09
 10
7565453.79718051664
 20
5719046.75657799933
 40
0.10
  1
Ts1
 50
96.80
 41
0.66
  7
STANDARD
 72
0
 11
7565453.69788396545
 21
5719046.74473760277
100
AcDbText
 73
3
  0
TEXT
  5
539
100
AcDbEntity
  8
MK_KAN_SAN_TROJNIK
370
9
100
AcDbText
 39
0.09
 10
7565454.16248919535
 20
5719043.50089554861
 40
0.10
  1
Ts3
 50
96.80
 41
0.66
  7
STANDARD
 72
0
 11
7565454.06319264416
 21
5719043.48905515205
100
AcDbText
 73
3
  0
TEXT
  5
53A
100
AcDbEntity
  8
MK_KAN_SAN_TROJNIK
370
9
100
AcDbText
 39
0.09
 10
7565454.42573573813
 20
5719041.19162271451
 40
0.10
  1
Ts4
 50
96.80
 41
0.66
  7
STANDARD
 72
0
 11
7565454.32643918693
 21
5719041.17978231795
100
AcDbText
 73
3
  0
TEXT
  5
53B
100
AcDbEntity
  8
MK_KAN_SAN_TROJNIK
370
9
100
AcDbText
 39
0.09
 10
7565454.51433954015
 20
5719040.49606760964
 40
0.10
  1
Ts5
 50
96.80
 41
0.66
  7
STANDARD
 72
0
 11
7565454.41504298896
 21
5719040.48422721308
100
AcDbText
 73
3
  0
TEXT
  5
53C
100
AcDbEntity
  8
MK_KAN_SAN_TROJNIK
370
9
100
AcDbText
 39
0.09
 10
7565456.25936051086
 20
5719047.10391201265
 40
0.10
  1
Ts1.1
 50
96.80
 41
0.66
  7
STANDARD
 72
0
 11
7565456.16006395966
 21
5719047.09207161609
100
AcDbText
 73
3
  0
TEXT
  5
53D
100
AcDbEntity
  8
MK_KAN_SAN_TROJNIK
370
9
100
AcDbText
 39
0.09
 10
7565457.55116245802
 20
5719047.22115883045
 40
0.10
  1
Ts1.2
 50
96.80
 41
0.66
  7
STANDARD
 72
0
 11
7565457.45186590683
 21
5719047.20931843389
100
AcDbText
 73
3
  0
TEXT
  5
53E
100
AcDbEntity
  8
MK_KAN_SAN_TROJNIK
370
9
100
AcDbText
 39
0.09
 10
7565458.99760219362
 20
5719047.38908886351
 40
0.10
  1
Ts1.3
 50
96.80
 41
0.66
  7
STANDARD
 72
0
 11
7565458.89830564242
 21
5719047.37724846695
100
AcDbText
 73
3
  0
TEXT
  5
53F
100
AcDbEntity
  8
MK_KAN_SAN_TROJNIK
370
9
100
AcDbText
 39
0.09
 10
7565456.72819642257
 20
5719043.14103935473
 40
0.10
  1
Ts3.1
 50
96.80
 41
0.66
  7
STANDARD
 72
0
 11
7565456.62889987137
 21
5719043.12919895817
100
AcDbText
 73
3
  0
TEXT
  5
540
100
AcDbEntity
  8
MK_KAN_SAN_TROJNIK
370
9
100
AcDbText
 39
0.09
 10
7565458.28189292457
 20
5719043.24100714177
 40
0.10
  1
Ts3.2
 50
96.80
 41
0.66
  7
STANDARD
 72
0
 11
7565458.18259637337
 21
5719043.22916674521
100
AcDbText
 73
3
  0
TEXT
  5
541
100
AcDbEntity
  8
MK_KAN_SAN_TROJNIK
370
9
100
AcDbText
 39
0.09
 10
7565457.45193292294
 20
5719041.0765651511
 40
0.10
  1
Ts4.3
 50
96.80
 41
0.66
  7
STANDARD
 72
0
 11
7565457.35263637174
 21
5719041.06472475454
100
AcDbText
 73
3
  0
TEXT
  5
542
100
AcDbEntity
  8
MK_KAN_SAN_TROJNIK
370
9
100
AcDbText
 39
0.09
 10
7565458.11125545297
 20
5719041.8989676144
 40
0.10
  1
Ts4.4
 50
96.80
 41
0.66
  7
STANDARD
 72
0
 11
7565458.01195890177
 21
5719041.88712721784
100
AcDbText
 73
3
  0
TEXT
  5
543
100
AcDbEntity
  8
MK_KAN_SAN_TROJNIK
370
9
100
AcDbText
 39
0.09
 10
7565458.21338300128
 20
5719041.03989752568
 40
0.10
  1
Ts4.5
 50
96.80
 41
0.66
  7
STANDARD
 72
0
 11
7565458.11408645008
 21
5719041.02805712912
100
AcDbText
 73
3
  0
TEXT
  5
544
100
AcDbEntity
  8
MK_KAN_SAN_TROJNIK
370
9
100
AcDbText
 39
0.09
 10
7565458.31335099135
 20
5719040.1989930775
 40
0.10
  1
Ts4.6
 50
96.80
 41
0.66
  7
STANDARD
 72
0
 11
7565458.21405444015
 21
5719040.18715268094
100
AcDbText
 73
3
  0
TEXT
  5
545
100
AcDbEntity
  8
MK_KAN_SAN_TROJNIK
370
9
100
AcDbText
 39
0.09
 10
7565448.84022032097
 20
5719039.76061135065
 40
0.10
  1
Ts6
 50
96.80
 41
0.66
  7
STANDARD
 72
0
 11
7565448.74092376977
 21
5719039.74877095409
100
AcDbText
 73
3
  0
TEXT
  5
546
100
AcDbEntity
  8
MK_KAN_SAN_TROJNIK
370
9
100
AcDbText
 39
0.09
 10
7565448.11940476391
 20
5719039.62281227019
 40
0.10
  1
Ts6.1
 50
96.80
 41
0.66
  7
STANDARD
 72
0
 11
7565448.02010821272
 21
5719039.61097187363
100
AcDbText
 73
3
  0
TEXT
  5
547
100
AcDbEntity
  8
MK_KAN_SAN_TROJNIK
370
9
100
AcDbText
 39
0.09
 10
7565455.77055016905
 20
5719040.88816304412
 40
0.10
  1
Ts4.2
 50
96.80
 41
0.66
  7
STANDARD
 72
0
 11
7565455.67125361785
 21
5719040.87632264756
100
AcDbText
 73
3
  0
TEXT
  5
548
100
AcDbEntity
  8
MK_KAN_SAN_TROJNIK
370
9
100
AcDbText
 39
0.09
 10
7565455.50850373227
 20
5719040.87715140171
 40
0.10
  1
Ts4.1
 50
96.80
 41
0.66
  7
STANDARD
 72
0
 11
7565455.40920718107
 21
5719040.86531100515
100
AcDbText
 73
3
  0
TEXT
  5
549
100
AcDbEntity
  8
MK_KAN_SAN_TROJNIK
370
9
100
AcDbText
 39
0.09
 10
7565454.03658281546
 20
5719044.52401931491
 40
0.10
  1
Ts2
 50
96.80
 41
0.66
  7
STANDARD
 72
0
 11
7565453.93728626426
 21
5719044.51217891835
100
AcDbText
 73
3
  0
TEXT
  5
54A
100
AcDbEntity
  8
MK_KAN_SAN_TROJNIK
370
9
100
AcDbText
 39
0.09
 10
7565452.50901729241
 20
5719053.63360533863
 40
0.10
  1
BUD1
 50
96.80
 41
0.66
  7
STANDARD
 72
0
 11
7565452.40972074121
 21
5719053.62176494207
100
AcDbText
 73
3
  0
TEXT
  5
54B
100
AcDbEntity
  8
MK_KAN_SAN_TROJNIK
370
9
100
AcDbText
 39
0.09
 10
7565448.36321018171
 20
5719039.0678165257
 40
0.10
  1
Ts7
 50
96.80
 41
0.66
  7
STANDARD
 72
0
 11
7565448.26391363051
 21
5719039.05597612914
100
AcDbText
 73
3
  0
TEXT
  5
54C
100
AcDbEntity
  8
MK_KAN_SAN_TROJNIK
370
9
100
AcDbText
 39
0.09
 10
7565449.084500717
 20
5719033.00051017292
 40
0.10
  1
Ts8
 50
96.80
 41
0.66
  7
STANDARD
 72
0
 11
7565448.9852041658
 21
5719032.98866977636
100
AcDbText
 73
3
  0
TEXT
  5
54D
100
AcDbEntity
  8
MK_KAN_SAN_TROJNIK
370
9
100
AcDbText
 39
0.09
 10
7565449.67329834215
 20
5719028.04769935831
 40
0.10
  1
Ts9
 50
96.80
 41
0.66
  7
STANDARD
 72
0
 11
7565449.57400179096
 21
5719028.03585896175
100
AcDbText
 73
3
  0
TEXT
  5
54E
100
AcDbEntity
  8
MK_KAN_SAN_TROJNIK
370
9
100
AcDbText
 39
0.09
 10
7565450.21049309988
 20
5719023.52895827405
 40
0.10
  1
Ts10
 50
96.80
 41
0.66
  7
STANDARD
 72
0
 11
7565450.11119654868
 21
5719023.51711787749
100
AcDbText
 73
3
  0
TEXT
  5
54F
100
AcDbEntity
  8
MK_KAN_TECHN_OPIS
100
AcDbText
 10
7565447.351870941
 20
5718995.66249500588
 40
0.10
  1
T01
 50
96.80
 41
0.78
  7
arial.ttf
 72
0
 11
7565447.2525743898
 21
5718995.65065460932
100
AcDbText
 73
3
  0
TEXT
  5
550
100
AcDbEntity
  8
MK_KAN_TECHN_OPIS
370
9
100
AcDbText
 39
0.09
 10
7565455.85266040452
 20
5719034.42209381238
 40
0.10
  1
\U+2205200 i=0,86%
 50
96.80
 41
0.66
  7
STANDARD
 72
0
 11
7565455.75336385332
 21
5719034.41025341582
100
AcDbText
 73
3
  0
TEXT
  5
551
100
AcDbEntity
  8
MK_KAN_TECHN_OPIS
370
9
100
AcDbText
 39
0.09
 10
7565458.67134844791
 20
5719034.22968777176
 40
0.10
  1
\U+2205200 i=1,0%
 50
96.80
 41
0.66
  7
STANDARD
 72
0
 11
7565458.57205189671
 21
5719034.2178473752
100
AcDbText
 73
3
  0
TEXT
  5
552
100
AcDbEntity
  8
MK_KAN_TECHN_OPIS
370
9
100
AcDbText
 39
0.09
 10
7565453.78715960495
 20
5718996.47129655257
 40
0.10
  1
160 i=1.5%%%
 50
186.80
 41
0.66
  7
STANDARD
 72
0
 11
7565453.79900000151
 21
5718996.37200000137
100
AcDbText
 73
3
  0
TEXT
  5
553
100
AcDbEntity
  8
MK_KAN_TECHN_OPIS
370
9
100
AcDbText
 39
0.09
 10
7565457.32769928314
 20
5719045.02300111949
 40
0.10
  1
\U+2205200 i=1,0%
 50
96.80
 41
0.66
  7
STANDARD
 72
0
 11
7565457.22840273194
 21
5719045.01116072293
100
AcDbText
 73
3
  0
TEXT
  5
554
100
AcDbEntity
  8
MK_KAN_TECHN_OPIS
370
9
100
AcDbText
 39
0.09
 10
7565461.85853656102
 20
5719044.12024397962
 40
0.10
  1
\U+2205200 i=2,0%
 50
96.80
 41
0.66
  7
STANDARD
 72
0
 11
7565461.75924000982
 21
5719044.10840358306
100
AcDbText
 73
3
  0
TEXT
  5
555
100
AcDbEntity
  8
MK_KAN_TECHN_OPIS
370
9
100
AcDbText
 39
0.09
 10
7565453.35971500259
 20
5719055.57281935029
 40
0.10
  1
PRZY£¥CZE KAN. TECHN.
 50
96.80
 41
0.66
  7
STANDARD
 72
0
 11
7565453.26041845139
 21
5719055.56097895373
100
AcDbText
 73
3
  0
TEXT
  5
556
100
AcDbEntity
  8
MK_KAN_TECHN_OPIS
370
9
100
AcDbText
 39
0.09
 10
7565453.73181752954
 20
5719055.63481218461
 40
0.10
  1
DALSZE PROWADZENIE NA PZT
 50
96.80
 41
0.66
  7
STANDARD
 72
0
 11
7565453.63252097834
 21
5719055.62297178805
100
AcDbText
 73
3
  0
TEXT
  5
557
100
AcDbEntity
  8
MK_KAN_TECHN_OPIS
370
9
100
AcDbText
 39
0.09
 10
7565456.59684737399
 20
5719057.64622578584
 40
0.10
  1
PRZY£¥CZE KAN. TECHN.
 50
96.80
 41
0.66
  7
STANDARD
 72
0
 11
7565456.49755082279
 21
5719057.63438538928
100
AcDbText
 73
3
  0
TEXT
  5
558
100
AcDbEntity
  8
MK_KAN_TECHN_OPIS
370
9
100
AcDbText
 39
0.09
 10
7565456.93283856288
 20
5719057.68596751709
 40
0.10
  1
DALSZE PROWADZENIE NA PZT
 50
96.80
 41
0.66
  7
STANDARD
 72
0
 11
7565456.83354201168
 21
5719057.67412712052
100
AcDbText
 73
3
  0
TEXT
  5
559
100
AcDbEntity
  8
MK_KAN_TECHN_OPIS
370
9
100
AcDbText
 39
0.09
 10
7565459.31328594685
 20
5719058.42090161238
 40
0.10
  1
DALSZE PROWADZENIE NA PZT
 50
96.80
 41
0.66
  7
STANDARD
 72
0
 11
7565459.21398939565
 21
5719058.40906121582
100
AcDbText
 73
3
  0
TEXT
  5
55A
100
AcDbEntity
  8
MK_KAN_TECHN_OPIS
370
9
100
AcDbText
 39
0.09
 10
7565464.93984084111
 20
5718986.49458569009
 40
0.10
  1
160 i=0.86%
 50
141.80
 41
0.66
  7
STANDARD
 72
0
 11
7565464.87800000142
 21
5718986.41600000113
100
AcDbText
 73
3
  0
TEXT
  5
55B
100
AcDbEntity
  8
MK_KAN_TECHN_OPIS
370
9
100
AcDbText
 39
0.09
 10
7565458.22827546857
 20
5719014.18855454214
 40
0.10
  1
\U+2205200 i=0,86%
 50
96.80
 41
0.66
  7
STANDARD
 72
0
 11
7565458.12897891738
 21
5719014.17671414558
100
AcDbText
 73
3
  0
TEXT
  5
55C
100
AcDbEntity
  8
MK_KAN_TECHN_OPIS
370
9
100
AcDbText
 39
0.09
 10
7565459.57496243529
 20
5719002.86057784408
 40
0.10
  1
\U+2205200 i=0,86%
 50
96.80
 41
0.66
  7
STANDARD
 72
0
 11
7565459.47566588409
 21
5719002.84873744752
100
AcDbText
 73
3
  0
TEXT
  5
55D
100
AcDbEntity
  8
MK_KAN_TECHN_OPIS
370
9
100
AcDbText
 39
0.09
 10
7565460.84068587516
 20
5718992.21364503913
 40
0.10
  1
200 i=0.86%
 50
96.80
 41
0.66
  7
STANDARD
 72
0
 11
7565460.74138932396
 21
5718992.20180464257
100
AcDbText
 73
3
  0
TEXT
  5
55E
100
AcDbEntity
  8
MK_KAN_TECHN_OPIS
370
9
100
AcDbText
 39
0.09
 10
7565454.2884314945
 20
5719047.40647068713
 40
0.10
  1
\U+2205200 i=0,86%
 50
96.80
 41
0.66
  7
STANDARD
 72
0
 11
7565454.1891349433
 21
5719047.39463029057
100
AcDbText
 73
3
  0
TEXT
  5
55F
100
AcDbEntity
  8
MK_KAN_TECHN_OPIS
370
9
100
AcDbText
 39
0.09
 10
7565463.18538503442
 20
5719039.09778625611
 40
0.10
  1
DN100 ¯EL
 50
96.80
 41
0.66
  7
STANDARD
 72
0
 11
7565463.08608848322
 21
5719039.08594585955
100
AcDbText
 73
3
  0
TEXT
  5
560
100
AcDbEntity
  8
MK_KAN_TECHN_OPIS
370
9
100
AcDbText
 39
0.09
 10
7565461.83495588694
 20
5719040.42424733192
 40
0.10
  1
\U+2205110 i=2,0%
 50
186.80
 41
0.66
  7
STANDARD
 72
0
 11
7565461.8467962835
 21
5719040.32495078072
100
AcDbText
 73
3
  0
TEXT
  5
561
100
AcDbEntity
  8
MK_KAN_TECHN_OPIS
370
9
100
AcDbText
 39
0.09
 10
7565470.49317163974
 20
5718982.10842657182
 40
0.10
  1
T02
 50
96.80
 41
0.66
  7
STANDARD
 72
0
 11
7565470.39387508854
 21
5718982.09658617526
100
AcDbText
 73
3
  0
TEXT
  5
562
100
AcDbEntity
  8
MK_KAN_TECHN_OPIS
370
9
100
AcDbText
 39
0.09
 10
7565463.38772725034
 20
5719037.93713085167
 40
0.10
  1
T03
 50
96.80
 41
0.66
  7
STANDARD
 72
0
 11
7565463.28843069915
 21
5719037.92529045511
100
AcDbText
 73
3
  0
TEXT
  5
563
100
AcDbEntity
  8
MK_KAN_TECHN_OPIS
370
9
100
AcDbText
 39
0.09
 10
7565458.97729475796
 20
5719058.38115988113
 40
0.10
  1
PRZY£¥CZE KAN. TECHN.
 50
96.80
 41
0.66
  7
STANDARD
 72
0
 11
7565458.87799820676
 21
5719058.36931948457
100
AcDbText
 73
3
  0
TEXT
  5
564
100
AcDbEntity
  8
MK_KAN_TECHN_OPIS
370
9
100
AcDbText
 39
0.09
 10
7565454.37302939966
 20
5719052.30909308232
 40
0.10
  1
\U+2205200 i=1,0%
 50
117.70
 41
0.66
  7
STANDARD
 72
0
 11
7565454.28449003678
 21
5719052.26260887738
100
AcDbText
 73
3
  0
TEXT
  5
565
100
AcDbEntity
  8
MK_KAN_TECHN_OPIS
370
9
100
AcDbText
 39
0.09
 10
7565458.61750560533
 20
5719054.20652147382
 40
0.10
  1
\U+2205200 i=1,0%
 50
117.70
 41
0.66
  7
STANDARD
 72
0
 11
7565458.52896624245
 21
5719054.16003726888
100
AcDbText
 73
3
  0
TEXT
  5
566
100
AcDbEntity
  8
MK_KAN_TECHN_OPIS
370
9
100
AcDbText
 39
0.09
 10
7565459.73706998583
 20
5719054.89728691895
 40
0.10
  1
\U+2205200 i=1,0%
 50
117.70
 41
0.66
  7
STANDARD
 72
0
 11
7565459.64853062294
 21
5719054.85080271401
100
AcDbText
 73
3
  0
TEXT
  5
567
100
AcDbEntity
  8
MK_KAN_TECHN_OPIS
370
9
100
AcDbText
 39
0.09
 10
7565452.39915960562
 20
5719008.46329655219
 40
0.10
  1
160 i=1.5%%%
 50
186.80
 41
0.66
  7
STANDARD
 72
0
 11
7565452.41100000218
 21
5719008.36400000099
100
AcDbText
 73
3
  0
TEXT
  5
568
100
AcDbEntity
  8
MK_KAN_TECHN_OPIS
100
AcDbText
 10
7565445.8932658406
 20
5719007.93189762253
 40
0.10
  1
T03
 50
96.80
 41
0.78
  7
arial.ttf
 72
0
 11
7565445.7939692894
 21
5719007.92005722597
100
AcDbText
 73
3
  0
TEXT
  5
569
100
AcDbEntity
  8
MK_KAN_TECHN_OPIS
370
9
100
AcDbText
 39
0.09
 10
7565455.26699667051
 20
5719023.14988570567
 40
0.10
  1
200 i=0.85%
 50
96.80
 41
0.66
  7
STANDARD
 72
0
 11
7565455.16770011932
 21
5719023.13804530911
100
AcDbText
 73
3
  0
TEXT
  5
56A
100
AcDbEntity
  8
MK_KAN_TECHN_OPIS
370
9
100
AcDbText
 39
0.09
 10
7565457.19962105341
 20
5719032.64216076396
 40
0.10
  1
\U+2205200 i=0,85%
 50
6.80
 41
0.66
  7
STANDARD
 72
0
 11
7565457.18778065685
 21
5719032.74145731516
100
AcDbText
 73
3
  0
TEXT
  5
56B
100
AcDbEntity
  8
MK_KAN_TECHN_TROJNIK
370
9
100
AcDbText
 39
0.09
 10
7565460.31668707915
 20
5718997.52644571103
 40
0.10
  1
Tt6
 50
96.80
 41
0.66
  7
STANDARD
 72
0
 11
7565460.21739052795
 21
5718997.51460531447
100
AcDbText
 73
3
  0
TEXT
  5
56C
100
AcDbEntity
  8
MK_KAN_TECHN_TROJNIK
370
9
100
AcDbText
 39
0.09
 10
7565461.26934565976
 20
5719052.9452497093
 40
0.10
  1
K
 50
96.80
 41
0.66
  7
STANDARD
 72
0
 11
7565461.17004910856
 21
5719052.93340931274
100
AcDbText
 73
3
  0
TEXT
  5
56D
100
AcDbEntity
  8
MK_KAN_TECHN_TROJNIK
370
9
100
AcDbText
 39
0.09
 10
7565459.60922071524
 20
5719053.24298550468
 40
0.10
  1
K
 50
96.80
 41
0.66
  7
STANDARD
 72
0
 11
7565459.50992416404
 21
5719053.23114510812
100
AcDbText
 73
3
  0
TEXT
  5
56E
100
AcDbEntity
  8
MK_KAN_TECHN_TROJNIK
370
9
100
AcDbText
 39
0.09
 10
7565455.29763917718
 20
5719051.7397767948
 40
0.10
  1
K
 50
96.80
 41
0.66
  7
STANDARD
 72
0
 11
7565455.19834262598
 21
5719051.72793639824
100
AcDbText
 73
3
  0
TEXT
  5
56F
100
AcDbEntity
  8
MK_KAN_TECHN_TROJNIK
370
9
100
AcDbText
 39
0.09
 10
7565454.97275846638
 20
5719052.03137029801
 40
0.10
  1
Tt1
 50
96.80
 41
0.66
  7
STANDARD
 72
0
 11
7565454.87346191518
 21
5719052.01952990144
100
AcDbText
 73
3
  0
TEXT
  5
570
100
AcDbEntity
  8
MK_KAN_TECHN_TROJNIK
370
9
100
AcDbText
 39
0.09
 10
7565462.77056202013
 20
5719040.70429121144
 40
0.10
  1
Tt1
 50
96.80
 41
0.66
  7
STANDARD
 72
0
 11
7565462.67126546893
 21
5719040.69245081488
100
AcDbText
 73
3
  0
TEXT
  5
571
100
AcDbEntity
  8
MK_KAN_TECHN_TROJNIK
370
9
100
AcDbText
 39
0.09
 10
7565462.82116213813
 20
5719040.27865631878
 40
0.10
  1
Tt2
 50
96.80
 41
0.66
  7
STANDARD
 72
0
 11
7565462.72186558694
 21
5719040.26681592222
100
AcDbText
 73
3
  0
TEXT
  5
572
100
AcDbEntity
  8
MK_KAN_TECHN_TROJNIK
370
9
100
AcDbText
 39
0.09
 10
7565462.23848603014
 20
5719040.59347438626
 40
0.10
  1
Tt1.1
 50
96.80
 41
0.66
  7
STANDARD
 72
0
 11
7565462.13918947894
 21
5719040.5816339897
100
AcDbText
 73
3
  0
TEXT
  5
573
100
AcDbEntity
  8
MK_KAN_TECHN_TROJNIK
370
9
100
AcDbText
 39
0.09
 10
7565453.88146612328
 20
5719054.33206799533
 40
0.10
  1
BUD2
 50
96.80
 41
0.66
  7
STANDARD
 72
0
 11
7565453.78216957208
 21
5719054.32022759877
100
AcDbText
 73
3
  0
TEXT
  5
574
100
AcDbEntity
  8
MK_KAN_TECHN_TROJNIK
370
9
100
AcDbText
 39
0.09
 10
7565457.99305010214
 20
5719056.48616154399
 40
0.10
  1
BUD3
 50
96.80
 41
0.66
  7
STANDARD
 72
0
 11
7565457.89375355095
 21
5719056.47432114743
100
AcDbText
 73
3
  0
TEXT
  5
575
100
AcDbEntity
  8
MK_KAN_TECHN_TROJNIK
370
9
100
AcDbText
 39
0.09
 10
7565459.15541556198
 20
5719057.09524623584
 40
0.10
  1
BUD4
 50
96.80
 41
0.66
  7
STANDARD
 72
0
 11
7565459.05611901078
 21
5719057.08340583928
100
AcDbText
 73
3
  0
TEXT
  5
576
100
AcDbEntity
  8
MK_KAN_TECHN_TROJNIK
370
9
100
AcDbText
 39
0.09
 10
7565461.22319197748
 20
5718989.4423183687
 40
0.10
  1
Tt7
 50
96.80
 41
0.66
  7
STANDARD
 72
0
 11
7565461.12389542628
 21
5718989.43047797214
100
AcDbText
 73
3
  0
TEXT
  5
577
100
AcDbEntity
  8
MK_KAN_TECHN_TROJNIK
370
9
100
AcDbText
 39
0.09
 10
7565459.45029655285
 20
5718997.23584039789
 40
0.10
  1
Tt6.1
 50
96.80
 41
0.66
  7
STANDARD
 72
0
 11
7565459.35100000165
 21
5718997.22400000133
100
AcDbText
 73
3
  0
TEXT
  5
578
100
AcDbEntity
  8
MK_KAN_TECHN_TROJNIK
370
9
100
AcDbText
 39
0.09
 10
7565458.87673844956
 20
5719009.49188031908
 40
0.10
  1
Tt5
 50
96.80
 41
0.66
  7
STANDARD
 72
0
 11
7565458.77744189836
 21
5719009.48003992252
100
AcDbText
 73
3
  0
TEXT
  5
579
100
AcDbEntity
  8
MK_KAN_TECH_OPIS
370
9
100
AcDbText
 39
0.09
 10
7565469.18209994212
 20
5718984.62138513569
 40
0.10
  1
REZERWA NA PODLYCZENIE PIONU 
 50
96.80
 41
0.66
  7
STANDARD
 72
0
 11
7565469.08280339092
 21
5718984.60954473913
100
AcDbText
 73
3
  0
TEXT
  5
57A
100
AcDbEntity
  8
MK_KAN_TECH_OPIS
370
9
100
AcDbText
 39
0.09
 10
7565469.33104476798
 20
5718984.63914573099
 40
0.10
  1
KAN. TECHNOLOGICZNEJ.
 50
96.80
 41
0.66
  7
STANDARD
 72
0
 11
7565469.23174821679
 21
5718984.62730533443
100
AcDbText
 73
3
  0
TEXT
  5
57B
100
AcDbEntity
  8
MK_KAN_TECH_OPIS
370
9
100
AcDbText
 39
0.09
 10
7565469.47998959385
 20
5718984.6569063263
 40
0.10
  1
INSTALACJE WYPROWADZIA DO 
 50
96.80
 41
0.66
  7
STANDARD
 72
0
 11
7565469.38069304265
 21
5718984.64506592974
100
AcDbText
 73
3
  0
TEXT
  5
57C
100
AcDbEntity
  8
MK_KAN_TECH_OPIS
370
9
100
AcDbText
 39
0.09
 10
7565469.62893441971
 20
5718984.67466692161
 40
0.10
  1
POZIOMU POSADZKI I ZA?LEPIA
 50
96.80
 41
0.66
  7
STANDARD
 72
0
 11
7565469.52963786852
 21
5718984.66282652505
100
AcDbText
 73
3
  0
TEXT
  5
57D
100
AcDbEntity
  8
MK_KAN_TECH_OPIS
370
9
100
AcDbText
 39
0.09
 10
7565449.14904794563
 20
5718998.13931602519
 40
0.10
  1
REZERWA NA PODLYCZENIE PIONU 
 50
96.80
 41
0.66
  7
STANDARD
 72
0
 11
7565449.04975139443
 21
5718998.12747562863
100
AcDbText
 73
3
  0
TEXT
  5
57E
100
AcDbEntity
  8
MK_KAN_TECH_OPIS
370
9
100
AcDbText
 39
0.09
 10
7565449.29799277149
 20
5718998.1570766205
 40
0.10
  1
KAN. TECHNOLOGICZNEJ.
 50
96.80
 41
0.66
  7
STANDARD
 72
0
 11
7565449.19869622029
 21
5718998.14523622394
100
AcDbText
 73
3
  0
TEXT
  5
57F
100
AcDbEntity
  8
MK_KAN_TECH_OPIS
370
9
100
AcDbText
 39
0.09
 10
7565449.44693759736
 20
5718998.1748372158
 40
0.10
  1
INSTALACJE WYPROWADZIA DO 
 50
96.80
 41
0.66
  7
STANDARD
 72
0
 11
7565449.34764104616
 21
5718998.16299681924
100
AcDbText
 73
3
  0
TEXT
  5
580
100
AcDbEntity
  8
MK_KAN_TECH_OPIS
370
9
100
AcDbText
 39
0.09
 10
7565449.59588242322
 20
5718998.19259781111
 40
0.10
  1
POZIOMU POSADZKI I ZA?LEPIA
 50
96.80
 41
0.66
  7
STANDARD
 72
0
 11
7565449.49658587202
 21
5718998.18075741455
100
AcDbText
 73
3
  0
TEXT
  5
581
100
AcDbEntity
  8
MK_KAN_TECH_OPIS
370
9
100
AcDbText
 39
0.09
 10
7565459.83770779334
 20
5719035.01897934265
 40
0.10
  1
REZERWA NA PODLYCZENIE PODEJ?A
 50
96.80
 41
0.66
  7
STANDARD
 72
0
 11
7565459.73841124214
 21
5719035.00713894609
100
AcDbText
 73
3
  0
TEXT
  5
582
100
AcDbEntity
  8
MK_KAN_TECH_OPIS
370
9
100
AcDbText
 39
0.09
 10
7565459.98665261921
 20
5719035.03673993796
 40
0.10
  1
KAN. TECHNOLOGICZNEJ.
 50
96.80
 41
0.66
  7
STANDARD
 72
0
 11
7565459.88735606801
 21
5719035.0248995414
100
AcDbText
 73
3
  0
TEXT
  5
583
100
AcDbEntity
  8
MK_KAN_TECH_OPIS
370
9
100
AcDbText
 39
0.09
 10
7565460.13559744507
 20
5719035.05450053327
 40
0.10
  1
INSTALACJE WYPROWADZIA DO 
 50
96.80
 41
0.66
  7
STANDARD
 72
0
 11
7565460.03630089387
 21
5719035.04266013671
100
AcDbText
 73
3
  0
TEXT
  5
584
100
AcDbEntity
  8
MK_KAN_TECH_OPIS
370
9
100
AcDbText
 39
0.09
 10
7565460.28454227094
 20
5719035.07226112857
 40
0.10
  1
POZIOMU POSADZKI I ZA?LEPIA
 50
96.80
 41
0.66
  7
STANDARD
 72
0
 11
7565460.18524571974
 21
5719035.06042073201
100
AcDbText
 73
3
  0
TEXT
  5
585
100
AcDbEntity
  8
MK_KAN_TECH_OPIS
370
9
100
AcDbText
 39
0.09
 10
7565460.05252730846
 20
5719003.64928258769
 40
0.10
  1
K
 50
96.80
 41
0.66
  7
STANDARD
 72
0
 11
7565459.95323075727
 21
5719003.63744219113
100
AcDbText
 73
3
  0
TEXT
  5
586
100
AcDbEntity
  8
MK_KAN_TECH_OPIS
370
9
100
AcDbText
 39
0.09
 10
7565455.96580714826
 20
5719033.46288302913
 40
0.10
  1
K
 50
96.80
 41
0.66
  7
STANDARD
 72
0
 11
7565455.86651059706
 21
5719033.45104263257
100
AcDbText
 73
3
  0
TEXT
  5
587
100
AcDbEntity
  8
MK_KAN_TECH_OPIS
370
9
100
AcDbText
 39
0.09
 10
7565461.50084214099
 20
5718986.90362389199
 40
0.10
  1
K
 50
96.80
 41
0.66
  7
STANDARD
 72
0
 11
7565461.40154558979
 21
5718986.89178349543
100
AcDbText
 73
3
  0
TEXT
  5
588
100
AcDbEntity
  8
MK_KAN_TECH_OPIS
370
9
100
AcDbText
 39
0.09
 10
7565458.68331839237
 20
5719033.78594486695
 40
0.10
  1
K
 50
96.80
 41
0.66
  7
STANDARD
 72
0
 11
7565458.58402184118
 21
5719033.77410447039
100
AcDbText
 73
3
  0
TEXT
  5
589
100
AcDbEntity
  8
MK_KAN_TECH_OPIS
370
9
100
AcDbText
 39
0.09
 10
7565458.97439216543
 20
5718995.96247320902
 40
0.10
  1
KR
 50
96.80
 41
0.66
  7
STANDARD
 72
0
 11
7565458.87509561423
 21
5718995.95063281246
100
AcDbText
 73
3
  0
TEXT
  5
58A
100
AcDbEntity
  8
MK_KAN_TECH_OPIS
370
9
100
AcDbText
 39
0.09
 10
7565448.6339986166
 20
5718995.30355514586
 40
0.10
  1
KR
 50
96.80
 41
0.66
  7
STANDARD
 72
0
 11
7565448.5347020654
 21
5718995.2917147493
100
AcDbText
 73
3
  0
TEXT
  5
58B
100
AcDbEntity
  8
MK_KAN_TECH_OPIS
370
9
100
AcDbText
 39
0.09
 10
7565460.96198354755
 20
5718988.76404738054
 40
0.10
  1
KR
 50
96.80
 41
0.66
  7
STANDARD
 72
0
 11
7565460.86268699635
 21
5718988.75220698398
100
AcDbText
 73
3
  0
TEXT
  5
58C
100
AcDbEntity
  8
MK_KAN_TECH_OPIS
370
9
100
AcDbText
 39
0.09
 10
7565447.77542597055
 20
5719010.1751625305
 40
0.10
  1
REZERWA NA PODLYCZENIE PIONU 
 50
96.80
 41
0.66
  7
STANDARD
 72
0
 11
7565447.67612941936
 21
5719010.16332213394
100
AcDbText
 73
3
  0
TEXT
  5
58D
100
AcDbEntity
  8
MK_KAN_TECH_OPIS
370
9
100
AcDbText
 39
0.09
 10
7565447.92437079642
 20
5719010.19292312581
 40
0.10
  1
KAN. TECHNOLOGICZNEJ.
 50
96.80
 41
0.66
  7
STANDARD
 72
0
 11
7565447.82507424522
 21
5719010.18108272925
100
AcDbText
 73
3
  0
TEXT
  5
58E
100
AcDbEntity
  8
MK_KAN_TECH_OPIS
370
9
100
AcDbText
 39
0.09
 10
7565448.07331562228
 20
5719010.21068372112
 40
0.10
  1
INSTALACJE WYPROWADZIA DO 
 50
96.80
 41
0.66
  7
STANDARD
 72
0
 11
7565447.97401907109
 21
5719010.19884332456
100
AcDbText
 73
3
  0
TEXT
  5
58F
100
AcDbEntity
  8
MK_KAN_TECH_OPIS
370
9
100
AcDbText
 39
0.09
 10
7565448.22226044815
 20
5719010.22844431642
 40
0.10
  1
POZIOMU POSADZKI I ZA?LEPIA
 50
96.80
 41
0.66
  7
STANDARD
 72
0
 11
7565448.12296389695
 21
5719010.21660391986
100
AcDbText
 73
3
  0
TEXT
  5
590
100
AcDbEntity
  8
MK_KAN_TECH_OPIS
370
9
100
AcDbText
 39
0.09
 10
7565455.48667415045
 20
5719021.91782034747
 40
0.10
  1
K
 50
96.80
 41
0.66
  7
STANDARD
 72
0
 11
7565455.38737759925
 21
5719021.90597995091
100
AcDbText
 73
3
  0
TEXT
  5
591
100
AcDbEntity
  8
SV_KAN_PODEJSCIA_KS_2021
370
9
100
AcDbText
 39
0.09
 10
7565449.35325554851
 20
5719031.0331078507
 40
0.10
  1
K
 50
96.80
 41
0.66
  7
STANDARD
 72
0
 11
7565449.25395899732
 21
5719031.02126745414
100
AcDbText
 73
3
  0
TEXT
  5
592
100
AcDbEntity
  8
SV_KAN_PODEJSCIA_KS_2021
370
9
100
AcDbText
 39
0.09
 10
7565450.1547049582
 20
5719022.77294853888
 40
0.10
  1
K
 50
96.80
 41
0.66
  7
STANDARD
 72
0
 11
7565450.055408407
 21
5719022.76110814232
100
AcDbText
 73
3
  0
TEXT
  5
593
100
AcDbEntity
  8
SV_KAN_PODEJSCIA_KS_2021
370
9
100
AcDbText
 39
0.09
 10
7565452.95001611114
 20
5719023.91505940445
 40
0.10
  1
P3
 50
96.80
 41
0.66
  7
STANDARD
 72
0
 11
7565452.85071955994
 21
5719023.90321900789
100
AcDbText
 73
3
  0
TEXT
  5
594
100
AcDbEntity
  8
SV_KAN_PODEJSCIA_KS_2021
370
9
100
AcDbText
 39
0.09
 10
7565451.83810881246
 20
5719033.26813128125
 40
0.10
  1
P1
 50
96.80
 41
0.66
  7
STANDARD
 72
0
 11
7565451.73881226126
 21
5719033.25629088469
100
AcDbText
 73
3
  0
TEXT
  5
595
100
AcDbEntity
  8
SV_KAN_PODEJSCIA_KS_2021
370
9
100
AcDbText
 39
0.09
 10
7565450.52846869733
 20
5719028.25257462822
 40
0.10
  1
P2
 50
96.80
 41
0.66
  7
STANDARD
 72
0
 11
7565450.42917214613
 21
5719028.24073423166
100
AcDbText
 73
3
  0
TEXT
  5
596
100
AcDbEntity
  8
SV_KAN_PODEJSCIA_tech_2021
370
9
100
AcDbText
 39
0.09
 10
7565451.60482202657
 20
5719015.65612873342
 40
0.10
  1
M1
 50
96.80
 41
0.66
  7
STANDARD
 72
0
 11
7565451.50552547537
 21
5719015.64428833686
100
AcDbText
 73
3
  0
TEXT
  5
597
100
AcDbEntity
  8
SV_KAN_PODEJSCIA_tech_2021
370
9
100
AcDbText
 39
0.09
 10
7565455.5889717387
 20
5719008.50362903718
 40
0.10
  1
K
 50
96.80
 41
0.66
  7
STANDARD
 72
0
 11
7565455.48967518751
 21
5719008.49178864062
100
AcDbText
 73
3
  0
TEXT
  5
598
100
AcDbEntity
  8
SV_KAN_PODEJSCIA_tech_2021
370
9
100
AcDbText
 39
0.09
 10
7565450.56188734528
 20
5719015.51703745965
 40
0.10
  1
M2
 50
96.80
 41
0.66
  7
STANDARD
 72
0
 11
7565450.46259079408
 21
5719015.50519706309
100
AcDbText
 73
3
  0
TEXT
  5
599
100
AcDbEntity
  8
SV_KAN_PODEJSCIA_tech_2021
370
9
100
AcDbText
 39
0.09
 10
7565449.46171082463
 20
5719015.38624681439
 40
0.10
  1
M3
 50
96.80
 41
0.66
  7
STANDARD
 72
0
 11
7565449.36241427343
 21
5719015.37440641783
100
AcDbText
 73
3
  0
TEXT
  5
59A
100
AcDbEntity
  8
SV_POMOC
370
9
100
AcDbText
 39
0.09
 10
7565440.12443840969
 20
5719057.14542926662
 40
0.10
  1
PUNKT ODNIESIENIA 19-A
 50
96.80
 41
0.66
  7
STANDARD
 72
0
 11
7565440.0251418585
 21
5719057.13358887006
100
AcDbText
 73
3
  0
TEXT
  5
59B
100
AcDbEntity
  8
SV_POMOC
370
9
100
AcDbText
 39
0.09
 10
7565470.516058282
 20
5718979.38946845662
 40
0.10
  1
PUNKT ODNIESIENIA 1-E
 50
96.80
 41
0.66
  7
STANDARD
 72
0
 11
7565470.4167617308
 21
5718979.37762806006
100
AcDbText
 73
3
  0
TEXT
  5
59C
100
AcDbEntity
  8
SV_PRZEBICIA_SCIANA_FUND
370
9
100
AcDbText
 39
0.09
 10
7565457.56292273104
 20
5719035.06578269601
 40
0.10
  1
PRZEBICIE 30x30
 50
96.80
 41
0.66
  7
STANDARD
 72
0
 11
7565457.46362617984
 21
5719035.05394229945
100
AcDbText
 73
3
  0
TEXT
  5
59D
100
AcDbEntity
  8
SV_PRZEBICIA_SCIANA_FUND
370
9
100
AcDbText
 39
0.09
 10
7565458.08481240459
 20
5719035.11454084981
 40
0.10
  1
Rz.S.=-0,87
 50
96.80
 41
0.66
  7
STANDARD
 72
0
 11
7565457.98551585339
 21
5719035.10270045325
100
AcDbText
 73
3
  0
TEXT
  5
59E
100
AcDbEntity
  8
SV_PRZEBICIA_SCIANA_FUND
370
9
100
AcDbText
 39
0.09
 10
7565457.83744495921
 20
5719035.08325347025
 40
0.10
  1
Rz.W.=-0,57
 50
96.80
 41
0.66
  7
STANDARD
 72
0
 11
7565457.73814840801
 21
5719035.07141307369
100
AcDbText
 73
3
  0
TEXT
  5
59F
100
AcDbEntity
  8
SV_PRZEBICIA_SCIANA_FUND
370
9
100
AcDbText
 39
0.09
 10
7565454.84541148692
 20
5719034.74272085819
 40
0.10
  1
PRZEBICIE 30x30
 50
96.80
 41
0.66
  7
STANDARD
 72
0
 11
7565454.74611493573
 21
5719034.73088046163
100
AcDbText
 73
3
  0
TEXT
  5
5A0
100
AcDbEntity
  8
SV_PRZEBICIA_SCIANA_FUND
370
9
100
AcDbText
 39
0.09
 10
7565455.34718730487
 20
5719034.79974427354
 40
0.10
  1
Rz.S.=-1,07
 50
96.80
 41
0.66
  7
STANDARD
 72
0
 11
7565455.24789075367
 21
5719034.78790387698
100
AcDbText
 73
3
  0
TEXT
  5
5A1
100
AcDbEntity
  8
SV_PRZEBICIA_SCIANA_FUND
370
9
100
AcDbText
 39
0.09
 10
7565455.10218086373
 20
5719034.74859673996
 40
0.10
  1
Rz.W.=-0,77
 50
96.80
 41
0.66
  7
STANDARD
 72
0
 11
7565455.00288431253
 21
5719034.73675634339
100
AcDbText
 73
3
  0
TEXT
  5
5A2
100
AcDbEntity
  8
SV_PRZEBICIA_SCIANA_FUND
370
9
100
AcDbText
 39
0.09
 10
7565447.41403451003
 20
5719034.69208668638
 40
0.10
  1
PRZEBICIE 30x30
 50
96.80
 41
0.66
  7
STANDARD
 72
0
 11
7565447.31473795883
 21
5719034.68024628982
100
AcDbText
 73
3
  0
TEXT
  5
5A3
100
AcDbEntity
  8
SV_PRZEBICIA_SCIANA_FUND
370
9
100
AcDbText
 39
0.09
 10
7565447.9592965534
 20
5719034.73984039761
 40
0.10
  1
Rz.S.=-0,90
 50
96.80
 41
0.66
  7
STANDARD
 72
0
 11
7565447.8600000022
 21
5719034.72800000105
100
AcDbText
 73
3
  0
TEXT
  5
5A4
100
AcDbEntity
  8
SV_PRZEBICIA_SCIANA_FUND
370
9
100
AcDbText
 39
0.09
 10
7565447.684434372
 20
5719034.70455863513
 40
0.10
  1
Rz.W.=-0,60
 50
96.80
 41
0.66
  7
STANDARD
 72
0
 11
7565447.5851378208
 21
5719034.69271823857
100
AcDbText
 73
3
  0
TEXT
  5
5A5
100
AcDbEntity
  8
SV_PRZEBICIA_SCIANA_FUND
370
9
100
AcDbText
 39
0.09
 10
7565461.67286934704
 20
5719037.88064548187
 40
0.10
  1
PRZEBICIE 30x30
 50
96.80
 41
0.66
  7
STANDARD
 72
0
 11
7565461.57357279584
 21
5719037.86880508531
100
AcDbText
 73
3
  0
TEXT
  5
5A6
100
AcDbEntity
  8
SV_PRZEBICIA_SCIANA_FUND
370
9
100
AcDbText
 39
0.09
 10
7565462.1816319963
 20
5719037.94310943875
 40
0.10
  1
Rz.S.=-0,60
 50
96.80
 41
0.66
  7
STANDARD
 72
0
 11
7565462.0823354451
 21
5719037.93126904219
100
AcDbText
 73
3
  0
TEXT
  5
5A7
100
AcDbEntity
  8
SV_PRZEBICIA_SCIANA_FUND
370
9
100
AcDbText
 39
0.09
 10
7565461.93426455092
 20
5719037.91182205733
 40
0.10
  1
Rz.W.=-0,30
 50
96.80
 41
0.66
  7
STANDARD
 72
0
 11
7565461.83496799972
 21
5719037.89998166077
100
AcDbText
 73
3
  0
TEXT
  5
5A8
100
AcDbEntity
  8
SV_PRZEBICIA_SCIANA_FUND
370
9
100
AcDbText
 39
0.09
 10
7565461.07378450036
 20
5719047.17250145786
 40
0.10
  1
PRZEBICIE 30x30
 50
96.80
 41
0.66
  7
STANDARD
 72
0
 11
7565460.97448794916
 21
5719047.16066106129
100
AcDbText
 73
3
  0
TEXT
  5
5A9
100
AcDbEntity
  8
SV_PRZEBICIA_SCIANA_FUND
370
9
100
AcDbText
 39
0.09
 10
7565461.55815513618
 20
5719047.21208944265
 40
0.10
  1
Rz.S.=-0,69
 50
96.80
 41
0.66
  7
STANDARD
 72
0
 11
7565461.45885858498
 21
5719047.20024904609
100
AcDbText
 73
3
  0
TEXT
  5
5AA
100
AcDbEntity
  8
SV_PRZEBICIA_SCIANA_FUND
370
9
100
AcDbText
 39
0.09
 10
7565461.33015937358
 20
5719047.1831049975
 40
0.10
  1
Rz.W.=-0,39
 50
96.80
 41
0.66
  7
STANDARD
 72
0
 11
7565461.23086282238
 21
5719047.17126460094
100
AcDbText
 73
3
  0
TEXT
  5
5AB
100
AcDbEntity
  8
SV_PRZEBICIA_SCIANA_FUND
370
9
100
AcDbText
 39
0.09
 10
7565458.99428077694
 20
5719044.9518990051
 40
0.10
  1
PRZEBICIE 20x20
 50
96.80
 41
0.66
  7
STANDARD
 72
0
 11
7565458.89498422574
 21
5719044.94005860854
100
AcDbText
 73
3
  0
TEXT
  5
5AC
100
AcDbEntity
  8
SV_PRZEBICIA_SCIANA_FUND
370
9
100
AcDbText
 39
0.09
 10
7565459.49681005906
 20
5719044.99846017081
 40
0.10
  1
Rz.S.=-0,57
 50
96.80
 41
0.66
  7
STANDARD
 72
0
 11
7565459.39751350787
 21
5719044.98661977425
100
AcDbText
 73
3
  0
TEXT
  5
5AD
100
AcDbEntity
  8
SV_PRZEBICIA_SCIANA_FUND
370
9
100
AcDbText
 39
0.09
 10
7565459.24944261368
 20
5719044.96717279125
 40
0.10
  1
Rz.W.=-0,37
 50
96.80
 41
0.66
  7
STANDARD
 72
0
 11
7565459.15014606249
 21
5719044.95533239469
100
AcDbText
 73
3
  0
TEXT
  5
5AE
100
AcDbEntity
  8
SV_PRZEBICIA_SCIANA_FUND
370
9
100
AcDbText
 39
0.09
 10
7565449.11483683158
 20
5719053.36940187216
 40
0.10
  1
PRZEJŒCIE SZCZELNE TYPU INTEGRA
 50
96.80
 41
0.66
  7
STANDARD
 72
0
 11
7565449.01554028038
 21
5719053.3575614756
100
AcDbText
 73
3
  0
TEXT
  5
5AF
100
AcDbEntity
  8
SV_PRZEBICIA_SCIANA_FUND
370
9
100
AcDbText
 39
0.09
 10
7565449.88647056278
 20
5719053.45458826143
 40
0.10
  1
Rz.S.=-1,40
 50
96.80
 41
0.66
  7
STANDARD
 72
0
 11
7565449.78717401158
 21
5719053.44274786487
100
AcDbText
 73
3
  0
TEXT
  5
5B0
100
AcDbEntity
  8
SV_PRZEBICIA_SCIANA_FUND
370
9
100
AcDbText
 39
0.09
 10
7565449.64075711928
 20
5719053.42350258399
 40
0.10
  1
Rz.W.=-1,10
 50
96.80
 41
0.66
  7
STANDARD
 72
0
 11
7565449.54146056809
 21
5719053.41166218743
100
AcDbText
 73
3
  0
TEXT
  5
5B1
100
AcDbEntity
  8
SV_PRZEBICIA_SCIANA_FUND
370
9
100
AcDbText
 39
0.09
 10
7565449.41099045984
 20
5719053.39314173721
 40
0.10
  1
DN300
 50
96.80
 41
0.66
  7
STANDARD
 72
0
 11
7565449.31169390865
 21
5719053.38130134065
100
AcDbText
 73
3
  0
TEXT
  5
5B2
100
AcDbEntity
  8
SV_PRZEBICIA_SCIANA_FUND
370
9
100
AcDbText
 39
0.09
 10
7565451.479560351
 20
5719054.82717017457
 40
0.10
  1
PRZEJŒCIE SZCZELNE TYPU INTEGRA
 50
96.80
 41
0.66
  7
STANDARD
 72
0
 11
7565451.3802637998
 21
5719054.81532977801
100
AcDbText
 73
3
  0
TEXT
  5
5B3
100
AcDbEntity
  8
SV_PRZEBICIA_SCIANA_FUND
370
9
100
AcDbText
 39
0.09
 10
7565452.2511940822
 20
5719054.91235656478
 40
0.10
  1
Rz.S.=-1,40
 50
96.80
 41
0.66
  7
STANDARD
 72
0
 11
7565452.151897531
 21
5719054.90051616821
100
AcDbText
 73
3
  0
TEXT
  5
5B4
100
AcDbEntity
  8
SV_PRZEBICIA_SCIANA_FUND
370
9
100
AcDbText
 39
0.09
 10
7565452.0054806387
 20
5719054.8812708864
 40
0.10
  1
Rz.W.=-1,10
 50
96.80
 41
0.66
  7
STANDARD
 72
0
 11
7565451.90618408751
 21
5719054.86943048984
100
AcDbText
 73
3
  0
TEXT
  5
5B5
100
AcDbEntity
  8
SV_PRZEBICIA_SCIANA_FUND
370
9
100
AcDbText
 39
0.09
 10
7565451.7757139802
 20
5719054.85091004055
 40
0.10
  1
DN300
 50
96.80
 41
0.66
  7
STANDARD
 72
0
 11
7565451.676417429
 21
5719054.83906964399
100
AcDbText
 73
3
  0
TEXT
  5
5B6
100
AcDbEntity
  8
SV_PRZEBICIA_SCIANA_FUND
370
9
100
AcDbText
 39
0.09
 10
7565454.77180843148
 20
5719056.67808827665
 40
0.10
  1
PRZEJŒCIE SZCZELNE TYPU INTEGRA
 50
96.80
 41
0.66
  7
STANDARD
 72
0
 11
7565454.67251188029
 21
5719056.66624788009
100
AcDbText
 73
3
  0
TEXT
  5
5B7
100
AcDbEntity
  8
SV_PRZEBICIA_SCIANA_FUND
370
9
100
AcDbText
 39
0.09
 10
7565455.54344216268
 20
5719056.76327466685
 40
0.10
  1
Rz.S.=-1,40
 50
96.80
 41
0.66
  7
STANDARD
 72
0
 11
7565455.44414561149
 21
5719056.75143427029
100
AcDbText
 73
3
  0
TEXT
  5
5B8
100
AcDbEntity
  8
SV_PRZEBICIA_SCIANA_FUND
370
9
100
AcDbText
 39
0.09
 10
7565455.29772871919
 20
5719056.73218898941
 40
0.10
  1
Rz.W.=-1,10
 50
96.80
 41
0.66
  7
STANDARD
 72
0
 11
7565455.19843216799
 21
5719056.72034859285
100
AcDbText
 73
3
  0
TEXT
  5
5B9
100
AcDbEntity
  8
SV_PRZEBICIA_SCIANA_FUND
370
9
100
AcDbText
 39
0.09
 10
7565455.06796206068
 20
5719056.70182814263
 40
0.10
  1
DN300
 50
96.80
 41
0.66
  7
STANDARD
 72
0
 11
7565454.96866550948
 21
5719056.68998774607
100
AcDbText
 73
3
  0
TEXT
  5
5BA
100
AcDbEntity
  8
SV_PRZEBICIA_SCIANA_FUND
370
9
100
AcDbText
 39
0.09
 10
7565457.5295084836
 20
5719058.13018599991
 40
0.10
  1
PRZEJŒCIE SZCZELNE TYPU INTEGRA
 50
96.80
 41
0.66
  7
STANDARD
 72
0
 11
7565457.4302119324
 21
5719058.11834560335
100
AcDbText
 73
3
  0
TEXT
  5
5BB
100
AcDbEntity
  8
SV_PRZEBICIA_SCIANA_FUND
370
9
100
AcDbText
 39
0.09
 10
7565458.3011422148
 20
5719058.21537238918
 40
0.10
  1
Rz.S.=-1,40
 50
96.80
 41
0.66
  7
STANDARD
 72
0
 11
7565458.2018456636
 21
5719058.20353199262
100
AcDbText
 73
3
  0
TEXT
  5
5BC
100
AcDbEntity
  8
SV_PRZEBICIA_SCIANA_FUND
370
9
100
AcDbText
 39
0.09
 10
7565458.0554287713
 20
5719058.18428671174
 40
0.10
  1
Rz.W.=-1,10
 50
96.80
 41
0.66
  7
STANDARD
 72
0
 11
7565457.9561322201
 21
5719058.17244631518
100
AcDbText
 73
3
  0
TEXT
  5
5BD
100
AcDbEntity
  8
SV_PRZEBICIA_SCIANA_FUND
370
9
100
AcDbText
 39
0.09
 10
7565457.82566211186
 20
5719058.15392586496
 40
0.10
  1
DN300
 50
96.80
 41
0.66
  7
STANDARD
 72
0
 11
7565457.72636556067
 21
5719058.1420854684
100
AcDbText
 73
3
  0
TEXT
  5
5BE
100
AcDbEntity
  8
SV_PRZEBICIA_SCIANA_FUND
370
9
100
AcDbText
 39
0.09
 10
7565465.09466800932
 20
5719041.02420190163
 40
0.10
  1
PRZEJŒCIE SZCZELNE TYPU INTEGRA
 50
96.80
 41
0.66
  7
STANDARD
 72
0
 11
7565464.99537145812
 21
5719041.01236150507
100
AcDbText
 73
3
  0
TEXT
  5
5BF
100
AcDbEntity
  8
SV_PRZEBICIA_SCIANA_FUND
370
9
100
AcDbText
 39
0.09
 10
7565465.39200214017
 20
5719041.0380116906
 40
0.10
  1
DN250
 50
96.80
 41
0.66
  7
STANDARD
 72
0
 11
7565465.29270558897
 21
5719041.02617129404
100
AcDbText
 73
3
  0
TEXT
  5
5C0
100
AcDbEntity
  8
SV_PRZEBICIA_SCIANA_FUND
370
9
100
AcDbText
 39
0.09
 10
7565465.86394073721
 20
5719041.12924844585
 40
0.10
  1
Rz.S.=-1,10
 50
96.80
 41
0.66
  7
STANDARD
 72
0
 11
7565465.76464418601
 21
5719041.11740804929
100
AcDbText
 73
3
  0
TEXT
  5
5C1
100
AcDbEntity
  8
SV_PRZEBICIA_SCIANA_FUND
370
9
100
AcDbText
 39
0.09
 10
7565465.62298821099
 20
5719041.08340669796
 40
0.10
  1
Rz.W.=-0,85
 50
96.80
 41
0.66
  7
STANDARD
 72
0
 11
7565465.52369165979
 21
5719041.0715663014
100
AcDbText
 73
3
  0
TEXT
  5
5C2
100
AcDbEntity
  8
SV_PRZEBICIA_SCIANA_FUND
370
9
100
AcDbText
 39
0.09
 10
7565462.22320001666
 20
5719035.62044230755
 40
0.10
  1
PRZEBICIE 30x30
 50
96.80
 41
0.66
  7
STANDARD
 72
0
 11
7565462.12390346546
 21
5719035.60860191099
100
AcDbText
 73
3
  0
TEXT
  5
5C3
100
AcDbEntity
  8
SV_PRZEBICIA_SCIANA_FUND
370
9
100
AcDbText
 39
0.09
 10
7565462.73196266592
 20
5719035.68290626444
 40
0.10
  1
Rz.S.=-0,60
 50
96.80
 41
0.66
  7
STANDARD
 72
0
 11
7565462.63266611472
 21
5719035.67106586788
100
AcDbText
 73
3
  0
TEXT
  5
5C4
100
AcDbEntity
  8
SV_PRZEBICIA_SCIANA_FUND
370
9
100
AcDbText
 39
0.09
 10
7565462.4845952196
 20
5719035.65161888394
 40
0.10
  1
Rz.W.=-0,30
 50
96.80
 41
0.66
  7
STANDARD
 72
0
 11
7565462.38529866841
 21
5719035.63977848738
100
AcDbText
 73
3
  0
ENDSEC
  0
SECTION
  2
OBJECTS
  0
DICTIONARY
  5
5C5
330
0
100
AcDbDictionary
280
0
281
1
  3
ACAD_GROUP
350
5C6
  3
ACAD_LAYOUT
350
5C7
  3
ACAD_MLINESTYLE
350
5C8
  3
ACAD_PLOTSETTINGS
350
5C9
  3
ACAD_PLOTSTYLENAME
350
5CA
  0
DICTIONARY
  5
5C6
102
{ACAD_REACTORS
330
5C5
102
}
330
5C5
100
AcDbDictionary
280
0
281
1
  0
DICTIONARY
  5
5C7
102
{ACAD_REACTORS
330
5C5
102
}
330
5C5
100
AcDbDictionary
280
0
281
1
  3
Layout
350
30
  3
Model
350
2E
  0
DICTIONARY
  5
5C8
102
{ACAD_REACTORS
330
5C5
102
}
330
5C5
100
AcDbDictionary
280
0
281
1
  3
Standard
350
5CB
  0
DICTIONARY
  5
5C9
102
{ACAD_REACTORS
330
5C5
102
}
330
5C5
100
AcDbDictionary
280
0
281
1
  0
ACDBDICTIONARYWDFLT
  5
5CA
102
{ACAD_REACTORS
330
5C5
102
}
330
5C5
100
AcDbDictionary
281
1
  3
Normal
350
9
100
AcDbDictionaryWithDefault
340
9
  0
LAYOUT
  5
30
100
AcDbPlotSettings
  1

  2

  4

  6

 40
0.0
 41
0.0
 42
0.0
 43
0.0
 44
0.0
 45
0.0
 46
0.0
 47
0.0
 48
0.0
 49
0.0
140
0.0
141
0.0
142
1.0
143
1.0
 70
688
 72
1
 73
0
 74
5
  7

 75
0
147
1.0
148
0.0
149
0.0
100
AcDbLayout
  1
Layout
 70
1
 71
1
 10
0.0
 20
0.0
 11
420.0
 21
297.0
 12
0.0
 22
0.0
 32
0.0
 14
100000000000000000000.0
 24
100000000000000000000.0
 34
100000000000000000000.0
 15
-100000000000000000000.0
 25
-100000000000000000000.0
 35
-100000000000000000000.0
146
0.0
 13
0.0
 23
0.0
 33
0.0
 16
1.0
 26
0.0
 36
0.0
 17
0.0
 27
1.0
 37
0.0
 76
0
330
2F
  0
LAYOUT
  5
2E
100
AcDbPlotSettings
  1

  2

  4

  6

 40
0.0
 41
0.0
 42
0.0
 43
0.0
 44
0.0
 45
0.0
 46
0.0
 47
0.0
 48
0.0
 49
0.0
140
0.0
141
0.0
142
1.0
143
1.0
 70
1712
 72
1
 73
0
 74
0
  7

 75
0
147
1.0
148
0.0
149
0.0
100
AcDbLayout
  1
Model
 70
1
 71
0
 10
0.0
 20
0.0
 11
12.0
 21
9.0
 12
0.0
 22
0.0
 32
0.0
 14
0.0
 24
0.0
 34
0.0
 15
0.0
 25
0.0
 35
0.0
146
0.0
 13
0.0
 23
0.0
 33
0.0
 16
1.0
 26
0.0
 36
0.0
 17
0.0
 27
1.0
 37
0.0
 76
0
330
2D
  0
MLINESTYLE
  5
5CB
102
{ACAD_REACTORS
330
5C8
102
}
330
5C8
100
AcDbMlineStyle
  2
Standard
 70
0
  3

 62
256
 51
90.0
 52
90.0
  2
Standard
 71
2
 49
0.5
 62
256
  6
ByLayer
 49
-0.5
 62
256
  6
ByLayer
  0
ACDBPLACEHOLDER
  5
9
  0
ENDSEC
  0
EOF
