  0
SECTION
  2
HEADER
  9
$ACADVER
  1
AC1018
  9
$HANDSEED
  5
FFFFFF
  9
$EXTMAX
 10
146.966
 20
146.521
 30
1000000.00
  9
$EXTMIN
 10
58.54
 20
72.9
 30
0.00
  9
$LIMMIN
 10
58.54
 20
72.9
  9
$LIMMAX
 10
146.966
 20
146.521
  9
$DIMASZ
 40
2.5
  9
$DIMGAP
 40
0.625
  9
$INSUNITS
 70
6
  9
$MEASUREMENT
 70
1
  9
$DIMEXO
 40
0.625
  9
$DIMTXT
 40
2.5
  9
$DIMSTYLE
  2
Standard
  9
$PLIMMIN
 10
0.0
 20
0.0
  9
$PLIMMAX
 10
210.0
 20
297.0
  9
$DIMEXE
 40
1.25
  9
$TEXTSIZE
 40
2.5
  9
$TEXTSTYLE
  7
Standard
  9
$LWDISPLAY
290
1
  9
$TDCREATE
 40
45677.413668264
  9
$TDUCREATE
 40
45677.372001597
  9
$TDUPDATE
 40
45677.413668264
  9
$TDUUPDATE
 40
45677.372001597
  9
$TDINDWG
 40
0.0
  9
$TDUSRTIMER
 40
0.0
  9
$USRTIMER
 70
1
  0
ENDSEC
  0
SECTION
  2
TABLES
  0
TABLE
  2
VPORT
  5
1
100
AcDbSymbolTable
 70
1
  0
VPORT
  5
2
100
AcDbSymbolTableRecord
100
AcDbViewportTableRecord
  2
*ACTIVE
 70
0
 10
0.0
 20
0.0
 11
1.0
 21
1.0
 12
102.753
 22
109.710
 13
0.0
 23
0.0
 14
1.0
 24
1.0
 15
0.0
 25
0.0
 16
0.0
 26
0.0
 36
1.0
 17
0.0
 27
0.0
 37
0.0
 40
73.621
 41
1.201
 42
50.0
 43
0.0
 44
0.0
 50
0.0
 51
0.0
 71
0
 72
100
 73
1
 74
1
 75
0
 76
0
 77
0
 78
0
  0
ENDTAB
  0
TABLE
  2
LTYPE
  5
3
100
AcDbSymbolTable
 70
3
  0
LTYPE
  5
4
100
AcDbSymbolTableRecord
100
AcDbLinetypeTableRecord
  2
ByBlock
 70
0
  3

 72
65
 73
0
 40
0.0
  0
LTYPE
  5
5
100
AcDbSymbolTableRecord
100
AcDbLinetypeTableRecord
  2
ByLayer
 70
0
  3

 72
65
 73
0
 40
0.0
  0
LTYPE
  5
6
100
AcDbSymbolTableRecord
100
AcDbLinetypeTableRecord
  2
CONTINUOUS
 70
0
  3
Solid line
 72
65
 73
0
 40
0.0
  0
ENDTAB
  0
TABLE
  2
LAYER
  5
7
100
AcDbSymbolTable
 70
5
  0
LAYER
  5
8
100
AcDbSymbolTableRecord
100
AcDbLayerTableRecord
  2
0
 70
0
 62
-7
420
0
  6
CONTINUOUS
370
18
390
9
  0
LAYER
  5
A
100
AcDbSymbolTableRecord
100
AcDbLayerTableRecord
  2
opor
 70
0
 62
-212
420
13762770
  6
CONTINUOUS
370
18
390
9
  0
LAYER
  5
B
100
AcDbSymbolTableRecord
100
AcDbLayerTableRecord
  2
opor_proj
 70
0
420
255
  6
CONTINUOUS
370
18
390
9
  0
LAYER
  5
C
100
AcDbSymbolTableRecord
100
AcDbLayerTableRecord
  2
os_szyny
 70
0
420
0
  6
CONTINUOUS
370
18
390
9
  0
LAYER
  5
D
100
AcDbSymbolTableRecord
100
AcDbLayerTableRecord
  2
szyna_proj
 70
0
420
16711680
  6
CONTINUOUS
370
18
390
9
  0
ENDTAB
  0
TABLE
  2
STYLE
  5
E
100
AcDbSymbolTable
 70
2
  0
STYLE
  5
F
100
AcDbSymbolTableRecord
100
AcDbTextStyleTableRecord
  2
STANDARD
 70
0
 40
0.0
 41
1.0
 50
0.0
 71
0
  3
simplex.shx
  4

  0
STYLE
  5
10
100
AcDbSymbolTableRecord
100
AcDbTextStyleTableRecord
  2
STANDARD_ITALIC
 70
0
 40
0.0
 41
1.0
 50
15.0
 71
0
  3
simplex.shx
  4

  0
ENDTAB
  0
TABLE
  2
VIEW
  5
11
100
AcDbSymbolTable
 70
0
  0
ENDTAB
  0
TABLE
  2
UCS
  5
12
100
AcDbSymbolTable
 70
0
  0
ENDTAB
  0
TABLE
  2
APPID
  5
13
100
AcDbSymbolTable
 70
1
  0
APPID
  5
14
100
AcDbSymbolTableRecord
100
AcDbRegAppTableRecord
  2
ACAD
 70
0
  0
ENDTAB
  0
TABLE
  2
DIMSTYLE
  5
15
100
AcDbSymbolTable
 70
1
100
AcDbDimStyleTable
  0
DIMSTYLE
105
16
100
AcDbSymbolTableRecord
100
AcDbDimStyleTableRecord
  2
Standard
 70
0
340
F
  0
ENDTAB
  0
TABLE
  2
BLOCK_RECORD
  5
17
100
AcDbSymbolTable
 70
2
  0
BLOCK_RECORD
  5
18
100
AcDbSymbolTableRecord
100
AcDbBlockTableRecord
  2
*Model_Space
340
19
  0
BLOCK_RECORD
  5
1A
100
AcDbSymbolTableRecord
100
AcDbBlockTableRecord
  2
*Paper_Space
340
1B
  0
ENDTAB
  0
ENDSEC
  0
SECTION
  2
BLOCKS
  0
BLOCK
  5
1C
100
AcDbEntity
  8
0
100
AcDbBlockBegin
  2
*Model_Space
 70
0
 10
0.0
 20
0.0
 30
0.0
  3
*Model_Space
  1

  0
ENDBLK
  5
1D
100
AcDbEntity
  8
0
100
AcDbBlockEnd
  0
BLOCK
  5
1E
100
AcDbEntity
 67
1
  8
0
100
AcDbBlockBegin
  2
*Paper_Space
 70
0
 10
0.0
 20
0.0
 30
0.0
  3
*Paper_Space
  1

  0
ENDBLK
  5
1F
100
AcDbEntity
 67
1
  8
0
100
AcDbBlockEnd
  0
ENDSEC
  0
SECTION
  2
ENTITIES
  0
POLYLINE
  5
20
100
AcDbEntity
  8
opor
  6
CONTINUOUS
370
18
100
AcDb2dPolyline
 66
1
 70
128
  0
VERTEX
  5
21
100
AcDbEntity
  8
opor
100
AcDbVertex
100
AcDb2dVertex
 10
131.670019822885
 20
146.867433437761
  0
VERTEX
  5
22
100
AcDbEntity
  8
opor
100
AcDbVertex
100
AcDb2dVertex
 10
138.033
 20
139.153
  0
VERTEX
  5
23
100
AcDbEntity
  8
opor
100
AcDbVertex
100
AcDb2dVertex
 10
145.735573622679
 20
129.814452675066
  0
SEQEND
  5
24
100
AcDbEntity
  8
opor
  0
POLYLINE
  5
25
100
AcDbEntity
  8
opor
  6
CONTINUOUS
370
18
100
AcDb2dPolyline
 66
1
 70
128
  0
VERTEX
  5
26
100
AcDbEntity
  8
opor
100
AcDbVertex
100
AcDb2dVertex
 10
56.878587643795
 20
85.178340620629
  0
VERTEX
  5
27
100
AcDbEntity
  8
opor
100
AcDbVertex
100
AcDb2dVertex
 10
63.241567820911
 20
77.463907182869
  0
VERTEX
  5
28
100
AcDbEntity
  8
opor
100
AcDbVertex
100
AcDb2dVertex
 10
70.014668325195
 20
69.252246678961
  0
SEQEND
  5
29
100
AcDbEntity
  8
opor
  0
POLYLINE
  5
2A
100
AcDbEntity
  8
opor_proj
  6
CONTINUOUS
370
18
100
AcDb2dPolyline
 66
1
 70
128
  0
VERTEX
  5
2B
100
AcDbEntity
  8
opor_proj
100
AcDbVertex
100
AcDb2dVertex
 10
63.878299636129
 20
76.692557991122
  0
VERTEX
  5
2C
100
AcDbEntity
  8
opor_proj
100
AcDbVertex
100
AcDb2dVertex
 10
65.850828508128
 20
74.301087763598
  0
SEQEND
  5
2D
100
AcDbEntity
  8
opor_proj
  0
POLYLINE
  5
2E
100
AcDbEntity
  8
opor_proj
  6
CONTINUOUS
370
18
100
AcDb2dPolyline
 66
1
 70
128
  0
VERTEX
  5
2F
100
AcDbEntity
  8
opor_proj
100
AcDbVertex
100
AcDb2dVertex
 10
138.669299636129
 20
138.381557991122
  0
VERTEX
  5
30
100
AcDbEntity
  8
opor_proj
100
AcDbVertex
100
AcDb2dVertex
 10
140.641828508128
 20
135.990087763598
  0
SEQEND
  5
31
100
AcDbEntity
  8
opor_proj
  0
POLYLINE
  5
32
100
AcDbEntity
  8
opor_proj
  6
CONTINUOUS
370
18
100
AcDb2dPolyline
 66
1
 70
128
  0
VERTEX
  5
33
100
AcDbEntity
  8
opor_proj
100
AcDbVertex
100
AcDb2dVertex
 10
63.145429727694
 20
76.088073336799
  0
VERTEX
  5
34
100
AcDbEntity
  8
opor_proj
100
AcDbVertex
100
AcDb2dVertex
 10
65.117958599693
 20
73.696603109276
  0
SEQEND
  5
35
100
AcDbEntity
  8
opor_proj
  0
POLYLINE
  5
36
100
AcDbEntity
  8
opor_proj
  6
CONTINUOUS
370
18
100
AcDb2dPolyline
 66
1
 70
128
  0
VERTEX
  5
37
100
AcDbEntity
  8
opor_proj
100
AcDbVertex
100
AcDb2dVertex
 10
139.402169544563
 20
138.986042645444
  0
VERTEX
  5
38
100
AcDbEntity
  8
opor_proj
100
AcDbVertex
100
AcDb2dVertex
 10
141.374698416562
 20
136.594572417921
  0
SEQEND
  5
39
100
AcDbEntity
  8
opor_proj
  0
POLYLINE
  5
3A
100
AcDbEntity
  8
os_szyny
  6
CONTINUOUS
370
18
100
AcDb2dPolyline
 66
1
 70
128
  0
VERTEX
  5
3B
100
AcDbEntity
  8
os_szyny
100
AcDbVertex
100
AcDb2dVertex
 10
137.901
 20
139.044
  0
VERTEX
  5
3C
100
AcDbEntity
  8
os_szyny
100
AcDbVertex
100
AcDb2dVertex
 10
63.586
 20
77.748
  0
VERTEX
  5
3D
100
AcDbEntity
  8
os_szyny
100
AcDbVertex
100
AcDb2dVertex
 10
58.540345734667
 20
73.586277281197
  0
SEQEND
  5
3E
100
AcDbEntity
  8
os_szyny
  0
POLYLINE
  5
3F
100
AcDbEntity
  8
os_szyny
  6
CONTINUOUS
370
18
100
AcDb2dPolyline
 66
1
 70
128
  0
VERTEX
  5
40
100
AcDbEntity
  8
os_szyny
100
AcDbVertex
100
AcDb2dVertex
 10
63.586
 20
77.748
  0
VERTEX
  5
41
100
AcDbEntity
  8
os_szyny
100
AcDbVertex
100
AcDb2dVertex
 10
137.901
 20
139.044
  0
VERTEX
  5
42
100
AcDbEntity
  8
os_szyny
100
AcDbVertex
100
AcDb2dVertex
 10
146.966141827884
 20
146.521049498512
  0
SEQEND
  5
43
100
AcDbEntity
  8
os_szyny
  0
POLYLINE
  5
44
100
AcDbEntity
  8
szyna_proj
  6
CONTINUOUS
370
18
100
AcDb2dPolyline
 66
1
 70
128
  0
VERTEX
  5
45
100
AcDbEntity
  8
szyna_proj
100
AcDbVertex
100
AcDb2dVertex
 10
65.850828508128
 20
74.301087763598
  0
VERTEX
  5
46
100
AcDbEntity
  8
szyna_proj
100
AcDbVertex
100
AcDb2dVertex
 10
140.641828508128
 20
135.990087763598
  0
SEQEND
  5
47
100
AcDbEntity
  8
szyna_proj
  0
POLYLINE
  5
48
100
AcDbEntity
  8
szyna_proj
  6
CONTINUOUS
370
18
100
AcDb2dPolyline
 66
1
 70
128
  0
VERTEX
  5
49
100
AcDbEntity
  8
szyna_proj
100
AcDbVertex
100
AcDb2dVertex
 10
63.878299636129
 20
76.692557991122
  0
VERTEX
  5
4A
100
AcDbEntity
  8
szyna_proj
100
AcDbVertex
100
AcDb2dVertex
 10
138.669299636129
 20
138.381557991122
  0
SEQEND
  5
4B
100
AcDbEntity
  8
szyna_proj
  0
TEXT
  5
4C
100
AcDbEntity
  8
opor_proj
370
18
100
AcDbText
 10
100.52650875245
 20
107.027493142284
 40
0.45
  1
-96.950-
 50
-320.00
 41
0.66
  7
STANDARD
 72
1
 11
101.31236689271
 21
107.491095324534
100
AcDbText
 73
1
  0
TEXT
  5
4D
100
AcDbEntity
  8
opor_proj
370
18
100
AcDbText
 10
102.499037624449
 20
104.636022914761
 40
0.45
  1
-96.950-
 50
-320.00
 41
0.66
  7
STANDARD
 72
1
 11
103.284895764709
 21
105.099625097011
100
AcDbText
 73
1
  0
TEXT
  5
4E
100
AcDbEntity
  8
opor_proj
370
18
100
AcDbText
 10
138.370598600757
 20
138.252534614036
 40
0.45
  1
-0.950-
 50
-320.50
 41
0.66
  7
STANDARD
 72
1
 11
139.073664693217
 21
138.637702524997
100
AcDbText
 73
1
  0
TEXT
  5
4F
100
AcDbEntity
  8
opor_proj
370
18
100
AcDbText
 10
140.343598600757
 20
135.861034614036
 40
0.45
  1
-0.950-
 50
-320.50
 41
0.66
  7
STANDARD
 72
1
 11
141.046664693217
 21
136.246202524997
100
AcDbText
 73
1
  0
TEXT
  5
50
100
AcDbEntity
  8
opor_proj
370
9
100
AcDbText
 10
63.142110333754
 20
76.150797007798
 40
0.25
  1
-0.950-
 50
-320.50
 41
0.66
  7
STANDARD
 72
1
 11
63.532702607343
 21
76.364779180554
100
AcDbText
 73
1
  0
TEXT
  5
51
100
AcDbEntity
  8
opor_proj
370
9
100
AcDbText
 10
65.115110333754
 20
73.759297007798
 40
0.25
  1
-0.950-
 50
-320.50
 41
0.66
  7
STANDARD
 72
1
 11
65.505702607343
 21
73.973279180554
100
AcDbText
 73
1
  0
TEXT
  5
52
100
AcDbEntity
  8
opor_proj
370
9
100
AcDbText
 10
63.891797007798
 20
75.261889666246
 40
0.25
  1
-3.100-
 50
-50.50
 41
0.66
  7
STANDARD
 72
1
 11
64.105779180554
 21
74.871297392657
100
AcDbText
 73
1
  0
TEXT
  5
53
100
AcDbEntity
  8
opor_proj
370
9
100
AcDbText
 10
140.148797007798
 20
138.159889666246
 40
0.25
  1
-3.100-
 50
-50.50
 41
0.66
  7
STANDARD
 72
1
 11
140.362779180554
 21
137.769297392657
100
AcDbText
 73
1
  0
ENDSEC
  0
SECTION
  2
OBJECTS
  0
DICTIONARY
  5
54
330
0
100
AcDbDictionary
280
0
281
1
  3
ACAD_GROUP
350
55
  3
ACAD_LAYOUT
350
56
  3
ACAD_MLINESTYLE
350
57
  3
ACAD_PLOTSETTINGS
350
58
  3
ACAD_PLOTSTYLENAME
350
59
  0
DICTIONARY
  5
55
102
{ACAD_REACTORS
330
54
102
}
330
54
100
AcDbDictionary
280
0
281
1
  0
DICTIONARY
  5
56
102
{ACAD_REACTORS
330
54
102
}
330
54
100
AcDbDictionary
280
0
281
1
  3
Layout
350
1B
  3
Model
350
19
  0
DICTIONARY
  5
57
102
{ACAD_REACTORS
330
54
102
}
330
54
100
AcDbDictionary
280
0
281
1
  3
Standard
350
5A
  0
DICTIONARY
  5
58
102
{ACAD_REACTORS
330
54
102
}
330
54
100
AcDbDictionary
280
0
281
1
  0
ACDBDICTIONARYWDFLT
  5
59
102
{ACAD_REACTORS
330
54
102
}
330
54
100
AcDbDictionary
281
1
  3
Normal
350
9
100
AcDbDictionaryWithDefault
340
9
  0
LAYOUT
  5
1B
100
AcDbPlotSettings
  1

  2

  4

  6

 40
0.0
 41
0.0
 42
0.0
 43
0.0
 44
0.0
 45
0.0
 46
0.0
 47
0.0
 48
0.0
 49
0.0
140
0.0
141
0.0
142
1.0
143
1.0
 70
688
 72
1
 73
0
 74
5
  7

 75
0
147
1.0
148
0.0
149
0.0
100
AcDbLayout
  1
Layout
 70
1
 71
1
 10
0.0
 20
0.0
 11
420.0
 21
297.0
 12
0.0
 22
0.0
 32
0.0
 14
100000000000000000000.0
 24
100000000000000000000.0
 34
100000000000000000000.0
 15
-100000000000000000000.0
 25
-100000000000000000000.0
 35
-100000000000000000000.0
146
0.0
 13
0.0
 23
0.0
 33
0.0
 16
1.0
 26
0.0
 36
0.0
 17
0.0
 27
1.0
 37
0.0
 76
0
330
1A
  0
LAYOUT
  5
19
100
AcDbPlotSettings
  1

  2

  4

  6

 40
0.0
 41
0.0
 42
0.0
 43
0.0
 44
0.0
 45
0.0
 46
0.0
 47
0.0
 48
0.0
 49
0.0
140
0.0
141
0.0
142
1.0
143
1.0
 70
1712
 72
1
 73
0
 74
0
  7

 75
0
147
1.0
148
0.0
149
0.0
100
AcDbLayout
  1
Model
 70
1
 71
0
 10
0.0
 20
0.0
 11
12.0
 21
9.0
 12
0.0
 22
0.0
 32
0.0
 14
0.0
 24
0.0
 34
0.0
 15
0.0
 25
0.0
 35
0.0
146
0.0
 13
0.0
 23
0.0
 33
0.0
 16
1.0
 26
0.0
 36
0.0
 17
0.0
 27
1.0
 37
0.0
 76
0
330
18
  0
MLINESTYLE
  5
5A
102
{ACAD_REACTORS
330
57
102
}
330
57
100
AcDbMlineStyle
  2
Standard
 70
0
  3

 62
256
 51
90.0
 52
90.0
  2
Standard
 71
2
 49
0.5
 62
256
  6
ByLayer
 49
-0.5
 62
256
  6
ByLayer
  0
ACDBPLACEHOLDER
  5
9
  0
ENDSEC
  0
EOF
