  0
SECTION
  2
HEADER
  9
$ACADVER
  1
AC1018
  9
$HANDSEED
  5
FFFFFF
  9
$EXTMAX
 10
7568521.14400000032
 20
5721381.72800000012
 30
1000000.00
  9
$EXTMIN
 10
7568080.24899999984
 20
5721280.78500000015
 30
0.00
  9
$LIMMIN
 10
7568080.24899999984
 20
5721280.78500000015
  9
$LIMMAX
 10
7568521.14400000032
 20
5721381.72800000012
  9
$DIMASZ
 40
2.5
  9
$DIMGAP
 40
0.625
  9
$INSUNITS
 70
6
  9
$DIMEXO
 40
0.625
  9
$DIMTXT
 40
2.5
  9
$DIMSTYLE
  2
Standard
  9
$PLIMMIN
 10
0.0
 20
0.0
  9
$PLIMMAX
 10
210.0
 20
297.0
  9
$DIMEXE
 40
1.25
  9
$TEXTSIZE
 40
2.5
  9
$TEXTSTYLE
  7
Standard
  9
$LWDISPLAY
290
1
  9
$TDCREATE
 40
44453.529022454
  9
$TDUCREATE
 40
44453.445689120
  9
$TDUPDATE
 40
44453.529022454
  9
$TDUUPDATE
 40
44453.445689120
  9
$TDINDWG
 40
0.0
  9
$TDUSRTIMER
 40
0.0
  9
$USRTIMER
 70
1
  0
ENDSEC
  0
SECTION
  2
TABLES
  0
TABLE
  2
VPORT
  5
1
100
AcDbSymbolTable
 70
1
  0
VPORT
  5
2
100
AcDbSymbolTableRecord
100
AcDbViewportTableRecord
  2
*ACTIVE
 70
0
 10
0.0
 20
0.0
 11
1.0
 21
1.0
 12
7568300.696
 22
5721331.257
 13
0.0
 23
0.0
 14
1.0
 24
1.0
 15
0.0
 25
0.0
 16
0.0
 26
0.0
 36
1.0
 17
0.0
 27
0.0
 37
0.0
 40
100.943
 41
4.368
 42
50.0
 43
0.0
 44
0.0
 50
0.0
 51
0.0
 71
0
 72
100
 73
1
 74
1
 75
0
 76
0
 77
0
 78
0
  0
ENDTAB
  0
TABLE
  2
LTYPE
  5
3
100
AcDbSymbolTable
 70
3
  0
LTYPE
  5
4
100
AcDbSymbolTableRecord
100
AcDbLinetypeTableRecord
  2
ByBlock
 70
0
  3

 72
65
 73
0
 40
0.0
  0
LTYPE
  5
5
100
AcDbSymbolTableRecord
100
AcDbLinetypeTableRecord
  2
ByLayer
 70
0
  3

 72
65
 73
0
 40
0.0
  0
LTYPE
  5
6
100
AcDbSymbolTableRecord
100
AcDbLinetypeTableRecord
  2
CONTINUOUS
 70
0
  3
Solid line
 72
65
 73
0
 40
0.0
  0
LTYPE
  5
8
100
AcDbSymbolTableRecord
100
AcDbLinetypeTableRecord
  2
L_0_02
 70
0
  3
Dzialka_ewidencyjna (MLineStyle)
 72
65
 73
0
 40
0.0
  0
LTYPE
  5
9
100
AcDbSymbolTableRecord
100
AcDbLinetypeTableRecord
  2
L_0_4B
 70
0
  3
L_0_4B
 72
65
 73
4
 40
0.33
 49
0.225
 74
0
 49
-0.0525
 74
0
 49
0.0
 74
0
 49
-0.0525
 74
0
  0
ENDTAB
  0
TABLE
  2
LAYER
  5
A
100
AcDbSymbolTable
 70
4
  0
LAYER
  5
B
100
AcDbSymbolTableRecord
100
AcDbLayerTableRecord
  2
0
 70
0
420
0
  6
CONTINUOUS
370
18
390
C
  0
LAYER
  5
D
100
AcDbSymbolTableRecord
100
AcDbLayerTableRecord
  2
EDZPD_L_0
 70
0
420
65280
  6
L_0_02
370
18
390
C
  0
LAYER
  5
E
100
AcDbSymbolTableRecord
100
AcDbLayerTableRecord
  2
osie_budynku
 70
0
420
16711680
  6
L_0_4B
370
18
390
C
  0
LAYER
  5
F
100
AcDbSymbolTableRecord
100
AcDbLayerTableRecord
  2
proj_Budynek_obrys
 70
0
420
255
  6
CONTINUOUS
370
25
390
C
  0
ENDTAB
  0
TABLE
  2
STYLE
  5
10
100
AcDbSymbolTable
 70
2
  0
STYLE
  5
11
100
AcDbSymbolTableRecord
100
AcDbTextStyleTableRecord
  2
STANDARD
 70
0
 40
0.0
 41
1.0
 50
0.0
 71
0
  3
simplex.shx
  4

  0
STYLE
  5
12
100
AcDbSymbolTableRecord
100
AcDbTextStyleTableRecord
  2
STANDARD_ITALIC
 70
0
 40
0.0
 41
1.0
 50
15.0
 71
0
  3
simplex.shx
  4

  0
ENDTAB
  0
TABLE
  2
VIEW
  5
13
100
AcDbSymbolTable
 70
0
  0
ENDTAB
  0
TABLE
  2
UCS
  5
14
100
AcDbSymbolTable
 70
0
  0
ENDTAB
  0
TABLE
  2
APPID
  5
15
100
AcDbSymbolTable
 70
1
  0
APPID
  5
16
100
AcDbSymbolTableRecord
100
AcDbRegAppTableRecord
  2
ACAD
 70
0
  0
ENDTAB
  0
TABLE
  2
DIMSTYLE
  5
17
100
AcDbSymbolTable
 70
1
100
AcDbDimStyleTable
  0
DIMSTYLE
105
18
100
AcDbSymbolTableRecord
100
AcDbDimStyleTableRecord
  2
Standard
 70
0
340
11
  0
ENDTAB
  0
TABLE
  2
BLOCK_RECORD
  5
19
100
AcDbSymbolTable
 70
5
  0
BLOCK_RECORD
  5
1A
100
AcDbSymbolTableRecord
100
AcDbBlockTableRecord
  2
*Model_Space
340
1B
  0
BLOCK_RECORD
  5
1C
100
AcDbSymbolTableRecord
100
AcDbBlockTableRecord
  2
*Paper_Space
340
1D
  0
BLOCK_RECORD
  5
1E
100
AcDbSymbolTableRecord
100
AcDbBlockTableRecord
  2
pikieta
340
1F
  0
BLOCK_RECORD
  5
20
100
AcDbSymbolTableRecord
100
AcDbBlockTableRecord
  2
L_0_02_1
340
21
  0
BLOCK_RECORD
  5
22
100
AcDbSymbolTableRecord
100
AcDbBlockTableRecord
  2
L_0_02_2
340
23
  0
ENDTAB
  0
ENDSEC
  0
SECTION
  2
BLOCKS
  0
BLOCK
  5
24
100
AcDbEntity
  8
0
100
AcDbBlockBegin
  2
*Model_Space
 70
0
 10
0.0
 20
0.0
 30
0.0
  3
*Model_Space
  1

  0
ENDBLK
  5
25
100
AcDbEntity
  8
0
100
AcDbBlockEnd
  0
BLOCK
  5
26
100
AcDbEntity
 67
1
  8
0
100
AcDbBlockBegin
  2
*Paper_Space
 70
0
 10
0.0
 20
0.0
 30
0.0
  3
*Paper_Space
  1

  0
ENDBLK
  5
27
100
AcDbEntity
 67
1
  8
0
100
AcDbBlockEnd
  0
BLOCK
  5
1F
100
AcDbEntity
  8
0
100
AcDbBlockBegin
 62
0
370
13
  2
pikieta
 70
0
 10
0
 20
0
 30
0
  3
pikieta
  0
POINT
  5
28
100
AcDbEntity
  8
0
100
AcDbPoint
 62
0
 10
0.0
 20
0.0
 30
0.00
  0
ENDBLK
  5
29
100
AcDbEntity
  8
0
100
AcDbBlockEnd
  0
BLOCK
  5
21
100
AcDbEntity
  8
0
100
AcDbBlockBegin
 62
0
370
13
  2
L_0_02_1
 70
0
 10
0
 20
0
 30
0
  3
L_0_02_1
  0
POINT
  5
2A
100
AcDbEntity
  8
0
100
AcDbPoint
 62
0
 10
0.0
 20
0.0
 30
0.00
  0
ENDBLK
  5
2B
100
AcDbEntity
  8
0
100
AcDbBlockEnd
  0
BLOCK
  5
23
100
AcDbEntity
  8
0
100
AcDbBlockBegin
 62
0
370
13
  2
L_0_02_2
 70
0
 10
0
 20
0
 30
0
  3
L_0_02_2
  0
POINT
  5
2C
100
AcDbEntity
  8
0
100
AcDbPoint
 62
0
 10
-0.0
 20
-0.0
 30
0.00
  0
ENDBLK
  5
2D
100
AcDbEntity
  8
0
100
AcDbBlockEnd
  0
ENDSEC
  0
SECTION
  2
ENTITIES
  0
INSERT
  5
2E
100
AcDbEntity
  8
EDZPD_L_0
  6
CONTINUOUS
100
AcDbBlockReference
 66
0
  2
L_0_02_1
 10
7568515.38549999986
 20
5721354.12210000027
 30
0.00
 41
0.15
 42
0.15
 43
0.15
 50
179.56
  0
INSERT
  5
2F
100
AcDbEntity
  8
EDZPD_L_0
  6
CONTINUOUS
100
AcDbBlockReference
 66
0
  2
pikieta
 10
7568359.80444653425
 20
5721355.30689826235
 30
0.00
 41
0.15
 42
0.15
 43
0.15
 50
179.56
  0
INSERT
  5
30
100
AcDbEntity
  8
EDZPD_L_0
  6
CONTINUOUS
100
AcDbBlockReference
 66
0
  2
L_0_02_2
 10
7568204.22339306865
 20
5721356.49169652536
 30
0.00
 41
0.15
 42
0.15
 43
0.15
 50
359.56
  0
MLINE
  5
31
100
AcDbEntity
  8
EDZPD_L_0
  6
L_0_02
370
18
100
AcDbMline
  2
L_0_02
340
7
 40
1.0
 70
1
 71
1
 72
2
 73
1
 10
7568515.38549999986
 20
5721354.12210000027
210
0.0
220
0.0
230
1.0
 11
7568515.38549999986
 21
5721354.12210000027
 12
-0.999971004773
 22
0.007615091187
 13
-0.007615091187
 23
-0.999971004773
 74
3
 41
0.0
 41
0.075
 41
311.096129408821
 75
0
 11
7568204.22339306865
 21
5721356.49169652536
 12
-0.999971004773
 22
0.007615091187
 13
-0.007615091187
 23
-0.999971004773
 74
0
 75
0
  0
INSERT
  5
32
100
AcDbEntity
  8
EDZPD_L_0
  6
CONTINUOUS
100
AcDbBlockReference
 66
0
  2
L_0_02_1
 10
7568204.27317202371
 20
5721372.02308485284
 30
0.00
 41
0.15
 42
0.15
 43
0.15
 50
179.69
  0
INSERT
  5
33
100
AcDbEntity
  8
EDZPD_L_0
  6
CONTINUOUS
100
AcDbBlockReference
 66
0
  2
pikieta
 10
7568151.47350081056
 20
5721372.31325897295
 30
0.00
 41
0.15
 42
0.15
 43
0.15
 50
179.69
  0
INSERT
  5
34
100
AcDbEntity
  8
EDZPD_L_0
  6
CONTINUOUS
100
AcDbBlockReference
 66
0
  2
L_0_02_2
 10
7568098.67382959742
 20
5721372.60343309306
 30
0.00
 41
0.15
 42
0.15
 43
0.15
 50
359.69
  0
MLINE
  5
35
100
AcDbEntity
  8
EDZPD_L_0
  6
L_0_02
370
18
100
AcDbMline
  2
L_0_02
340
7
 40
1.0
 70
1
 71
1
 72
2
 73
1
 10
7568204.27317202371
 20
5721372.02308485284
210
0.0
220
0.0
230
1.0
 11
7568204.27317202371
 21
5721372.02308485284
 12
-0.999984898674
 22
0.005495673201
 13
-0.005495673201
 23
-0.999984898674
 74
3
 41
0.0
 41
0.075
 41
105.525937140462
 75
0
 11
7568098.67382959742
 21
5721372.60343309306
 12
-0.999984898674
 22
0.005495673201
 13
-0.005495673201
 23
-0.999984898674
 74
0
 75
0
  0
INSERT
  5
36
100
AcDbEntity
  8
EDZPD_L_0
  6
CONTINUOUS
100
AcDbBlockReference
 66
0
  2
L_0_02_1
 10
7568508.71480000019
 20
5721324.86539999954
 30
0.00
 41
0.15
 42
0.15
 43
0.15
 50
179.58
  0
INSERT
  5
37
100
AcDbEntity
  8
EDZPD_L_0
  6
CONTINUOUS
100
AcDbBlockReference
 66
0
  2
pikieta
 10
7568342.66079225019
 20
5721326.07915329747
 30
0.00
 41
0.15
 42
0.15
 43
0.15
 50
179.58
  0
INSERT
  5
38
100
AcDbEntity
  8
EDZPD_L_0
  6
CONTINUOUS
100
AcDbBlockReference
 66
0
  2
L_0_02_2
 10
7568176.60678450111
 20
5721327.29290659446
 30
0.00
 41
0.15
 42
0.15
 43
0.15
 50
359.58
  0
MLINE
  5
39
100
AcDbEntity
  8
EDZPD_L_0
  6
L_0_02
370
18
100
AcDbMline
  2
L_0_02
340
7
 40
1.0
 70
1
 71
1
 72
2
 73
1
 10
7568508.71480000019
 20
5721324.86539999954
210
0.0
220
0.0
230
1.0
 11
7568508.71480000019
 21
5721324.86539999954
 12
-0.999973287488
 22
0.007309193506
 13
-0.007309193506
 23
-0.999973287488
 74
3
 41
0.0
 41
0.075
 41
332.04188717529
 75
0
 11
7568176.60678450111
 21
5721327.29290659446
 12
-0.999973287488
 22
0.007309193506
 13
-0.007309193506
 23
-0.999973287488
 74
0
 75
0
  0
INSERT
  5
3A
100
AcDbEntity
  8
EDZPD_L_0
  6
CONTINUOUS
100
AcDbBlockReference
 66
0
  2
L_0_02_1
 10
7568176.60678450111
 20
5721327.29290659446
 30
0.00
 41
0.15
 42
0.15
 43
0.15
 50
172.09
  0
INSERT
  5
3B
100
AcDbEntity
  8
EDZPD_L_0
  6
CONTINUOUS
100
AcDbBlockReference
 66
0
  2
pikieta
 10
7568173.14332521893
 20
5721327.77432049811
 30
0.00
 41
0.15
 42
0.15
 43
0.15
 50
172.09
  0
INSERT
  5
3C
100
AcDbEntity
  8
EDZPD_L_0
  6
CONTINUOUS
100
AcDbBlockReference
 66
0
  2
L_0_02_2
 10
7568169.67986593675
 20
5721328.25573440269
 30
0.00
 41
0.15
 42
0.15
 43
0.15
 50
352.09
  0
MLINE
  5
3D
100
AcDbEntity
  8
EDZPD_L_0
  6
L_0_02
370
18
100
AcDbMline
  2
L_0_02
340
7
 40
1.0
 70
1
 71
1
 72
2
 73
1
 10
7568176.60678450111
 20
5721327.29290659446
210
0.0
220
0.0
230
1.0
 11
7568176.60678450111
 21
5721327.29290659446
 12
-0.990477541912
 22
0.137674394742
 13
-0.137674394742
 23
-0.990477541912
 74
3
 41
0.0
 41
0.075
 41
6.918514008395
 75
0
 11
7568169.67986593675
 21
5721328.25573440269
 12
-0.990477541912
 22
0.137674394742
 13
-0.137674394742
 23
-0.990477541912
 74
0
 75
0
  0
INSERT
  5
3E
100
AcDbEntity
  8
EDZPD_L_0
  6
CONTINUOUS
100
AcDbBlockReference
 66
0
  2
L_0_02_1
 10
7568169.67986593675
 20
5721328.25573440269
 30
0.00
 41
0.15
 42
0.15
 43
0.15
 50
82.11
  0
INSERT
  5
3F
100
AcDbEntity
  8
EDZPD_L_0
  6
CONTINUOUS
100
AcDbBlockReference
 66
0
  2
pikieta
 10
7568170.36614680663
 20
5721333.20559167024
 30
0.00
 41
0.15
 42
0.15
 43
0.15
 50
82.11
  0
INSERT
  5
40
100
AcDbEntity
  8
EDZPD_L_0
  6
CONTINUOUS
100
AcDbBlockReference
 66
0
  2
L_0_02_2
 10
7568171.05242767744
 20
5721338.15544893779
 30
0.00
 41
0.15
 42
0.15
 43
0.15
 50
262.11
  0
MLINE
  5
41
100
AcDbEntity
  8
EDZPD_L_0
  6
L_0_02
370
18
100
AcDbMline
  2
L_0_02
340
7
 40
1.0
 70
1
 71
1
 72
2
 73
1
 10
7568169.67986593675
 20
5721328.25573440269
210
0.0
220
0.0
230
1.0
 11
7568169.67986593675
 21
5721328.25573440269
 12
0.137332914064
 22
0.990524947043
 13
-0.990524947043
 23
0.137332914064
 74
3
 41
0.0
 41
0.075
 41
9.919412119205
 75
0
 11
7568171.05242767744
 21
5721338.15544893779
 12
0.137332914064
 22
0.990524947043
 13
-0.990524947043
 23
0.137332914064
 74
0
 75
0
  0
INSERT
  5
42
100
AcDbEntity
  8
EDZPD_L_0
  6
CONTINUOUS
100
AcDbBlockReference
 66
0
  2
L_0_02_1
 10
7568171.05242767744
 20
5721338.15544893779
 30
0.00
 41
0.15
 42
0.15
 43
0.15
 50
172.09
  0
INSERT
  5
43
100
AcDbEntity
  8
EDZPD_L_0
  6
CONTINUOUS
100
AcDbBlockReference
 66
0
  2
pikieta
 10
7568164.12550902367
 20
5721339.11827656534
 30
0.00
 41
0.15
 42
0.15
 43
0.15
 50
172.09
  0
INSERT
  5
44
100
AcDbEntity
  8
EDZPD_L_0
  6
CONTINUOUS
100
AcDbBlockReference
 66
0
  2
L_0_02_2
 10
7568157.1985903699
 20
5721340.08110419288
 30
0.00
 41
0.15
 42
0.15
 43
0.15
 50
352.09
  0
MLINE
  5
45
100
AcDbEntity
  8
EDZPD_L_0
  6
L_0_02
370
18
100
AcDbMline
  2
L_0_02
340
7
 40
1.0
 70
1
 71
1
 72
2
 73
1
 10
7568171.05242767744
 20
5721338.15544893779
210
0.0
220
0.0
230
1.0
 11
7568171.05242767744
 21
5721338.15544893779
 12
-0.990477545677
 22
0.137674367653
 13
-0.137674367653
 23
-0.990477545677
 74
3
 41
0.0
 41
0.075
 41
13.912028144153
 75
0
 11
7568157.1985903699
 21
5721340.08110419288
 12
-0.990477545677
 22
0.137674367653
 13
-0.137674367653
 23
-0.990477545677
 74
0
 75
0
  0
INSERT
  5
46
100
AcDbEntity
  8
EDZPD_L_0
  6
CONTINUOUS
100
AcDbBlockReference
 66
0
  2
L_0_02_1
 10
7568157.1985903699
 20
5721340.08110419288
 30
0.00
 41
0.15
 42
0.15
 43
0.15
 50
175.65
  0
INSERT
  5
47
100
AcDbEntity
  8
EDZPD_L_0
  6
CONTINUOUS
100
AcDbBlockReference
 66
0
  2
pikieta
 10
7568153.88170021214
 20
5721340.33350848034
 30
0.00
 41
0.15
 42
0.15
 43
0.15
 50
175.65
  0
INSERT
  5
48
100
AcDbEntity
  8
EDZPD_L_0
  6
CONTINUOUS
100
AcDbBlockReference
 66
0
  2
L_0_02_2
 10
7568150.56481005531
 20
5721340.58591276873
 30
0.00
 41
0.15
 42
0.15
 43
0.15
 50
355.65
  0
MLINE
  5
49
100
AcDbEntity
  8
EDZPD_L_0
  6
L_0_02
370
18
100
AcDbMline
  2
L_0_02
340
7
 40
1.0
 70
1
 71
1
 72
2
 73
1
 10
7568157.1985903699
 20
5721340.08110419288
210
0.0
220
0.0
230
1.0
 11
7568157.1985903699
 21
5721340.08110419288
 12
-0.997117162802
 22
0.075877293343
 13
-0.075877293343
 23
-0.997117162802
 74
3
 41
0.0
 41
0.075
 41
6.577959714326
 75
0
 11
7568150.56481005531
 21
5721340.58591276873
 12
-0.997117162802
 22
0.075877293343
 13
-0.075877293343
 23
-0.997117162802
 74
0
 75
0
  0
INSERT
  5
4A
100
AcDbEntity
  8
EDZPD_L_0
  6
CONTINUOUS
100
AcDbBlockReference
 66
0
  2
L_0_02_1
 10
7568150.56481005531
 20
5721340.58591276873
 30
0.00
 41
0.15
 42
0.15
 43
0.15
 50
83.98
  0
INSERT
  5
4B
100
AcDbEntity
  8
EDZPD_L_0
  6
CONTINUOUS
100
AcDbBlockReference
 66
0
  2
pikieta
 10
7568151.46184821706
 20
5721349.0923359599
 30
0.00
 41
0.15
 42
0.15
 43
0.15
 50
83.98
  0
INSERT
  5
4C
100
AcDbEntity
  8
EDZPD_L_0
  6
CONTINUOUS
100
AcDbBlockReference
 66
0
  2
L_0_02_2
 10
7568152.35888637882
 20
5721357.598759152
 30
0.00
 41
0.15
 42
0.15
 43
0.15
 50
263.98
  0
MLINE
  5
4D
100
AcDbEntity
  8
EDZPD_L_0
  6
L_0_02
370
18
100
AcDbMline
  2
L_0_02
340
7
 40
1.0
 70
1
 71
1
 72
2
 73
1
 10
7568150.56481005531
 20
5721340.58591276873
210
0.0
220
0.0
230
1.0
 11
7568150.56481005531
 21
5721340.58591276873
 12
0.104872701844
 22
0.994485654199
 13
-0.994485654199
 23
0.104872701844
 74
3
 41
0.0
 41
0.075
 41
17.032181296613
 75
0
 11
7568152.35888637882
 21
5721357.598759152
 12
0.104872701844
 22
0.994485654199
 13
-0.994485654199
 23
0.104872701844
 74
0
 75
0
  0
INSERT
  5
4E
100
AcDbEntity
  8
EDZPD_L_0
  6
CONTINUOUS
100
AcDbBlockReference
 66
0
  2
L_0_02_1
 10
7568152.35888637882
 20
5721357.598759152
 30
0.00
 41
0.15
 42
0.15
 43
0.15
 50
173.97
  0
INSERT
  5
4F
100
AcDbEntity
  8
EDZPD_L_0
  6
CONTINUOUS
100
AcDbBlockReference
 66
0
  2
pikieta
 10
7568145.59867322817
 20
5721358.31271347962
 30
0.00
 41
0.15
 42
0.15
 43
0.15
 50
173.97
  0
INSERT
  5
50
100
AcDbEntity
  8
EDZPD_L_0
  6
CONTINUOUS
100
AcDbBlockReference
 66
0
  2
L_0_02_2
 10
7568138.8384600766
 20
5721359.02666780818
 30
0.00
 41
0.15
 42
0.15
 43
0.15
 50
353.97
  0
MLINE
  5
51
100
AcDbEntity
  8
EDZPD_L_0
  6
L_0_02
370
18
100
AcDbMline
  2
L_0_02
340
7
 40
1.0
 70
1
 71
1
 72
2
 73
1
 10
7568152.35888637882
 20
5721357.598759152
210
0.0
220
0.0
230
1.0
 11
7568152.35888637882
 21
5721357.598759152
 12
-0.994469358272
 22
0.105027117729
 13
-0.105027117729
 23
-0.994469358272
 74
3
 41
0.0
 41
0.075
 41
13.520618798867
 75
0
 11
7568138.8384600766
 21
5721359.02666780818
 12
-0.994469358272
 22
0.105027117729
 13
-0.105027117729
 23
-0.994469358272
 74
0
 75
0
  0
INSERT
  5
52
100
AcDbEntity
  8
EDZPD_L_0
  6
CONTINUOUS
100
AcDbBlockReference
 66
0
  2
L_0_02_1
 10
7568138.8384600766
 20
5721359.02666780818
 30
0.00
 41
0.15
 42
0.15
 43
0.15
 50
263.31
  0
INSERT
  5
53
100
AcDbEntity
  8
EDZPD_L_0
  6
CONTINUOUS
100
AcDbBlockReference
 66
0
  2
pikieta
 10
7568137.8177173268
 20
5721350.32939468697
 30
0.00
 41
0.15
 42
0.15
 43
0.15
 50
263.31
  0
INSERT
  5
54
100
AcDbEntity
  8
EDZPD_L_0
  6
CONTINUOUS
100
AcDbBlockReference
 66
0
  2
L_0_02_2
 10
7568136.79697457794
 20
5721341.63212156482
 30
0.00
 41
0.15
 42
0.15
 43
0.15
 50
83.31
  0
MLINE
  5
55
100
AcDbEntity
  8
EDZPD_L_0
  6
L_0_02
370
18
100
AcDbMline
  2
L_0_02
340
7
 40
1.0
 70
1
 71
1
 72
2
 73
1
 10
7568138.8384600766
 20
5721359.02666780818
210
0.0
220
0.0
230
1.0
 11
7568138.8384600766
 21
5721359.02666780818
 12
-0.116563499617
 22
-0.993183241178
 13
0.993183241178
 23
-0.116563499617
 74
3
 41
0.0
 41
0.075
 41
17.438934510946
 75
0
 11
7568136.79697457794
 21
5721341.63212156482
 12
-0.116563499617
 22
-0.993183241178
 13
0.993183241178
 23
-0.116563499617
 74
0
 75
0
  0
INSERT
  5
56
100
AcDbEntity
  8
EDZPD_L_0
  6
CONTINUOUS
100
AcDbBlockReference
 66
0
  2
L_0_02_1
 10
7568204.22339306865
 20
5721356.49169652536
 30
0.00
 41
0.15
 42
0.15
 43
0.15
 50
89.82
  0
INSERT
  5
57
100
AcDbEntity
  8
EDZPD_L_0
  6
CONTINUOUS
100
AcDbBlockReference
 66
0
  2
pikieta
 10
7568204.24828254618
 20
5721364.2573906891
 30
0.00
 41
0.15
 42
0.15
 43
0.15
 50
89.82
  0
INSERT
  5
58
100
AcDbEntity
  8
EDZPD_L_0
  6
CONTINUOUS
100
AcDbBlockReference
 66
0
  2
L_0_02_2
 10
7568204.27317202371
 20
5721372.02308485284
 30
0.00
 41
0.15
 42
0.15
 43
0.15
 50
269.82
  0
MLINE
  5
59
100
AcDbEntity
  8
EDZPD_L_0
  6
L_0_02
370
18
100
AcDbMline
  2
L_0_02
340
7
 40
1.0
 70
1
 71
1
 72
2
 73
1
 10
7568204.22339306865
 20
5721356.49169652536
210
0.0
220
0.0
230
1.0
 11
7568204.22339306865
 21
5721356.49169652536
 12
0.003205038618
 22
0.999994863851
 13
-0.999994863851
 23
0.003205038618
 74
3
 41
0.0
 41
0.075
 41
15.456468099421
 75
0
 11
7568204.27317202371
 21
5721372.02308485284
 12
0.003205038618
 22
0.999994863851
 13
-0.999994863851
 23
0.003205038618
 74
0
 75
0
  0
INSERT
  5
5A
100
AcDbEntity
  8
EDZPD_L_0
  6
CONTINUOUS
100
AcDbBlockReference
 66
0
  2
L_0_02_1
 10
7568519.08500000089
 20
5721370.34800000023
 30
0.00
 41
0.15
 42
0.15
 43
0.15
 50
179.70
  0
INSERT
  5
5B
100
AcDbEntity
  8
EDZPD_L_0
  6
CONTINUOUS
100
AcDbBlockReference
 66
0
  2
pikieta
 10
7568361.67908601277
 20
5721371.185542427
 30
0.00
 41
0.15
 42
0.15
 43
0.15
 50
179.70
  0
INSERT
  5
5C
100
AcDbEntity
  8
EDZPD_L_0
  6
CONTINUOUS
100
AcDbBlockReference
 66
0
  2
L_0_02_2
 10
7568204.27317202371
 20
5721372.02308485284
 30
0.00
 41
0.15
 42
0.15
 43
0.15
 50
359.70
  0
MLINE
  5
5D
100
AcDbEntity
  8
EDZPD_L_0
  6
L_0_02
370
18
100
AcDbMline
  2
L_0_02
340
7
 40
1.0
 70
1
 71
1
 72
2
 73
1
 10
7568519.08500000089
 20
5721370.34800000023
210
0.0
220
0.0
230
1.0
 11
7568519.08500000089
 21
5721370.34800000023
 12
-0.999985844268
 22
0.005320832928
 13
-0.005320832928
 23
-0.999985844268
 74
3
 41
0.0
 41
0.075
 41
314.741284432051
 75
0
 11
7568204.27317202371
 21
5721372.02308485284
 12
-0.999985844268
 22
0.005320832928
 13
-0.005320832928
 23
-0.999985844268
 74
0
 75
0
  0
INSERT
  5
5E
100
AcDbEntity
  8
EDZPD_L_0
  6
CONTINUOUS
100
AcDbBlockReference
 66
0
  2
L_0_02_1
 10
7568521.14380000066
 20
5721379.33239999972
 30
0.00
 41
0.15
 42
0.15
 43
0.15
 50
179.69
  0
INSERT
  5
5F
100
AcDbEntity
  8
EDZPD_L_0
  6
CONTINUOUS
100
AcDbBlockReference
 66
0
  2
pikieta
 10
7568316.64754999988
 20
5721380.44400000013
 30
0.00
 41
0.15
 42
0.15
 43
0.15
 50
179.69
  0
INSERT
  5
60
100
AcDbEntity
  8
EDZPD_L_0
  6
CONTINUOUS
100
AcDbBlockReference
 66
0
  2
L_0_02_2
 10
7568112.15130000003
 20
5721381.55559999961
 30
0.00
 41
0.15
 42
0.15
 43
0.15
 50
359.69
  0
MLINE
  5
61
100
AcDbEntity
  8
EDZPD_L_0
  6
L_0_02
370
18
100
AcDbMline
  2
L_0_02
340
7
 40
1.0
 70
1
 71
1
 72
2
 73
1
 10
7568521.14380000066
 20
5721379.33239999972
210
0.0
220
0.0
230
1.0
 11
7568521.14380000066
 21
5721379.33239999972
 12
-0.999985226386
 22
0.005435716193
 13
-0.005435716193
 23
-0.999985226386
 74
3
 41
0.0
 41
0.075
 41
408.923542387387
 75
0
 11
7568112.15130000003
 21
5721381.55559999961
 12
-0.999985226386
 22
0.005435716193
 13
-0.005435716193
 23
-0.999985226386
 74
0
 75
0
  0
INSERT
  5
62
100
AcDbEntity
  8
EDZPD_L_0
  6
CONTINUOUS
100
AcDbBlockReference
 66
0
  2
L_0_02_1
 10
7568112.15130000003
 20
5721381.55559999961
 30
0.00
 41
0.15
 42
0.15
 43
0.15
 50
179.71
  0
INSERT
  5
63
100
AcDbEntity
  8
EDZPD_L_0
  6
CONTINUOUS
100
AcDbBlockReference
 66
0
  2
pikieta
 10
7568103.75064999983
 20
5721381.59840000048
 30
0.00
 41
0.15
 42
0.15
 43
0.15
 50
179.71
  0
INSERT
  5
64
100
AcDbEntity
  8
EDZPD_L_0
  6
CONTINUOUS
100
AcDbBlockReference
 66
0
  2
L_0_02_2
 10
7568095.34999999963
 20
5721381.64120000042
 30
0.00
 41
0.15
 42
0.15
 43
0.15
 50
359.71
  0
MLINE
  5
65
100
AcDbEntity
  8
EDZPD_L_0
  6
L_0_02
370
18
100
AcDbMline
  2
L_0_02
340
7
 40
1.0
 70
1
 71
1
 72
2
 73
1
 10
7568112.15130000003
 20
5721381.55559999961
210
0.0
220
0.0
230
1.0
 11
7568112.15130000003
 21
5721381.55559999961
 12
-0.999987021535
 22
0.005094777776
 13
-0.005094777776
 23
-0.999987021535
 74
3
 41
0.0
 41
0.075
 41
16.726518058305
 75
0
 11
7568095.34999999963
 21
5721381.64120000042
 12
-0.999987021535
 22
0.005094777776
 13
-0.005094777776
 23
-0.999987021535
 74
0
 75
0
  0
INSERT
  5
66
100
AcDbEntity
  8
EDZPD_L_0
  6
CONTINUOUS
100
AcDbBlockReference
 66
0
  2
L_0_02_1
 10
7568095.34999999963
 20
5721381.64120000042
 30
0.00
 41
0.15
 42
0.15
 43
0.15
 50
179.67
  0
INSERT
  5
67
100
AcDbEntity
  8
EDZPD_L_0
  6
CONTINUOUS
100
AcDbBlockReference
 66
0
  2
pikieta
 10
7568087.7993999999
 20
5721381.68475000001
 30
0.00
 41
0.15
 42
0.15
 43
0.15
 50
179.67
  0
INSERT
  5
68
100
AcDbEntity
  8
EDZPD_L_0
  6
CONTINUOUS
100
AcDbBlockReference
 66
0
  2
L_0_02_2
 10
7568080.24880000018
 20
5721381.72829999961
 30
0.00
 41
0.15
 42
0.15
 43
0.15
 50
359.67
  0
MLINE
  5
69
100
AcDbEntity
  8
EDZPD_L_0
  6
L_0_02
370
18
100
AcDbMline
  2
L_0_02
340
7
 40
1.0
 70
1
 71
1
 72
2
 73
1
 10
7568095.34999999963
 20
5721381.64120000042
210
0.0
220
0.0
230
1.0
 11
7568095.34999999963
 21
5721381.64120000042
 12
-0.999983366925
 22
0.005767657567
 13
-0.005767657567
 23
-0.999983366925
 74
3
 41
0.0
 41
0.075
 41
15.026451183025
 75
0
 11
7568080.24880000018
 21
5721381.72829999961
 12
-0.999983366925
 22
0.005767657567
 13
-0.005767657567
 23
-0.999983366925
 74
0
 75
0
  0
INSERT
  5
6A
100
AcDbEntity
  8
EDZPD_L_0
  6
CONTINUOUS
100
AcDbBlockReference
 66
0
  2
L_0_02_1
 10
7568498.70500000007
 20
5721280.78529999964
 30
0.00
 41
0.15
 42
0.15
 43
0.15
 50
179.83
  0
INSERT
  5
6B
100
AcDbEntity
  8
EDZPD_L_0
  6
CONTINUOUS
100
AcDbBlockReference
 66
0
  2
pikieta
 10
7568408.70940000005
 20
5721281.04704999924
 30
0.00
 41
0.15
 42
0.15
 43
0.15
 50
179.83
  0
INSERT
  5
6C
100
AcDbEntity
  8
EDZPD_L_0
  6
CONTINUOUS
100
AcDbBlockReference
 66
0
  2
L_0_02_2
 10
7568318.71380000096
 20
5721281.30879999977
 30
0.00
 41
0.15
 42
0.15
 43
0.15
 50
359.83
  0
MLINE
  5
6D
100
AcDbEntity
  8
EDZPD_L_0
  6
L_0_02
370
18
100
AcDbMline
  2
L_0_02
340
7
 40
1.0
 70
1
 71
1
 72
2
 73
1
 10
7568498.70500000007
 20
5721280.78529999964
210
0.0
220
0.0
230
1.0
 11
7568498.70500000007
 21
5721280.78529999964
 12
-0.999995770412
 22
0.002908463225
 13
-0.002908463225
 23
-0.999995770412
 74
3
 41
0.0
 41
0.075
 41
179.916961290976
 75
0
 11
7568318.71380000096
 21
5721281.30879999977
 12
-0.999995770412
 22
0.002908463225
 13
-0.002908463225
 23
-0.999995770412
 74
0
 75
0
  0
INSERT
  5
6E
100
AcDbEntity
  8
EDZPD_L_0
  6
CONTINUOUS
100
AcDbBlockReference
 66
0
  2
L_0_02_1
 10
7568318.71380000096
 20
5721281.30879999977
 30
0.00
 41
0.15
 42
0.15
 43
0.15
 50
179.84
  0
INSERT
  5
6F
100
AcDbEntity
  8
EDZPD_L_0
  6
CONTINUOUS
100
AcDbBlockReference
 66
0
  2
pikieta
 10
7568250.28454999998
 20
5721281.50249999948
 30
0.00
 41
0.15
 42
0.15
 43
0.15
 50
179.84
  0
INSERT
  5
70
100
AcDbEntity
  8
EDZPD_L_0
  6
CONTINUOUS
100
AcDbBlockReference
 66
0
  2
L_0_02_2
 10
7568181.85529999994
 20
5721281.69620000012
 30
0.00
 41
0.15
 42
0.15
 43
0.15
 50
359.84
  0
MLINE
  5
71
100
AcDbEntity
  8
EDZPD_L_0
  6
L_0_02
370
18
100
AcDbMline
  2
L_0_02
340
7
 40
1.0
 70
1
 71
1
 72
2
 73
1
 10
7568318.71380000096
 20
5721281.30879999977
210
0.0
220
0.0
230
1.0
 11
7568318.71380000096
 21
5721281.30879999977
 12
-0.999995993704
 22
0.002830649527
 13
-0.002830649527
 23
-0.999995993704
 74
3
 41
0.0
 41
0.075
 41
136.784048298933
 75
0
 11
7568181.85529999994
 21
5721281.69620000012
 12
-0.999995993704
 22
0.002830649527
 13
-0.002830649527
 23
-0.999995993704
 74
0
 75
0
  0
INSERT
  5
72
100
AcDbEntity
  8
EDZPD_L_0
  6
CONTINUOUS
100
AcDbBlockReference
 66
0
  2
L_0_02_1
 10
7568181.85529999994
 20
5721281.69620000012
 30
0.00
 41
0.15
 42
0.15
 43
0.15
 50
79.39
  0
INSERT
  5
73
100
AcDbEntity
  8
EDZPD_L_0
  6
CONTINUOUS
100
AcDbBlockReference
 66
0
  2
pikieta
 10
7568183.5535500003
 20
5721290.76319999993
 30
0.00
 41
0.15
 42
0.15
 43
0.15
 50
79.39
  0
INSERT
  5
74
100
AcDbEntity
  8
EDZPD_L_0
  6
CONTINUOUS
100
AcDbBlockReference
 66
0
  2
L_0_02_2
 10
7568185.25180000067
 20
5721299.83020000067
 30
0.00
 41
0.15
 42
0.15
 43
0.15
 50
259.39
  0
MLINE
  5
75
100
AcDbEntity
  8
EDZPD_L_0
  6
L_0_02
370
18
100
AcDbMline
  2
L_0_02
340
7
 40
1.0
 70
1
 71
1
 72
2
 73
1
 10
7568181.85529999994
 20
5721281.69620000012
210
0.0
220
0.0
230
1.0
 11
7568181.85529999994
 21
5721281.69620000012
 12
0.1840987207
 22
0.982907758153
 13
-0.982907758153
 23
0.1840987207
 74
3
 41
0.0
 41
0.075
 41
18.374340591866
 75
0
 11
7568185.25180000067
 21
5721299.83020000067
 12
0.1840987207
 22
0.982907758153
 13
-0.982907758153
 23
0.1840987207
 74
0
 75
0
  0
INSERT
  5
76
100
AcDbEntity
  8
EDZPD_L_0
  6
CONTINUOUS
100
AcDbBlockReference
 66
0
  2
L_0_02_1
 10
7568185.25180000067
 20
5721299.83020000067
 30
0.00
 41
0.15
 42
0.15
 43
0.15
 50
166.99
  0
INSERT
  5
77
100
AcDbEntity
  8
EDZPD_L_0
  6
CONTINUOUS
100
AcDbBlockReference
 66
0
  2
pikieta
 10
7568152.78425000049
 20
5721307.33430000022
 30
0.00
 41
0.15
 42
0.15
 43
0.15
 50
166.99
  0
INSERT
  5
78
100
AcDbEntity
  8
EDZPD_L_0
  6
CONTINUOUS
100
AcDbBlockReference
 66
0
  2
L_0_02_2
 10
7568120.31670000032
 20
5721314.83839999978
 30
0.00
 41
0.15
 42
0.15
 43
0.15
 50
346.99
  0
MLINE
  5
79
100
AcDbEntity
  8
EDZPD_L_0
  6
L_0_02
370
18
100
AcDbMline
  2
L_0_02
340
7
 40
1.0
 70
1
 71
1
 72
2
 73
1
 10
7568185.25180000067
 20
5721299.83020000067
210
0.0
220
0.0
230
1.0
 11
7568185.25180000067
 21
5721299.83020000067
 12
-0.974314945852
 22
0.225189667366
 13
-0.225189667366
 23
-0.974314945852
 74
3
 41
0.0
 41
0.075
 41
66.571930006332
 75
0
 11
7568120.31670000032
 21
5721314.83839999978
 12
-0.974314945852
 22
0.225189667366
 13
-0.225189667366
 23
-0.974314945852
 74
0
 75
0
  0
INSERT
  5
7A
100
AcDbEntity
  8
EDZPD_L_0
  6
CONTINUOUS
100
AcDbBlockReference
 66
0
  2
L_0_02_1
 10
7568120.31670000032
 20
5721314.83839999978
 30
0.00
 41
0.15
 42
0.15
 43
0.15
 50
290.51
  0
INSERT
  5
7B
100
AcDbEntity
  8
EDZPD_L_0
  6
CONTINUOUS
100
AcDbBlockReference
 66
0
  2
pikieta
 10
7568124.9972000001
 20
5721302.32970000058
 30
0.00
 41
0.15
 42
0.15
 43
0.15
 50
290.51
  0
INSERT
  5
7C
100
AcDbEntity
  8
EDZPD_L_0
  6
CONTINUOUS
100
AcDbBlockReference
 66
0
  2
L_0_02_2
 10
7568129.67769999988
 20
5721289.82100000046
 30
0.00
 41
0.15
 42
0.15
 43
0.15
 50
110.51
  0
MLINE
  5
7D
100
AcDbEntity
  8
EDZPD_L_0
  6
L_0_02
370
18
100
AcDbMline
  2
L_0_02
340
7
 40
1.0
 70
1
 71
1
 72
2
 73
1
 10
7568120.31670000032
 20
5721314.83839999978
210
0.0
220
0.0
230
1.0
 11
7568120.31670000032
 21
5721314.83839999978
 12
0.35044968613
 22
-0.936581559444
 13
0.936581559444
 23
0.35044968613
 74
3
 41
0.0
 41
0.075
 41
26.636395016314
 75
0
 11
7568129.67769999988
 21
5721289.82100000046
 12
0.35044968613
 22
-0.936581559444
 13
0.936581559444
 23
0.35044968613
 74
0
 75
0
  0
INSERT
  5
7E
100
AcDbEntity
  8
EDZPD_L_0
  6
CONTINUOUS
100
AcDbBlockReference
 66
0
  2
L_0_02_1
 10
7568129.67769999988
 20
5721289.82100000046
 30
0.00
 41
0.15
 42
0.15
 43
0.15
 50
351.15
  0
INSERT
  5
7F
100
AcDbEntity
  8
EDZPD_L_0
  6
CONTINUOUS
100
AcDbBlockReference
 66
0
  2
pikieta
 10
7568155.76649999991
 20
5721285.75860000029
 30
0.00
 41
0.15
 42
0.15
 43
0.15
 50
351.15
  0
INSERT
  5
80
100
AcDbEntity
  8
EDZPD_L_0
  6
CONTINUOUS
100
AcDbBlockReference
 66
0
  2
L_0_02_2
 10
7568181.85529999994
 20
5721281.69620000012
 30
0.00
 41
0.15
 42
0.15
 43
0.15
 50
171.15
  0
MLINE
  5
81
100
AcDbEntity
  8
EDZPD_L_0
  6
L_0_02
370
18
100
AcDbMline
  2
L_0_02
340
7
 40
1.0
 70
1
 71
1
 72
2
 73
1
 10
7568129.67769999988
 20
5721289.82100000046
210
0.0
220
0.0
230
1.0
 11
7568129.67769999988
 21
5721289.82100000046
 12
0.988092629566
 22
-0.153860181324
 13
0.153860181324
 23
0.988092629566
 74
3
 41
0.0
 41
0.075
 41
52.731385189777
 75
0
 11
7568181.85529999994
 21
5721281.69620000012
 12
0.988092629566
 22
-0.153860181324
 13
0.153860181324
 23
0.988092629566
 74
0
 75
0
  0
INSERT
  5
82
100
AcDbEntity
  8
EDZPD_L_0
  6
CONTINUOUS
100
AcDbBlockReference
 66
0
  2
L_0_02_1
 10
7568120.31670000032
 20
5721314.83839999978
 30
0.00
 41
0.15
 42
0.15
 43
0.15
 50
110.54
  0
INSERT
  5
83
100
AcDbEntity
  8
EDZPD_L_0
  6
CONTINUOUS
100
AcDbBlockReference
 66
0
  2
pikieta
 10
7568109.4952647984
 20
5721343.72091654688
 30
0.00
 41
0.15
 42
0.15
 43
0.15
 50
110.54
  0
INSERT
  5
84
100
AcDbEntity
  8
EDZPD_L_0
  6
CONTINUOUS
100
AcDbBlockReference
 66
0
  2
L_0_02_2
 10
7568098.67382959742
 20
5721372.60343309306
 30
0.00
 41
0.15
 42
0.15
 43
0.15
 50
290.54
  0
MLINE
  5
85
100
AcDbEntity
  8
EDZPD_L_0
  6
L_0_02
370
18
100
AcDbMline
  2
L_0_02
340
7
 40
1.0
 70
1
 71
1
 72
2
 73
1
 10
7568120.31670000032
 20
5721314.83839999978
210
0.0
220
0.0
230
1.0
 11
7568120.31670000032
 21
5721314.83839999978
 12
-0.350853149516
 22
0.936430492602
 13
-0.936430492602
 23
-0.350853149516
 74
3
 41
0.0
 41
0.075
 41
61.611407640131
 75
0
 11
7568098.67382959742
 21
5721372.60343309306
 12
-0.350853149516
 22
0.936430492602
 13
-0.936430492602
 23
-0.350853149516
 74
0
 75
0
  0
INSERT
  5
86
100
AcDbEntity
  8
EDZPD_L_0
  6
CONTINUOUS
100
AcDbBlockReference
 66
0
  2
L_0_02_1
 10
7568115.47492653877
 20
5721327.76114079636
 30
0.00
 41
0.15
 42
0.15
 43
0.15
 50
359.56
  0
INSERT
  5
87
100
AcDbEntity
  8
EDZPD_L_0
  6
CONTINUOUS
100
AcDbBlockReference
 66
0
  2
pikieta
 10
7568146.04085551947
 20
5721327.52702369541
 30
0.00
 41
0.15
 42
0.15
 43
0.15
 50
359.56
  0
INSERT
  5
88
100
AcDbEntity
  8
EDZPD_L_0
  6
CONTINUOUS
100
AcDbBlockReference
 66
0
  2
L_0_02_2
 10
7568176.60678450111
 20
5721327.29290659446
 30
0.00
 41
0.15
 42
0.15
 43
0.15
 50
179.56
  0
MLINE
  5
89
100
AcDbEntity
  8
EDZPD_L_0
  6
L_0_02
370
18
100
AcDbMline
  2
L_0_02
340
7
 40
1.0
 70
1
 71
1
 72
2
 73
1
 10
7568115.47492653877
 20
5721327.76114079636
210
0.0
220
0.0
230
1.0
 11
7568115.47492653877
 21
5721327.76114079636
 12
0.99997066798
 22
-0.007659189222
 13
0.007659189222
 23
0.99997066798
 74
3
 41
0.0
 41
0.075
 41
61.058651135823
 75
0
 11
7568176.60678450111
 21
5721327.29290659446
 12
0.99997066798
 22
-0.007659189222
 13
0.007659189222
 23
0.99997066798
 74
0
 75
0
  0
INSERT
  5
8A
100
AcDbEntity
  8
EDZPD_L_0
  6
CONTINUOUS
100
AcDbBlockReference
 66
0
  2
L_0_02_1
 10
7568136.79697457794
 20
5721341.63212156482
 30
0.00
 41
0.15
 42
0.15
 43
0.15
 50
175.61
  0
INSERT
  5
8B
100
AcDbEntity
  8
EDZPD_L_0
  6
CONTINUOUS
100
AcDbBlockReference
 66
0
  2
pikieta
 10
7568123.14492745791
 20
5721342.67970113084
 30
0.00
 41
0.15
 42
0.15
 43
0.15
 50
175.61
  0
INSERT
  5
8C
100
AcDbEntity
  8
EDZPD_L_0
  6
CONTINUOUS
100
AcDbBlockReference
 66
0
  2
L_0_02_2
 10
7568109.49288033787
 20
5721343.72728069779
 30
0.00
 41
0.15
 42
0.15
 43
0.15
 50
355.61
  0
MLINE
  5
8D
100
AcDbEntity
  8
EDZPD_L_0
  6
L_0_02
370
18
100
AcDbMline
  2
L_0_02
340
7
 40
1.0
 70
1
 71
1
 72
2
 73
1
 10
7568136.79697457794
 20
5721341.63212156482
210
0.0
220
0.0
230
1.0
 11
7568136.79697457794
 21
5721341.63212156482
 12
-0.997068865484
 22
0.076509329383
 13
-0.076509329383
 23
-0.997068865484
 74
3
 41
0.0
 41
0.075
 41
27.309361487225
 75
0
 11
7568109.49288033787
 21
5721343.72728069779
 12
-0.997068865484
 22
0.076509329383
 13
-0.076509329383
 23
-0.997068865484
 74
0
 75
0
  0
INSERT
  5
8E
100
AcDbEntity
  8
EDZPD_L_0
  6
CONTINUOUS
100
AcDbBlockReference
 66
0
  2
L_0_02_1
 10
7568184.93883217406
 20
5721298.15925681125
 30
0.00
 41
0.15
 42
0.15
 43
0.15
 50
359.54
  0
INSERT
  5
8F
100
AcDbEntity
  8
EDZPD_L_0
  6
CONTINUOUS
100
AcDbBlockReference
 66
0
  2
pikieta
 10
7568343.46918664128
 20
5721296.87923498824
 30
0.00
 41
0.15
 42
0.15
 43
0.15
 50
359.54
  0
INSERT
  5
90
100
AcDbEntity
  8
EDZPD_L_0
  6
CONTINUOUS
100
AcDbBlockReference
 66
0
  2
L_0_02_2
 10
7568501.99954110756
 20
5721295.59921316616
 30
0.00
 41
0.15
 42
0.15
 43
0.15
 50
179.54
  0
MLINE
  5
91
100
AcDbEntity
  8
EDZPD_L_0
  6
L_0_02
370
18
100
AcDbMline
  2
L_0_02
340
7
 40
1.0
 70
1
 71
1
 72
2
 73
1
 10
7568184.93883217406
 20
5721298.15925681125
210
0.0
220
0.0
230
1.0
 11
7568184.93883217406
 21
5721298.15925681125
 12
0.999967404424
 22
-0.008074037958
 13
0.008074037958
 23
0.999967404424
 74
3
 41
0.0
 41
0.075
 41
316.996044046732
 75
0
 11
7568501.99954110756
 21
5721295.59921316616
 12
0.999967404424
 22
-0.008074037958
 13
0.008074037958
 23
0.999967404424
 74
0
 75
0
  0
INSERT
  5
92
100
AcDbEntity
  8
EDZPD_L_0
  6
CONTINUOUS
100
AcDbBlockReference
 66
0
  2
L_0_02_1
 10
7568515.35572778713
 20
5721349.62021760363
 30
0.00
 41
0.15
 42
0.15
 43
0.15
 50
179.56
  0
INSERT
  5
93
100
AcDbEntity
  8
EDZPD_L_0
  6
CONTINUOUS
100
AcDbBlockReference
 66
0
  2
pikieta
 10
7568361.33400788158
 20
5721350.79331213981
 30
0.00
 41
0.15
 42
0.15
 43
0.15
 50
179.56
  0
INSERT
  5
94
100
AcDbEntity
  8
EDZPD_L_0
  6
CONTINUOUS
100
AcDbBlockReference
 66
0
  2
L_0_02_2
 10
7568207.31228797603
 20
5721351.96640667692
 30
0.00
 41
0.15
 42
0.15
 43
0.15
 50
359.56
  0
MLINE
  5
95
100
AcDbEntity
  8
EDZPD_L_0
  6
L_0_02
370
18
100
AcDbMline
  2
L_0_02
340
7
 40
1.0
 70
1
 71
1
 72
2
 73
1
 10
7568515.35572778713
 20
5721349.62021760363
210
0.0
220
0.0
230
1.0
 11
7568515.35572778713
 21
5721349.62021760363
 12
-0.999970996314
 22
0.007616201879
 13
-0.007616201879
 23
-0.999970996314
 74
3
 41
0.0
 41
0.075
 41
307.977374465479
 75
0
 11
7568207.31228797603
 21
5721351.96640667692
 12
-0.999970996314
 22
0.007616201879
 13
-0.007616201879
 23
-0.999970996314
 74
0
 75
0
  0
POLYLINE
  5
96
100
AcDbEntity
  8
osie_budynku
  6
ByLayer
370
18
100
AcDb2dPolyline
 66
1
 70
128
  0
VERTEX
  5
97
100
AcDbEntity
  8
osie_budynku
100
AcDbVertex
100
AcDb2dVertex
 10
7568207.63254056312
 20
5721351.64248992037
  0
VERTEX
  5
98
100
AcDbEntity
  8
osie_budynku
100
AcDbVertex
100
AcDb2dVertex
 10
7568207.51743992232
 20
5721336.37247145176
  0
SEQEND
  5
99
100
AcDbEntity
  8
osie_budynku
  0
POLYLINE
  5
9A
100
AcDbEntity
  8
osie_budynku
  6
ByLayer
370
18
100
AcDb2dPolyline
 66
1
 70
128
  0
VERTEX
  5
9B
100
AcDbEntity
  8
osie_budynku
100
AcDbVertex
100
AcDb2dVertex
 10
7568207.51743992232
 20
5721336.37247145176
  0
VERTEX
  5
9C
100
AcDbEntity
  8
osie_budynku
100
AcDbVertex
100
AcDb2dVertex
 10
7568217.18745943625
 20
5721336.29751007911
  0
SEQEND
  5
9D
100
AcDbEntity
  8
osie_budynku
  0
POLYLINE
  5
9E
100
AcDbEntity
  8
osie_budynku
  6
ByLayer
370
18
100
AcDb2dPolyline
 66
1
 70
128
  0
VERTEX
  5
9F
100
AcDbEntity
  8
osie_budynku
100
AcDbVertex
100
AcDb2dVertex
 10
7568217.18745943625
 20
5721336.29751007911
  0
VERTEX
  5
A0
100
AcDbEntity
  8
osie_budynku
100
AcDbVertex
100
AcDb2dVertex
 10
7568217.30256007798
 20
5721351.56752855051
  0
SEQEND
  5
A1
100
AcDbEntity
  8
osie_budynku
  0
POLYLINE
  5
A2
100
AcDbEntity
  8
osie_budynku
  6
ByLayer
370
18
100
AcDb2dPolyline
 66
1
 70
128
  0
VERTEX
  5
A3
100
AcDbEntity
  8
osie_budynku
100
AcDbVertex
100
AcDb2dVertex
 10
7568217.30256007798
 20
5721351.56752855051
  0
VERTEX
  5
A4
100
AcDbEntity
  8
osie_budynku
100
AcDbVertex
100
AcDb2dVertex
 10
7568207.63254056312
 20
5721351.64248992037
  0
SEQEND
  5
A5
100
AcDbEntity
  8
osie_budynku
  0
POLYLINE
  5
A6
100
AcDbEntity
  8
osie_budynku
  6
ByLayer
370
18
100
AcDb2dPolyline
 66
1
 70
128
  0
VERTEX
  5
A7
100
AcDbEntity
  8
osie_budynku
100
AcDbVertex
100
AcDb2dVertex
 10
7568217.27032194566
 20
5721347.47018881701
  0
VERTEX
  5
A8
100
AcDbEntity
  8
osie_budynku
100
AcDbVertex
100
AcDb2dVertex
 10
7568207.60032194667
 20
5721347.54018888343
  0
SEQEND
  5
A9
100
AcDbEntity
  8
osie_budynku
  0
POLYLINE
  5
AA
100
AcDbEntity
  8
osie_budynku
  6
ByLayer
370
18
100
AcDb2dPolyline
 66
1
 70
128
  0
VERTEX
  5
AB
100
AcDbEntity
  8
osie_budynku
100
AcDbVertex
100
AcDb2dVertex
 10
7568217.24263828155
 20
5721343.69017408043
  0
VERTEX
  5
AC
100
AcDbEntity
  8
osie_budynku
100
AcDbVertex
100
AcDb2dVertex
 10
7568207.57263828162
 20
5721343.76017414127
  0
SEQEND
  5
AD
100
AcDbEntity
  8
osie_budynku
  0
POLYLINE
  5
AE
100
AcDbEntity
  8
osie_budynku
  6
ByLayer
370
18
100
AcDb2dPolyline
 66
1
 70
128
  0
VERTEX
  5
AF
100
AcDbEntity
  8
osie_budynku
100
AcDbVertex
100
AcDb2dVertex
 10
7568217.22429234721
 20
5721341.52009993512
  0
VERTEX
  5
B0
100
AcDbEntity
  8
osie_budynku
100
AcDbVertex
100
AcDb2dVertex
 10
7568207.55429234728
 20
5721341.59009996988
  0
SEQEND
  5
B1
100
AcDbEntity
  8
osie_budynku
  0
POLYLINE
  5
B2
100
AcDbEntity
  8
osie_budynku
  6
ByLayer
370
18
100
AcDb2dPolyline
 66
1
 70
128
  0
VERTEX
  5
B3
100
AcDbEntity
  8
osie_budynku
100
AcDbVertex
100
AcDb2dVertex
 10
7568210.95283824205
 20
5721351.61678053439
  0
VERTEX
  5
B4
100
AcDbEntity
  8
osie_budynku
100
AcDbVertex
100
AcDb2dVertex
 10
7568210.83683824167
 20
5721336.34678053483
  0
SEQEND
  5
B5
100
AcDbEntity
  8
osie_budynku
  0
POLYLINE
  5
B6
100
AcDbEntity
  8
osie_budynku
  6
ByLayer
370
18
100
AcDb2dPolyline
 66
1
 70
128
  0
VERTEX
  5
B7
100
AcDbEntity
  8
osie_budynku
100
AcDbVertex
100
AcDb2dVertex
 10
7568214.24283972196
 20
5721351.5920084212
  0
VERTEX
  5
B8
100
AcDbEntity
  8
osie_budynku
100
AcDbVertex
100
AcDb2dVertex
 10
7568214.12683972158
 20
5721336.32200842164
  0
SEQEND
  5
B9
100
AcDbEntity
  8
osie_budynku
  0
POLYLINE
  5
BA
100
AcDbEntity
  8
proj_Budynek_obrys
  6
CONTINUOUS
370
25
100
AcDb2dPolyline
 66
1
 70
128
  0
VERTEX
  5
BB
100
AcDbEntity
  8
proj_Budynek_obrys
100
AcDbVertex
100
AcDb2dVertex
 10
7568217.63178359996
 20
5721351.88780903537
  0
VERTEX
  5
BC
100
AcDbEntity
  8
proj_Budynek_obrys
100
AcDbVertex
100
AcDb2dVertex
 10
7568207.19167785533
 20
5721336.04645469971
  0
SEQEND
  5
BD
100
AcDbEntity
  8
proj_Budynek_obrys
  0
POLYLINE
  5
BE
100
AcDbEntity
  8
proj_Budynek_obrys
  6
CONTINUOUS
370
25
100
AcDb2dPolyline
 66
1
 70
128
  0
VERTEX
  5
BF
100
AcDbEntity
  8
proj_Budynek_obrys
100
AcDbVertex
100
AcDb2dVertex
 10
7568207.31228797603
 20
5721351.96640667692
  0
VERTEX
  5
C0
100
AcDbEntity
  8
proj_Budynek_obrys
100
AcDbVertex
100
AcDb2dVertex
 10
7568217.51138310041
 20
5721335.96845692769
  0
SEQEND
  5
C1
100
AcDbEntity
  8
proj_Budynek_obrys
  0
POLYLINE
  5
C2
100
AcDbEntity
  8
proj_Budynek_obrys
  6
CONTINUOUS
370
25
100
AcDb2dPolyline
 66
1
 70
129
  0
VERTEX
  5
C3
100
AcDbEntity
  8
proj_Budynek_obrys
100
AcDbVertex
100
AcDb2dVertex
 10
7568217.63179298397
 20
5721351.88780896179
  0
VERTEX
  5
C4
100
AcDbEntity
  8
proj_Budynek_obrys
100
AcDbVertex
100
AcDb2dVertex
 10
7568217.51138310041
 20
5721335.96845692769
  0
VERTEX
  5
C5
100
AcDbEntity
  8
proj_Budynek_obrys
100
AcDbVertex
100
AcDb2dVertex
 10
7568207.19167785533
 20
5721336.04645469971
  0
VERTEX
  5
C6
100
AcDbEntity
  8
proj_Budynek_obrys
100
AcDbVertex
100
AcDb2dVertex
 10
7568207.31228797603
 20
5721351.96640667692
  0
SEQEND
  5
C7
100
AcDbEntity
  8
proj_Budynek_obrys
  0
INSERT
  5
C8
100
AcDbEntity
  8
EDZPD_L_0
  6
CONTINUOUS
100
AcDbBlockReference
 66
1
  2
pikieta
 10
7568201.77499903273
 20
5721356.51034181006
 30
151.80
 41
0.15
 42
0.15
 43
0.15
 50
0.00
  0
ATTRIB
  5
C9
100
AcDbEntity
  8
EDZPD_L_0
100
AcDbText
 10
7568201.77499903273
 20
5721356.51034181006
 30
151.80
 40
0.2
  1
192c
 50
0.00
 41
0.62
 51
0.00
  7
STANDARD
100
AcDbAttribute
  2
Nr
 70
0
  0
SEQEND
  5
CA
100
AcDbEntity
  8
EDZPD_L_0
  0
INSERT
  5
CB
100
AcDbEntity
  8
proj_Budynek_obrys
  6
CONTINUOUS
100
AcDbBlockReference
 66
1
  2
pikieta
 10
7568217.66579687688
 20
5721356.38932842668
 41
0.15
 42
0.15
 43
0.15
 50
0.00
  0
ATTRIB
  5
CC
100
AcDbEntity
  8
proj_Budynek_obrys
100
AcDbText
 10
7568217.66579687688
 20
5721356.38932842668
 40
0.2
  1
4!
 50
0.00
 41
0.62
 51
0.00
  7
STANDARD
100
AcDbAttribute
  2
Nr
 70
0
  0
SEQEND
  5
CD
100
AcDbEntity
  8
proj_Budynek_obrys
  0
INSERT
  5
CE
100
AcDbEntity
  8
0
  6
CONTINUOUS
100
AcDbBlockReference
 66
1
  2
pikieta
 10
7568217.63178359996
 20
5721351.88780903537
 30
0.00
 41
0.15
 42
0.15
 43
0.15
 50
0.00
  0
ATTRIB
  5
CF
100
AcDbEntity
  8
0
100
AcDbText
 10
7568217.63178359996
 20
5721351.88780903537
 30
0.00
 40
0.2
  1
bud4
 50
0.00
 41
0.62
 51
0.00
  7
STANDARD
100
AcDbAttribute
  2
Nr
 70
0
  0
SEQEND
  5
D0
100
AcDbEntity
  8
0
  0
INSERT
  5
D1
100
AcDbEntity
  8
0
  6
CONTINUOUS
100
AcDbBlockReference
 66
1
  2
pikieta
 10
7568207.19167785533
 20
5721336.04645469971
 30
0.00
 41
0.15
 42
0.15
 43
0.15
 50
0.00
  0
ATTRIB
  5
D2
100
AcDbEntity
  8
0
100
AcDbText
 10
7568207.19167785533
 20
5721336.04645469971
 30
0.00
 40
0.2
  1
Bud2
 50
0.00
 41
0.62
 51
0.00
  7
STANDARD
100
AcDbAttribute
  2
Nr
 70
0
  0
SEQEND
  5
D3
100
AcDbEntity
  8
0
  0
INSERT
  5
D4
100
AcDbEntity
  8
0
  6
CONTINUOUS
100
AcDbBlockReference
 66
1
  2
pikieta
 10
7568207.31228797603
 20
5721351.96640667692
 30
0.00
 41
0.15
 42
0.15
 43
0.15
 50
0.00
  0
ATTRIB
  5
D5
100
AcDbEntity
  8
0
100
AcDbText
 10
7568207.31228797603
 20
5721351.96640667692
 30
0.00
 40
0.2
  1
Bud1
 50
0.00
 41
0.62
 51
0.00
  7
STANDARD
100
AcDbAttribute
  2
Nr
 70
0
  0
SEQEND
  5
D6
100
AcDbEntity
  8
0
  0
INSERT
  5
D7
100
AcDbEntity
  8
0
  6
CONTINUOUS
100
AcDbBlockReference
 66
1
  2
pikieta
 10
7568217.51138310041
 20
5721335.96845692769
 30
0.00
 41
0.15
 42
0.15
 43
0.15
 50
0.00
  0
ATTRIB
  5
D8
100
AcDbEntity
  8
0
100
AcDbText
 10
7568217.51138310041
 20
5721335.96845692769
 30
0.00
 40
0.2
  1
bud3
 50
0.00
 41
0.62
 51
0.00
  7
STANDARD
100
AcDbAttribute
  2
Nr
 70
0
  0
SEQEND
  5
D9
100
AcDbEntity
  8
0
  0
TEXT
  5
DA
100
AcDbEntity
  8
osie_budynku
370
18
100
AcDbText
 39
0.18
 10
7568218.37999999616
 20
5721351.49999999721
 40
0.27
  1
2
 50
0.00
 41
0.66
 51
15.00
  7
STANDARD
 72
0
 11
7568218.37999999616
 21
5721351.76999999676
100
AcDbText
 73
3
  0
TEXT
  5
DB
100
AcDbEntity
  8
osie_budynku
370
18
100
AcDbText
 39
0.18
 10
7568217.25317390542
 20
5721338.60538685787
 40
0.27
  1
-5.22-
 50
-270.40
 41
0.66
  7
STANDARD
 72
1
 11
7568217.3459991226
 21
5721339.00974867493
100
AcDbText
 73
1
  0
TEXT
  5
DC
100
AcDbEntity
  8
osie_budynku
370
18
100
AcDbText
 39
0.18
 10
7568217.9899999965
 20
5721347.42999999784
 40
0.27
  1
4
 50
0.00
 41
0.66
 51
15.00
  7
STANDARD
 72
0
 11
7568217.9899999965
 21
5721347.69999999739
100
AcDbText
 73
3
  0
TEXT
  5
DD
100
AcDbEntity
  8
osie_budynku
370
18
100
AcDbText
 39
0.18
 10
7568218.06999999657
 20
5721343.58999999799
 40
0.27
  1
6
 50
0.00
 41
0.66
 51
15.00
  7
STANDARD
 72
0
 11
7568218.06999999657
 21
5721343.85999999754
100
AcDbText
 73
3
  0
TEXT
  5
DE
100
AcDbEntity
  8
osie_budynku
370
18
100
AcDbText
 39
0.18
 10
7568217.93999999575
 20
5721341.3899999978
 40
0.27
  1
7
 50
0.00
 41
0.66
 51
15.00
  7
STANDARD
 72
0
 11
7568217.93999999575
 21
5721341.65999999736
100
AcDbText
 73
3
  0
TEXT
  5
DF
100
AcDbEntity
  8
osie_budynku
370
18
100
AcDbText
 39
0.18
 10
7568218.00999999605
 20
5721336.21999999788
 40
0.27
  1
8
 50
0.00
 41
0.66
 51
15.00
  7
STANDARD
 72
0
 11
7568218.00999999605
 21
5721336.48999999743
100
AcDbText
 73
3
  0
TEXT
  5
E0
100
AcDbEntity
  8
osie_budynku
370
18
100
AcDbText
 39
0.18
 10
7568206.28999999631
 20
5721336.23999999743
 40
0.27
  1
8
 50
0.00
 41
0.66
 51
15.00
  7
STANDARD
 72
0
 11
7568206.28999999631
 21
5721336.50999999698
100
AcDbText
 73
3
  0
TEXT
  5
E1
100
AcDbEntity
  8
osie_budynku
370
18
100
AcDbText
 39
0.18
 10
7568206.49999999628
 20
5721341.41999999713
 40
0.27
  1
7
 50
0.00
 41
0.66
 51
15.00
  7
STANDARD
 72
0
 11
7568206.49999999628
 21
5721341.68999999668
100
AcDbText
 73
3
  0
TEXT
  5
E2
100
AcDbEntity
  8
osie_budynku
370
18
100
AcDbText
 39
0.18
 10
7568206.45999999624
 20
5721343.60999999754
 40
0.27
  1
6
 50
0.00
 41
0.66
 51
15.00
  7
STANDARD
 72
0
 11
7568206.45999999624
 21
5721343.87999999709
100
AcDbText
 73
3
  0
TEXT
  5
E3
100
AcDbEntity
  8
osie_budynku
370
18
100
AcDbText
 39
0.18
 10
7568206.57999999635
 20
5721347.40999999736
 40
0.27
  1
4
 50
0.00
 41
0.66
 51
15.00
  7
STANDARD
 72
0
 11
7568206.57999999635
 21
5721347.67999999691
100
AcDbText
 73
3
  0
TEXT
  5
E4
100
AcDbEntity
  8
osie_budynku
370
18
100
AcDbText
 39
0.18
 10
7568206.63999999594
 20
5721351.48999999743
 40
0.27
  1
2
 50
0.00
 41
0.66
 51
15.00
  7
STANDARD
 72
0
 11
7568206.63999999594
 21
5721351.75999999698
100
AcDbText
 73
3
  0
TEXT
  5
E5
100
AcDbEntity
  8
osie_budynku
370
18
100
AcDbText
 39
0.18
 10
7568207.36999999639
 20
5721334.97999999765
 40
0.27
  1
B
 50
0.00
 41
0.66
 51
15.00
  7
STANDARD
 72
0
 11
7568207.36999999639
 21
5721335.24999999721
100
AcDbText
 73
3
  0
TEXT
  5
E6
100
AcDbEntity
  8
osie_budynku
370
18
100
AcDbText
 39
0.18
 10
7568207.49999999627
 20
5721352.29999999795
 40
0.27
  1
B
 50
0.00
 41
0.66
 51
15.00
  7
STANDARD
 72
0
 11
7568207.49999999627
 21
5721352.5699999975
100
AcDbText
 73
3
  0
TEXT
  5
E7
100
AcDbEntity
  8
osie_budynku
370
18
100
AcDbText
 39
0.18
 10
7568210.8499999959
 20
5721352.29999999795
 40
0.27
  1
D
 50
0.00
 41
0.66
 51
15.00
  7
STANDARD
 72
0
 11
7568210.8499999959
 21
5721352.5699999975
100
AcDbText
 73
3
  0
TEXT
  5
E8
100
AcDbEntity
  8
osie_budynku
370
18
100
AcDbText
 39
0.18
 10
7568210.5999999959
 20
5721335.16999999713
 40
0.27
  1
D
 50
0.00
 41
0.66
 51
15.00
  7
STANDARD
 72
0
 11
7568210.5999999959
 21
5721335.43999999668
100
AcDbText
 73
3
  0
TEXT
  5
E9
100
AcDbEntity
  8
osie_budynku
370
18
100
AcDbText
 39
0.18
 10
7568214.28999999631
 20
5721352.32999999728
 40
0.27
  1
F
 50
0.00
 41
0.66
 51
15.00
  7
STANDARD
 72
0
 11
7568214.28999999631
 21
5721352.59999999683
100
AcDbText
 73
3
  0
TEXT
  5
EA
100
AcDbEntity
  8
osie_budynku
370
18
100
AcDbText
 39
0.18
 10
7568214.04999999609
 20
5721335.11999999732
 40
0.27
  1
F
 50
0.00
 41
0.66
 51
15.00
  7
STANDARD
 72
0
 11
7568214.04999999609
 21
5721335.38999999687
100
AcDbText
 73
3
  0
TEXT
  5
EB
100
AcDbEntity
  8
osie_budynku
370
18
100
AcDbText
 39
0.18
 10
7568217.19999999646
 20
5721352.32999999728
 40
0.27
  1
G
 50
0.00
 41
0.66
 51
15.00
  7
STANDARD
 72
0
 11
7568217.19999999646
 21
5721352.59999999683
100
AcDbText
 73
3
  0
TEXT
  5
EC
100
AcDbEntity
  8
osie_budynku
370
18
100
AcDbText
 39
0.18
 10
7568217.03999999631
 20
5721335.03999999724
 40
0.27
  1
G
 50
0.00
 41
0.66
 51
15.00
  7
STANDARD
 72
0
 11
7568217.03999999631
 21
5721335.3099999968
100
AcDbText
 73
3
  0
TEXT
  5
ED
100
AcDbEntity
  8
proj_Budynek_obrys
370
9
100
AcDbText
 39
0.09
 10
7568212.33231088519
 20
5721344.27349687647
 40
0.15
  1
-18.972-
 50
-57.00
 41
0.66
  7
STANDARD
 72
1
 11
7568212.4537690673
 21
5721343.99466375355
100
AcDbText
 73
1
  0
TEXT
  5
EE
100
AcDbEntity
  8
proj_Budynek_obrys
370
9
100
AcDbText
 39
0.09
 10
7568211.24660828616
 20
5721342.56839882676
 40
0.15
  1
-18.973-
 50
-303.00
 41
0.66
  7
STANDARD
 72
1
 11
7568211.45193352457
 21
5721342.79276804533
100
AcDbText
 73
1
  0
TEXT
  5
EF
100
AcDbEntity
  8
proj_Budynek_obrys
370
9
100
AcDbText
 39
0.09
 10
7568207.35198291577
 20
5721344.30643068813
 40
0.15
  1
-15.920-
 50
-90.00
 41
0.66
  7
STANDARD
 72
1
 11
7568207.30198291596
 21
5721344.00643068831
100
AcDbText
 73
1
  0
TEXT
  5
F0
100
AcDbEntity
  8
proj_Budynek_obrys
370
9
100
AcDbText
 39
0.09
 10
7568212.05153047759
 20
5721336.10745581333
 40
0.15
  1
-10.319-
 50
-360.00
 41
0.66
  7
STANDARD
 72
1
 11
7568212.3515304774
 21
5721336.05745581351
100
AcDbText
 73
1
  0
TEXT
  5
F1
100
AcDbEntity
  8
proj_Budynek_obrys
370
9
100
AcDbText
 39
0.09
 10
7568217.78800000157
 20
5721343.64400000125
 40
0.15
  1
-15.920-
 50
-270.00
 41
0.66
  7
STANDARD
 72
1
 11
7568217.83800000139
 21
5721343.94400000107
100
AcDbText
 73
1
  0
TEXT
  5
F2
100
AcDbEntity
  8
proj_Budynek_obrys
370
9
100
AcDbText
 39
0.09
 10
7568212.17204048019
 20
5721352.02710781898
 40
0.15
  1
-10.320-
 50
-360.00
 41
0.66
  7
STANDARD
 72
1
 11
7568212.47204048
 21
5721351.97710781917
100
AcDbText
 73
1
  0
TEXT
  5
F3
100
AcDbEntity
  8
proj_Budynek_obrys
370
18
100
AcDbText
 39
0.18
 10
7568217.33817390446
 20
5721349.21538685821
 40
0.27
  1
-4.10-
 50
-270.40
 41
0.66
  7
STANDARD
 72
1
 11
7568217.43099912163
 21
5721349.61974867526
100
AcDbText
 73
1
  0
TEXT
  5
F4
100
AcDbEntity
  8
proj_Budynek_obrys
370
18
100
AcDbText
 39
0.18
 10
7568217.30746780895
 20
5721345.27548665367
 40
0.27
  1
-3.78-
 50
-270.50
 41
0.66
  7
STANDARD
 72
1
 11
7568217.40099862963
 21
5721345.67968584411
100
AcDbText
 73
1
  0
TEXT
  5
F5
100
AcDbEntity
  8
proj_Budynek_obrys
370
18
100
AcDbText
 39
0.18
 10
7568217.28246780857
 20
5721342.30048665404
 40
0.27
  1
-2.17-
 50
-270.50
 41
0.66
  7
STANDARD
 72
1
 11
7568217.37599862926
 21
5721342.70468584448
100
AcDbText
 73
1
  0
TEXT
  5
F6
100
AcDbEntity
  8
proj_Budynek_obrys
370
18
100
AcDbText
 39
0.18
 10
7568204.14802812971
 20
5721352.74238520674
 40
0.27
  1
-5.70-
 50
-12.80
 41
0.66
  7
STANDARD
 72
1
 11
7568204.52302425355
 21
5721352.56489462312
100
AcDbText
 73
1
  0
TEXT
  5
F7
100
AcDbEntity
  8
proj_Budynek_obrys
370
18
100
AcDbText
 39
0.18
 10
7568205.58388125803
 20
5721354.59400021564
 40
0.27
  1
-5.48-
 50
-55.70
 41
0.66
  7
STANDARD
 72
1
 11
7568205.73776046187
 21
5721354.20871306211
100
AcDbText
 73
1
  0
TEXT
  5
F8
100
AcDbEntity
  8
proj_Budynek_obrys
370
18
100
AcDbText
 39
0.18
 10
7568217.59217390511
 20
5721353.73388685845
 40
0.27
  1
-4.50-
 50
-270.40
 41
0.66
  7
STANDARD
 72
1
 11
7568217.68499912228
 21
5721354.1382486755
100
AcDbText
 73
1
  0
ENDSEC
  0
SECTION
  2
OBJECTS
  0
DICTIONARY
  5
F9
330
0
100
AcDbDictionary
280
0
281
1
  3
ACAD_GROUP
350
FA
  3
ACAD_LAYOUT
350
FB
  3
ACAD_MLINESTYLE
350
FC
  3
ACAD_PLOTSETTINGS
350
FD
  3
ACAD_PLOTSTYLENAME
350
FE
  0
DICTIONARY
  5
FA
102
{ACAD_REACTORS
330
F9
102
}
330
F9
100
AcDbDictionary
280
0
281
1
  0
DICTIONARY
  5
FB
102
{ACAD_REACTORS
330
F9
102
}
330
F9
100
AcDbDictionary
280
0
281
1
  3
Layout
350
1D
  3
Model
350
1B
  0
DICTIONARY
  5
FC
102
{ACAD_REACTORS
330
F9
102
}
330
F9
100
AcDbDictionary
280
0
281
1
  3
Standard
350
FF
  3
L_0_02
350
7
  0
DICTIONARY
  5
FD
102
{ACAD_REACTORS
330
F9
102
}
330
F9
100
AcDbDictionary
280
0
281
1
  0
ACDBDICTIONARYWDFLT
  5
FE
102
{ACAD_REACTORS
330
F9
102
}
330
F9
100
AcDbDictionary
281
1
  3
Normal
350
C
100
AcDbDictionaryWithDefault
340
C
  0
LAYOUT
  5
1D
100
AcDbPlotSettings
  1

  2

  4

  6

 40
0.0
 41
0.0
 42
0.0
 43
0.0
 44
0.0
 45
0.0
 46
0.0
 47
0.0
 48
0.0
 49
0.0
140
0.0
141
0.0
142
1.0
143
1.0
 70
688
 72
1
 73
0
 74
5
  7

 75
0
147
1.0
148
0.0
149
0.0
100
AcDbLayout
  1
Layout
 70
1
 71
1
 10
0.0
 20
0.0
 11
420.0
 21
297.0
 12
0.0
 22
0.0
 32
0.0
 14
100000000000000000000.0
 24
100000000000000000000.0
 34
100000000000000000000.0
 15
-100000000000000000000.0
 25
-100000000000000000000.0
 35
-100000000000000000000.0
146
0.0
 13
0.0
 23
0.0
 33
0.0
 16
1.0
 26
0.0
 36
0.0
 17
0.0
 27
1.0
 37
0.0
 76
0
330
1C
  0
LAYOUT
  5
1B
100
AcDbPlotSettings
  1

  2

  4

  6

 40
0.0
 41
0.0
 42
0.0
 43
0.0
 44
0.0
 45
0.0
 46
0.0
 47
0.0
 48
0.0
 49
0.0
140
0.0
141
0.0
142
1.0
143
1.0
 70
1712
 72
1
 73
0
 74
0
  7

 75
0
147
1.0
148
0.0
149
0.0
100
AcDbLayout
  1
Model
 70
1
 71
0
 10
0.0
 20
0.0
 11
12.0
 21
9.0
 12
0.0
 22
0.0
 32
0.0
 14
0.0
 24
0.0
 34
0.0
 15
0.0
 25
0.0
 35
0.0
146
0.0
 13
0.0
 23
0.0
 33
0.0
 16
1.0
 26
0.0
 36
0.0
 17
0.0
 27
1.0
 37
0.0
 76
0
330
1A
  0
MLINESTYLE
  5
FF
102
{ACAD_REACTORS
330
FC
102
}
330
FC
100
AcDbMlineStyle
  2
Standard
 70
0
  3

 62
256
 51
90.0
 52
90.0
  2
Standard
 71
2
 49
0.5
 62
256
  6
ByLayer
 49
-0.5
 62
256
  6
ByLayer
  0
MLINESTYLE
  5
7
100
AcDbMlineStyle
  2
L_0_02
 70
0
  3

 51
90.0
 52
90.0
 71
1
 49
0.0
 62
256
  6
CONTINUOUS
  0
ACDBPLACEHOLDER
  5
C
  0
ENDSEC
  0
EOF
