  0
SECTION
  2
HEADER
  9
$ACADVER
  1
AC1027
  9
$ACADMAINTVER
 70
     8
  9
$DWGCODEPAGE
  3
ANSI_1250
  9
$REQUIREDVERSIONS
160
                 0
  9
$INSBASE
 10
0.0
 20
0.0
 30
0.0
  9
$EXTMIN
 10
8380667.177412393
 20
5719807.670569338
 30
0.0
  9
$EXTMAX
 10
8380800.978211787
 20
5719910.279274288
 30
0.0
  9
$LIMMIN
 10
8380667.179999999
 20
5719807.67
  9
$LIMMAX
 10
8380800.980000001
 20
5719910.28
  9
$ORTHOMODE
 70
     0
  9
$REGENMODE
 70
     1
  9
$FILLMODE
 70
     1
  9
$QTEXTMODE
 70
     0
  9
$MIRRTEXT
 70
     0
  9
$LTSCALE
 40
1.0
  9
$ATTMODE
 70
     1
  9
$TEXTSIZE
 40
0.2
  9
$TRACEWID
 40
0.05
  9
$TEXTSTYLE
  7
STANDARD
  9
$CLAYER
  8
0
  9
$CELTYPE
  6
CONTINUOUS
  9
$CECOLOR
 62
   256
  9
$CELTSCALE
 40
1.0
  9
$DISPSILH
 70
     0
  9
$DIMSCALE
 40
1.0
  9
$DIMASZ
 40
2.5
  9
$DIMEXO
 40
0.625
  9
$DIMDLI
 40
0.38
  9
$DIMRND
 40
0.0
  9
$DIMDLE
 40
0.0
  9
$DIMEXE
 40
1.25
  9
$DIMTP
 40
0.0
  9
$DIMTM
 40
0.0
  9
$DIMTXT
 40
2.5
  9
$DIMCEN
 40
0.09
  9
$DIMTSZ
 40
0.0
  9
$DIMTOL
 70
     0
  9
$DIMLIM
 70
     0
  9
$DIMTIH
 70
     1
  9
$DIMTOH
 70
     1
  9
$DIMSE1
 70
     0
  9
$DIMSE2
 70
     0
  9
$DIMTAD
 70
     0
  9
$DIMZIN
 70
     0
  9
$DIMBLK
  1

  9
$DIMASO
 70
     1
  9
$DIMSHO
 70
     1
  9
$DIMPOST
  1

  9
$DIMAPOST
  1

  9
$DIMALT
 70
     0
  9
$DIMALTD
 70
     2
  9
$DIMALTF
 40
25.4
  9
$DIMLFAC
 40
1.0
  9
$DIMTOFL
 70
     0
  9
$DIMTVP
 40
0.0
  9
$DIMTIX
 70
     0
  9
$DIMSOXD
 70
     0
  9
$DIMSAH
 70
     0
  9
$DIMBLK1
  1

  9
$DIMBLK2
  1

  9
$DIMSTYLE
  2
Standard
  9
$DIMCLRD
 70
     0
  9
$DIMCLRE
 70
     0
  9
$DIMCLRT
 70
     0
  9
$DIMTFAC
 40
1.0
  9
$DIMGAP
 40
0.625
  9
$DIMJUST
 70
     0
  9
$DIMSD1
 70
     0
  9
$DIMSD2
 70
     0
  9
$DIMTOLJ
 70
     1
  9
$DIMTZIN
 70
     0
  9
$DIMALTZ
 70
     0
  9
$DIMALTTZ
 70
     0
  9
$DIMUPT
 70
     0
  9
$DIMDEC
 70
     4
  9
$DIMTDEC
 70
     4
  9
$DIMALTU
 70
     2
  9
$DIMALTTD
 70
     2
  9
$DIMTXSTY
  7
STANDARD
  9
$DIMAUNIT
 70
     0
  9
$DIMADEC
 70
     0
  9
$DIMALTRND
 40
0.0
  9
$DIMAZIN
 70
     0
  9
$DIMDSEP
 70
    46
  9
$DIMATFIT
 70
     3
  9
$DIMFRAC
 70
     0
  9
$DIMLDRBLK
  1

  9
$DIMLUNIT
 70
     2
  9
$DIMLWD
 70
    -2
  9
$DIMLWE
 70
    -2
  9
$DIMTMOVE
 70
     0
  9
$DIMFXL
 40
1.0
  9
$DIMFXLON
 70
     0
  9
$DIMJOGANG
 40
0.7853981633974483
  9
$DIMTFILL
 70
     0
  9
$DIMTFILLCLR
 70
     0
  9
$DIMARCSYM
 70
     0
  9
$DIMLTYPE
  6

  9
$DIMLTEX1
  6

  9
$DIMLTEX2
  6

  9
$DIMTXTDIRECTION
 70
     0
  9
$LUNITS
 70
     2
  9
$LUPREC
 70
     4
  9
$SKETCHINC
 40
0.1
  9
$FILLETRAD
 40
0.0
  9
$AUNITS
 70
     0
  9
$AUPREC
 70
     0
  9
$MENU
  1

  9
$ELEVATION
 40
0.0
  9
$PELEVATION
 40
0.0
  9
$THICKNESS
 40
0.0
  9
$LIMCHECK
 70
     0
  9
$CHAMFERA
 40
0.0
  9
$CHAMFERB
 40
0.0
  9
$CHAMFERC
 40
0.0
  9
$CHAMFERD
 40
0.0
  9
$SKPOLY
 70
     0
  9
$TDCREATE
 40
2305814.602663843
  9
$TDUCREATE
 40
45565.519330509
  9
$TDUPDATE
 40
2460584.617379283
  9
$TDUUPDATE
 40
2460584.534045949
  9
$TDINDWG
 40
0.014440255
  9
$TDUSRTIMER
 40
0.014440023
  9
$USRTIMER
 70
     1
  9
$ANGBASE
 50
0.0
  9
$ANGDIR
 70
     0
  9
$PDMODE
 70
     0
  9
$PDSIZE
 40
0.0
  9
$PLINEWID
 40
0.0
  9
$SPLFRAME
 70
     0
  9
$SPLINETYPE
 70
     6
  9
$SPLINESEGS
 70
     8
  9
$HANDSEED
  5
10001A3
  9
$SURFTAB1
 70
     6
  9
$SURFTAB2
 70
     6
  9
$SURFTYPE
 70
     6
  9
$SURFU
 70
     6
  9
$SURFV
 70
     6
  9
$UCSBASE
  2

  9
$UCSNAME
  2

  9
$UCSORG
 10
0.0
 20
0.0
 30
0.0
  9
$UCSXDIR
 10
1.0
 20
0.0
 30
0.0
  9
$UCSYDIR
 10
0.0
 20
1.0
 30
0.0
  9
$UCSORTHOREF
  2

  9
$UCSORTHOVIEW
 70
     0
  9
$UCSORGTOP
 10
0.0
 20
0.0
 30
0.0
  9
$UCSORGBOTTOM
 10
0.0
 20
0.0
 30
0.0
  9
$UCSORGLEFT
 10
0.0
 20
0.0
 30
0.0
  9
$UCSORGRIGHT
 10
0.0
 20
0.0
 30
0.0
  9
$UCSORGFRONT
 10
0.0
 20
0.0
 30
0.0
  9
$UCSORGBACK
 10
0.0
 20
0.0
 30
0.0
  9
$PUCSBASE
  2

  9
$PUCSNAME
  2

  9
$PUCSORG
 10
0.0
 20
0.0
 30
0.0
  9
$PUCSXDIR
 10
1.0
 20
0.0
 30
0.0
  9
$PUCSYDIR
 10
0.0
 20
1.0
 30
0.0
  9
$PUCSORTHOREF
  2

  9
$PUCSORTHOVIEW
 70
     0
  9
$PUCSORGTOP
 10
0.0
 20
0.0
 30
0.0
  9
$PUCSORGBOTTOM
 10
0.0
 20
0.0
 30
0.0
  9
$PUCSORGLEFT
 10
0.0
 20
0.0
 30
0.0
  9
$PUCSORGRIGHT
 10
0.0
 20
0.0
 30
0.0
  9
$PUCSORGFRONT
 10
0.0
 20
0.0
 30
0.0
  9
$PUCSORGBACK
 10
0.0
 20
0.0
 30
0.0
  9
$USERI1
 70
     0
  9
$USERI2
 70
     0
  9
$USERI3
 70
     0
  9
$USERI4
 70
     0
  9
$USERI5
 70
     0
  9
$USERR1
 40
0.0
  9
$USERR2
 40
0.0
  9
$USERR3
 40
0.0
  9
$USERR4
 40
0.0
  9
$USERR5
 40
0.0
  9
$WORLDVIEW
 70
     1
  9
$SHADEDGE
 70
     3
  9
$SHADEDIF
 70
    70
  9
$TILEMODE
 70
     1
  9
$MAXACTVP
 70
    64
  9
$PINSBASE
 10
0.0
 20
0.0
 30
0.0
  9
$PLIMCHECK
 70
     0
  9
$PEXTMIN
 10
1.000000000000000E+20
 20
1.000000000000000E+20
 30
1.000000000000000E+20
  9
$PEXTMAX
 10
-1.000000000000000E+20
 20
-1.000000000000000E+20
 30
-1.000000000000000E+20
  9
$PLIMMIN
 10
0.0
 20
0.0
  9
$PLIMMAX
 10
210.0
 20
297.0
  9
$UNITMODE
 70
     0
  9
$VISRETAIN
 70
     1
  9
$PLINEGEN
 70
     0
  9
$PSLTSCALE
 70
     1
  9
$TREEDEPTH
 70
  3020
  9
$CMLSTYLE
  2
Standard
  9
$CMLJUST
 70
     0
  9
$CMLSCALE
 40
1.0
  9
$PROXYGRAPHICS
 70
     1
  9
$MEASUREMENT
 70
     1
  9
$CELWEIGHT
370
    -1
  9
$ENDCAPS
280
     0
  9
$JOINSTYLE
280
     0
  9
$LWDISPLAY
290
     1
  9
$INSUNITS
 70
     6
  9
$HYPERLINKBASE
  1

  9
$STYLESHEET
  1

  9
$XEDIT
290
     0
  9
$CEPSNTYPE
380
     0
  9
$PSTYLEMODE
290
     1
  9
$FINGERPRINTGUID
  2
{C62C682D-9705-4316-A704-C530071E8C84}
  9
$VERSIONGUID
  2
{780BBCF5-3314-4B49-ADEA-EC5EDA080AFB}
  9
$EXTNAMES
290
     1
  9
$PSVPSCALE
 40
0.0
  9
$OLESTARTUP
290
     0
  9
$SORTENTS
280
   127
  9
$INDEXCTL
280
     0
  9
$HIDETEXT
280
     1
  9
$XCLIPFRAME
280
     2
  9
$HALOGAP
280
     0
  9
$OBSCOLOR
 70
   257
  9
$OBSLTYPE
280
     0
  9
$INTERSECTIONDISPLAY
280
     0
  9
$INTERSECTIONCOLOR
 70
   257
  9
$DIMASSOC
280
     2
  9
$PROJECTNAME
  1

  9
$CAMERADISPLAY
290
     0
  9
$LENSLENGTH
 40
50.0
  9
$CAMERAHEIGHT
 40
0.0
  9
$STEPSPERSEC
 40
2.0
  9
$STEPSIZE
 40
6.0
  9
$3DDWFPREC
 40
2.0
  9
$PSOLWIDTH
 40
0.25
  9
$PSOLHEIGHT
 40
4.0
  9
$LOFTANG1
 40
1.570796326794896
  9
$LOFTANG2
 40
1.570796326794896
  9
$LOFTMAG1
 40
0.0
  9
$LOFTMAG2
 40
0.0
  9
$LOFTPARAM
 70
     7
  9
$LOFTNORMALS
280
     1
  9
$LATITUDE
 40
0.0
  9
$LONGITUDE
 40
0.0
  9
$NORTHDIRECTION
 40
0.0
  9
$TIMEZONE
 70
 -8000
  9
$LIGHTGLYPHDISPLAY
280
     1
  9
$TILEMODELIGHTSYNCH
280
     1
  9
$CMATERIAL
347
1000000
  9
$SOLIDHIST
280
     1
  9
$SHOWHIST
280
     1
  9
$DWFFRAME
280
     2
  9
$DGNFRAME
280
     0
  9
$REALWORLDSCALE
290
     1
  9
$INTERFERECOLOR
 62
     1
  9
$CSHADOW
280
     0
  9
$SHADOWPLANELOCATION
 40
0.0
  0
ENDSEC
  0
SECTION
  2
CLASSES
  0
CLASS
  1
WIPEOUT
  2
AcDbWipeout
  3
WipeOut
 90
      127
 91
        0
280
     0
281
     1
  0
CLASS
  1
WIPEOUTVARIABLES
  2
AcDbWipeoutVariables
  3
WipeOut
 90
        0
 91
        0
280
     0
281
     0
  0
CLASS
  1
ACDBDICTIONARYWDFLT
  2
AcDbDictionaryWithDefault
  3
ObjectDBX Classes
 90
    32768
 91
        1
280
     0
281
     0
  0
CLASS
  1
MATERIAL
  2
AcDbMaterial
  3
ObjectDBX Classes
 90
        0
 91
        9
280
     0
281
     0
  0
CLASS
  1
VISUALSTYLE
  2
AcDbVisualStyle
  3
ObjectDBX Classes
 90
     4095
 91
       72
280
     0
281
     0
  0
CLASS
  1
TABLESTYLE
  2
AcDbTableStyle
  3
ObjectDBX Classes
 90
     2047
 91
        3
280
     0
281
     0
  0
CLASS
  1
MLEADERSTYLE
  2
AcDbMLeaderStyle
  3
ACDB_MLEADERSTYLE_CLASS
 90
     4095
 91
        3
280
     0
281
     0
  0
CLASS
  1
SCALE
  2
AcDbScale
  3
ObjectDBX Classes
 90
     1153
 91
       17
280
     0
281
     0
  0
CLASS
  1
SORTENTSTABLE
  2
AcDbSortentsTable
  3
ObjectDBX Classes
 90
        0
 91
        2
280
     0
281
     0
  0
CLASS
  1
DICTIONARYVAR
  2
AcDbDictionaryVar
  3
ObjectDBX Classes
 90
        0
 91
        4
280
     0
281
     0
  0
ENDSEC
  0
SECTION
  2
TABLES
  0
TABLE
  2
VPORT
  5
1
330
0
100
AcDbSymbolTable
 70
     1
  0
VPORT
  5
2
330
1
100
AcDbSymbolTableRecord
100
AcDbViewportTableRecord
  2
*ACTIVE
 70
     0
 10
0.0
 20
0.0
 11
1.0
 21
1.0
 12
8380694.206578645
 22
5719889.004048418
 13
0.0
 23
0.0
 14
1.0
 24
1.0
 15
0.0
 25
0.0
 16
0.0
 26
0.0
 36
1.0
 17
0.0
 27
0.0
 37
0.0
 40
83.37062500000021
 41
1.496522948539638
 42
50.0
 43
0.0
 44
0.0
 50
0.0
 51
0.0
 71
     0
 72
   100
 73
     1
 74
     1
 75
     0
 76
     0
 77
     0
 78
     0
281
     0
 65
     1
110
0.0
120
0.0
130
0.0
111
1.0
121
0.0
131
0.0
112
0.0
122
1.0
132
0.0
 79
     0
146
0.0
348
1000008
 60
     3
 61
     5
292
     1
282
     1
141
0.0
142
0.0
 63
   256
  0
ENDTAB
  0
TABLE
  2
LTYPE
  5
3
330
0
100
AcDbSymbolTable
 70
     6
  0
LTYPE
  5
4
330
3
100
AcDbSymbolTableRecord
100
AcDbLinetypeTableRecord
  2
ByBlock
 70
     0
  3

 72
    65
 73
     0
 40
0.0
  0
LTYPE
  5
5
330
3
100
AcDbSymbolTableRecord
100
AcDbLinetypeTableRecord
  2
ByLayer
 70
     0
  3

 72
    65
 73
     0
 40
0.0
  0
LTYPE
  5
6
330
3
100
AcDbSymbolTableRecord
100
AcDbLinetypeTableRecord
  2
CONTINUOUS
 70
     0
  3
Solid line
 72
    65
 73
     0
 40
0.0
  0
LTYPE
  5
8
330
3
100
AcDbSymbolTableRecord
100
AcDbLinetypeTableRecord
  2
L_0_02
 70
     0
  3
Dzialka_ewidencyjna (MLineStyle)
 72
    65
 73
     0
 40
0.0
  0
LTYPE
  5
9
330
3
100
AcDbSymbolTableRecord
100
AcDbLinetypeTableRecord
  2
L_0_03
 70
     0
  3
Uzytek_gruntowy
 72
    65
 73
     2
 40
1.0
 49
0.5
 74
     0
 49
-0.5
 74
     0
  0
LTYPE
  5
A
330
3
100
AcDbSymbolTableRecord
100
AcDbLinetypeTableRecord
  2
L_0_04
 70
     0
  3
Budynek_projektowany
 72
    65
 73
     2
 40
1.5
 49
1.0
 74
     0
 49
-0.5
 74
     0
  0
LTYPE
  5
B
330
3
100
AcDbSymbolTableRecord
100
AcDbLinetypeTableRecord
  2
L_0_06
 70
     0
  3
Granica_konturu_klasyfikacyjnego_Krawedz_chodnika
 72
    65
 73
     2
 40
2.0
 49
1.5
 74
     0
 49
-0.5
 74
     0
  0
LTYPE
  5
100007B
330
3
100
AcDbSymbolTableRecord
100
AcDbLinetypeTableRecord
  2
DASHED
 70
     0
  3
Dashed __ __ __ __ __ __ __ __ __ __ __ __ __ _
 72
    65
 73
     2
 40
0.75
 49
0.5
 74
     0
 49
-0.25
 74
     0
  0
ENDTAB
  0
TABLE
  2
LAYER
  5
C
102
{ACAD_XDICTIONARY
360
1000106
102
}
330
0
100
AcDbSymbolTable
 70
     7
  0
LAYER
  5
D
330
C
100
AcDbSymbolTableRecord
100
AcDbLayerTableRecord
  2
0
 70
     0
 62
     7
  6
CONTINUOUS
370
    18
390
E
347
1000002
348
0
  0
LAYER
  5
F
330
C
100
AcDbSymbolTableRecord
100
AcDbLayerTableRecord
  2
A_OGRODZENIE
 70
     0
 62
     7
  6
CONTINUOUS
370
    35
390
E
347
1000002
348
0
  0
LAYER
  5
10
330
C
100
AcDbSymbolTableRecord
100
AcDbLayerTableRecord
  2
chodnik_tycz
 70
     0
 62
     7
  6
L_0_04
370
    25
390
E
347
1000002
348
0
  0
LAYER
  5
1000073
102
{ACAD_XDICTIONARY
360
1000074
102
}
330
C
100
AcDbSymbolTableRecord
100
AcDbLayerTableRecord
  2
IE_Latarnie - kable
 70
     0
 62
    10
  6
CONTINUOUS
370
    25
390
E
347
1000002
348
0
1001
AcAecLayerStandard
1000

1000

1001
AcCmTransparency
1071
 33554687
  0
LAYER
  5
1000078
102
{ACAD_XDICTIONARY
360
1000079
102
}
330
C
100
AcDbSymbolTableRecord
100
AcDbLayerTableRecord
  2
IE_KABLE
 70
     0
 62
     1
  6
CONTINUOUS
370
    30
390
E
347
1000002
348
0
1001
AcAecLayerStandard
1000

1000

1001
AcCmTransparency
1071
 33554687
  0
LAYER
  5
1000165
102
{ACAD_XDICTIONARY
360
1000166
102
}
330
C
100
AcDbSymbolTableRecord
100
AcDbLayerTableRecord
  2
IE_AROT
 70
     0
 62
     3
  6
CONTINUOUS
370
     9
390
E
347
1000002
348
0
1001
AcAecLayerStandard
1000

1000

1001
AcCmTransparency
1071
 33554687
  0
LAYER
  5
1000160
102
{ACAD_XDICTIONARY
360
1000161
102
}
330
C
100
AcDbSymbolTableRecord
100
AcDbLayerTableRecord
  2
A-NAWIERZCHNIE
 70
     0
 62
   250
420
  2500134
  6
CONTINUOUS
370
    30
390
E
347
1000002
348
0
1001
AcAecLayerStandard
1000

1000

1001
AcCmTransparency
1071
 33554687
  0
ENDTAB
  0
TABLE
  2
STYLE
  5
11
330
0
100
AcDbSymbolTable
 70
     3
  0
STYLE
  5
12
330
11
100
AcDbSymbolTableRecord
100
AcDbTextStyleTableRecord
  2
STANDARD
 70
     0
 40
0.0
 41
1.0
 50
0.0
 71
     0
 42
0.2
  3
simplex.shx
  4

  0
STYLE
  5
13
330
11
100
AcDbSymbolTableRecord
100
AcDbTextStyleTableRecord
  2
STANDARD_ITALIC
 70
     0
 40
0.0
 41
1.0
 50
15.0
 71
     0
 42
0.2
  3
simplex.shx
  4

  0
STYLE
  5
1000169
330
11
100
AcDbSymbolTableRecord
100
AcDbTextStyleTableRecord
  2
ARIAL
 70
     0
 40
0.0
 41
1.0
 50
0.0
 71
     0
 42
0.2
  3
ARIALNI.TTF
  4

1001
ACAD
1000
Arial Narrow
1071
 16777250
  0
ENDTAB
  0
TABLE
  2
VIEW
  5
14
330
0
100
AcDbSymbolTable
 70
     0
  0
ENDTAB
  0
TABLE
  2
UCS
  5
15
330
0
100
AcDbSymbolTable
 70
     0
  0
ENDTAB
  0
TABLE
  2
APPID
  5
16
330
0
100
AcDbSymbolTable
 70
    11
  0
APPID
  5
17
330
16
100
AcDbSymbolTableRecord
100
AcDbRegAppTableRecord
  2
ACAD
 70
     0
  0
APPID
  5
1000083
330
16
100
AcDbSymbolTableRecord
100
AcDbRegAppTableRecord
  2
ACAD_PSEXT
 70
     0
  0
APPID
  5
1000084
330
16
100
AcDbSymbolTableRecord
100
AcDbRegAppTableRecord
  2
ACAD_NAV_VCDISPLAY
 70
     0
  0
APPID
  5
100007F
330
16
100
AcDbSymbolTableRecord
100
AcDbRegAppTableRecord
  2
ACAD_DSTYLE_DIMBREAK
 70
     0
  0
APPID
  5
1000080
330
16
100
AcDbSymbolTableRecord
100
AcDbRegAppTableRecord
  2
AcadAnnotative
 70
     0
  0
APPID
  5
1000081
330
16
100
AcDbSymbolTableRecord
100
AcDbRegAppTableRecord
  2
ACAD_DSTYLE_DIMJAG
 70
     0
  0
APPID
  5
1000082
330
16
100
AcDbSymbolTableRecord
100
AcDbRegAppTableRecord
  2
ACAD_DSTYLE_DIMTALN
 70
     0
  0
APPID
  5
1000076
330
16
100
AcDbSymbolTableRecord
100
AcDbRegAppTableRecord
  2
AcAecLayerStandard
 70
     0
  0
APPID
  5
1000077
330
16
100
AcDbSymbolTableRecord
100
AcDbRegAppTableRecord
  2
AcCmTransparency
 70
     0
  0
APPID
  5
1000085
330
16
100
AcDbSymbolTableRecord
100
AcDbRegAppTableRecord
  2
GradientColor1ACI
 70
     0
  0
APPID
  5
1000086
330
16
100
AcDbSymbolTableRecord
100
AcDbRegAppTableRecord
  2
GradientColor2ACI
 70
     0
  0
ENDTAB
  0
TABLE
  2
DIMSTYLE
  5
18
330
0
100
AcDbSymbolTable
 70
     4
100
AcDbDimStyleTable
 71
     0
  0
DIMSTYLE
105
19
330
18
100
AcDbSymbolTableRecord
100
AcDbDimStyleTableRecord
  2
Standard
 70
     0
340
12
  0
DIMSTYLE
105
100007C
330
18
100
AcDbSymbolTableRecord
100
AcDbDimStyleTableRecord
  2
ISO-25
 70
     0
 41
2.5
 42
0.625
 43
3.75
 44
1.25
 73
     0
 74
     0
 77
     1
 78
     8
140
2.5
141
2.5
143
0.03937007874016
147
0.625
171
     3
172
     1
271
     2
272
     2
274
     3
278
    44
283
     0
284
     8
340
12
  0
DIMSTYLE
105
100007E
330
18
100
AcDbSymbolTableRecord
100
AcDbDimStyleTableRecord
  2
Annotative
 70
     0
 41
2.5
 42
0.625
 43
3.75
 44
1.25
 73
     0
 74
     0
 77
     1
 78
     8
140
2.5
141
2.5
143
0.03937007874016
147
0.625
171
     3
172
     1
271
     2
272
     2
274
     3
278
    44
283
     0
284
     8
340
12
1001
ACAD_DSTYLE_DIMBREAK
1070
   391
1040
3.75
1001
AcadAnnotative
1000
AnnotativeData
1002
{
1070
     1
1070
     1
1002
}
1001
ACAD_DSTYLE_DIMJAG
1070
   388
1040
1.5
1001
ACAD_DSTYLE_DIMTALN
1070
   392
1070
     0
  0
DIMSTYLE
105
1000168
330
18
100
AcDbSymbolTableRecord
100
AcDbDimStyleTableRecord
  2
norm.
 70
     0
 41
0.8
 42
0.0
 43
3.75
 44
0.5
 49
0.5
290
     1
 73
     0
 74
     0
 77
     1
 78
     1
140
0.95
141
0.0
143
0.03937007874016
147
0.2
171
     3
172
     1
174
     1
179
     3
271
     2
272
     2
274
     3
275
     2
278
    44
279
     2
283
     0
284
     8
340
1000169
341
100016A
342
100016D
371
    -1
372
    -1
1001
ACAD_DSTYLE_DIMBREAK
1070
   391
1040
3.75
1001
ACAD_DSTYLE_DIMJAG
1070
   388
1040
0.5
1001
ACAD_DSTYLE_DIMTALN
1070
   392
1070
     0
  0
ENDTAB
  0
TABLE
  2
BLOCK_RECORD
  5
1A
330
0
100
AcDbSymbolTable
 70
    14
  0
BLOCK_RECORD
  5
1B
102
{ACAD_XDICTIONARY
360
1000034
102
}
330
1A
100
AcDbSymbolTableRecord
100
AcDbBlockTableRecord
  2
*MODEL_SPACE
340
1C
 70
     0
280
     1
281
     0
  0
BLOCK_RECORD
  5
1D
330
1A
100
AcDbSymbolTableRecord
100
AcDbBlockTableRecord
  2
*PAPER_SPACE
340
1E
 70
     0
280
     1
281
     0
  0
BLOCK_RECORD
  5
1F
330
1A
100
AcDbSymbolTableRecord
100
AcDbBlockTableRecord
  2
OSPB
340
0
 70
     0
280
     1
281
     0
  0
BLOCK_RECORD
  5
21
330
1A
100
AcDbSymbolTableRecord
100
AcDbBlockTableRecord
  2
OSHF
340
0
 70
     0
280
     1
281
     0
  0
BLOCK_RECORD
  5
23
330
1A
100
AcDbSymbolTableRecord
100
AcDbBlockTableRecord
  2
SUPS01_03
340
0
 70
     0
280
     1
281
     0
  0
BLOCK_RECORD
  5
25
330
1A
100
AcDbSymbolTableRecord
100
AcDbBlockTableRecord
  2
SUPS01_04
340
0
 70
     0
280
     1
281
     0
  0
BLOCK_RECORD
  5
27
330
1A
100
AcDbSymbolTableRecord
100
AcDbBlockTableRecord
  2
SUPS01_05
340
0
 70
     0
280
     1
281
     0
  0
BLOCK_RECORD
  5
29
330
1A
100
AcDbSymbolTableRecord
100
AcDbBlockTableRecord
  2
SUPS01_07
340
0
 70
     0
280
     1
281
     0
  0
BLOCK_RECORD
  5
2B
330
1A
100
AcDbSymbolTableRecord
100
AcDbBlockTableRecord
  2
SUPS01_08
340
0
 70
     0
280
     1
281
     0
  0
BLOCK_RECORD
  5
2D
330
1A
100
AcDbSymbolTableRecord
100
AcDbBlockTableRecord
  2
L_0_02_1
340
0
 70
     0
280
     1
281
     0
  0
BLOCK_RECORD
  5
2F
330
1A
100
AcDbSymbolTableRecord
100
AcDbBlockTableRecord
  2
L_0_02_2
340
0
 70
     0
280
     1
281
     0
  0
BLOCK_RECORD
  5
10000C3
330
1A
100
AcDbSymbolTableRecord
100
AcDbBlockTableRecord
  2
g f f
340
0
310
28000000200000002000000001002000000000000010000001000000010000000000000000000000FFFFFFFFFFFFFFFFFFFFFFFFFFFFFFFFFFFFFFFFFFFFFFFFFFFFFFFFFFFFFFFFFFFFFFFFFFFFFFFFFFFFFFFFFFFFFFFFFFFFFFFFFFFFFFFFFFFFFFFFFFFFFFFFFFFFFFFFFFFFFFFFFFFFFFFFFFFFFFFFFFFFFFFFFFFFFF
310
FFFFFFFFFFFFFFFFFFFFFFFFFFFFFFFFFFFFFFFFFFFFFFFFFFFFFFFFFFFFFFFFFFFFFFFFFFFFFFFFFFFFFFFFFFFFFFFFFFFFFFFFFFFFFFFFFFFFFFFFFFFFFFFFFFFFFFFFFFFFFFFFFFFFFFFFFFFFFFFFFFFFFFFFFFFFFFFFFFFFFFFFFFFFFFFFFFFFFFFFFF0000FFFF0000FFFF0000FFFFFFFFFFFFFFFFFFFFFFFFFFFFFFFF
310
FFFFFFFFFFFFFFFFFFFFFFFFFFFFFFFFFFFFFFFFFFFFFFFFFFFFFFFFFFFFFFFFFFFFFFFFFFFFFFFFFFFFFFFFFFFFFFFFFFFFFFFFFFFFFFFFFFFFFFFFFFFFFFFFFFFFFFFFFFFFFFFFFFFFFFFFFFFFFFFFFFFF0000FFFF0000FFFF0000FFFF0000FFFF0000FFFF0000FFFF0000FFFF0000FFFF0000FFFF0000FFFF0000FFFFFF
310
FFFFFFFFFFFFFFFFFFFFFFFFFFFFFFFFFFFFFFFFFFFFFFFFFFFFFFFFFFFFFFFFFFFFFFFFFFFFFFFFFFFFFFFFFFFFFFFFFFFFFFFFFFFFFFFFFFFFFFFFFFFFFFFFFFFFFFFFFFFFFFFFFFFFFF0000FFFF0000FFFF0000FFFF0000FFFF0000FFFF0000FFFF0000FFFF0000FFFF0000FFFF0000FFFF0000FFFF0000FFFF0000FFFF
310
0000FFFF0000FFFFFFFFFFFFFFFFFFFFFFFFFFFFFFFFFFFFFFFFFFFFFFFFFFFFFFFFFFFFFFFFFFFFFFFFFFFFFFFFFFFFFFFFFFFFFFFFFFFFFFFFFFFFFFFFFFFFFFFFFFFFFFFFFFFF0000FFFF0000FFFF0000FFFFFFFFFFFFFFFFFFFFFFFFFFFFFFFFFFFFFFFFFFFFFFFFFFFFFFFFFFFFFFFFFFFFFFFFFFFFFFFFFFFFFFFFFF
310
FF0000FFFF0000FFFF0000FFFF0000FFFFFFFFFFFFFFFFFFFFFFFFFFFFFFFFFFFFFFFFFFFFFFFFFFFFFFFFFFFFFFFFFFFFFFFFFFFFFFFFFFFFFFFFFFFFFFFFFFFFFFFFFFFF0000FFFF0000FFFF0000FFFFFFFFFFFFFFFFFFFFFFFFFFFFFFFFFFFFFFFFFFFFFFFFFFFFFFFFFFFFFFFFFFFFFFFFFFFFFFFFFFFFFFFFFFFFFFFF
310
FFFFFFFFFFFFFFFFFFFF0000FFFF0000FFFF0000FFFFFFFFFFFFFFFFFFFFFFFFFFFFFFFFFFFFFFFFFFFFFFFFFFFFFFFFFFFFFFFFFFFFFFFFFFFFFFFFFFFFFFFFFFFF0000FFFF0000FFFF0000FFFFFFFFFFFFFFFFFFFFFFFFFFFFFFFFFFFF0000FFFF0000FFFF0000FFFF0000FFFF0000FFFF0000FFFF0000FFFF0000FFFFFF
310
FFFFFFFFFFFFFFFFFFFFFFFFFFFFFF0000FFFF0000FFFF0000FFFFFFFFFFFFFFFFFFFFFFFFFFFFFFFFFFFFFFFFFFFFFFFFFFFFFFFFFFFFFFFFFFFFFFFFFFFF0000FFFF0000FFFF0000FFFFFFFFFFFFFFFFFFFFFFFFFFFF0000FFFF0000FFFF0000FFFF0000FFFF0000FFFF0000FFFF0000FFFF0000FFFF0000FFFF0000FFFF
310
0000FFFF0000FFFFFFFFFFFFFFFFFFFFFFFFFFFF0000FFFF0000FFFF0000FFFFFFFFFFFFFFFFFFFFFFFFFFFFFFFFFFFFFFFFFFFFFFFFFFFFFFFFFFFFFFFFFFFF0000FFFF0000FFFFFFFFFFFFFFFFFFFFFFFFFFFF0000FFFF0000FFFF0000FFFFFFFFFFFFFFFFFFFFFFFFFFFFFFFFFFFFFFFFFFFFFFFFFFFF0000FFFF0000FF
310
FF0000FFFF0000FFFF0000FFFFFFFFFFFFFFFFFFFFFFFFFFFF0000FFFF0000FFFFFFFFFFFFFFFFFFFFFFFFFFFFFFFFFFFFFFFFFFFFFFFFFFFFFFFFFFFF0000FFFF0000FFFF0000FFFFFFFFFFFFFFFFFFFF0000FFFF0000FFFF0000FFFFFFFFFFFFFFFFFFFFFFFFFFFFFFFFFFFFFFFFFFFFFFFFFFFFFFFFFFFFFFFFFFFFFFFF
310
FFFF0000FFFF0000FFFF0000FFFF0000FFFFFFFFFFFFFFFFFFFF0000FFFF0000FFFF0000FFFFFFFFFFFFFFFFFFFFFFFFFFFFFFFFFFFFFFFFFFFFFFFFFFFF0000FFFF0000FFFFFFFFFFFFFFFFFFFF0000FFFF0000FFFF0000FFFFFFFFFFFFFFFFFFFFFFFFFFFFFFFFFFFFFFFFFFFFFFFFFFFFFFFFFFFFFFFFFFFFFFFFFFFFFF
310
FFFFFFFFFFFFFFFFFFFFFF0000FFFF0000FFFF0000FFFFFFFFFFFFFFFFFFFF0000FFFF0000FFFF0000FFFFFFFFFFFFFFFFFFFFFFFFFFFFFFFFFFFF0000FFFF0000FFFF0000FFFFFFFFFFFFFFFFFFFF0000FFFF0000FFFF0000FFFFFFFFFFFFFFFFFFFFFFFFFFFFFFFFFFFFFFFFFFFF0000FFFF0000FFFFFFFFFFFFFFFFFFFF
310
FFFFFFFFFFFFFFFFFFFFFFFF0000FFFF0000FFFF0000FFFF0000FFFFFFFFFFFF0000FFFF0000FFFF0000FFFFFFFFFFFFFFFFFFFFFFFFFFFFFFFFFFFF0000FFFF0000FFFFFFFFFFFFFFFFFFFFFFFFFFFF0000FFFF0000FFFFFFFFFFFF0000FFFF0000FFFFFFFFFFFF0000FFFF0000FFFFFFFFFFFF0000FFFF0000FFFF0000FF
310
FFFFFFFFFF0000FFFF0000FFFFFFFFFFFF0000FFFF0000FFFF0000FFFFFFFFFFFFFFFFFFFF0000FFFF0000FFFFFFFFFFFFFFFFFFFFFFFFFFFFFFFFFFFF0000FFFF0000FFFFFFFFFFFFFFFFFFFF0000FFFF0000FFFF0000FFFFFFFFFFFFFFFFFFFFFFFFFFFF0000FFFFFFFFFFFFFFFFFFFFFFFFFFFFFFFFFFFFFFFFFFFF0000
310
FFFF0000FFFFFFFFFFFFFFFFFFFFFFFFFFFFFFFFFFFF0000FFFF0000FFFFFFFFFFFFFFFFFFFF0000FFFF0000FFFFFFFFFFFFFFFFFFFFFFFFFFFF0000FFFF0000FFFF0000FFFFFFFFFFFFFFFFFFFF0000FFFF0000FFFFFFFFFFFFFFFFFFFFFFFFFFFFFFFFFFFF0000FFFFFFFFFFFFFFFFFFFFFFFFFFFFFFFFFFFFFFFFFFFFFF
310
FFFFFF0000FFFFFFFFFFFFFFFFFFFFFFFFFFFFFFFFFFFF0000FFFF0000FFFFFFFFFFFFFFFFFFFF0000FFFF0000FFFF0000FFFFFFFFFFFFFFFFFFFF0000FFFF0000FFFF0000FFFFFFFFFFFFFFFFFFFF0000FFFF0000FFFFFFFFFFFFFFFFFFFFFFFFFFFF0000FFFFFFFFFFFFFFFFFFFFFFFFFFFFFFFFFFFFFFFFFFFFFFFFFFFF
310
FFFFFFFFFFFFFFFF0000FFFFFFFFFFFFFFFFFFFFFFFFFFFF0000FFFF0000FFFFFFFFFFFFFFFFFFFF0000FFFF0000FFFF0000FFFFFFFFFFFFFFFFFFFF0000FFFF0000FFFF0000FFFFFFFFFFFFFFFFFFFF0000FFFF0000FFFFFFFFFFFFFFFFFFFFFFFFFFFF0000FFFFFFFFFFFFFFFFFFFFFFFFFFFFFFFFFFFFFFFFFFFFFFFFFF
310
FFFFFFFFFFFFFFFFFF0000FFFFFFFFFFFFFFFFFFFFFFFFFFFF0000FFFF0000FFFFFFFFFFFFFFFFFFFF0000FFFF0000FFFF0000FFFFFFFFFFFFFFFFFFFF0000FFFF0000FFFF0000FFFFFFFFFFFFFFFFFFFF0000FFFF0000FFFFFFFFFFFFFFFFFFFFFFFFFFFFFFFFFFFF0000FFFFFFFFFFFFFFFFFFFFFFFFFFFFFFFFFFFFFFFF
310
FFFFFFFFFFFF0000FFFFFFFFFFFFFFFFFFFFFFFFFFFFFFFFFFFF0000FFFF0000FFFFFFFFFFFFFFFFFFFF0000FFFF0000FFFFFFFFFFFFFFFFFFFFFFFFFFFFFFFFFFFF0000FFFF0000FFFFFFFFFFFFFFFFFFFF0000FFFF0000FFFF0000FFFFFFFFFFFFFFFFFFFFFFFFFFFF0000FFFFFFFFFFFFFFFFFFFFFFFFFFFFFFFFFFFFFF
310
FFFFFF0000FFFF0000FFFFFFFFFFFFFFFFFFFFFFFFFFFFFFFFFFFF0000FFFF0000FFFFFFFFFFFFFFFFFFFF0000FFFF0000FFFFFFFFFFFFFFFFFFFFFFFFFFFFFFFFFFFF0000FFFF0000FFFFFFFFFFFFFFFFFFFFFFFFFFFF0000FFFF0000FFFFFFFFFFFFFFFFFFFFFFFFFFFFFFFFFFFF0000FFFF0000FFFFFFFFFFFF0000FFFF
310
0000FFFF0000FFFFFFFFFFFFFFFFFFFFFFFFFFFFFFFFFFFF0000FFFF0000FFFF0000FFFFFFFFFFFFFFFFFFFF0000FFFF0000FFFFFFFFFFFFFFFFFFFFFFFFFFFFFFFFFFFF0000FFFF0000FFFF0000FFFFFFFFFFFFFFFFFFFF0000FFFF0000FFFF0000FFFFFFFFFFFFFFFFFFFFFFFFFFFFFFFFFFFFFFFFFFFF0000FFFF0000FF
310
FFFFFFFFFFFFFFFFFFFFFFFFFFFFFFFFFFFFFFFFFFFFFFFFFF0000FFFF0000FFFF0000FFFFFFFFFFFF0000FFFF0000FFFF0000FFFFFFFFFFFFFFFFFFFFFFFFFFFFFFFFFFFFFFFFFFFF0000FFFF0000FFFFFFFFFFFFFFFFFFFF0000FFFF0000FFFF0000FFFFFFFFFFFFFFFFFFFFFFFFFFFFFFFFFFFFFFFFFFFFFFFFFFFF0000
310
FFFFFFFFFFFFFFFFFFFFFFFFFFFFFFFFFFFF0000FFFF0000FFFF0000FFFF0000FFFFFFFFFFFFFFFFFFFF0000FFFF0000FFFF0000FFFFFFFFFFFFFFFFFFFFFFFFFFFFFFFFFFFFFFFFFFFF0000FFFF0000FFFF0000FFFFFFFFFFFFFFFFFFFF0000FFFF0000FFFF0000FFFFFFFFFFFFFFFFFFFFFFFFFFFFFFFFFFFFFFFFFFFF00
310
00FFFFFFFFFFFFFFFFFFFFFFFFFFFF0000FFFF0000FFFF0000FFFF0000FFFFFFFFFFFFFFFFFFFF0000FFFF0000FFFF0000FFFFFFFFFFFFFFFFFFFFFFFFFFFFFFFFFFFFFFFFFFFFFFFFFFFFFFFFFFFF0000FFFF0000FFFFFFFFFFFFFFFFFFFFFFFFFFFF0000FFFF0000FFFF0000FFFF0000FFFFFFFFFFFFFFFFFFFFFFFFFFFF
310
0000FFFFFFFFFFFF0000FFFF0000FFFF0000FFFF0000FFFFFFFFFFFFFFFFFFFFFFFFFFFFFFFFFFFF0000FFFF0000FFFFFFFFFFFFFFFFFFFFFFFFFFFFFFFFFFFFFFFFFFFFFFFFFFFFFFFFFFFFFFFFFFFF0000FFFF0000FFFF0000FFFFFFFFFFFFFFFFFFFFFFFFFFFF0000FFFF0000FFFF0000FFFF0000FFFF0000FFFF0000FF
310
FF0000FFFF0000FFFF0000FFFF0000FFFF0000FFFF0000FFFFFFFFFFFFFFFFFFFFFFFFFFFF0000FFFF0000FFFF0000FFFFFFFFFFFFFFFFFFFFFFFFFFFFFFFFFFFFFFFFFFFFFFFFFFFFFFFFFFFFFFFFFFFFFFFFFFFF0000FFFF0000FFFF0000FFFFFFFFFFFFFFFFFFFFFFFFFFFFFFFFFFFF0000FFFF0000FFFF0000FFFF0000
310
FFFF0000FFFF0000FFFF0000FFFF0000FFFFFFFFFFFFFFFFFFFFFFFFFFFFFFFFFFFF0000FFFF0000FFFF0000FFFFFFFFFFFFFFFFFFFFFFFFFFFFFFFFFFFFFFFFFFFFFFFFFFFFFFFFFFFFFFFFFFFFFFFFFFFFFFFFFFFFFFFFFFFF0000FFFF0000FFFF0000FFFFFFFFFFFFFFFFFFFFFFFFFFFFFFFFFFFFFFFFFFFFFFFFFFFFFF
310
FFFFFFFFFFFFFFFFFFFFFFFFFFFFFFFFFFFFFFFFFFFFFFFFFFFFFF0000FFFF0000FFFF0000FFFF0000FFFFFFFFFFFFFFFFFFFFFFFFFFFFFFFFFFFFFFFFFFFFFFFFFFFFFFFFFFFFFFFFFFFFFFFFFFFFFFFFFFFFFFFFFFFFFFFFFFFFFFFFFFFF0000FFFF0000FFFF0000FFFF0000FFFFFFFFFFFFFFFFFFFFFFFFFFFFFFFFFFFF
310
FFFFFFFFFFFFFFFFFFFFFFFFFFFFFFFFFFFFFFFF0000FFFF0000FFFF0000FFFF0000FFFF0000FFFFFFFFFFFFFFFFFFFFFFFFFFFFFFFFFFFFFFFFFFFFFFFFFFFFFFFFFFFFFFFFFFFFFFFFFFFFFFFFFFFFFFFFFFFFFFFFFFFFFFFFFFFFFFFFFFFFFFFFFFFF0000FFFF0000FFFF0000FFFF0000FFFF0000FFFF0000FFFF0000FF
310
FF0000FFFF0000FFFF0000FFFF0000FFFF0000FFFF0000FFFF0000FFFF0000FFFFFFFFFFFFFFFFFFFFFFFFFFFFFFFFFFFFFFFFFFFFFFFFFFFFFFFFFFFFFFFFFFFFFFFFFFFFFFFFFFFFFFFFFFFFFFFFFFFFFFFFFFFFFFFFFFFFFFFFFFFFFFFFFFFFFFFFFFFFFFFFFFFFFFFFFFFF0000FFFF0000FFFF0000FFFF0000FFFF0000
310
FFFF0000FFFF0000FFFF0000FFFF0000FFFF0000FFFF0000FFFFFFFFFFFFFFFFFFFFFFFFFFFFFFFFFFFFFFFFFFFFFFFFFFFFFFFFFFFFFFFFFFFFFFFFFFFFFFFFFFFFFFFFFFFFFFFFFFFFFFFFFFFFFFFFFFFFFFFFFFFFFFFFFFFFFFFFFFFFFFFFFFFFFFFFFFFFFFFFFFFFFFFFFFFFFFFFFFFFFFFFFFFFFFFFFFFFFFFFFFFFFF
310
FFFFFF0000FFFF0000FFFF0000FFFFFFFFFFFFFFFFFFFFFFFFFFFFFFFFFFFFFFFFFFFFFFFFFFFFFFFFFFFFFFFFFFFFFFFFFFFFFFFFFFFFFFFFFFFFFFFFFFFFFFFFFFFFFFFFFFFFFFFFFFFFFFFFFFFFFFFFFFFFFFFFFFFFFFFFFFFFFFFFFFFFFFFFFFFFFFFFFFFFFFFFFFFFFFFFFFFFFFFFFFFFFFFFFFFFFFFFFFFFFFFFFFFF
310
FFFFFFFFFFFFFFFFFFFFFFFFFFFFFFFFFFFFFFFFFFFFFFFFFFFFFFFFFFFFFFFFFFFFFFFFFFFFFFFFFFFFFFFFFFFFFFFFFFFFFFFFFFFFFFFFFFFFFFFFFFFFFFFFFFFFFFFFFFFFFFFF
102
{BLKREFS
331
10000C2
331
10000D0
331
10000D1
331
10000D2
331
10000D3
331
10000D4
331
10000D5
331
10000D6
331
10000D7
331
10000D8
331
10000D9
331
10000DA
331
10000DB
331
1000126
331
1000127
331
1000128
331
1000129
331
100012A
331
100012B
331
100012C
331
100012D
331
100012E
331
100012F
331
1000130
331
1000131
331
1000132
102
}
 70
     0
280
     1
281
     0
  0
BLOCK_RECORD
  5
100016A
330
1A
100
AcDbSymbolTableRecord
100
AcDbBlockTableRecord
  2
_None
340
0
 70
     0
280
     1
281
     0
  0
BLOCK_RECORD
  5
100016D
330
1A
100
AcDbSymbolTableRecord
100
AcDbBlockTableRecord
  2
_ArchTick
340
0
 70
     0
280
     1
281
     0
  0
ENDTAB
  0
ENDSEC
  0
SECTION
  2
BLOCKS
  0
BLOCK
  5
31
330
1B
100
AcDbEntity
  8
0
100
AcDbBlockBegin
  2
*MODEL_SPACE
 70
     0
 10
0.0
 20
0.0
 30
0.0
  3
*MODEL_SPACE
  1

  0
ENDBLK
  5
32
330
1B
100
AcDbEntity
  8
0
100
AcDbBlockEnd
  0
BLOCK
  5
33
330
1D
100
AcDbEntity
 67
     1
  8
0
100
AcDbBlockBegin
  2
*PAPER_SPACE
 70
     0
 10
0.0
 20
0.0
 30
0.0
  3
*PAPER_SPACE
  1

  0
ENDBLK
  5
34
330
1D
100
AcDbEntity
 67
     1
  8
0
100
AcDbBlockEnd
  0
BLOCK
  5
20
330
1F
100
AcDbEntity
  8
0
 62
     0
370
    13
100
AcDbBlockBegin
  2
OSPB
 70
     0
 10
0.0
 20
0.0
 30
0.0
  3
OSPB
  1

  0
POLYLINE
  5
35
330
1F
100
AcDbEntity
  8
0
  6
Continuous
 62
     0
370
    18
100
AcDb2dPolyline
 66
     1
 10
0.0
 20
0.0
 30
0.0
 70
   129
  0
VERTEX
  5
36
330
35
100
AcDbEntity
  8
0
100
AcDbVertex
100
AcDb2dVertex
 10
-2.0
 20
-1.1
 30
0.0
  0
VERTEX
  5
37
330
35
100
AcDbEntity
  8
0
100
AcDbVertex
100
AcDb2dVertex
 10
2.0
 20
-1.1
 30
0.0
  0
VERTEX
  5
38
330
35
100
AcDbEntity
  8
0
100
AcDbVertex
100
AcDb2dVertex
 10
0.1
 20
2.1
 30
0.0
  0
VERTEX
  5
39
330
35
100
AcDbEntity
  8
0
100
AcDbVertex
100
AcDb2dVertex
 10
-2.0
 20
-1.1
 30
0.0
  0
SEQEND
  5
3A
330
0
100
AcDbEntity
  8
0
  0
HATCH
  5
3B
330
1F
100
AcDbEntity
  8
0
  6
Continuous
 62
     0
370
    25
100
AcDbHatch
 10
0.0
 20
0.0
 30
0.0
210
0.0
220
0.0
230
1.0
  2
SOLID
 70
     1
 71
     1
 91
        1
 92
        3
 72
     1
 73
     1
 93
        2
 10
0.0
 20
-0.22360679775
 42
1.0
 10
0.0
 20
0.22360679775
 42
1.0
 97
        0
 75
     0
 76
     1
 98
        1
 10
0.0
 20
0.0
  0
CIRCLE
  5
3C
330
1F
100
AcDbEntity
  8
0
  6
Continuous
 62
     0
370
    25
100
AcDbCircle
 10
0.0
 20
0.0
 30
0.0
 40
0.22360679775
  0
ENDBLK
  5
3D
330
1F
100
AcDbEntity
  8
0
100
AcDbBlockEnd
  0
BLOCK
  5
22
330
21
100
AcDbEntity
  8
0
 62
     0
370
    13
100
AcDbBlockBegin
  2
OSHF
 70
     0
 10
0.0
 20
0.0
 30
0.0
  3
OSHF
  1

  0
CIRCLE
  5
3E
330
21
100
AcDbEntity
  8
0
  6
Continuous
 62
     0
370
    18
100
AcDbCircle
 10
0.0
 20
0.0
 30
0.0
 40
2.0
  0
HATCH
  5
3F
330
21
100
AcDbEntity
  8
0
  6
Continuous
 62
     0
370
    18
100
AcDbHatch
 10
0.0
 20
0.0
 30
0.0
210
0.0
220
0.0
230
1.0
  2
SOLID
 70
     1
 71
     1
 91
        1
 92
        3
 72
     0
 73
     1
 93
        4
 10
-1.7
 20
1.0
 10
1.7
 20
1.0
 10
0.0
 20
-2.0
 10
-1.7
 20
0.9
 97
        0
 75
     0
 76
     1
 98
        1
 10
0.0
 20
0.0
  0
POLYLINE
  5
40
330
21
100
AcDbEntity
  8
0
  6
Continuous
 62
     0
370
    18
100
AcDb2dPolyline
 66
     1
 10
0.0
 20
0.0
 30
0.0
 70
   129
  0
VERTEX
  5
41
330
40
100
AcDbEntity
  8
0
100
AcDbVertex
100
AcDb2dVertex
 10
-1.7
 20
1.0
 30
0.0
  0
VERTEX
  5
42
330
40
100
AcDbEntity
  8
0
100
AcDbVertex
100
AcDb2dVertex
 10
1.7
 20
1.0
 30
0.0
  0
VERTEX
  5
43
330
40
100
AcDbEntity
  8
0
100
AcDbVertex
100
AcDb2dVertex
 10
0.0
 20
-2.0
 30
0.0
  0
VERTEX
  5
44
330
40
100
AcDbEntity
  8
0
100
AcDbVertex
100
AcDb2dVertex
 10
-1.7
 20
0.9
 30
0.0
  0
SEQEND
  5
45
330
0
100
AcDbEntity
  8
0
  0
ENDBLK
  5
46
330
21
100
AcDbEntity
  8
0
100
AcDbBlockEnd
  0
BLOCK
  5
24
330
23
100
AcDbEntity
  8
0
 62
     0
370
    13
100
AcDbBlockBegin
  2
SUPS01_03
 70
     0
 10
0.0
 20
0.0
 30
0.0
  3
SUPS01_03
  1

  0
HATCH
  5
47
330
23
100
AcDbEntity
  8
0
  6
Continuous
 62
     0
370
    13
100
AcDbHatch
 10
0.0
 20
0.0
 30
0.0
210
0.0
220
0.0
230
1.0
  2
SOLID
 70
     1
 71
     1
 91
        1
 92
        3
 72
     1
 73
     1
 93
        2
 10
0.0
 20
-0.090553851381
 42
1.0
 10
0.0
 20
0.090553851381
 42
1.0
 97
        0
 75
     0
 76
     1
 98
        1
 10
0.0
 20
0.0
  0
CIRCLE
  5
48
330
23
100
AcDbEntity
  8
0
  6
Continuous
 62
     0
370
    13
100
AcDbCircle
 10
0.0
 20
0.0
 30
0.0
 40
0.090553851381
  0
ENDBLK
  5
49
330
23
100
AcDbEntity
  8
0
100
AcDbBlockEnd
  0
BLOCK
  5
26
330
25
100
AcDbEntity
  8
0
 62
     0
370
    13
100
AcDbBlockBegin
  2
SUPS01_04
 70
     0
 10
0.0
 20
0.0
 30
0.0
  3
SUPS01_04
  1

  0
HATCH
  5
4A
330
25
100
AcDbEntity
  8
0
  6
Continuous
 62
     0
370
    13
100
AcDbHatch
 10
0.0
 20
0.0
 30
0.0
210
0.0
220
0.0
230
1.0
  2
SOLID
 70
     1
 71
     1
 91
        1
 92
        3
 72
     1
 73
     1
 93
        2
 10
0.0
 20
-0.090553851381
 42
1.0
 10
0.0
 20
0.090553851381
 42
1.0
 97
        0
 75
     0
 76
     1
 98
        1
 10
0.0
 20
0.0
  0
CIRCLE
  5
4B
330
25
100
AcDbEntity
  8
0
  6
Continuous
 62
     0
370
    13
100
AcDbCircle
 10
0.0
 20
0.0
 30
0.0
 40
0.090553851381
  0
ENDBLK
  5
4C
330
25
100
AcDbEntity
  8
0
100
AcDbBlockEnd
  0
BLOCK
  5
28
330
27
100
AcDbEntity
  8
0
 62
     0
370
    13
100
AcDbBlockBegin
  2
SUPS01_05
 70
     0
 10
0.0
 20
0.0
 30
0.0
  3
SUPS01_05
  1

  0
HATCH
  5
4D
330
27
100
AcDbEntity
  8
0
  6
Continuous
 62
     0
370
    13
100
AcDbHatch
 10
0.0
 20
0.0
 30
0.0
210
0.0
220
0.0
230
1.0
  2
SOLID
 70
     1
 71
     1
 91
        1
 92
        3
 72
     1
 73
     1
 93
        2
 10
0.0
 20
-0.090553851381
 42
1.0
 10
0.0
 20
0.090553851381
 42
1.0
 97
        0
 75
     0
 76
     1
 98
        1
 10
0.0
 20
0.0
  0
CIRCLE
  5
4E
330
27
100
AcDbEntity
  8
0
  6
Continuous
 62
     0
370
    13
100
AcDbCircle
 10
0.0
 20
0.0
 30
0.0
 40
0.090553851381
  0
ENDBLK
  5
4F
330
27
100
AcDbEntity
  8
0
100
AcDbBlockEnd
  0
BLOCK
  5
2A
330
29
100
AcDbEntity
  8
0
 62
     0
370
    13
100
AcDbBlockBegin
  2
SUPS01_07
 70
     0
 10
0.0
 20
0.0
 30
0.0
  3
SUPS01_07
  1

  0
HATCH
  5
50
330
29
100
AcDbEntity
  8
0
  6
Continuous
 62
     0
370
    13
100
AcDbHatch
 10
0.0
 20
0.0
 30
0.0
210
0.0
220
0.0
230
1.0
  2
SOLID
 70
     1
 71
     1
 91
        1
 92
        3
 72
     1
 73
     1
 93
        2
 10
0.0
 20
-0.090553851381
 42
1.0
 10
0.0
 20
0.090553851381
 42
1.0
 97
        0
 75
     0
 76
     1
 98
        1
 10
0.0
 20
0.0
  0
CIRCLE
  5
51
330
29
100
AcDbEntity
  8
0
  6
Continuous
 62
     0
370
    13
100
AcDbCircle
 10
0.0
 20
0.0
 30
0.0
 40
0.090553851381
  0
ENDBLK
  5
52
330
29
100
AcDbEntity
  8
0
100
AcDbBlockEnd
  0
BLOCK
  5
2C
330
2B
100
AcDbEntity
  8
0
 62
     0
370
    13
100
AcDbBlockBegin
  2
SUPS01_08
 70
     0
 10
0.0
 20
0.0
 30
0.0
  3
SUPS01_08
  1

  0
HATCH
  5
53
330
2B
100
AcDbEntity
  8
0
  6
Continuous
 62
     0
370
    13
100
AcDbHatch
 10
0.0
 20
0.0
 30
0.0
210
0.0
220
0.0
230
1.0
  2
SOLID
 70
     1
 71
     1
 91
        1
 92
        3
 72
     1
 73
     1
 93
        2
 10
0.0
 20
-0.090553851381
 42
1.0
 10
0.0
 20
0.090553851381
 42
1.0
 97
        0
 75
     0
 76
     1
 98
        1
 10
0.0
 20
0.0
  0
CIRCLE
  5
54
330
2B
100
AcDbEntity
  8
0
  6
Continuous
 62
     0
370
    13
100
AcDbCircle
 10
0.0
 20
0.0
 30
0.0
 40
0.090553851381
  0
ENDBLK
  5
55
330
2B
100
AcDbEntity
  8
0
100
AcDbBlockEnd
  0
BLOCK
  5
2E
330
2D
100
AcDbEntity
  8
0
 62
     0
370
    13
100
AcDbBlockBegin
  2
L_0_02_1
 70
     0
 10
0.0
 20
0.0
 30
0.0
  3
L_0_02_1
  1

  0
POINT
  5
56
330
2D
100
AcDbEntity
  8
0
 62
     0
100
AcDbPoint
 10
0.0
 20
0.0
 30
0.0
  0
ENDBLK
  5
57
330
2D
100
AcDbEntity
  8
0
100
AcDbBlockEnd
  0
BLOCK
  5
30
330
2F
100
AcDbEntity
  8
0
 62
     0
370
    13
100
AcDbBlockBegin
  2
L_0_02_2
 70
     0
 10
0.0
 20
0.0
 30
0.0
  3
L_0_02_2
  1

  0
POINT
  5
58
330
2F
100
AcDbEntity
  8
0
 62
     0
100
AcDbPoint
 10
0.0
 20
0.0
 30
0.0
  0
ENDBLK
  5
59
330
2F
100
AcDbEntity
  8
0
100
AcDbBlockEnd
  0
BLOCK
  5
10000C4
330
10000C3
100
AcDbEntity
  8
0
100
AcDbBlockBegin
  2
g f f
 70
     0
 10
0.0
 20
0.0
 30
0.0
  3
g f f
  1

  0
HATCH
  5
10000C5
330
10000C3
100
AcDbEntity
  8
IE_Latarnie - kable
370
    13
100
AcDbHatch
 10
0.0
 20
0.0
 30
0.0
210
0.0
220
0.0
230
1.0
  2
SOLID
 70
     1
 71
     1
 91
        2
 92
        1
 93
        1
 72
     3
 10
7649730.242972252
 20
5555720.804893605
 11
0.609870965396766
 21
0.0
 40
1.0
 50
0.0
 51
360.0
 73
     1
 97
        1
330
10000C8
 92
       17
 93
        1
 72
     3
 10
7649730.242972252
 20
5555720.804893605
 11
0.5297573062402626
 21
0.0
 40
1.0
 50
0.0
 51
360.0
 73
     1
 97
        1
330
10000C6
 75
     1
 76
     1
 98
        1
 10
-757136.322751008
 20
-145054.9847834157
1001
GradientColor1ACI
1070
     5
1001
GradientColor2ACI
1070
     2
1001
ACAD
1010
0.0
1020
0.0
1030
0.0
  0
CIRCLE
  5
10000C6
102
{ACAD_REACTORS
330
10000C5
102
}
330
10000C3
100
AcDbEntity
  8
IE_Latarnie - kable
370
    13
100
AcDbCircle
 10
7649730.242972252
 20
5555720.804893605
 30
0.0
 40
0.5297573062402626
  0
CIRCLE
  5
10000C7
330
10000C3
100
AcDbEntity
  8
IE_Latarnie - kable
370
    13
100
AcDbCircle
 10
7649730.242972252
 20
5555720.804893605
 30
0.0
 40
0.2552751587689028
  0
CIRCLE
  5
10000C8
102
{ACAD_REACTORS
330
10000C5
102
}
330
10000C3
100
AcDbEntity
  8
IE_Latarnie - kable
370
    13
100
AcDbCircle
 10
7649730.242972252
 20
5555720.804893605
 30
0.0
 40
0.609870965396766
  0
LINE
  5
10000C9
330
10000C3
100
AcDbEntity
  8
IE_Latarnie - kable
370
    13
100
AcDbLine
 10
7649730.242972252
 20
5555721.060168764
 30
0.0
 11
7649730.242972252
 21
5555721.334650911
 31
0.0
  0
LINE
  5
10000CA
330
10000C3
100
AcDbEntity
  8
IE_Latarnie - kable
370
    13
100
AcDbLine
 10
7649730.022140807
 20
5555720.676835493
 30
0.0
 11
7649729.784693932
 21
5555720.539142243
 31
0.0
  0
LINE
  5
10000CB
330
10000C3
100
AcDbEntity
  8
IE_Latarnie - kable
370
    13
100
AcDbLine
 10
7649730.463803696
 20
5555720.676835493
 30
0.0
 11
7649730.70125057
 21
5555720.539142243
 31
0.0
  0
HATCH
  5
10000CC
330
10000C3
100
AcDbEntity
  8
IE_Latarnie - kable
370
    13
100
AcDbHatch
 10
0.0
 20
0.0
 30
0.0
210
0.0
220
0.0
230
1.0
  2
SOLID
 70
     1
 71
     1
 91
        2
 92
       17
 93
        1
 72
     3
 10
7649730.242972252
 20
5555720.804893605
 11
0.8087067250019289
 21
0.0
 40
1.0
 50
0.0
 51
360.0
 73
     1
 97
        1
330
10000CD
 92
        1
 93
        1
 72
     3
 10
7649730.242972252
 20
5555720.804893605
 11
0.8817278755477957
 21
0.0
 40
1.0
 50
0.0
 51
360.0
 73
     1
 97
        1
330
10000CE
 75
     1
 76
     1
 98
        1
 10
-757136.322751008
 20
-145054.9847834157
1001
GradientColor1ACI
1070
     5
1001
GradientColor2ACI
1070
     2
1001
ACAD
1010
0.0
1020
0.0
1030
0.0
  0
CIRCLE
  5
10000CD
102
{ACAD_REACTORS
330
10000CC
102
}
330
10000C3
100
AcDbEntity
  8
IE_Latarnie - kable
370
    13
100
AcDbCircle
 10
7649730.242972252
 20
5555720.804893605
 30
0.0
 40
0.8087067250019289
  0
CIRCLE
  5
10000CE
102
{ACAD_REACTORS
330
10000CC
102
}
330
10000C3
100
AcDbEntity
  8
IE_Latarnie - kable
370
    13
100
AcDbCircle
 10
7649730.242972252
 20
5555720.804893605
 30
0.0
 40
0.8817278755477957
  0
ENDBLK
  5
10000CF
330
10000C3
100
AcDbEntity
  8
0
100
AcDbBlockEnd
  0
BLOCK
  5
100016B
330
100016A
100
AcDbEntity
  8
0
100
AcDbBlockBegin
  2
_None
 70
     0
 10
0.0
 20
0.0
 30
0.0
  3
_None
  1

  0
ENDBLK
  5
100016C
330
100016A
100
AcDbEntity
  8
0
100
AcDbBlockEnd
  0
BLOCK
  5
100016E
330
100016D
100
AcDbEntity
  8
0
100
AcDbBlockBegin
  2
_ArchTick
 70
     0
 10
0.0
 20
0.0
 30
0.0
  3
_ArchTick
  1

  0
LWPOLYLINE
  5
100016F
330
100016D
100
AcDbEntity
  8
0
  6
ByBlock
 62
     0
100
AcDbPolyline
 90
        2
 70
     0
 43
0.15
 10
-0.5
 20
-0.5
 10
0.5
 20
0.5
  0
ENDBLK
  5
1000170
330
100016D
100
AcDbEntity
  8
0
100
AcDbBlockEnd
  0
ENDSEC
  0
SECTION
  2
ENTITIES
  0
POINT
  5
308
330
1B
100
AcDbEntity
  8
chodnik_tycz
100
AcDbPoint
 10
8380715.009999999
 20
5719894.14
 30
0.0
  0
POINT
  5
309
330
1B
100
AcDbEntity
  8
chodnik_tycz
100
AcDbPoint
 10
8380717.630000001
 20
5719886.79
 30
0.0
  0
POINT
  5
30A
330
1B
100
AcDbEntity
  8
chodnik_tycz
100
AcDbPoint
 10
8380714.89
 20
5719885.790000001
 30
0.0
  0
POINT
  5
30B
330
1B
100
AcDbEntity
  8
chodnik_tycz
100
AcDbPoint
 10
8380712.9
 20
5719891.24
 30
0.0
  0
POINT
  5
30C
330
1B
100
AcDbEntity
  8
chodnik_tycz
100
AcDbPoint
 10
8380707.83
 20
5719889.4
 30
0.0
  0
POINT
  5
30D
330
1B
100
AcDbEntity
  8
chodnik_tycz
100
AcDbPoint
 10
8380698.809999998
 20
5719886.11
 30
0.0
  0
POINT
  5
30E
330
1B
100
AcDbEntity
  8
chodnik_tycz
100
AcDbPoint
 10
8380700.860000001
 20
5719880.47
 30
0.0
  0
POINT
  5
30F
330
1B
100
AcDbEntity
  8
chodnik_tycz
100
AcDbPoint
 10
8380695.280000001
 20
5719878.440000001
 30
0.0
  0
POINT
  5
310
330
1B
100
AcDbEntity
  8
chodnik_tycz
100
AcDbPoint
 10
8380699.09
 20
5719867.97
 30
0.0
  0
POINT
  5
311
330
1B
100
AcDbEntity
  8
chodnik_tycz
100
AcDbPoint
 10
8380697.170000001
 20
5719867.4
 30
0.0
  0
POINT
  5
312
330
1B
100
AcDbEntity
  8
chodnik_tycz
100
AcDbPoint
 10
8380693.400000001
 20
5719877.750000001
 30
0.0
  0
POINT
  5
313
330
1B
100
AcDbEntity
  8
chodnik_tycz
100
AcDbPoint
 10
8380688.650000001
 20
5719876.02
 30
0.0
  0
POINT
  5
314
330
1B
100
AcDbEntity
  8
chodnik_tycz
100
AcDbPoint
 10
8380686.030000001
 20
5719883.21
 30
0.0
  0
POINT
  5
315
330
1B
100
AcDbEntity
  8
chodnik_tycz
100
AcDbPoint
 10
8380671.860000001
 20
5719878.06
 30
0.0
  0
POINT
  5
316
330
1B
100
AcDbEntity
  8
chodnik_tycz
100
AcDbPoint
 10
8380671.320000001
 20
5719879.99
 30
0.0
  0
POINT
  5
317
330
1B
100
AcDbEntity
  8
chodnik_tycz
100
AcDbPoint
 10
8380685.339999999
 20
5719885.099999999
 30
0.0
  0
POINT
  5
318
330
1B
100
AcDbEntity
  8
chodnik_tycz
100
AcDbPoint
 10
8380684.059999998
 20
5719888.61
 30
0.0
  0
POINT
  5
319
330
1B
100
AcDbEntity
  8
chodnik_tycz
100
AcDbPoint
 10
8380689.32
 20
5719890.529999999
 30
0.0
  0
POINT
  5
31A
330
1B
100
AcDbEntity
  8
chodnik_tycz
100
AcDbPoint
 10
8380685.2
 20
5719901.85
 30
0.0
  0
POINT
  5
31B
330
1B
100
AcDbEntity
  8
chodnik_tycz
100
AcDbPoint
 10
8380687.079999999
 20
5719902.53
 30
0.0
  0
POINT
  5
31C
330
1B
100
AcDbEntity
  8
chodnik_tycz
100
AcDbPoint
 10
8380692.230000001
 20
5719888.400000001
 30
0.0
  0
POINT
  5
31D
330
1B
100
AcDbEntity
  8
chodnik_tycz
100
AcDbPoint
 10
8380687.91
 20
5719886.82
 30
0.0
  0
POINT
  5
31E
330
1B
100
AcDbEntity
  8
chodnik_tycz
100
AcDbPoint
 10
8380690.299999999
 20
5719880.24
 30
0.0
  0
POINT
  5
31F
330
1B
100
AcDbEntity
  8
chodnik_tycz
100
AcDbPoint
 10
8380696.88
 20
5719882.639999999
 30
0.0
  0
POINT
  5
320
330
1B
100
AcDbEntity
  8
chodnik_tycz
100
AcDbPoint
 10
8380695.299999999
 20
5719886.96
 30
0.0
  0
POINT
  5
321
330
1B
100
AcDbEntity
  8
chodnik_tycz
100
AcDbPoint
 10
8380712.219999999
 20
5719893.12
 30
0.0
  0
POINT
  5
322
330
1B
100
AcDbEntity
  8
chodnik_tycz
100
AcDbPoint
 10
8380706.879999999
 20
5719907.78
 30
0.0
  0
POINT
  5
323
330
1B
100
AcDbEntity
  8
chodnik_tycz
100
AcDbPoint
 10
8380687.750000001
 20
5719900.81
 30
0.0
  0
POINT
  5
324
330
1B
100
AcDbEntity
  8
chodnik_tycz
100
AcDbPoint
 10
8380694.48
 20
5719889.219999999
 30
0.0
  0
POINT
  5
325
330
1B
100
AcDbEntity
  8
chodnik_tycz
100
AcDbPoint
 10
8380696.3
 20
5719882.909999999
 30
0.0
  0
POINT
  5
326
330
1B
100
AcDbEntity
  8
chodnik_tycz
100
AcDbPoint
 10
8380694.209999999
 20
5719888.64
 30
0.0
  0
POINT
  5
327
330
1B
100
AcDbEntity
  8
chodnik_tycz
100
AcDbPoint
 10
8380688.480000001
 20
5719886.55
 30
0.0
  0
POINT
  5
328
330
1B
100
AcDbEntity
  8
chodnik_tycz
100
AcDbPoint
 10
8380690.57
 20
5719880.820000001
 30
0.0
  0
POINT
  5
329
330
1B
100
AcDbEntity
  8
chodnik_tycz
100
AcDbPoint
 10
8380692.519999998
 20
5719854.34
 30
0.0
  0
POINT
  5
32A
330
1B
100
AcDbEntity
  8
chodnik_tycz
100
AcDbPoint
 10
8380697.59
 20
5719839.910000001
 30
0.0
  0
POINT
  5
32B
330
1B
100
AcDbEntity
  8
chodnik_tycz
100
AcDbPoint
 10
8380698.670000001
 20
5719836.82
 30
0.0
  0
POINT
  5
32C
330
1B
100
AcDbEntity
  8
chodnik_tycz
100
AcDbPoint
 10
8380702.280000001
 20
5719826.56
 30
0.0
  0
POINT
  5
32D
330
1B
100
AcDbEntity
  8
chodnik_tycz
100
AcDbPoint
 10
8380700.42
 20
5719825.9
 30
0.0
  0
POINT
  5
32E
330
1B
100
AcDbEntity
  8
chodnik_tycz
100
AcDbPoint
 10
8380692.929999998
 20
5719847.18
 30
0.0
  0
POINT
  5
32F
330
1B
100
AcDbEntity
  8
chodnik_tycz
100
AcDbPoint
 10
8380691.309999999
 20
5719846.620000001
 30
0.0
  0
POINT
  5
330
330
1B
100
AcDbEntity
  8
chodnik_tycz
100
AcDbPoint
 10
8380690.920000001
 20
5719847.72
 30
0.0
  0
POINT
  5
331
330
1B
100
AcDbEntity
  8
chodnik_tycz
100
AcDbPoint
 10
8380692.54
 20
5719848.289999999
 30
0.0
  0
POINT
  5
332
330
1B
100
AcDbEntity
  8
chodnik_tycz
100
AcDbPoint
 10
8380690.620000001
 20
5719853.740000001
 30
0.0
  0
POINT
  5
333
330
1B
100
AcDbEntity
  8
chodnik_tycz
100
AcDbPoint
 10
8380701.440000001
 20
5719809.24
 30
0.0
  0
POINT
  5
334
330
1B
100
AcDbEntity
  8
chodnik_tycz
100
AcDbPoint
 10
8380698.440000001
 20
5719817.78
 30
0.0
  0
POINT
  5
335
330
1B
100
AcDbEntity
  8
chodnik_tycz
100
AcDbPoint
 10
8380696.549999999
 20
5719817.11
 30
0.0
  0
POINT
  5
337
330
1B
100
AcDbEntity
  8
chodnik_tycz
100
AcDbPoint
 10
8380701.759999999
 20
5719808.35
 30
0.0
  0
POINT
  5
338
330
1B
100
AcDbEntity
  8
chodnik_tycz
100
AcDbPoint
 10
8380701.440000001
 20
5719809.24
 30
0.0
  0
POINT
  5
33A
330
1B
100
AcDbEntity
  8
chodnik_tycz
100
AcDbPoint
 10
8380699.87
 20
5719807.68
 30
0.0
  0
LINE
  5
1000036
330
1B
100
AcDbEntity
  8
A_OGRODZENIE
  6
Continuous
 62
     7
370
    35
100
AcDbLine
 10
8380671.402411159
 20
5719880.160227338
 30
0.0
 11
8380667.477025788
 21
5719895.14871715
 31
0.0
  0
LINE
  5
1000037
330
1B
100
AcDbEntity
  8
A_OGRODZENIE
  6
Continuous
 62
     7
370
    35
100
AcDbLine
 10
8380667.477025788
 20
5719895.14871715
 30
0.0
 11
8380685.191822466
 21
5719901.575426132
 31
0.0
  0
LINE
  5
1000038
330
1B
100
AcDbEntity
  8
A_OGRODZENIE
  6
Continuous
 62
     7
370
    35
100
AcDbLine
 10
8380697.040165685
 20
5719867.551253733
 30
0.0
 11
8380676.450000002
 21
5719861.150000001
 31
0.0
  0
LINE
  5
1000039
330
1B
100
AcDbEntity
  8
A_OGRODZENIE
  6
Continuous
 62
     7
370
    35
100
AcDbLine
 10
8380676.450000002
 20
5719861.150000001
 30
0.0
 11
8380671.968340243
 21
5719878.028830418
 31
0.0
  0
LINE
  5
100003A
330
1B
100
AcDbEntity
  8
A_OGRODZENIE
  6
Continuous
 62
     7
370
    35
100
AcDbLine
 10
8380687.248605775
 20
5719902.326465491
 30
0.0
 11
8380709.028012578
 21
5719910.279274288
 31
0.0
  0
LINE
  5
100003B
330
1B
100
AcDbEntity
  8
A_OGRODZENIE
  6
Continuous
 62
     7
370
    35
100
AcDbLine
 10
8380709.028012578
 20
5719910.279274288
 30
0.0
 11
8380714.504778159
 21
5719894.007742697
 31
0.0
  0
LINE
  5
100003C
330
1B
100
AcDbEntity
  8
A_OGRODZENIE
  6
Continuous
 62
     7
370
    35
100
AcDbLine
 10
8380717.22230231
 20
5719886.429568516
 30
0.0
 11
8380721.449363528
 21
5719875.141699621
 31
0.0
  0
LINE
  5
100003D
330
1B
100
AcDbEntity
  8
A_OGRODZENIE
  6
Continuous
 62
     7
370
    35
100
AcDbLine
 10
8380721.449363528
 20
5719875.141699621
 30
0.0
 11
8380699.058851526
 21
5719868.17884073
 31
0.0
  0
LINE
  5
100003E
330
1B
100
AcDbEntity
  8
chodnik_tycz
  6
Continuous
 62
   250
370
    18
100
AcDbLine
 10
8380700.860000001
 20
5719880.47
 30
0.0
 11
8380709.880000001
 21
5719883.76
 31
0.0
  0
LINE
  5
100003F
330
1B
100
AcDbEntity
  8
chodnik_tycz
  6
Continuous
 62
   250
370
    18
100
AcDbLine
 10
8380709.880000001
 20
5719883.76
 30
0.0
 11
8380707.83
 21
5719889.4
 31
0.0
  0
LINE
  5
1000040
330
1B
100
AcDbEntity
  8
chodnik_tycz
  6
Continuous
 62
   250
370
    18
100
AcDbLine
 10
8380687.750000001
 20
5719900.81
 30
0.0
 11
8380706.879999999
 21
5719907.78
 31
0.0
  0
LINE
  5
1000041
330
1B
100
AcDbEntity
  8
chodnik_tycz
  6
Continuous
 62
   250
370
    18
100
AcDbLine
 10
8380706.879999999
 20
5719907.78
 30
0.0
 11
8380712.219999999
 21
5719893.12
 31
0.0
  0
LINE
  5
1000042
330
1B
100
AcDbEntity
  8
chodnik_tycz
  6
Continuous
 62
   250
370
    18
100
AcDbLine
 10
8380715.009999999
 20
5719894.14
 30
0.0
 11
8380717.630000001
 21
5719886.79
 31
0.0
  0
LINE
  5
1000043
330
1B
100
AcDbEntity
  8
chodnik_tycz
  6
Continuous
 62
   250
370
    18
100
AcDbLine
 10
8380717.630000001
 20
5719886.79
 30
0.0
 11
8380714.89
 21
5719885.790000001
 31
0.0
  0
LINE
  5
1000044
330
1B
100
AcDbEntity
  8
chodnik_tycz
  6
Continuous
 62
   250
370
    18
100
AcDbLine
 10
8380714.89
 20
5719885.790000001
 30
0.0
 11
8380712.9
 21
5719891.24
 31
0.0
  0
LINE
  5
1000045
330
1B
100
AcDbEntity
  8
chodnik_tycz
  6
Continuous
 62
   250
370
    18
100
AcDbLine
 10
8380712.9
 20
5719891.24
 30
0.0
 11
8380707.83
 21
5719889.4
 31
0.0
  0
LINE
  5
1000046
330
1B
100
AcDbEntity
  8
chodnik_tycz
  6
Continuous
 62
   250
370
    18
100
AcDbLine
 10
8380707.83
 20
5719889.4
 30
0.0
 11
8380698.809999998
 21
5719886.11
 31
0.0
  0
LINE
  5
1000047
330
1B
100
AcDbEntity
  8
chodnik_tycz
  6
Continuous
 62
   250
370
    18
100
AcDbLine
 10
8380698.809999998
 20
5719886.11
 30
0.0
 11
8380700.860000001
 21
5719880.47
 31
0.0
  0
LINE
  5
1000048
330
1B
100
AcDbEntity
  8
chodnik_tycz
  6
Continuous
 62
   250
370
    18
100
AcDbLine
 10
8380700.860000001
 20
5719880.47
 30
0.0
 11
8380695.280000001
 21
5719878.440000001
 31
0.0
  0
LINE
  5
1000049
330
1B
100
AcDbEntity
  8
chodnik_tycz
  6
Continuous
 62
   250
370
    18
100
AcDbLine
 10
8380695.280000001
 20
5719878.440000001
 30
0.0
 11
8380699.09
 21
5719867.97
 31
0.0
  0
LINE
  5
100004A
330
1B
100
AcDbEntity
  8
chodnik_tycz
  6
Continuous
 62
   250
370
    18
100
AcDbLine
 10
8380699.09
 20
5719867.97
 30
0.0
 11
8380697.170000001
 21
5719867.4
 31
0.0
  0
LINE
  5
100004B
330
1B
100
AcDbEntity
  8
chodnik_tycz
  6
Continuous
 62
   250
370
    18
100
AcDbLine
 10
8380697.170000001
 20
5719867.4
 30
0.0
 11
8380693.400000001
 21
5719877.750000001
 31
0.0
  0
LINE
  5
100004C
330
1B
100
AcDbEntity
  8
chodnik_tycz
  6
Continuous
 62
   250
370
    18
100
AcDbLine
 10
8380693.400000001
 20
5719877.750000001
 30
0.0
 11
8380688.650000001
 21
5719876.02
 31
0.0
  0
LINE
  5
100004D
330
1B
100
AcDbEntity
  8
chodnik_tycz
  6
Continuous
 62
   250
370
    18
100
AcDbLine
 10
8380688.650000001
 20
5719876.02
 30
0.0
 11
8380686.030000001
 21
5719883.21
 31
0.0
  0
LINE
  5
100004E
330
1B
100
AcDbEntity
  8
chodnik_tycz
  6
Continuous
 62
   250
370
    18
100
AcDbLine
 10
8380686.030000001
 20
5719883.21
 30
0.0
 11
8380671.860000001
 21
5719878.06
 31
0.0
  0
LINE
  5
100004F
330
1B
100
AcDbEntity
  8
chodnik_tycz
  6
Continuous
 62
   250
370
    18
100
AcDbLine
 10
8380671.860000001
 20
5719878.06
 30
0.0
 11
8380671.320000001
 21
5719879.99
 31
0.0
  0
LINE
  5
1000050
330
1B
100
AcDbEntity
  8
chodnik_tycz
  6
Continuous
 62
   250
370
    18
100
AcDbLine
 10
8380671.320000001
 20
5719879.99
 30
0.0
 11
8380685.339999999
 21
5719885.099999999
 31
0.0
  0
LINE
  5
1000051
330
1B
100
AcDbEntity
  8
chodnik_tycz
  6
Continuous
 62
   250
370
    18
100
AcDbLine
 10
8380685.339999999
 20
5719885.099999999
 30
0.0
 11
8380684.059999998
 21
5719888.61
 31
0.0
  0
LINE
  5
1000052
330
1B
100
AcDbEntity
  8
chodnik_tycz
  6
Continuous
 62
   250
370
    18
100
AcDbLine
 10
8380684.059999998
 20
5719888.61
 30
0.0
 11
8380689.32
 21
5719890.529999999
 31
0.0
  0
LINE
  5
1000053
330
1B
100
AcDbEntity
  8
chodnik_tycz
  6
Continuous
 62
   250
370
    18
100
AcDbLine
 10
8380689.32
 20
5719890.529999999
 30
0.0
 11
8380685.2
 21
5719901.85
 31
0.0
  0
LINE
  5
1000054
330
1B
100
AcDbEntity
  8
chodnik_tycz
  6
Continuous
 62
   250
370
    18
100
AcDbLine
 10
8380685.2
 20
5719901.85
 30
0.0
 11
8380687.079999999
 21
5719902.53
 31
0.0
  0
LINE
  5
1000055
330
1B
100
AcDbEntity
  8
chodnik_tycz
  6
Continuous
 62
   250
370
    18
100
AcDbLine
 10
8380687.079999999
 20
5719902.53
 30
0.0
 11
8380692.230000001
 21
5719888.400000001
 31
0.0
  0
LINE
  5
1000056
330
1B
100
AcDbEntity
  8
chodnik_tycz
  6
Continuous
 62
   250
370
    18
100
AcDbLine
 10
8380692.230000001
 20
5719888.400000001
 30
0.0
 11
8380687.91
 21
5719886.82
 31
0.0
  0
LINE
  5
1000057
330
1B
100
AcDbEntity
  8
chodnik_tycz
  6
Continuous
 62
   250
370
    18
100
AcDbLine
 10
8380687.91
 20
5719886.82
 30
0.0
 11
8380690.299999999
 21
5719880.24
 31
0.0
  0
LINE
  5
1000058
330
1B
100
AcDbEntity
  8
chodnik_tycz
  6
Continuous
 62
   250
370
    18
100
AcDbLine
 10
8380690.299999999
 20
5719880.24
 30
0.0
 11
8380696.88
 21
5719882.639999999
 31
0.0
  0
LINE
  5
1000059
330
1B
100
AcDbEntity
  8
chodnik_tycz
  6
Continuous
 62
   250
370
    18
100
AcDbLine
 10
8380696.88
 20
5719882.639999999
 30
0.0
 11
8380695.299999999
 21
5719886.96
 31
0.0
  0
LINE
  5
100005A
330
1B
100
AcDbEntity
  8
chodnik_tycz
  6
Continuous
 62
   250
370
    18
100
AcDbLine
 10
8380695.299999999
 20
5719886.96
 30
0.0
 11
8380712.219999999
 21
5719893.12
 31
0.0
  0
LINE
  5
100005B
330
1B
100
AcDbEntity
  8
chodnik_tycz
  6
Continuous
 62
   250
370
    18
100
AcDbLine
 10
8380712.219999999
 20
5719893.12
 30
0.0
 11
8380715.009999999
 21
5719894.14
 31
0.0
  0
LINE
  5
100005C
330
1B
100
AcDbEntity
  8
chodnik_tycz
  6
Continuous
 62
   250
370
    18
100
AcDbLine
 10
8380710.99
 20
5719896.499999999
 30
0.0
 11
8380707.04
 21
5719895.069999999
 31
0.0
  0
LINE
  5
100005D
330
1B
100
AcDbEntity
  8
chodnik_tycz
  6
Continuous
 62
   250
370
    18
100
AcDbLine
 10
8380707.04
 20
5719895.069999999
 30
0.0
 11
8380704.169999999
 21
5719902.96
 31
0.0
  0
LINE
  5
100005E
330
1B
100
AcDbEntity
  8
chodnik_tycz
  6
Continuous
 62
   250
370
    18
100
AcDbLine
 10
8380704.169999999
 20
5719902.96
 30
0.0
 11
8380708.11
 21
5719904.4
 31
0.0
  0
LINE
  5
100005F
330
1B
100
AcDbEntity
  8
chodnik_tycz
  6
Continuous
 62
   250
370
    18
100
AcDbLine
 10
8380708.11
 20
5719904.4
 30
0.0
 11
8380710.99
 21
5719896.499999999
 31
0.0
  0
LINE
  5
1000060
330
1B
100
AcDbEntity
  8
chodnik_tycz
  6
Continuous
 62
   250
370
    18
100
AcDbLine
 10
8380697.59
 20
5719839.910000001
 30
0.0
 11
8380698.670000001
 21
5719836.82
 31
0.0
  0
LINE
  5
1000061
330
1B
100
AcDbEntity
  8
chodnik_tycz
  6
Continuous
 62
   250
370
    18
100
AcDbLine
 10
8380698.670000001
 20
5719836.82
 30
0.0
 11
8380702.280000001
 21
5719826.56
 31
0.0
  0
LINE
  5
1000062
330
1B
100
AcDbEntity
  8
chodnik_tycz
  6
Continuous
 62
   250
370
    18
100
AcDbLine
 10
8380702.280000001
 20
5719826.56
 30
0.0
 11
8380700.42
 21
5719825.9
 31
0.0
  0
LINE
  5
1000063
330
1B
100
AcDbEntity
  8
chodnik_tycz
  6
Continuous
 62
   250
370
    18
100
AcDbLine
 10
8380700.42
 20
5719825.9
 30
0.0
 11
8380692.929999998
 21
5719847.18
 31
0.0
  0
LINE
  5
1000064
330
1B
100
AcDbEntity
  8
chodnik_tycz
  6
Continuous
 62
   250
370
    18
100
AcDbLine
 10
8380692.929999998
 20
5719847.18
 30
0.0
 11
8380691.309999999
 21
5719846.620000001
 31
0.0
  0
LINE
  5
1000065
330
1B
100
AcDbEntity
  8
chodnik_tycz
  6
Continuous
 62
   250
370
    18
100
AcDbLine
 10
8380691.309999999
 20
5719846.620000001
 30
0.0
 11
8380690.920000001
 21
5719847.72
 31
0.0
  0
LINE
  5
1000066
330
1B
100
AcDbEntity
  8
chodnik_tycz
  6
Continuous
 62
   250
370
    18
100
AcDbLine
 10
8380690.920000001
 20
5719847.72
 30
0.0
 11
8380692.54
 21
5719848.289999999
 31
0.0
  0
LINE
  5
1000067
330
1B
100
AcDbEntity
  8
chodnik_tycz
  6
Continuous
 62
   250
370
    18
100
AcDbLine
 10
8380692.54
 20
5719848.289999999
 30
0.0
 11
8380690.620000001
 21
5719853.740000001
 31
0.0
  0
LINE
  5
1000068
330
1B
100
AcDbEntity
  8
chodnik_tycz
  6
Continuous
 62
   250
370
    18
100
AcDbLine
 10
8380690.620000001
 20
5719853.740000001
 30
0.0
 11
8380692.519999998
 21
5719854.34
 31
0.0
  0
LINE
  5
1000069
330
1B
100
AcDbEntity
  8
chodnik_tycz
  6
Continuous
 62
   250
370
    18
100
AcDbLine
 10
8380692.519999998
 20
5719854.34
 30
0.0
 11
8380697.59
 21
5719839.910000001
 31
0.0
  0
LINE
  5
100006A
330
1B
100
AcDbEntity
  8
chodnik_tycz
  6
Continuous
 62
   250
370
    18
100
AcDbLine
 10
8380698.440000001
 20
5719817.78
 30
0.0
 11
8380701.440000001
 21
5719809.24
 31
0.0
  0
LINE
  5
100006B
330
1B
100
AcDbEntity
  8
chodnik_tycz
  6
Continuous
 62
   250
370
    18
100
AcDbLine
 10
8380701.440000001
 20
5719809.24
 30
0.0
 11
8380701.759999999
 21
5719808.35
 31
0.0
  0
LINE
  5
100006C
330
1B
100
AcDbEntity
  8
chodnik_tycz
  6
Continuous
 62
   250
370
    18
100
AcDbLine
 10
8380701.759999999
 20
5719808.35
 30
0.0
 11
8380699.87
 21
5719807.68
 31
0.0
  0
LINE
  5
100006D
330
1B
100
AcDbEntity
  8
chodnik_tycz
  6
Continuous
 62
   250
370
    18
100
AcDbLine
 10
8380699.87
 20
5719807.68
 30
0.0
 11
8380699.509999999
 21
5719808.69
 31
0.0
  0
LINE
  5
100006E
330
1B
100
AcDbEntity
  8
chodnik_tycz
  6
Continuous
 62
   250
370
    18
100
AcDbLine
 10
8380699.509999999
 20
5719808.69
 30
0.0
 11
8380696.549999999
 21
5719817.11
 31
0.0
  0
LINE
  5
100006F
330
1B
100
AcDbEntity
  8
chodnik_tycz
  6
Continuous
 62
   250
370
    18
100
AcDbLine
 10
8380696.549999999
 20
5719817.11
 30
0.0
 11
8380698.440000001
 21
5719817.78
 31
0.0
  0
LINE
  5
1000109
330
1B
100
AcDbEntity
  8
IE_Latarnie - kable
370
    30
100
AcDbLine
 10
8380696.201139906
 20
5719868.525960186
 30
0.0
 11
8380690.444613051
 21
5719885.22021514
 31
0.0
  0
LINE
  5
100010A
330
1B
100
AcDbEntity
  8
IE_Latarnie - kable
370
    30
100
AcDbLine
 10
8380710.589732498
 20
5719899.053923321
 30
0.0
 11
8380713.543222402
 21
5719890.943157627
 31
0.0
  0
LINE
  5
100010B
330
1B
100
AcDbEntity
  8
IE_Latarnie - kable
370
    30
100
AcDbLine
 10
8380708.469164698
 20
5719889.095467931
 30
0.0
 11
8380713.543222402
 21
5719890.943157627
 31
0.0
  0
LINE
  5
100010C
330
1B
100
AcDbEntity
  8
IE_Latarnie - kable
370
    30
100
AcDbLine
 10
8380683.227198527
 20
5719889.520067034
 30
0.0
 11
8380687.799485086
 21
5719891.185039577
 31
0.0
  0
LINE
  5
100010D
330
1B
100
AcDbEntity
  8
IE_Latarnie - kable
370
    30
100
AcDbLine
 10
8380684.79287579
 20
5719885.186610538
 30
0.0
 11
8380677.169128631
 21
5719882.625692378
 31
0.0
  0
LINE
  5
100010E
330
1B
100
AcDbEntity
  8
IE_Latarnie - kable
370
    30
100
AcDbLine
 10
8380689.270886326
 20
5719872.792444552
 30
0.0
 11
8380685.961241134
 21
5719881.952827607
 31
0.0
  0
LINE
  5
100010F
330
1B
100
AcDbEntity
  8
IE_Latarnie - kable
370
    30
100
AcDbLine
 10
8380684.79287579
 20
5719885.186610538
 30
0.0
 11
8380683.227198527
 21
5719889.520067034
 31
0.0
  0
LINE
  5
1000110
330
1B
100
AcDbEntity
  8
IE_Latarnie - kable
370
    30
100
AcDbLine
 10
8380711.463104393
 20
5719880.873616473
 30
0.0
 11
8380708.469164698
 21
5719889.095467931
 31
0.0
  0
LINE
  5
1000111
330
1B
100
AcDbEntity
  8
IE_Latarnie - kable
370
    30
100
AcDbLine
 10
8380693.150597434
 20
5719884.421485025
 30
0.0
 11
8380690.972339271
 21
5719883.689779111
 31
0.0
  0
LINE
  5
1000112
330
1B
100
AcDbEntity
  8
IE_Latarnie - kable
370
    30
100
AcDbLine
 10
8380685.961241134
 20
5719881.952827607
 30
0.0
 11
8380684.164658408
 21
5719881.349331551
 31
0.0
  0
LINE
  5
1000113
330
1B
100
AcDbEntity
  8
IE_Latarnie - kable
370
    30
100
AcDbLine
 10
8380684.164658408
 20
5719881.349331551
 30
0.0
 11
8380682.996293062
 21
5719884.583114482
 31
0.0
  0
LINE
  5
1000114
330
1B
100
AcDbEntity
  8
IE_Latarnie - kable
370
    30
100
AcDbLine
 10
8380691.289426474
 20
5719885.503999214
 30
0.0
 11
8380690.444613051
 21
5719885.22021514
 31
0.0
  0
LINE
  5
1000115
330
1B
100
AcDbEntity
  8
IE_Latarnie - kable
370
    30
100
AcDbLine
 10
8380699.072747425
 20
5719817.472823526
 30
0.0
 11
8380715.578177111
 21
5719823.284705849
 31
0.0
  0
LINE
  5
1000116
330
1B
100
AcDbEntity
  8
IE_Latarnie - kable
370
    30
100
AcDbLine
 10
8380712.493308948
 20
5719832.118289834
 30
0.0
 11
8380715.578177111
 21
5719823.284705849
 31
0.0
  0
LINE
  5
1000117
330
1B
100
AcDbEntity
  8
IE_Latarnie - kable
370
    30
100
AcDbLine
 10
8380699.073859485
 20
5719828.075046425
 30
0.0
 11
8380704.865035022
 21
5719830.114230996
 31
0.0
  0
LINE
  5
1000118
330
1B
100
AcDbEntity
  8
IE_Latarnie - kable
370
    30
100
AcDbLine
 10
8380705.807039417
 20
5719829.792631875
 30
0.0
 11
8380712.493308948
 21
5719832.118289834
 31
0.0
  0
LINE
  5
1000119
330
1B
100
AcDbEntity
  8
IE_Latarnie - kable
370
    30
100
AcDbLine
 10
8380705.807039417
 20
5719829.792631875
 30
0.0
 11
8380704.865035022
 21
5719830.114230996
 31
0.0
  0
LINE
  5
100011A
330
1B
100
AcDbEntity
  8
IE_Latarnie - kable
370
    30
100
AcDbLine
 10
8380699.073859485
 20
5719828.075046425
 30
0.0
 11
8380690.816051869
 21
5719851.721451455
 31
0.0
  0
LINE
  5
100011B
330
1B
100
AcDbEntity
  8
IE_Latarnie - kable
370
    30
100
AcDbLine
 10
8380706.500573573
 20
5719858.343850213
 30
0.0
 11
8380707.148764043
 21
5719856.469353953
 31
0.0
  0
LINE
  5
100011C
330
1B
100
AcDbEntity
  8
IE_Latarnie - kable
370
    30
100
AcDbLine
 10
8380690.816051869
 20
5719851.721451455
 30
0.0
 11
8380706.982438589
 21
5719856.950346718
 31
0.0
  0
LINE
  5
100011D
330
1B
100
AcDbEntity
  8
IE_Latarnie - kable
370
    30
100
AcDbLine
 10
8380696.012421497
 20
5719854.840824013
 30
0.0
 11
8380696.855650258
 21
5719854.707028847
 31
0.0
  0
LINE
  5
100011E
330
1B
100
AcDbEntity
  8
IE_Latarnie - kable
370
    30
100
AcDbLine
 10
8380696.855650258
 20
5719854.707028847
 30
0.0
 11
8380697.416458362
 21
5719853.856302529
 31
0.0
  0
LINE
  5
100011F
330
1B
100
AcDbEntity
  8
IE_Latarnie - kable
370
    30
100
AcDbLine
 10
8380699.072747425
 20
5719817.472823526
 30
0.0
 11
8380701.481911243
 21
5719810.630930214
 31
0.0
  0
LINE
  5
1000120
330
1B
100
AcDbEntity
  8
IE_Latarnie - kable
370
    30
100
AcDbLine
 10
8380710.589732501
 20
5719899.053923322
 30
0.0
 11
8380708.4285607
 21
5719898.266944714
 31
0.0
  0
LINE
  5
1000121
330
1B
100
AcDbEntity
  8
IE_Latarnie - kable
370
    30
100
AcDbLine
 10
8380708.4285607
 20
5719898.266944714
 30
0.0
 11
8380706.570792497
 21
5719899.282900568
 31
0.0
  0
LINE
  5
1000122
330
1B
100
AcDbEntity
  8
IE_Latarnie - kable
  6
DASHED
370
    30
100
AcDbLine
 10
8380700.890234592
 20
5719854.927319174
 30
0.0
 11
8380696.201139906
 21
5719868.525960186
 31
0.0
  0
LINE
  5
1000123
330
1B
100
AcDbEntity
  8
IE_Latarnie - kable
  6
Continuous
100
AcDbLine
 10
8380700.87393233
 20
5719854.974596663
 30
0.0
 11
8380706.982439296
 21
5719856.950346947
 31
0.0
  0
LINE
  5
1000124
330
1B
100
AcDbEntity
  8
IE_Latarnie - kable
  6
DASHED
370
    30
100
AcDbLine
 10
8380700.890234592
 20
5719854.927319174
 30
0.0
 11
8380706.951199908
 21
5719856.887692471
 31
0.0
  0
LINE
  5
1000125
330
1B
100
AcDbEntity
  8
IE_Latarnie - kable
  6
DASHED
370
    30
100
AcDbLine
 10
8380706.951199908
 20
5719856.887692471
 30
0.0
 11
8380707.101509464
 21
5719856.453013582
 31
0.0
  0
INSERT
  5
1000126
330
1B
100
AcDbEntity
  8
IE_Latarnie - kable
100
AcDbBlockReference
  2
g f f
 10
7464985.998971742
 20
9588264.435658503
 30
0.0
 41
0.4204800000000001
 42
0.4204800000000001
 43
0.4204800000000001
 50
247.3280177786335
  0
INSERT
  5
1000127
330
1B
100
AcDbEntity
  8
IE_Latarnie - kable
100
AcDbBlockReference
  2
g f f
 10
7464985.732184338
 20
9588272.031924155
 30
0.0
 41
0.4204800000000001
 42
0.4204800000000001
 43
0.4204800000000001
 50
247.3280177786335
  0
INSERT
  5
1000128
330
1B
100
AcDbEntity
  8
IE_Latarnie - kable
100
AcDbBlockReference
  2
g f f
 10
7464997.244228665
 20
9588276.085538522
 30
0.0
 41
0.4204800000000001
 42
0.4204800000000001
 43
0.4204800000000001
 50
247.3280177786335
  0
INSERT
  5
1000129
330
1B
100
AcDbEntity
  8
IE_Latarnie - kable
100
AcDbBlockReference
  2
g f f
 10
7464997.328920274
 20
9588285.010841229
 30
0.0
 41
0.4204800000000001
 42
0.4204800000000001
 43
0.4204800000000001
 50
247.3280177786335
  0
INSERT
  5
100012A
330
1B
100
AcDbEntity
  8
IE_Latarnie - kable
100
AcDbBlockReference
  2
g f f
 10
7464983.590919985
 20
9588281.879774717
 30
0.0
 41
0.4204800000000001
 42
0.4204800000000001
 43
0.4204800000000001
 50
247.3280177786335
  0
INSERT
  5
100012B
330
1B
100
AcDbEntity
  8
IE_Latarnie - kable
100
AcDbBlockReference
  2
g f f
 10
7464980.224795547
 20
9588291.518742524
 30
0.0
 41
0.4204800000000001
 42
0.4204800000000001
 43
0.4204800000000001
 50
247.3280177786335
  0
INSERT
  5
100012C
330
1B
100
AcDbEntity
  8
IE_Latarnie - kable
100
AcDbBlockReference
  2
g f f
 10
7464977.164449869
 20
9588300.282106478
 30
0.0
 41
0.4204800000000001
 42
0.4204800000000001
 43
0.4204800000000001
 50
247.3280177786335
  0
INSERT
  5
100012D
330
1B
100
AcDbEntity
  8
IE_Latarnie - kable
100
AcDbBlockReference
  2
g f f
 10
7464973.217883295
 20
9588329.316241562
 30
0.0
 41
0.4204800000000001
 42
0.4204800000000001
 43
0.4204800000000001
 50
247.3280177786335
  0
INSERT
  5
100012E
330
1B
100
AcDbEntity
  8
IE_Latarnie - kable
100
AcDbBlockReference
  2
g f f
 10
7464968.681718906
 20
9588335.154059842
 30
0.0
 41
0.4204800000000001
 42
0.4204800000000001
 43
0.4204800000000001
 50
247.3280177786335
  0
INSERT
  5
100012F
330
1B
100
AcDbEntity
  8
IE_Latarnie - kable
100
AcDbBlockReference
  2
g f f
 10
7464961.686189131
 20
9588336.430420666
 30
0.0
 41
0.4204800000000001
 42
0.4204800000000001
 43
0.4204800000000001
 50
247.3280177786335
  0
INSERT
  5
1000130
330
1B
100
AcDbEntity
  8
IE_Latarnie - kable
100
AcDbBlockReference
  2
g f f
 10
7464972.316545586
 20
9588344.989767868
 30
0.0
 41
0.4204800000000001
 42
0.4204800000000001
 43
0.4204800000000001
 50
247.3280177786335
  0
INSERT
  5
1000131
330
1B
100
AcDbEntity
  8
IE_Latarnie - kable
100
AcDbBlockReference
  2
g f f
 10
7464993.461635323
 20
9588343.073314153
 30
0.0
 41
0.4204800000000001
 42
0.4204800000000001
 43
0.4204800000000001
 50
247.3280177786335
  0
INSERT
  5
1000132
330
1B
100
AcDbEntity
  8
IE_Latarnie - kable
100
AcDbBlockReference
  2
g f f
 10
7464995.106793002
 20
9588352.858651612
 30
0.0
 41
0.4204800000000001
 42
0.4204800000000001
 43
0.4204800000000001
 50
247.3280177786335
  0
LINE
  5
1000133
330
1B
100
AcDbEntity
  8
IE_Latarnie - kable
370
    15
100
AcDbLine
 10
8380691.673426472
 20
5719885.371999213
 30
0.0
 11
8380691.673426472
 21
5719885.635999215
 31
0.0
  0
LINE
  5
1000134
330
1B
100
AcDbEntity
  8
IE_Latarnie - kable
370
    15
100
AcDbLine
 10
8380691.673426472
 20
5719885.635999215
 30
0.0
 11
8380691.289426474
 21
5719885.635999215
 31
0.0
  0
LINE
  5
1000135
330
1B
100
AcDbEntity
  8
IE_Latarnie - kable
370
    15
100
AcDbLine
 10
8380691.289426474
 20
5719885.635999215
 30
0.0
 11
8380691.289426474
 21
5719885.371999213
 31
0.0
  0
LINE
  5
1000136
330
1B
100
AcDbEntity
  8
IE_Latarnie - kable
370
    15
100
AcDbLine
 10
8380691.289426474
 20
5719885.371999213
 30
0.0
 11
8380691.673426472
 21
5719885.371999213
 31
0.0
  0
LINE
  5
1000137
330
1B
100
AcDbEntity
  8
IE_Latarnie - kable
370
    15
100
AcDbLine
 10
8380693.534597432
 20
5719884.289485023
 30
0.0
 11
8380693.534597432
 21
5719884.553485026
 31
0.0
  0
LINE
  5
1000138
330
1B
100
AcDbEntity
  8
IE_Latarnie - kable
370
    15
100
AcDbLine
 10
8380693.534597432
 20
5719884.553485026
 30
0.0
 11
8380693.150597434
 21
5719884.553485026
 31
0.0
  0
LINE
  5
1000139
330
1B
100
AcDbEntity
  8
IE_Latarnie - kable
370
    15
100
AcDbLine
 10
8380693.150597434
 20
5719884.553485026
 30
0.0
 11
8380693.150597434
 21
5719884.289485023
 31
0.0
  0
LINE
  5
100013A
330
1B
100
AcDbEntity
  8
IE_Latarnie - kable
370
    15
100
AcDbLine
 10
8380693.150597434
 20
5719884.289485023
 30
0.0
 11
8380693.534597432
 21
5719884.289485023
 31
0.0
  0
LINE
  5
100013B
330
1B
100
AcDbEntity
  8
IE_Latarnie - kable
370
    15
100
AcDbLine
 10
8380701.373898748
 20
5719838.864341635
 30
0.0
 11
8380701.280067679
 21
5719838.617579134
 31
0.0
  0
LINE
  5
100013C
330
1B
100
AcDbEntity
  8
IE_Latarnie - kable
370
    15
100
AcDbLine
 10
8380701.280067679
 20
5719838.617579134
 30
0.0
 11
8380701.498788983
 21
5719838.53441069
 31
0.0
  0
LINE
  5
100013D
330
1B
100
AcDbEntity
  8
IE_Latarnie - kable
370
    15
100
AcDbLine
 10
8380701.498788983
 20
5719838.53441069
 30
0.0
 11
8380701.592620052
 21
5719838.781173189
 31
0.0
  0
LINE
  5
100013E
330
1B
100
AcDbEntity
  8
IE_Latarnie - kable
370
    15
100
AcDbLine
 10
8380701.592620052
 20
5719838.781173189
 30
0.0
 11
8380701.373898748
 21
5719838.864341635
 31
0.0
  0
LINE
  5
100013F
330
1B
100
AcDbEntity
  8
IE_Latarnie - kable
370
    15
100
AcDbLine
 10
8380706.697426161
 20
5719858.13258245
 30
0.0
 11
8380706.611149044
 21
5719858.382086479
 31
0.0
  0
LINE
  5
1000140
330
1B
100
AcDbEntity
  8
IE_Latarnie - kable
370
    15
100
AcDbLine
 10
8380706.611149044
 20
5719858.382086479
 30
0.0
 11
8380706.389997751
 21
5719858.30561358
 31
0.0
  0
LINE
  5
1000141
330
1B
100
AcDbEntity
  8
IE_Latarnie - kable
370
    15
100
AcDbLine
 10
8380706.389997751
 20
5719858.30561358
 30
0.0
 11
8380706.476274866
 21
5719858.056109552
 31
0.0
  0
LINE
  5
1000142
330
1B
100
AcDbEntity
  8
IE_Latarnie - kable
370
    15
100
AcDbLine
 10
8380706.476274866
 20
5719858.056109552
 30
0.0
 11
8380706.697426161
 21
5719858.13258245
 31
0.0
  0
LINE
  5
1000143
330
1B
100
AcDbEntity
  8
IE_Latarnie - kable
370
    15
100
AcDbLine
 10
8380696.209274537
 20
5719854.629556853
 30
0.0
 11
8380696.122997422
 21
5719854.879060881
 31
0.0
  0
LINE
  5
1000144
330
1B
100
AcDbEntity
  8
IE_Latarnie - kable
370
    15
100
AcDbLine
 10
8380696.122997422
 20
5719854.879060881
 30
0.0
 11
8380695.901846127
 21
5719854.802587982
 31
0.0
  0
LINE
  5
1000145
330
1B
100
AcDbEntity
  8
IE_Latarnie - kable
370
    15
100
AcDbLine
 10
8380695.901846127
 20
5719854.802587982
 30
0.0
 11
8380695.988123244
 21
5719854.553083954
 31
0.0
  0
LINE
  5
1000146
330
1B
100
AcDbEntity
  8
IE_Latarnie - kable
370
    15
100
AcDbLine
 10
8380695.988123244
 20
5719854.553083954
 30
0.0
 11
8380696.209274537
 21
5719854.629556853
 31
0.0
  0
LINE
  5
1000147
330
1B
100
AcDbEntity
  8
IE_Latarnie - kable
370
    15
100
AcDbLine
 10
8380706.411612893
 20
5719899.425532016
 30
0.0
 11
8380706.473176097
 21
5719899.248672669
 31
0.0
  0
LINE
  5
1000148
330
1B
100
AcDbEntity
  8
IE_Latarnie - kable
370
    15
100
AcDbLine
 10
8380706.473176097
 20
5719899.248672669
 30
0.0
 11
8380706.656049628
 21
5719899.312329357
 31
0.0
  0
LINE
  5
1000149
330
1B
100
AcDbEntity
  8
IE_Latarnie - kable
370
    15
100
AcDbLine
 10
8380706.411612893
 20
5719899.425532016
 30
0.0
 11
8380706.594486426
 21
5719899.489188704
 31
0.0
  0
LINE
  5
100014A
330
1B
100
AcDbEntity
  8
IE_Latarnie - kable
370
    15
100
AcDbLine
 10
8380706.594486426
 20
5719899.489188704
 30
0.0
 11
8380706.656049628
 21
5719899.312329357
 31
0.0
  0
LINE
  5
100014B
330
1B
100
AcDbEntity
  8
IE_Latarnie - kable
370
    30
100
AcDbLine
 10
8380689.270886326
 20
5719872.792444552
 30
0.0
 11
8380711.463104393
 21
5719880.873616473
 31
0.0
  0
LINE
  5
100014C
330
1B
100
AcDbEntity
  8
IE_Latarnie - kable
370
    30
100
AcDbLine
 10
8380707.163420671
 20
5719885.959350021
 30
0.0
 11
8380704.342764653
 21
5719884.933633502
 31
0.0
  0
LINE
  5
100014D
330
1B
100
AcDbEntity
  8
IE_Latarnie - kable
370
    30
100
AcDbLine
 10
8380704.342764653
 20
5719884.933633502
 30
0.0
 11
8380701.596818626
 21
5719883.932379707
 31
0.0
  0
LINE
  5
100014E
330
1B
100
AcDbEntity
  8
IE_Latarnie - kable
370
    30
100
AcDbLine
 10
8380703.735357196
 20
5719878.059600611
 30
0.0
 11
8380701.596818626
 21
5719883.932379707
 31
0.0
  0
MTEXT
  5
100014F
330
1B
100
AcDbEntity
  8
IE_KABLE
 48
0.9
100
AcDbMText
 10
8380688.982320309
 20
5719875.021013996
 30
0.0
 40
0.6
 41
3.864222530275583
 46
0.0
 71
     1
 72
     5
  1
{\fArial Narrow|b0|i0|c238|p34;S1/1}
 73
     1
 44
1.0
1001
AcadAnnotative
1000
AnnotativeData
1002
{
1070
     1
1070
     0
1002
}
1001
ACAD
1000
MTEXTBEGIN
1070
    73
1070
     1
1070
    44
1040
1.0
1070
    74
1070
     0
1000
MTEXTEND
  0
MTEXT
  5
1000150
330
1B
100
AcDbEntity
  8
IE_KABLE
 48
0.9
100
AcDbMText
 10
8380683.888249311
 20
5719880.841225349
 30
0.0
 40
0.6
 41
3.864222530275583
 46
0.0
 71
     1
 72
     5
  1
{\fArial Narrow|b0|i0|c238|p34;S1/2}
 73
     1
 44
1.0
1001
AcadAnnotative
1000
AnnotativeData
1002
{
1070
     1
1070
     0
1002
}
1001
ACAD
1000
MTEXTBEGIN
1070
    73
1070
     1
1070
    44
1040
1.0
1070
    74
1070
     0
1000
MTEXTEND
  0
MTEXT
  5
1000151
330
1B
100
AcDbEntity
  8
IE_KABLE
 48
0.9
100
AcDbMText
 10
8380676.593971434
 20
5719883.767173436
 30
0.0
 40
0.6
 41
3.864222530275583
 46
0.0
 71
     1
 72
     5
  1
{\fArial Narrow|b0|i0|c238|p34;S1/3}
 73
     1
 44
1.0
1001
AcadAnnotative
1000
AnnotativeData
1002
{
1070
     1
1070
     0
1002
}
1001
ACAD
1000
MTEXTBEGIN
1070
    73
1070
     1
1070
    44
1040
1.0
1070
    74
1070
     0
1000
MTEXTEND
  0
MTEXT
  5
1000152
330
1B
100
AcDbEntity
  8
IE_KABLE
 48
0.9
100
AcDbMText
 10
8380687.477676746
 20
5719890.238169961
 30
0.0
 40
0.6
 41
3.864222530275583
 46
0.0
 71
     1
 72
     5
  1
{\fArial Narrow|b0|i0|c238|p34;S1/4}
 73
     1
 44
1.0
1001
AcadAnnotative
1000
AnnotativeData
1002
{
1070
     1
1070
     0
1002
}
1001
ACAD
1000
MTEXTBEGIN
1070
    73
1070
     1
1070
    44
1040
1.0
1070
    74
1070
     0
1000
MTEXTEND
  0
MTEXT
  5
1000153
330
1B
100
AcDbEntity
  8
IE_KABLE
 48
0.9
100
AcDbMText
 10
8380709.588672656
 20
5719888.96996666
 30
0.0
 40
0.6
 41
3.864222530275583
 46
0.0
 71
     1
 72
     5
  1
{\fArial Narrow|b0|i0|c238|p34;S1/5}
 73
     1
 44
1.0
1001
AcadAnnotative
1000
AnnotativeData
1002
{
1070
     1
1070
     0
1002
}
1001
ACAD
1000
MTEXTBEGIN
1070
    73
1070
     1
1070
    44
1040
1.0
1070
    74
1070
     0
1000
MTEXTEND
  0
MTEXT
  5
1000154
330
1B
100
AcDbEntity
  8
IE_KABLE
 48
0.9
100
AcDbMText
 10
8380709.601218969
 20
5719898.553716642
 30
0.0
 40
0.6
 41
3.864222530275583
 46
0.0
 71
     1
 72
     5
  1
{\fArial Narrow|b0|i0|c238|p34;S1/6}
 73
     1
 44
1.0
1001
AcadAnnotative
1000
AnnotativeData
1002
{
1070
     1
1070
     0
1002
}
1001
ACAD
1000
MTEXTBEGIN
1070
    73
1070
     1
1070
    44
1040
1.0
1070
    74
1070
     0
1000
MTEXTEND
  0
MTEXT
  5
1000155
330
1B
100
AcDbEntity
  8
IE_KABLE
 48
0.9
100
AcDbMText
 10
8380691.168499634
 20
5719846.543804876
 30
0.0
 40
0.6
 41
3.864222530275583
 46
0.0
 71
     1
 72
     5
  1
{\fArial Narrow|b0|i0|c238|p34;S2/1}
 73
     1
 44
1.0
1001
AcadAnnotative
1000
AnnotativeData
1002
{
1070
     1
1070
     0
1002
}
1001
ACAD
1000
MTEXTBEGIN
1070
    73
1070
     1
1070
    44
1040
1.0
1070
    74
1070
     0
1000
MTEXTEND
  0
MTEXT
  5
1000156
330
1B
100
AcDbEntity
  8
IE_KABLE
 48
0.9
100
AcDbMText
 10
8380694.22503475
 20
5719837.791352555
 30
0.0
 40
0.6
 41
3.864222530275583
 46
0.0
 71
     1
 72
     5
  1
{\fArial Narrow|b0|i0|c238|p34;S2/2}
 73
     1
 44
1.0
1001
AcadAnnotative
1000
AnnotativeData
1002
{
1070
     1
1070
     0
1002
}
1001
ACAD
1000
MTEXTBEGIN
1070
    73
1070
     1
1070
    44
1040
1.0
1070
    74
1070
     0
1000
MTEXTEND
  0
MTEXT
  5
1000157
330
1B
100
AcDbEntity
  8
IE_KABLE
 48
0.9
100
AcDbMText
 10
8380697.594969751
 20
5719828.141473114
 30
0.0
 40
0.6
 41
3.864222530275583
 46
0.0
 71
     1
 72
     5
  1
{\fArial Narrow|b0|i0|c238|p34;S2/3}
 73
     1
 44
1.0
1001
AcadAnnotative
1000
AnnotativeData
1002
{
1070
     1
1070
     0
1002
}
1001
ACAD
1000
MTEXTBEGIN
1070
    73
1070
     1
1070
    44
1040
1.0
1070
    74
1070
     0
1000
MTEXTEND
  0
MTEXT
  5
1000158
330
1B
100
AcDbEntity
  8
IE_KABLE
 48
0.9
100
AcDbMText
 10
8380713.396467367
 20
5719831.231165634
 30
0.0
 40
0.6
 41
3.864222530275583
 46
0.0
 71
     1
 72
     5
  1
{\fArial Narrow|b0|i0|c238|p34;S2/4}
 73
     1
 44
1.0
1001
AcadAnnotative
1000
AnnotativeData
1002
{
1070
     1
1070
     0
1002
}
1001
ACAD
1000
MTEXTBEGIN
1070
    73
1070
     1
1070
    44
1040
1.0
1070
    74
1070
     0
1000
MTEXTEND
  0
MTEXT
  5
1000159
330
1B
100
AcDbEntity
  8
IE_KABLE
 48
0.9
100
AcDbMText
 10
8380712.40876161
 20
5719823.382394411
 30
0.0
 40
0.6
 41
3.864222530275583
 46
0.0
 71
     1
 72
     5
  1
{\fArial Narrow|b0|i0|c238|p34;S2/5}
 73
     1
 44
1.0
1001
AcadAnnotative
1000
AnnotativeData
1002
{
1070
     1
1070
     0
1002
}
1001
ACAD
1000
MTEXTBEGIN
1070
    73
1070
     1
1070
    44
1040
1.0
1070
    74
1070
     0
1000
MTEXTEND
  0
MTEXT
  5
100015A
330
1B
100
AcDbEntity
  8
IE_KABLE
 48
0.9
100
AcDbMText
 10
8380701.738435993
 20
5719818.213778474
 30
0.0
 40
0.6
 41
3.864222530275583
 46
0.0
 71
     1
 72
     5
  1
{\fArial Narrow|b0|i0|c238|p34;S2/6}
 73
     1
 44
1.0
1001
AcadAnnotative
1000
AnnotativeData
1002
{
1070
     1
1070
     0
1002
}
1001
ACAD
1000
MTEXTBEGIN
1070
    73
1070
     1
1070
    44
1040
1.0
1070
    74
1070
     0
1000
MTEXTEND
  0
MTEXT
  5
100015B
330
1B
100
AcDbEntity
  8
IE_KABLE
 48
0.9
100
AcDbMText
 10
8380701.610307667
 20
5719811.813469106
 30
0.0
 40
0.6
 41
3.864222530275583
 46
0.0
 71
     1
 72
     5
  1
{\fArial Narrow|b0|i0|c238|p34;S2/7}
 73
     1
 44
1.0
1001
AcadAnnotative
1000
AnnotativeData
1002
{
1070
     1
1070
     0
1002
}
1001
ACAD
1000
MTEXTBEGIN
1070
    73
1070
     1
1070
    44
1040
1.0
1070
    74
1070
     0
1000
MTEXTEND
  0
LINE
  5
100015C
330
1B
100
AcDbEntity
  8
IE_Latarnie - kable
370
    30
100
AcDbLine
 10
8380695.703924484
 20
5719837.724925867
 30
0.0
 11
8380701.389428335
 21
5719838.575994912
 31
0.0
  0
LINE
  5
100019A
330
1B
100
AcDbEntity
  8
A-NAWIERZCHNIE
  6
Continuous
100
AcDbLine
 10
8380708.583321888
 20
5719899.29971691
 30
0.0
 11
8380708.076362861
 21
5719900.711450788
 31
0.0
  0
LINE
  5
100019B
330
1B
100
AcDbEntity
  8
A-NAWIERZCHNIE
  6
Continuous
100
AcDbLine
 10
8380708.076362861
 20
5719900.711450788
 30
0.0
 11
8380707.605784902
 21
5719900.542464444
 31
0.0
  0
LINE
  5
100019C
330
1B
100
AcDbEntity
  8
A-NAWIERZCHNIE
  6
Continuous
100
AcDbLine
 10
8380707.605784902
 20
5719900.542464444
 30
0.0
 11
8380708.11274393
 21
5719899.130730566
 31
0.0
  0
LINE
  5
100019D
330
1B
100
AcDbEntity
  8
A-NAWIERZCHNIE
  6
Continuous
100
AcDbLine
 10
8380708.11274393
 20
5719899.130730566
 30
0.0
 11
8380708.583321888
 21
5719899.29971691
 31
0.0
  0
ENDSEC
  0
SECTION
  2
OBJECTS
  0
DICTIONARY
  5
33B
330
0
100
AcDbDictionary
281
     1
  3
ACAD_COLOR
350
100001C
  3
ACAD_GROUP
350
33C
  3
ACAD_LAYOUT
350
33D
  3
ACAD_MATERIAL
350
FFFFFF
  3
ACAD_MLEADERSTYLE
350
100001F
  3
ACAD_MLINESTYLE
350
33E
  3
ACAD_PLOTSETTINGS
350
33F
  3
ACAD_PLOTSTYLENAME
350
340
  3
ACAD_SCALELIST
350
1000021
  3
ACAD_TABLESTYLE
350
100001D
  3
ACAD_VISUALSTYLE
350
1000003
  3
AcDbVariableDictionary
350
100019E
  0
DICTIONARY
  5
1000106
330
C
100
AcDbDictionary
280
     1
281
     1
  3
ACAD_LAYERSTATES
360
1000107
  0
DICTIONARY
  5
1000074
330
1000073
100
AcDbDictionary
280
     1
281
     1
  3
ADSK_XREC_LAYER_RECONCILED
360
1000075
  0
DICTIONARY
  5
1000079
330
1000078
100
AcDbDictionary
280
     1
281
     1
  3
ADSK_XREC_LAYER_RECONCILED
360
100007A
  0
DICTIONARY
  5
1000166
330
1000165
100
AcDbDictionary
280
     1
281
     1
  3
ADSK_XREC_LAYER_RECONCILED
360
1000167
  0
DICTIONARY
  5
1000161
330
1000160
100
AcDbDictionary
280
     1
281
     1
  3
ADSK_XREC_LAYER_RECONCILED
360
1000162
  0
DICTIONARY
  5
1000034
330
1B
100
AcDbDictionary
280
     1
281
     1
  3
ACAD_SORTENTS
360
1000035
  0
DICTIONARY
  5
100001C
102
{ACAD_REACTORS
330
33B
102
}
330
33B
100
AcDbDictionary
281
     1
  0
DICTIONARY
  5
33C
102
{ACAD_REACTORS
330
33B
102
}
330
33B
100
AcDbDictionary
281
     1
  0
DICTIONARY
  5
33D
102
{ACAD_REACTORS
330
33B
102
}
330
33B
100
AcDbDictionary
281
     1
  3
Layout
350
1E
  3
Model
350
1C
  0
DICTIONARY
  5
FFFFFF
102
{ACAD_REACTORS
330
33B
102
}
330
33B
100
AcDbDictionary
281
     1
  3
ByBlock
350
1000001
  3
ByLayer
350
1000000
  3
Global
350
1000002
  0
DICTIONARY
  5
100001F
102
{ACAD_REACTORS
330
33B
102
}
330
33B
100
AcDbDictionary
281
     1
  3
Standard
350
1000020
  0
DICTIONARY
  5
33E
102
{ACAD_REACTORS
330
33B
102
}
330
33B
100
AcDbDictionary
281
     1
  3
L_0_02
350
7
  3
Standard
350
341
  0
DICTIONARY
  5
33F
102
{ACAD_REACTORS
330
33B
102
}
330
33B
100
AcDbDictionary
281
     1
  0
ACDBDICTIONARYWDFLT
  5
340
102
{ACAD_REACTORS
330
33B
102
}
330
33B
100
AcDbDictionary
281
     1
  3
Normal
350
E
100
AcDbDictionaryWithDefault
340
E
  0
DICTIONARY
  5
1000021
102
{ACAD_REACTORS
330
33B
102
}
330
33B
100
AcDbDictionary
281
     1
  3
A0
350
1000022
  3
A1
350
1000023
  3
A2
350
1000024
  3
A3
350
1000025
  3
A4
350
1000026
  3
A5
350
1000027
  3
A6
350
1000028
  3
A7
350
1000029
  3
A8
350
100002A
  3
A9
350
100002B
  3
B0
350
100002C
  3
B1
350
100002D
  3
B2
350
100002E
  3
B3
350
100002F
  3
B4
350
1000030
  3
B5
350
1000031
  3
B6
350
1000032
  0
DICTIONARY
  5
100001D
102
{ACAD_REACTORS
330
33B
102
}
330
33B
100
AcDbDictionary
281
     1
  3
Standard
350
100001E
  0
DICTIONARY
  5
1000003
102
{ACAD_REACTORS
330
33B
102
}
330
33B
100
AcDbDictionary
281
     1
  3
2dWireframe
350
1000008
  3
Basic
350
100000B
  3
Brighten
350
100000F
  3
ColorChange
350
1000013
  3
Conceptual
350
100000D
  3
Dim
350
100000E
  3
EdgeColorOff
350
1000016
  3
Facepattern
350
1000012
  3
Flat
350
1000004
  3
FlatWithEdges
350
1000005
  3
Gouraud
350
1000006
  3
GouraudWithEdges
350
1000007
  3
Hidden
350
100000A
  3
JitterOff
350
1000014
  3
Linepattern
350
1000011
  3
OverhangOff
350
1000015
  3
Realistic
350
100000C
  3
Shaded
350
100001B
  3
Shaded with edges
350
100001A
  3
Shades of Gray
350
1000017
  3
Sketchy
350
1000018
  3
Thicken
350
1000010
  3
Wireframe
350
1000009
  3
X-Ray
350
1000019
  0
DICTIONARY
  5
100019E
102
{ACAD_REACTORS
330
33B
102
}
330
33B
100
AcDbDictionary
281
     1
  3
CANNOSCALE
350
10001A2
  3
CMLEADERSTYLE
350
10001A0
  3
CTABLESTYLE
350
100019F
  3
MSLTSCALE
350
10001A1
  0
DICTIONARY
  5
1000107
102
{ACAD_REACTORS
330
1000106
102
}
330
1000106
100
AcDbDictionary
281
     1
  0
XRECORD
  5
1000075
102
{ACAD_REACTORS
330
1000074
102
}
330
1000074
100
AcDbXrecord
280
     1
290
     0
  0
XRECORD
  5
100007A
102
{ACAD_REACTORS
330
1000079
102
}
330
1000079
100
AcDbXrecord
280
     1
290
     0
  0
XRECORD
  5
1000167
102
{ACAD_REACTORS
330
1000166
102
}
330
1000166
100
AcDbXrecord
280
     1
290
     0
  0
XRECORD
  5
1000162
102
{ACAD_REACTORS
330
1000161
102
}
330
1000161
100
AcDbXrecord
280
     1
290
     0
  0
SORTENTSTABLE
  5
1000035
102
{ACAD_REACTORS
330
1000034
102
}
330
1000034
100
AcDbSortentsTable
330
1B
331
308
  5
100003F
331
309
  5
1000040
331
30A
  5
1000041
331
30B
  5
1000042
331
30C
  5
1000043
331
30D
  5
1000044
331
30E
  5
1000045
331
30F
  5
1000046
331
310
  5
1000047
331
311
  5
1000048
331
312
  5
1000049
331
313
  5
100004A
331
314
  5
100004B
331
315
  5
100004C
331
316
  5
100004D
331
317
  5
100004E
331
318
  5
100004F
331
319
  5
1000050
331
31A
  5
1000051
331
31B
  5
1000052
331
31C
  5
1000053
331
31D
  5
1000054
331
31E
  5
1000055
331
31F
  5
1000056
331
320
  5
1000057
331
321
  5
1000058
331
322
  5
1000059
331
323
  5
100005A
331
324
  5
100005B
331
325
  5
100005C
331
326
  5
100005D
331
327
  5
100005E
331
328
  5
100005F
331
329
  5
1000060
331
32A
  5
1000061
331
32B
  5
1000062
331
32C
  5
1000063
331
32D
  5
1000064
331
32E
  5
1000065
331
32F
  5
1000066
331
330
  5
1000067
331
331
  5
1000068
331
332
  5
1000069
331
333
  5
100006A
331
334
  5
100006B
331
335
  5
100006C
331
337
  5
100006D
331
338
  5
100006E
331
33A
  5
100006F
331
1000036
  5
308
331
1000037
  5
309
331
1000038
  5
30A
331
1000039
  5
30B
331
100003A
  5
30C
331
100003B
  5
30D
331
100003C
  5
30E
331
100003D
  5
30F
331
100003E
  5
310
331
100003F
  5
311
331
1000040
  5
312
331
1000041
  5
313
331
1000042
  5
314
331
1000043
  5
315
331
1000044
  5
316
331
1000045
  5
317
331
1000046
  5
318
331
1000047
  5
319
331
1000048
  5
31A
331
1000049
  5
31B
331
100004A
  5
31C
331
100004B
  5
31D
331
100004C
  5
31E
331
100004D
  5
31F
331
100004E
  5
320
331
100004F
  5
321
331
1000050
  5
322
331
1000051
  5
323
331
1000052
  5
324
331
1000053
  5
325
331
1000054
  5
326
331
1000055
  5
327
331
1000056
  5
328
331
1000057
  5
329
331
1000058
  5
32A
331
1000059
  5
32B
331
100005A
  5
32C
331
100005B
  5
32D
331
100005C
  5
32E
331
100005D
  5
32F
331
100005E
  5
330
331
100005F
  5
331
331
1000060
  5
332
331
1000061
  5
333
331
1000062
  5
334
331
1000063
  5
335
331
1000064
  5
337
331
1000065
  5
338
331
1000066
  5
33A
331
1000067
  5
1000036
331
1000068
  5
1000037
331
1000069
  5
1000038
331
100006A
  5
1000039
331
100006B
  5
100003A
331
100006C
  5
100003B
331
100006D
  5
100003C
331
100006E
  5
100003D
331
100006F
  5
100003E
  0
LAYOUT
  5
1E
330
33D
100
AcDbPlotSettings
  1

  2

  4

  6

 40
0.0
 41
0.0
 42
0.0
 43
0.0
 44
0.0
 45
0.0
 46
0.0
 47
0.0
 48
0.0
 49
0.0
140
0.0
141
0.0
142
1.0
143
1.0
 70
   688
 72
     1
 73
     0
 74
     5
  7

 75
     0
 76
     0
 77
     2
 78
   300
147
1.0
148
0.0
149
0.0
100
AcDbLayout
  1
Layout
 70
     1
 71
     1
 10
0.0
 20
0.0
 11
420.0
 21
297.0
 12
0.0
 22
0.0
 32
0.0
 14
1.000000000000000E+20
 24
1.000000000000000E+20
 34
1.000000000000000E+20
 15
-1.000000000000000E+20
 25
-1.000000000000000E+20
 35
-1.000000000000000E+20
146
0.0
 13
0.0
 23
0.0
 33
0.0
 16
1.0
 26
0.0
 36
0.0
 17
0.0
 27
1.0
 37
0.0
 76
     0
330
1D
  0
LAYOUT
  5
1C
330
33D
100
AcDbPlotSettings
  1

  2

  4

  6

 40
0.0
 41
0.0
 42
0.0
 43
0.0
 44
0.0
 45
0.0
 46
0.0
 47
0.0
 48
0.0
 49
0.0
140
0.0
141
0.0
142
1.0
143
1.0
 70
  1712
 72
     1
 73
     0
 74
     0
  7

 75
     0
 76
     0
 77
     2
 78
   300
147
1.0
148
0.0
149
0.0
100
AcDbLayout
  1
Model
 70
     1
 71
     0
 10
0.0
 20
0.0
 11
12.0
 21
9.0
 12
0.0
 22
0.0
 32
0.0
 14
0.0
 24
0.0
 34
0.0
 15
0.0
 25
0.0
 35
0.0
146
0.0
 13
0.0
 23
0.0
 33
0.0
 16
1.0
 26
0.0
 36
0.0
 17
0.0
 27
1.0
 37
0.0
 76
     0
330
1B
331
2
  0
MATERIAL
  5
1000001
102
{ACAD_REACTORS
330
FFFFFF
102
}
330
FFFFFF
100
AcDbMaterial
  1
ByBlock
 72
     0
 73
     2
 77
     0
 78
     2
171
     0
172
     2
175
     0
176
     2
179
     0
270
     2
274
     2
 94
      127
  0
MATERIAL
  5
1000000
102
{ACAD_REACTORS
330
FFFFFF
102
}
330
FFFFFF
100
AcDbMaterial
  1
ByLayer
 72
     0
 73
     2
 77
     0
 78
     2
171
     0
172
     2
175
     0
176
     2
179
     0
270
     2
274
     2
 94
      127
  0
MATERIAL
  5
1000002
102
{ACAD_REACTORS
330
FFFFFF
102
}
330
FFFFFF
100
AcDbMaterial
  1
Global
 72
     0
 73
     2
 77
     0
 78
     2
171
     0
172
     2
175
     0
176
     2
179
     0
270
     2
274
     2
 94
      127
  0
MLEADERSTYLE
  5
1000020
102
{ACAD_REACTORS
330
100001F
102
}
330
100001F
100
AcDbMLeaderStyle
179
     2
170
     2
171
     1
172
     0
 90
        2
 40
0.0
 41
0.0
173
     1
 91
-1056964608
340
4
 92
       -2
290
     1
 42
0.4
291
     1
 43
2.0
  3
Standard
 44
0.18
300

342
12
174
     1
178
     1
175
     1
176
     0
 93
-1056964608
 45
0.2
292
     0
297
     0
 46
5.0
 94
-1056964608
 47
1.0
 49
1.0
140
1.0
293
     1
141
0.0
294
     1
177
     0
142
1.0
295
     0
296
     0
143
0.125
271
     0
272
     9
273
     9
298
     0
  0
MLINESTYLE
  5
7
330
33E
100
AcDbMlineStyle
  2
L_0_02
 70
     0
  3

 62
   256
 51
90.0
 52
90.0
 71
     1
 49
0.0
 62
   256
  6
CONTINUOUS
  0
MLINESTYLE
  5
341
102
{ACAD_REACTORS
330
33E
102
}
330
33E
100
AcDbMlineStyle
  2
Standard
 70
     0
  3

 62
   256
 51
90.0
 52
90.0
 71
     2
 49
0.5
 62
   256
  6
BYLAYER
 49
-0.5
 62
   256
  6
BYLAYER
  0
ACDBPLACEHOLDER
  5
E
102
{ACAD_REACTORS
330
340
102
}
330
340
  0
SCALE
  5
1000022
102
{ACAD_REACTORS
330
1000021
102
}
330
1000021
100
AcDbScale
 70
     0
300
1:1
140
1.0
141
1.0
290
     1
  0
SCALE
  5
1000023
102
{ACAD_REACTORS
330
1000021
102
}
330
1000021
100
AcDbScale
 70
     0
300
1:2
140
1.0
141
2.0
290
     0
  0
SCALE
  5
1000024
102
{ACAD_REACTORS
330
1000021
102
}
330
1000021
100
AcDbScale
 70
     0
300
1:4
140
1.0
141
4.0
290
     0
  0
SCALE
  5
1000025
102
{ACAD_REACTORS
330
1000021
102
}
330
1000021
100
AcDbScale
 70
     0
300
1:5
140
1.0
141
5.0
290
     0
  0
SCALE
  5
1000026
102
{ACAD_REACTORS
330
1000021
102
}
330
1000021
100
AcDbScale
 70
     0
300
1:8
140
1.0
141
8.0
290
     0
  0
SCALE
  5
1000027
102
{ACAD_REACTORS
330
1000021
102
}
330
1000021
100
AcDbScale
 70
     0
300
1:10
140
1.0
141
10.0
290
     0
  0
SCALE
  5
1000028
102
{ACAD_REACTORS
330
1000021
102
}
330
1000021
100
AcDbScale
 70
     0
300
1:16
140
1.0
141
16.0
290
     0
  0
SCALE
  5
1000029
102
{ACAD_REACTORS
330
1000021
102
}
330
1000021
100
AcDbScale
 70
     0
300
1:20
140
1.0
141
20.0
290
     0
  0
SCALE
  5
100002A
102
{ACAD_REACTORS
330
1000021
102
}
330
1000021
100
AcDbScale
 70
     0
300
1:30
140
1.0
141
30.0
290
     0
  0
SCALE
  5
100002B
102
{ACAD_REACTORS
330
1000021
102
}
330
1000021
100
AcDbScale
 70
     0
300
1:40
140
1.0
141
40.0
290
     0
  0
SCALE
  5
100002C
102
{ACAD_REACTORS
330
1000021
102
}
330
1000021
100
AcDbScale
 70
     0
300
1:50
140
1.0
141
50.0
290
     0
  0
SCALE
  5
100002D
102
{ACAD_REACTORS
330
1000021
102
}
330
1000021
100
AcDbScale
 70
     0
300
1:100
140
1.0
141
100.0
290
     0
  0
SCALE
  5
100002E
102
{ACAD_REACTORS
330
1000021
102
}
330
1000021
100
AcDbScale
 70
     0
300
2:1
140
2.0
141
1.0
290
     0
  0
SCALE
  5
100002F
102
{ACAD_REACTORS
330
1000021
102
}
330
1000021
100
AcDbScale
 70
     0
300
4:1
140
4.0
141
1.0
290
     0
  0
SCALE
  5
1000030
102
{ACAD_REACTORS
330
1000021
102
}
330
1000021
100
AcDbScale
 70
     0
300
8:1
140
8.0
141
1.0
290
     0
  0
SCALE
  5
1000031
102
{ACAD_REACTORS
330
1000021
102
}
330
1000021
100
AcDbScale
 70
     0
300
10:1
140
10.0
141
1.0
290
     0
  0
SCALE
  5
1000032
102
{ACAD_REACTORS
330
1000021
102
}
330
1000021
100
AcDbScale
 70
     0
300
100:1
140
100.0
141
1.0
290
     0
  0
TABLESTYLE
  5
100001E
102
{ACAD_REACTORS
330
100001D
102
}
330
100001D
100
AcDbTableStyle
  3
Standard
 70
     0
 71
     0
 40
1.5
 41
1.5
280
     0
281
     0
  7
STANDARD
140
4.5
170
     2
 62
     7
 63
   257
283
     0
 90
        4
 91
        0
  1

274
    -2
284
     1
 64
     0
275
    -2
285
     1
 65
     0
276
    -2
286
     1
 66
     0
277
    -2
287
     1
 67
     0
278
    -2
288
     1
 68
     0
279
    -2
289
     1
 69
     0
  7
STANDARD
140
6.0
170
     5
 62
     7
 63
   257
283
     0
 90
        4
 91
        0
  1

274
    -2
284
     1
 64
     0
275
    -2
285
     1
 65
     0
276
    -2
286
     1
 66
     0
277
    -2
287
     1
 67
     0
278
    -2
288
     1
 68
     0
279
    -2
289
     1
 69
     0
  7
STANDARD
140
4.5
170
     5
 62
     7
 63
   257
283
     0
 90
        4
 91
        0
  1

274
    -2
284
     1
 64
     0
275
    -2
285
     1
 65
     0
276
    -2
286
     1
 66
     0
277
    -2
287
     1
 67
     0
278
    -2
288
     1
 68
     0
279
    -2
289
     1
 69
     0
  0
VISUALSTYLE
  5
1000008
102
{ACAD_REACTORS
330
1000003
102
}
330
1000003
100
AcDbVisualStyle
  2
2dWireframe
 70
     4
177
     3
291
     0
 70
    58
 90
        0
176
     1
 90
        2
176
     1
 90
        0
176
     1
 90
        0
176
     1
 40
0.6
176
     1
 40
30.0
176
     1
 62
     7
420
 16777215
176
     1
 90
        1
176
     1
 90
        4
176
     1
 62
     7
176
     1
 62
   257
176
     1
 90
        1
176
     1
 90
        1
176
     1
 40
1.0
176
     1
 90
        0
176
     1
 62
   257
176
     1
 40
1.0
176
     1
 90
        1
176
     1
 90
        6
176
     1
 90
        2
176
     1
 62
     7
176
     1
 90
        5
176
     1
 90
        0
176
     1
 90
        0
176
     1
290
     0
176
     1
 90
        1
176
     1
 40
0.0
176
     1
 90
        0
176
     1
290
     1
176
     1
290
     1
176
     1
290
     0
176
     1
290
     0
176
     1
290
     0
176
     1
290
     0
176
     1
290
     0
176
     1
290
     0
176
     1
290
     0
176
     1
 90
       50
176
     1
 40
0.0
176
     1
 40
1.0
176
     1
 90
        0
176
     1
 62
    18
420
        0
176
     1
 90
       50
176
     1
 90
        3
176
     1
 62
     5
420
      255
176
     1
290
     0
176
     1
 90
       50
176
     1
 90
       50
176
     1
 90
       50
176
     1
290
     0
176
     1
 90
       50
176
     1
 62
   256
176
     0
 40
1.0
176
     0
 90
        2
176
     1
  1
strokes_ogs.tif
176
     1
290
     0
176
     1
 40
1.0
176
     1
 40
1.0
176
     1
  0
VISUALSTYLE
  5
100000B
102
{ACAD_REACTORS
330
1000003
102
}
330
1000003
100
AcDbVisualStyle
  2
Basic
 70
     7
177
     3
291
     1
 70
    58
 90
        1
176
     1
 90
        0
176
     1
 90
        1
176
     1
 90
        0
176
     1
 40
0.6
176
     1
 40
30.0
176
     1
 62
     7
420
 16777215
176
     1
 90
        0
176
     1
 90
        4
176
     1
 62
     7
176
     1
 62
   257
176
     1
 90
        1
176
     1
 90
        1
176
     1
 40
1.0
176
     1
 90
        8
176
     1
 62
     7
176
     1
 40
1.0
176
     1
 90
        1
176
     1
 90
        6
176
     1
 90
        2
176
     1
 62
     7
176
     1
 90
        5
176
     1
 90
        0
176
     1
 90
        0
176
     1
290
     0
176
     1
 90
        1
176
     1
 40
0.0
176
     1
 90
        0
176
     1
290
     0
176
     1
290
     1
176
     1
290
     1
176
     1
290
     0
176
     1
290
     0
176
     1
290
     0
176
     1
290
     0
176
     1
290
     0
176
     1
290
     0
176
     1
 90
       50
176
     1
 40
0.0
176
     1
 40
1.0
176
     1
 90
        0
176
     1
 62
    18
420
        0
176
     1
 90
       50
176
     1
 90
        3
176
     1
 62
     5
420
      255
176
     1
290
     0
176
     1
 90
       50
176
     1
 90
       50
176
     1
 90
       50
176
     1
290
     0
176
     1
 90
       50
176
     1
 62
   256
176
     0
 40
1.0
176
     0
 90
        2
176
     1
  1
strokes_ogs.tif
176
     1
290
     0
176
     1
 40
1.0
176
     1
 40
1.0
176
     1
  0
VISUALSTYLE
  5
100000F
102
{ACAD_REACTORS
330
1000003
102
}
330
1000003
100
AcDbVisualStyle
  2
Brighten
 70
    12
177
     3
291
     1
 70
    58
 90
        2
176
     1
 90
        2
176
     1
 90
        0
176
     1
 90
        0
176
     1
 40
0.6
176
     1
 40
30.0
176
     1
 62
     7
420
 16777215
176
     1
 90
        1
176
     1
 90
        4
176
     1
 62
     7
176
     1
 62
   257
176
     1
 90
        1
176
     1
 90
        1
176
     1
 40
1.0
176
     1
 90
        8
176
     1
 62
     7
176
     1
 40
1.0
176
     1
 90
        1
176
     1
 90
        6
176
     1
 90
        2
176
     1
 62
     7
176
     1
 90
        5
176
     1
 90
        0
176
     1
 90
        0
176
     1
290
     0
176
     1
 90
        1
176
     1
 40
50.0
176
     1
 90
        0
176
     1
290
     0
176
     1
290
     1
176
     1
290
     1
176
     1
290
     0
176
     1
290
     0
176
     1
290
     0
176
     1
290
     0
176
     1
290
     0
176
     1
290
     0
176
     1
 90
       50
176
     1
 40
0.0
176
     1
 40
1.0
176
     1
 90
        0
176
     1
 62
    18
420
        0
176
     1
 90
       50
176
     1
 90
        3
176
     1
 62
     5
420
      255
176
     1
290
     0
176
     1
 90
       50
176
     1
 90
       50
176
     1
 90
       50
176
     1
290
     0
176
     1
 90
       50
176
     1
 62
   256
176
     0
 40
1.0
176
     0
 90
        2
176
     1
  1
strokes_ogs.tif
176
     1
290
     0
176
     1
 40
1.0
176
     1
 40
1.0
176
     1
  0
VISUALSTYLE
  5
1000013
102
{ACAD_REACTORS
330
1000003
102
}
330
1000003
100
AcDbVisualStyle
  2
ColorChange
 70
    16
177
     3
291
     1
 70
    58
 90
        2
176
     1
 90
        2
176
     1
 90
        3
176
     1
 90
        0
176
     1
 40
0.6
176
     1
 40
30.0
176
     1
 62
     8
420
  8421504
176
     1
 90
        1
176
     1
 90
        4
176
     1
 62
     7
176
     1
 62
   257
176
     1
 90
        1
176
     1
 90
        1
176
     1
 40
1.0
176
     1
 90
        8
176
     1
 62
     8
420
  8421504
176
     1
 40
1.0
176
     1
 90
        1
176
     1
 90
        6
176
     1
 90
        2
176
     1
 62
     7
176
     1
 90
        5
176
     1
 90
        0
176
     1
 90
        0
176
     1
290
     0
176
     1
 90
        1
176
     1
 40
0.0
176
     1
 90
        0
176
     1
290
     0
176
     1
290
     1
176
     1
290
     1
176
     1
290
     0
176
     1
290
     0
176
     1
290
     0
176
     1
290
     0
176
     1
290
     0
176
     1
290
     0
176
     1
 90
       50
176
     1
 40
0.0
176
     1
 40
1.0
176
     1
 90
        0
176
     1
 62
    18
420
        0
176
     1
 90
       50
176
     1
 90
        3
176
     1
 62
     5
420
      255
176
     1
290
     0
176
     1
 90
       50
176
     1
 90
       50
176
     1
 90
       50
176
     1
290
     0
176
     1
 90
       50
176
     1
 62
   256
176
     0
 40
1.0
176
     0
 90
        2
176
     1
  1
strokes_ogs.tif
176
     1
290
     0
176
     1
 40
1.0
176
     1
 40
1.0
176
     1
  0
VISUALSTYLE
  5
100000D
102
{ACAD_REACTORS
330
1000003
102
}
330
1000003
100
AcDbVisualStyle
  2
Conceptual
 70
     9
177
     3
291
     0
 70
    58
 90
        3
176
     1
 90
        2
176
     1
 90
        0
176
     1
 90
        0
176
     1
 40
0.6
176
     1
 40
30.0
176
     1
 62
     7
420
 16777215
176
     1
 90
        2
176
     1
 90
        2
176
     1
 62
     7
176
     1
 62
   257
176
     1
 90
        1
176
     1
 90
        1
176
     1
 40
179.0
176
     1
 90
        8
176
     1
 62
     7
176
     1
 40
1.0
176
     1
 90
        1
176
     1
 90
        6
176
     1
 90
        2
176
     1
 62
     7
176
     1
 90
        3
176
     1
 90
        0
176
     1
 90
        0
176
     1
290
     0
176
     1
 90
        1
176
     1
 40
0.0
176
     1
 90
        0
176
     1
290
     0
176
     1
290
     1
176
     1
290
     1
176
     1
290
     0
176
     1
290
     0
176
     1
290
     0
176
     1
290
     0
176
     1
290
     0
176
     1
290
     0
176
     1
 90
       50
176
     1
 40
0.0
176
     1
 40
1.0
176
     1
 90
        0
176
     1
 62
    18
420
        0
176
     1
 90
       50
176
     1
 90
        3
176
     1
 62
     5
420
      255
176
     1
290
     0
176
     1
 90
       50
176
     1
 90
       50
176
     1
 90
       50
176
     1
290
     0
176
     1
 90
       50
176
     1
 62
   256
176
     0
 40
1.0
176
     0
 90
        2
176
     1
  1
strokes_ogs.tif
176
     1
290
     0
176
     1
 40
1.0
176
     1
 40
1.0
176
     1
  0
VISUALSTYLE
  5
100000E
102
{ACAD_REACTORS
330
1000003
102
}
330
1000003
100
AcDbVisualStyle
  2
Dim
 70
    11
177
     3
291
     1
 70
    58
 90
        2
176
     1
 90
        2
176
     1
 90
        0
176
     1
 90
        0
176
     1
 40
0.6
176
     1
 40
30.0
176
     1
 62
     7
420
 16777215
176
     1
 90
        1
176
     1
 90
        4
176
     1
 62
     7
176
     1
 62
   257
176
     1
 90
        1
176
     1
 90
        1
176
     1
 40
1.0
176
     1
 90
        8
176
     1
 62
     7
176
     1
 40
1.0
176
     1
 90
        1
176
     1
 90
        6
176
     1
 90
        2
176
     1
 62
     7
176
     1
 90
        5
176
     1
 90
        0
176
     1
 90
        0
176
     1
290
     0
176
     1
 90
        1
176
     1
 40
-50.0
176
     1
 90
        0
176
     1
290
     0
176
     1
290
     1
176
     1
290
     1
176
     1
290
     0
176
     1
290
     0
176
     1
290
     0
176
     1
290
     0
176
     1
290
     0
176
     1
290
     0
176
     1
 90
       50
176
     1
 40
0.0
176
     1
 40
1.0
176
     1
 90
        0
176
     1
 62
    18
420
        0
176
     1
 90
       50
176
     1
 90
        3
176
     1
 62
     5
420
      255
176
     1
290
     0
176
     1
 90
       50
176
     1
 90
       50
176
     1
 90
       50
176
     1
290
     0
176
     1
 90
       50
176
     1
 62
   256
176
     0
 40
1.0
176
     0
 90
        2
176
     1
  1
strokes_ogs.tif
176
     1
290
     0
176
     1
 40
1.0
176
     1
 40
1.0
176
     1
  0
VISUALSTYLE
  5
1000016
102
{ACAD_REACTORS
330
1000003
102
}
330
1000003
100
AcDbVisualStyle
  2
EdgeColorOff
 70
    22
177
     3
291
     1
 70
    58
 90
        2
176
     0
 90
        2
176
     0
 90
        0
176
     0
 90
        0
176
     0
 40
0.6
176
     0
 40
30.0
176
     0
 62
     7
420
 16777215
176
     0
 90
        1
176
     0
 90
        4
176
     0
 62
     7
176
     0
 62
   257
176
     0
 90
        1
176
     0
 90
        1
176
     0
 40
1.0
176
     0
 90
        8
176
     2
 62
     7
176
     0
 40
1.0
176
     0
 90
        1
176
     0
 90
        6
176
     0
 90
        2
176
     0
 62
     7
176
     0
 90
        5
176
     0
 90
        0
176
     0
 90
        0
176
     0
290
     0
176
     0
 90
        1
176
     0
 40
0.0
176
     0
 90
        0
176
     0
290
     0
176
     0
290
     1
176
     0
290
     1
176
     0
290
     0
176
     0
290
     0
176
     0
290
     0
176
     0
290
     0
176
     0
290
     0
176
     0
290
     0
176
     0
 90
       50
176
     0
 40
0.0
176
     0
 40
1.0
176
     0
 90
        0
176
     0
 62
    18
420
        0
176
     0
 90
       50
176
     0
 90
        3
176
     0
 62
     5
420
      255
176
     0
290
     0
176
     0
 90
       50
176
     0
 90
       50
176
     0
 90
       50
176
     0
290
     0
176
     0
 90
       50
176
     0
 62
   256
176
     0
 40
1.0
176
     0
 90
        2
176
     0
  1
strokes_ogs.tif
176
     0
290
     0
176
     0
 40
1.0
176
     0
 40
1.0
176
     0
  0
VISUALSTYLE
  5
1000012
102
{ACAD_REACTORS
330
1000003
102
}
330
1000003
100
AcDbVisualStyle
  2
Facepattern
 70
    15
177
     3
291
     1
 70
    58
 90
        2
176
     1
 90
        2
176
     1
 90
        0
176
     1
 90
        0
176
     1
 40
0.6
176
     1
 40
30.0
176
     1
 62
     7
420
 16777215
176
     1
 90
        1
176
     1
 90
        4
176
     1
 62
     7
176
     1
 62
   257
176
     1
 90
        1
176
     1
 90
        1
176
     1
 40
1.0
176
     1
 90
        8
176
     1
 62
     7
176
     1
 40
1.0
176
     1
 90
        1
176
     1
 90
        6
176
     1
 90
        2
176
     1
 62
     7
176
     1
 90
        5
176
     1
 90
        0
176
     1
 90
        0
176
     1
290
     0
176
     1
 90
        1
176
     1
 40
0.0
176
     1
 90
        0
176
     1
290
     0
176
     1
290
     1
176
     1
290
     1
176
     1
290
     0
176
     1
290
     0
176
     1
290
     0
176
     1
290
     0
176
     1
290
     0
176
     1
290
     0
176
     1
 90
       50
176
     1
 40
0.0
176
     1
 40
1.0
176
     1
 90
        0
176
     1
 62
    18
420
        0
176
     1
 90
       50
176
     1
 90
        3
176
     1
 62
     5
420
      255
176
     1
290
     0
176
     1
 90
       50
176
     1
 90
       50
176
     1
 90
       50
176
     1
290
     0
176
     1
 90
       50
176
     1
 62
   256
176
     0
 40
1.0
176
     0
 90
        2
176
     1
  1
strokes_ogs.tif
176
     1
290
     0
176
     1
 40
1.0
176
     1
 40
1.0
176
     1
  0
VISUALSTYLE
  5
1000004
102
{ACAD_REACTORS
330
1000003
102
}
330
1000003
100
AcDbVisualStyle
  2
Flat
 70
     0
177
     3
291
     1
 70
    58
 90
        2
176
     1
 90
        1
176
     1
 90
        1
176
     1
 90
        2
176
     1
 40
0.6
176
     1
 40
30.0
176
     1
 62
     7
420
 16777215
176
     1
 90
        0
176
     1
 90
        0
176
     1
 62
     7
176
     1
 62
   257
176
     1
 90
        1
176
     1
 90
        1
176
     1
 40
1.0
176
     1
 90
        8
176
     1
 62
     7
176
     1
 40
1.0
176
     1
 90
        1
176
     1
 90
        6
176
     1
 90
        2
176
     1
 62
     7
176
     1
 90
        5
176
     1
 90
        0
176
     1
 90
        0
176
     1
290
     0
176
     1
 90
       13
176
     1
 40
0.0
176
     1
 90
        0
176
     1
290
     0
176
     1
290
     1
176
     1
290
     1
176
     1
290
     0
176
     1
290
     0
176
     1
290
     0
176
     1
290
     0
176
     1
290
     0
176
     1
290
     0
176
     1
 90
       50
176
     1
 40
0.0
176
     1
 40
1.0
176
     1
 90
        0
176
     1
 62
    18
420
        0
176
     1
 90
       50
176
     1
 90
        3
176
     1
 62
     5
420
      255
176
     1
290
     0
176
     1
 90
       50
176
     1
 90
       50
176
     1
 90
       50
176
     1
290
     0
176
     1
 90
       50
176
     1
 62
   256
176
     0
 40
1.0
176
     0
 90
        2
176
     1
  1
strokes_ogs.tif
176
     1
290
     0
176
     1
 40
1.0
176
     1
 40
1.0
176
     1
  0
VISUALSTYLE
  5
1000005
102
{ACAD_REACTORS
330
1000003
102
}
330
1000003
100
AcDbVisualStyle
  2
FlatWithEdges
 70
     1
177
     3
291
     1
 70
    58
 90
        2
176
     1
 90
        1
176
     1
 90
        1
176
     1
 90
        2
176
     1
 40
0.6
176
     1
 40
30.0
176
     1
 62
     7
420
 16777215
176
     1
 90
        1
176
     1
 90
        0
176
     1
 62
     7
176
     1
 62
   257
176
     1
 90
        1
176
     1
 90
        1
176
     1
 40
1.0
176
     1
 90
        0
176
     1
 62
   257
176
     1
 40
1.0
176
     1
 90
        1
176
     1
 90
        6
176
     1
 90
        2
176
     1
 62
     7
176
     1
 90
        5
176
     1
 90
        0
176
     1
 90
        0
176
     1
290
     0
176
     1
 90
       13
176
     1
 40
0.0
176
     1
 90
        0
176
     1
290
     0
176
     1
290
     1
176
     1
290
     1
176
     1
290
     0
176
     1
290
     0
176
     1
290
     0
176
     1
290
     0
176
     1
290
     0
176
     1
290
     0
176
     1
 90
       50
176
     1
 40
0.0
176
     1
 40
1.0
176
     1
 90
        0
176
     1
 62
    18
420
        0
176
     1
 90
       50
176
     1
 90
        3
176
     1
 62
     5
420
      255
176
     1
290
     0
176
     1
 90
       50
176
     1
 90
       50
176
     1
 90
       50
176
     1
290
     0
176
     1
 90
       50
176
     1
 62
   256
176
     0
 40
1.0
176
     0
 90
        2
176
     1
  1
strokes_ogs.tif
176
     1
290
     0
176
     1
 40
1.0
176
     1
 40
1.0
176
     1
  0
VISUALSTYLE
  5
1000006
102
{ACAD_REACTORS
330
1000003
102
}
330
1000003
100
AcDbVisualStyle
  2
Gouraud
 70
     2
177
     3
291
     1
 70
    58
 90
        2
176
     1
 90
        2
176
     1
 90
        1
176
     1
 90
        2
176
     1
 40
0.6
176
     1
 40
30.0
176
     1
 62
     7
420
 16777215
176
     1
 90
        0
176
     1
 90
        0
176
     1
 62
     7
176
     1
 62
   257
176
     1
 90
        1
176
     1
 90
        1
176
     1
 40
1.0
176
     1
 90
        0
176
     1
 62
     7
176
     1
 40
1.0
176
     1
 90
        1
176
     1
 90
        6
176
     1
 90
        2
176
     1
 62
     7
176
     1
 90
        5
176
     1
 90
        0
176
     1
 90
        0
176
     1
290
     0
176
     1
 90
       13
176
     1
 40
0.0
176
     1
 90
        0
176
     1
290
     0
176
     1
290
     1
176
     1
290
     1
176
     1
290
     0
176
     1
290
     0
176
     1
290
     0
176
     1
290
     0
176
     1
290
     0
176
     1
290
     0
176
     1
 90
       50
176
     1
 40
0.0
176
     1
 40
1.0
176
     1
 90
        0
176
     1
 62
    18
420
        0
176
     1
 90
       50
176
     1
 90
        3
176
     1
 62
     5
420
      255
176
     1
290
     0
176
     1
 90
       50
176
     1
 90
       50
176
     1
 90
       50
176
     1
290
     0
176
     1
 90
       50
176
     1
 62
   256
176
     0
 40
1.0
176
     0
 90
        2
176
     1
  1
strokes_ogs.tif
176
     1
290
     0
176
     1
 40
1.0
176
     1
 40
1.0
176
     1
  0
VISUALSTYLE
  5
1000007
102
{ACAD_REACTORS
330
1000003
102
}
330
1000003
100
AcDbVisualStyle
  2
GouraudWithEdges
 70
     3
177
     3
291
     1
 70
    58
 90
        2
176
     1
 90
        2
176
     1
 90
        1
176
     1
 90
        2
176
     1
 40
0.6
176
     1
 40
30.0
176
     1
 62
     7
420
 16777215
176
     1
 90
        1
176
     1
 90
        0
176
     1
 62
     7
176
     1
 62
   257
176
     1
 90
        1
176
     1
 90
        1
176
     1
 40
1.0
176
     1
 90
        0
176
     1
 62
   257
176
     1
 40
1.0
176
     1
 90
        1
176
     1
 90
        6
176
     1
 90
        2
176
     1
 62
     7
176
     1
 90
        5
176
     1
 90
        0
176
     1
 90
        0
176
     1
290
     0
176
     1
 90
       13
176
     1
 40
0.0
176
     1
 90
        0
176
     1
290
     0
176
     1
290
     1
176
     1
290
     1
176
     1
290
     0
176
     1
290
     0
176
     1
290
     0
176
     1
290
     0
176
     1
290
     0
176
     1
290
     0
176
     1
 90
       50
176
     1
 40
0.0
176
     1
 40
1.0
176
     1
 90
        0
176
     1
 62
    18
420
        0
176
     1
 90
       50
176
     1
 90
        3
176
     1
 62
     5
420
      255
176
     1
290
     0
176
     1
 90
       50
176
     1
 90
       50
176
     1
 90
       50
176
     1
290
     0
176
     1
 90
       50
176
     1
 62
   256
176
     0
 40
1.0
176
     0
 90
        2
176
     1
  1
strokes_ogs.tif
176
     1
290
     0
176
     1
 40
1.0
176
     1
 40
1.0
176
     1
  0
VISUALSTYLE
  5
100000A
102
{ACAD_REACTORS
330
1000003
102
}
330
1000003
100
AcDbVisualStyle
  2
Hidden
 70
     6
177
     3
291
     0
 70
    58
 90
        1
176
     1
 90
        2
176
     1
 90
        2
176
     1
 90
        0
176
     1
 40
0.6
176
     1
 40
30.0
176
     1
 62
     7
420
 16777215
176
     1
 90
        2
176
     1
 90
        2
176
     1
 62
     7
176
     1
 62
   257
176
     1
 90
        2
176
     1
 90
        1
176
     1
 40
40.0
176
     1
 90
        0
176
     1
 62
   257
176
     1
 40
1.0
176
     1
 90
        1
176
     1
 90
        6
176
     1
 90
        2
176
     1
 62
     7
176
     1
 90
        3
176
     1
 90
        0
176
     1
 90
        0
176
     1
290
     0
176
     1
 90
        1
176
     1
 40
0.0
176
     1
 90
        0
176
     1
290
     0
176
     1
290
     1
176
     1
290
     1
176
     1
290
     0
176
     1
290
     0
176
     1
290
     0
176
     1
290
     0
176
     1
290
     0
176
     1
290
     0
176
     1
 90
       50
176
     1
 40
0.0
176
     1
 40
1.0
176
     1
 90
        0
176
     1
 62
    18
420
        0
176
     1
 90
       50
176
     1
 90
        3
176
     1
 62
     5
420
      255
176
     1
290
     0
176
     1
 90
       50
176
     1
 90
       50
176
     1
 90
       50
176
     1
290
     0
176
     1
 90
       50
176
     1
 62
   256
176
     0
 40
1.0
176
     0
 90
        2
176
     1
  1
strokes_ogs.tif
176
     1
290
     0
176
     1
 40
1.0
176
     1
 40
1.0
176
     1
  0
VISUALSTYLE
  5
1000014
102
{ACAD_REACTORS
330
1000003
102
}
330
1000003
100
AcDbVisualStyle
  2
JitterOff
 70
    20
177
     3
291
     1
 70
    58
 90
        2
176
     0
 90
        2
176
     0
 90
        0
176
     0
 90
        0
176
     0
 40
0.6
176
     0
 40
30.0
176
     0
 62
     7
420
 16777215
176
     0
 90
        1
176
     0
 90
        4
176
     0
 62
     7
176
     0
 62
   257
176
     0
 90
        1
176
     0
 90
        1
176
     0
 40
1.0
176
     0
 90
       10
176
     2
 62
     7
176
     0
 40
1.0
176
     0
 90
        1
176
     0
 90
        6
176
     0
 90
        2
176
     0
 62
     7
176
     0
 90
        5
176
     0
 90
        0
176
     0
 90
        0
176
     0
290
     0
176
     0
 90
        1
176
     0
 40
0.0
176
     0
 90
        0
176
     0
290
     0
176
     0
290
     1
176
     0
290
     1
176
     0
290
     0
176
     0
290
     0
176
     0
290
     0
176
     0
290
     0
176
     0
290
     0
176
     0
290
     0
176
     0
 90
       50
176
     0
 40
0.0
176
     0
 40
1.0
176
     0
 90
        0
176
     0
 62
    18
420
        0
176
     0
 90
       50
176
     0
 90
        3
176
     0
 62
     5
420
      255
176
     0
290
     0
176
     0
 90
       50
176
     0
 90
       50
176
     0
 90
       50
176
     0
290
     0
176
     0
 90
       50
176
     0
 62
   256
176
     0
 40
1.0
176
     0
 90
        2
176
     0
  1
strokes_ogs.tif
176
     0
290
     0
176
     0
 40
1.0
176
     0
 40
1.0
176
     0
  0
VISUALSTYLE
  5
1000011
102
{ACAD_REACTORS
330
1000003
102
}
330
1000003
100
AcDbVisualStyle
  2
Linepattern
 70
    14
177
     3
291
     1
 70
    58
 90
        2
176
     1
 90
        2
176
     1
 90
        0
176
     1
 90
        0
176
     1
 40
0.6
176
     1
 40
30.0
176
     1
 62
     7
420
 16777215
176
     1
 90
        1
176
     1
 90
        4
176
     1
 62
     7
176
     1
 62
   257
176
     1
 90
        7
176
     1
 90
        7
176
     1
 40
1.0
176
     1
 90
        8
176
     1
 62
     7
176
     1
 40
1.0
176
     1
 90
        1
176
     1
 90
        6
176
     1
 90
        2
176
     1
 62
     7
176
     1
 90
        5
176
     1
 90
        0
176
     1
 90
        0
176
     1
290
     0
176
     1
 90
        1
176
     1
 40
0.0
176
     1
 90
        0
176
     1
290
     0
176
     1
290
     1
176
     1
290
     1
176
     1
290
     0
176
     1
290
     0
176
     1
290
     0
176
     1
290
     0
176
     1
290
     0
176
     1
290
     0
176
     1
 90
       50
176
     1
 40
0.0
176
     1
 40
1.0
176
     1
 90
        0
176
     1
 62
    18
420
        0
176
     1
 90
       50
176
     1
 90
        3
176
     1
 62
     5
420
      255
176
     1
290
     0
176
     1
 90
       50
176
     1
 90
       50
176
     1
 90
       50
176
     1
290
     0
176
     1
 90
       50
176
     1
 62
   256
176
     0
 40
1.0
176
     0
 90
        2
176
     1
  1
strokes_ogs.tif
176
     1
290
     0
176
     1
 40
1.0
176
     1
 40
1.0
176
     1
  0
VISUALSTYLE
  5
1000015
102
{ACAD_REACTORS
330
1000003
102
}
330
1000003
100
AcDbVisualStyle
  2
OverhangOff
 70
    21
177
     3
291
     1
 70
    58
 90
        2
176
     0
 90
        2
176
     0
 90
        0
176
     0
 90
        0
176
     0
 40
0.6
176
     0
 40
30.0
176
     0
 62
     7
420
 16777215
176
     0
 90
        1
176
     0
 90
        4
176
     0
 62
     7
176
     0
 62
   257
176
     0
 90
        1
176
     0
 90
        1
176
     0
 40
1.0
176
     0
 90
        9
176
     2
 62
     7
176
     0
 40
1.0
176
     0
 90
        1
176
     0
 90
        6
176
     0
 90
        2
176
     0
 62
     7
176
     0
 90
        5
176
     0
 90
        0
176
     0
 90
        0
176
     0
290
     0
176
     0
 90
        1
176
     0
 40
0.0
176
     0
 90
        0
176
     0
290
     0
176
     0
290
     1
176
     0
290
     1
176
     0
290
     0
176
     0
290
     0
176
     0
290
     0
176
     0
290
     0
176
     0
290
     0
176
     0
290
     0
176
     0
 90
       50
176
     0
 40
0.0
176
     0
 40
1.0
176
     0
 90
        0
176
     0
 62
    18
420
        0
176
     0
 90
       50
176
     0
 90
        3
176
     0
 62
     5
420
      255
176
     0
290
     0
176
     0
 90
       50
176
     0
 90
       50
176
     0
 90
       50
176
     0
290
     0
176
     0
 90
       50
176
     0
 62
   256
176
     0
 40
1.0
176
     0
 90
        2
176
     0
  1
strokes_ogs.tif
176
     0
290
     0
176
     0
 40
1.0
176
     0
 40
1.0
176
     0
  0
VISUALSTYLE
  5
100000C
102
{ACAD_REACTORS
330
1000003
102
}
330
1000003
100
AcDbVisualStyle
  2
Realistic
 70
     8
177
     3
291
     0
 70
    58
 90
        2
176
     1
 90
        3
176
     1
 90
        0
176
     1
 90
        2
176
     1
 40
0.6
176
     1
 40
30.0
176
     1
 62
     7
420
 16777215
176
     1
 90
        0
176
     1
 90
        0
176
     1
 62
     7
176
     1
 62
   257
176
     1
 90
        1
176
     1
 90
        1
176
     1
 40
1.0
176
     1
 90
        8
176
     1
 62
   257
176
     1
 40
1.0
176
     1
 90
        1
176
     1
 90
        6
176
     1
 90
        2
176
     1
 62
     7
176
     1
 90
        3
176
     1
 90
        0
176
     1
 90
        0
176
     1
290
     0
176
     1
 90
       13
176
     1
 40
0.0
176
     1
 90
        0
176
     1
290
     0
176
     1
290
     1
176
     1
290
     1
176
     1
290
     0
176
     1
290
     0
176
     1
290
     0
176
     1
290
     0
176
     1
290
     0
176
     1
290
     0
176
     1
 90
       50
176
     1
 40
0.0
176
     1
 40
1.0
176
     1
 90
        0
176
     1
 62
    18
420
        0
176
     1
 90
       50
176
     1
 90
        3
176
     1
 62
     5
420
      255
176
     1
290
     0
176
     1
 90
       50
176
     1
 90
       50
176
     1
 90
       50
176
     1
290
     0
176
     1
 90
       50
176
     1
 62
   256
176
     0
 40
1.0
176
     0
 90
        2
176
     1
  1
strokes_ogs.tif
176
     1
290
     0
176
     1
 40
1.0
176
     1
 40
1.0
176
     1
  0
VISUALSTYLE
  5
100001B
102
{ACAD_REACTORS
330
1000003
102
}
330
1000003
100
AcDbVisualStyle
  2
Shaded
 70
    27
177
     3
291
     0
 70
    58
 90
        2
176
     1
 90
        2
176
     1
 90
        1
176
     1
 90
        2
176
     1
 40
0.6
176
     1
 40
30.0
176
     1
 62
     7
420
 16777215
176
     1
 90
        0
176
     1
 90
        4
176
     1
 62
     7
176
     1
 62
   257
176
     1
 90
        1
176
     1
 90
        1
176
     1
 40
1.0
176
     1
 90
        8
176
     1
 62
   257
176
     1
 40
1.0
176
     1
 90
        1
176
     1
 90
        6
176
     1
 90
        2
176
     1
 62
     8
420
  7895160
176
     1
 90
        3
176
     1
 90
        0
176
     1
 90
        0
176
     1
290
     0
176
     1
 90
        5
176
     1
 40
0.0
176
     1
 90
        0
176
     1
290
     0
176
     1
290
     1
176
     1
290
     1
176
     1
290
     0
176
     1
290
     0
176
     1
290
     0
176
     1
290
     0
176
     1
290
     0
176
     1
290
     0
176
     1
 90
       50
176
     1
 40
0.0
176
     1
 40
1.0
176
     1
 90
        0
176
     1
 62
    18
420
        0
176
     1
 90
       50
176
     1
 90
        3
176
     1
 62
     5
420
      255
176
     1
290
     0
176
     1
 90
       50
176
     1
 90
       50
176
     1
 90
       50
176
     1
290
     0
176
     1
 90
       50
176
     1
 62
   256
176
     0
 40
1.0
176
     0
 90
        2
176
     1
  1
strokes_ogs.tif
176
     1
290
     0
176
     1
 40
1.0
176
     1
 40
1.0
176
     1
  0
VISUALSTYLE
  5
100001A
102
{ACAD_REACTORS
330
1000003
102
}
330
1000003
100
AcDbVisualStyle
  2
Shaded with edges
 70
    26
177
     3
291
     0
 70
    58
 90
        2
176
     1
 90
        2
176
     1
 90
        1
176
     1
 90
        2
176
     1
 40
0.6
176
     1
 40
30.0
176
     1
 62
     7
420
 16777215
176
     1
 90
        1
176
     1
 90
       10
176
     1
 62
     7
176
     1
 62
   257
176
     1
 90
        2
176
     1
 90
        1
176
     1
 40
1.0
176
     1
 90
        8
176
     1
 62
   257
176
     1
 40
1.0
176
     1
 90
        1
176
     1
 90
        6
176
     1
 90
        2
176
     1
 62
     7
176
     1
 90
        3
176
     1
 90
        0
176
     1
 90
        0
176
     1
290
     0
176
     1
 90
        5
176
     1
 40
0.0
176
     1
 90
        0
176
     1
290
     0
176
     1
290
     1
176
     1
290
     1
176
     1
290
     0
176
     1
290
     0
176
     1
290
     0
176
     1
290
     0
176
     1
290
     0
176
     1
290
     0
176
     1
 90
       50
176
     1
 40
0.0
176
     1
 40
1.0
176
     1
 90
        0
176
     1
 62
    18
420
        0
176
     1
 90
       50
176
     1
 90
        3
176
     1
 62
     5
420
      255
176
     1
290
     0
176
     1
 90
       50
176
     1
 90
       50
176
     1
 90
       50
176
     1
290
     0
176
     1
 90
       50
176
     1
 62
   256
176
     0
 40
1.0
176
     0
 90
        2
176
     1
  1
strokes_ogs.tif
176
     1
290
     0
176
     1
 40
1.0
176
     1
 40
1.0
176
     1
  0
VISUALSTYLE
  5
1000017
102
{ACAD_REACTORS
330
1000003
102
}
330
1000003
100
AcDbVisualStyle
  2
Shades of Gray
 70
    23
177
     3
291
     0
 70
    58
 90
        2
176
     1
 90
        2
176
     1
 90
        3
176
     1
 90
        0
176
     1
 40
0.6
176
     1
 40
30.0
176
     1
 62
     7
420
 16777215
176
     1
 90
        2
176
     1
 90
        2
176
     1
 62
     7
176
     1
 62
     7
176
     1
 90
        1
176
     1
 90
        1
176
     1
 40
40.0
176
     1
 90
        8
176
     1
 62
     7
176
     1
 40
1.0
176
     1
 90
        1
176
     1
 90
        6
176
     1
 90
        2
176
     1
 62
     7
176
     1
 90
        3
176
     1
 90
        0
176
     1
 90
        0
176
     1
290
     0
176
     1
 90
        1
176
     1
 40
0.0
176
     1
 90
        0
176
     1
290
     0
176
     1
290
     1
176
     1
290
     1
176
     1
290
     0
176
     1
290
     0
176
     1
290
     0
176
     1
290
     0
176
     1
290
     0
176
     1
290
     0
176
     1
 90
       50
176
     1
 40
0.0
176
     1
 40
1.0
176
     1
 90
        0
176
     1
 62
    18
420
        0
176
     1
 90
       50
176
     1
 90
        3
176
     1
 62
     5
420
      255
176
     1
290
     0
176
     1
 90
       50
176
     1
 90
       50
176
     1
 90
       50
176
     1
290
     0
176
     1
 90
       50
176
     1
 62
   256
176
     0
 40
1.0
176
     0
 90
        2
176
     1
  1
strokes_ogs.tif
176
     1
290
     0
176
     1
 40
1.0
176
     1
 40
1.0
176
     1
  0
VISUALSTYLE
  5
1000018
102
{ACAD_REACTORS
330
1000003
102
}
330
1000003
100
AcDbVisualStyle
  2
Sketchy
 70
    24
177
     3
291
     0
 70
    58
 90
        1
176
     1
 90
        2
176
     1
 90
        2
176
     1
 90
        0
176
     1
 40
0.6
176
     1
 40
30.0
176
     1
 62
     7
420
 16777215
176
     1
 90
        2
176
     1
 90
        2
176
     1
 62
     7
176
     1
 62
     7
176
     1
 90
        1
176
     1
 90
        1
176
     1
 40
40.0
176
     1
 90
       11
176
     1
 62
     7
176
     1
 40
1.0
176
     1
 90
        1
176
     1
 90
        6
176
     1
 90
        2
176
     1
 62
     7
176
     1
 90
        6
176
     1
 90
        0
176
     1
 90
        0
176
     1
290
     0
176
     1
 90
        1
176
     1
 40
0.0
176
     1
 90
        0
176
     1
290
     0
176
     1
290
     1
176
     1
290
     1
176
     1
290
     0
176
     1
290
     0
176
     1
290
     0
176
     1
290
     0
176
     1
290
     0
176
     1
290
     0
176
     1
 90
       50
176
     1
 40
0.0
176
     1
 40
1.0
176
     1
 90
        0
176
     1
 62
    18
420
        0
176
     1
 90
       50
176
     1
 90
        3
176
     1
 62
     5
420
      255
176
     1
290
     0
176
     1
 90
       50
176
     1
 90
       50
176
     1
 90
       50
176
     1
290
     0
176
     1
 90
       50
176
     1
 62
   256
176
     0
 40
1.0
176
     0
 90
        2
176
     1
  1
strokes_ogs.tif
176
     1
290
     0
176
     1
 40
1.0
176
     1
 40
1.0
176
     1
  0
VISUALSTYLE
  5
1000010
102
{ACAD_REACTORS
330
1000003
102
}
330
1000003
100
AcDbVisualStyle
  2
Thicken
 70
    13
177
     3
291
     1
 70
    58
 90
        2
176
     1
 90
        2
176
     1
 90
        0
176
     1
 90
        0
176
     1
 40
0.6
176
     1
 40
30.0
176
     1
 62
     7
420
 16777215
176
     1
 90
        1
176
     1
 90
        4
176
     1
 62
     7
176
     1
 62
   257
176
     1
 90
        1
176
     1
 90
        1
176
     1
 40
1.0
176
     1
 90
       12
176
     1
 62
     7
176
     1
 40
1.0
176
     1
 90
        1
176
     1
 90
        6
176
     1
 90
        2
176
     1
 62
     7
176
     1
 90
        5
176
     1
 90
        0
176
     1
 90
        0
176
     1
290
     0
176
     1
 90
        1
176
     1
 40
0.0
176
     1
 90
        0
176
     1
290
     0
176
     1
290
     1
176
     1
290
     1
176
     1
290
     0
176
     1
290
     0
176
     1
290
     0
176
     1
290
     0
176
     1
290
     0
176
     1
290
     0
176
     1
 90
       50
176
     1
 40
0.0
176
     1
 40
1.0
176
     1
 90
        0
176
     1
 62
    18
420
        0
176
     1
 90
       50
176
     1
 90
        3
176
     1
 62
     5
420
      255
176
     1
290
     0
176
     1
 90
       50
176
     1
 90
       50
176
     1
 90
       50
176
     1
290
     0
176
     1
 90
       50
176
     1
 62
   256
176
     0
 40
1.0
176
     0
 90
        2
176
     1
  1
strokes_ogs.tif
176
     1
290
     0
176
     1
 40
1.0
176
     1
 40
1.0
176
     1
  0
VISUALSTYLE
  5
1000009
102
{ACAD_REACTORS
330
1000003
102
}
330
1000003
100
AcDbVisualStyle
  2
Wireframe
 70
     5
177
     3
291
     0
 70
    58
 90
        0
176
     1
 90
        2
176
     1
 90
        0
176
     1
 90
        0
176
     1
 40
0.6
176
     1
 40
30.0
176
     1
 62
     7
420
 16777215
176
     1
 90
        1
176
     1
 90
        4
176
     1
 62
     7
176
     1
 62
   257
176
     1
 90
        1
176
     1
 90
        1
176
     1
 40
1.0
176
     1
 90
        0
176
     1
 62
   257
176
     1
 40
1.0
176
     1
 90
        1
176
     1
 90
        6
176
     1
 90
        2
176
     1
 62
     7
176
     1
 90
        3
176
     1
 90
        0
176
     1
 90
        0
176
     1
290
     0
176
     1
 90
        1
176
     1
 40
0.0
176
     1
 90
        0
176
     1
290
     0
176
     1
290
     1
176
     1
290
     1
176
     1
290
     0
176
     1
290
     0
176
     1
290
     0
176
     1
290
     0
176
     1
290
     0
176
     1
290
     0
176
     1
 90
       50
176
     1
 40
0.0
176
     1
 40
1.0
176
     1
 90
        0
176
     1
 62
    18
420
        0
176
     1
 90
       50
176
     1
 90
        3
176
     1
 62
     5
420
      255
176
     1
290
     0
176
     1
 90
       50
176
     1
 90
       50
176
     1
 90
       50
176
     1
290
     0
176
     1
 90
       50
176
     1
 62
   256
176
     0
 40
1.0
176
     0
 90
        2
176
     1
  1
strokes_ogs.tif
176
     1
290
     0
176
     1
 40
1.0
176
     1
 40
1.0
176
     1
  0
VISUALSTYLE
  5
1000019
102
{ACAD_REACTORS
330
1000003
102
}
330
1000003
100
AcDbVisualStyle
  2
X-Ray
 70
    25
177
     3
291
     0
 70
    58
 90
        2
176
     1
 90
        2
176
     1
 90
        1
176
     1
 90
        1
176
     1
 40
0.5
176
     1
 40
30.0
176
     1
 62
     7
420
 16777215
176
     1
 90
        1
176
     1
 90
        0
176
     1
 62
     7
176
     1
 62
   257
176
     1
 90
        1
176
     1
 90
        1
176
     1
 40
1.0
176
     1
 90
        8
176
     1
 62
     7
176
     1
 40
1.0
176
     1
 90
        1
176
     1
 90
        6
176
     1
 90
        2
176
     1
 62
     7
176
     1
 90
        3
176
     1
 90
        0
176
     1
 90
        0
176
     1
290
     0
176
     1
 90
       13
176
     1
 40
0.0
176
     1
 90
        0
176
     1
290
     0
176
     1
290
     1
176
     1
290
     1
176
     1
290
     0
176
     1
290
     0
176
     1
290
     0
176
     1
290
     0
176
     1
290
     0
176
     1
290
     0
176
     1
 90
       50
176
     1
 40
0.0
176
     1
 40
1.0
176
     1
 90
        0
176
     1
 62
    18
420
        0
176
     1
 90
       50
176
     1
 90
        3
176
     1
 62
     5
420
      255
176
     1
290
     0
176
     1
 90
       50
176
     1
 90
       50
176
     1
 90
       50
176
     1
290
     0
176
     1
 90
       50
176
     1
 62
   256
176
     0
 40
1.0
176
     0
 90
        2
176
     1
  1
strokes_ogs.tif
176
     1
290
     0
176
     1
 40
1.0
176
     1
 40
1.0
176
     1
  0
DICTIONARYVAR
  5
10001A2
102
{ACAD_REACTORS
330
100019E
102
}
330
100019E
100
DictionaryVariables
280
     0
  1
1:1
  0
DICTIONARYVAR
  5
10001A0
102
{ACAD_REACTORS
330
100019E
102
}
330
100019E
100
DictionaryVariables
280
     0
  1
Standard
  0
DICTIONARYVAR
  5
100019F
102
{ACAD_REACTORS
330
100019E
102
}
330
100019E
100
DictionaryVariables
280
     0
  1
Standard
  0
DICTIONARYVAR
  5
10001A1
102
{ACAD_REACTORS
330
100019E
102
}
330
100019E
100
DictionaryVariables
280
     0
  1
0
  0
ENDSEC
  0
SECTION
  2
ACDSDATA
 70
     2
 71
     2
  0
ACDSSCHEMA
 90
        0
  1
AcDb3DSolid_ASM_Data
  2
AcDbDs::ID
280
    10
 91
        0
  2
ASM_Data
280
    15
 91
        0
101
ACDSRECORD
 95
        0
 90
        1
  2
AcDbDs::TreatedAsObjectData
280
     1
291
     1
101
ACDSRECORD
 95
        0
 90
        2
  2
AcDbDs::Legacy
280
     1
291
     1
101
ACDSRECORD
  1
AcDbDs::ID
 90
        3
  2
AcDs:Indexable
280
     1
291
     1
101
ACDSRECORD
  1
AcDbDs::ID
 90
        4
  2
AcDbDs::HandleAttribute
280
     7
282
     1
  0
ACDSSCHEMA
 90
        1
  1
AcDbDs::TreatedAsObjectDataSchema
  2
AcDbDs::TreatedAsObjectData
280
     1
 91
        0
  0
ACDSSCHEMA
 90
        2
  1
AcDbDs::LegacySchema
  2
AcDbDs::Legacy
280
     1
 91
        0
  0
ACDSSCHEMA
 90
        3
  1
AcDbDs::IndexedPropertySchema
  2
AcDs:Indexable
280
     1
 91
        0
  0
ACDSSCHEMA
 90
        4
  1
AcDbDs::HandleAttributeSchema
  2
AcDbDs::HandleAttribute
280
     7
 91
        8
  0
ENDSEC
  0
EOF
