  0
SECTION
  2
HEADER
  9
$ACADVER
  1
AC1018
  9
$HANDSEED
  5
FFFFFF
  9
$EXTMAX
 10
7569187.54000000004
 20
5714498.75999999978
 30
1000000.00
  9
$EXTMIN
 10
7569109.21100000013
 20
5713868.62399999984
 30
0.00
  9
$LIMMIN
 10
7569109.21100000013
 20
5713868.62399999984
  9
$LIMMAX
 10
7569187.54000000004
 20
5714498.75999999978
  9
$DIMASZ
 40
2.5
  9
$DIMGAP
 40
0.625
  9
$INSUNITS
 70
6
  9
$DIMEXO
 40
0.625
  9
$DIMTXT
 40
2.5
  9
$DIMSTYLE
  2
Standard
  9
$PLIMMIN
 10
0.0
 20
0.0
  9
$PLIMMAX
 10
210.0
 20
297.0
  9
$DIMEXE
 40
1.25
  9
$TEXTSIZE
 40
2.5
  9
$TEXTSTYLE
  7
Standard
  9
$LWDISPLAY
290
1
  9
$TDCREATE
 40
44687.954774965
  9
$TDUCREATE
 40
44687.871441632
  9
$TDUPDATE
 40
44687.954774965
  9
$TDUUPDATE
 40
44687.871441632
  9
$TDINDWG
 40
0.0
  9
$TDUSRTIMER
 40
0.0
  9
$USRTIMER
 70
1
  0
ENDSEC
  0
SECTION
  2
CLASSES
  0
CLASS
  1
WIPEOUT
  2
AcDbWipeout
  3
WipeOut
 90
127
 91
1
280
0
281
1
  0
CLASS
  1
WIPEOUTVARIABLES
  2
AcDbWipeoutVariables
  3
WipeOut
 90
0
 91
1
280
0
281
0
  0
ENDSEC
  0
SECTION
  2
TABLES
  0
TABLE
  2
VPORT
  5
1
100
AcDbSymbolTable
 70
1
  0
VPORT
  5
2
100
AcDbSymbolTableRecord
100
AcDbViewportTableRecord
  2
*ACTIVE
 70
0
 10
0.0
 20
0.0
 11
1.0
 21
1.0
 12
7569148.376
 22
5714183.692
 13
0.0
 23
0.0
 14
1.0
 24
1.0
 15
0.0
 25
0.0
 16
0.0
 26
0.0
 36
1.0
 17
0.0
 27
0.0
 37
0.0
 40
630.136
 41
0.124
 42
50.0
 43
0.0
 44
0.0
 50
0.0
 51
0.0
 71
0
 72
100
 73
1
 74
1
 75
0
 76
0
 77
0
 78
0
  0
ENDTAB
  0
TABLE
  2
LTYPE
  5
3
100
AcDbSymbolTable
 70
3
  0
LTYPE
  5
4
100
AcDbSymbolTableRecord
100
AcDbLinetypeTableRecord
  2
ByBlock
 70
0
  3

 72
65
 73
0
 40
0.0
  0
LTYPE
  5
5
100
AcDbSymbolTableRecord
100
AcDbLinetypeTableRecord
  2
ByLayer
 70
0
  3

 72
65
 73
0
 40
0.0
  0
LTYPE
  5
6
100
AcDbSymbolTableRecord
100
AcDbLinetypeTableRecord
  2
CONTINUOUS
 70
0
  3
Solid line
 72
65
 73
0
 40
0.0
  0
LTYPE
  5
7
100
AcDbSymbolTableRecord
100
AcDbLinetypeTableRecord
  2
L_0_4C
 70
0
  3
L_0_4C
 72
65
 73
4
 40
0.35
 49
0.21
 74
0
 49
-0.07
 74
0
 49
0.0
 74
0
 49
-0.07
 74
0
  0
ENDTAB
  0
TABLE
  2
LAYER
  5
8
100
AcDbSymbolTable
 70
5
  0
LAYER
  5
9
100
AcDbSymbolTableRecord
100
AcDbLayerTableRecord
  2
0
 70
0
 62
7
  6
CONTINUOUS
370
18
390
A
  0
LAYER
  5
B
100
AcDbSymbolTableRecord
100
AcDbLayerTableRecord
  2
budynek_obrys
 70
0
 62
3
  6
CONTINUOUS
370
35
390
A
  0
LAYER
  5
C
100
AcDbSymbolTableRecord
100
AcDbLayerTableRecord
  2
dzialka_414
 70
0
 62
7
  6
CONTINUOUS
370
18
390
A
  0
LAYER
  5
D
100
AcDbSymbolTableRecord
100
AcDbLayerTableRecord
  2
garaz
 70
0
 62
7
  6
CONTINUOUS
370
18
390
A
  0
LAYER
  5
E
100
AcDbSymbolTableRecord
100
AcDbLayerTableRecord
  2
Osie
 70
0
 62
1
  6
L_0_4C
370
18
390
A
  0
ENDTAB
  0
TABLE
  2
STYLE
  5
F
100
AcDbSymbolTable
 70
2
  0
STYLE
  5
10
100
AcDbSymbolTableRecord
100
AcDbTextStyleTableRecord
  2
STANDARD
 70
0
 40
0.0
 41
1.0
 50
0.0
 71
0
  3
simplex.shx
  4

  0
STYLE
  5
11
100
AcDbSymbolTableRecord
100
AcDbTextStyleTableRecord
  2
STANDARD_ITALIC
 70
0
 40
0.0
 41
1.0
 50
15.0
 71
0
  3
simplex.shx
  4

  0
ENDTAB
  0
TABLE
  2
VIEW
  5
12
100
AcDbSymbolTable
 70
0
  0
ENDTAB
  0
TABLE
  2
UCS
  5
13
100
AcDbSymbolTable
 70
0
  0
ENDTAB
  0
TABLE
  2
APPID
  5
14
100
AcDbSymbolTable
 70
1
  0
APPID
  5
15
100
AcDbSymbolTableRecord
100
AcDbRegAppTableRecord
  2
ACAD
 70
0
  0
ENDTAB
  0
TABLE
  2
DIMSTYLE
  5
16
100
AcDbSymbolTable
 70
1
100
AcDbDimStyleTable
  0
DIMSTYLE
105
17
100
AcDbSymbolTableRecord
100
AcDbDimStyleTableRecord
  2
Standard
 70
0
340
10
  0
ENDTAB
  0
TABLE
  2
BLOCK_RECORD
  5
18
100
AcDbSymbolTable
 70
3
  0
BLOCK_RECORD
  5
19
100
AcDbSymbolTableRecord
100
AcDbBlockTableRecord
  2
*Model_Space
340
1A
  0
BLOCK_RECORD
  5
1B
100
AcDbSymbolTableRecord
100
AcDbBlockTableRecord
  2
*Paper_Space
340
1C
  0
BLOCK_RECORD
  5
1D
100
AcDbSymbolTableRecord
100
AcDbBlockTableRecord
  2
pikieta
340
1E
  0
ENDTAB
  0
ENDSEC
  0
SECTION
  2
BLOCKS
  0
BLOCK
  5
1F
100
AcDbEntity
  8
0
100
AcDbBlockBegin
  2
*Model_Space
 70
0
 10
0.0
 20
0.0
 30
0.0
  3
*Model_Space
  1

  0
ENDBLK
  5
20
100
AcDbEntity
  8
0
100
AcDbBlockEnd
  0
BLOCK
  5
21
100
AcDbEntity
 67
1
  8
0
100
AcDbBlockBegin
  2
*Paper_Space
 70
0
 10
0.0
 20
0.0
 30
0.0
  3
*Paper_Space
  1

  0
ENDBLK
  5
22
100
AcDbEntity
 67
1
  8
0
100
AcDbBlockEnd
  0
BLOCK
  5
1E
100
AcDbEntity
  8
0
100
AcDbBlockBegin
 62
0
370
13
  2
pikieta
 70
0
 10
0
 20
0
 30
0
  3
pikieta
  0
POINT
  5
23
100
AcDbEntity
  8
0
100
AcDbPoint
 62
0
 10
0.0
 20
0.0
 30
0.00
  0
ENDBLK
  5
24
100
AcDbEntity
  8
0
100
AcDbBlockEnd
  0
ENDSEC
  0
SECTION
  2
ENTITIES
  0
POLYLINE
  5
25
100
AcDbEntity
  8
budynek_obrys
  6
CONTINUOUS
370
35
100
AcDb2dPolyline
 66
1
 70
129
  0
VERTEX
  5
26
100
AcDbEntity
  8
budynek_obrys
100
AcDbVertex
100
AcDb2dVertex
 10
7569128.32069203537
 20
5713897.05872092675
  0
VERTEX
  5
27
100
AcDbEntity
  8
budynek_obrys
100
AcDbVertex
100
AcDb2dVertex
 10
7569129.07106747385
 20
5713906.2080015922
  0
VERTEX
  5
28
100
AcDbEntity
  8
budynek_obrys
100
AcDbVertex
100
AcDb2dVertex
 10
7569135.48951709084
 20
5713905.68159442209
  0
VERTEX
  5
29
100
AcDbEntity
  8
budynek_obrys
100
AcDbVertex
100
AcDb2dVertex
 10
7569135.52711760346
 20
5713906.14005510882
  0
VERTEX
  5
2A
100
AcDbEntity
  8
budynek_obrys
100
AcDbVertex
100
AcDb2dVertex
 10
7569136.16497595049
 20
5713906.08774135355
  0
VERTEX
  5
2B
100
AcDbEntity
  8
budynek_obrys
100
AcDbVertex
100
AcDb2dVertex
 10
7569136.12737543788
 20
5713905.62928066589
  0
VERTEX
  5
2C
100
AcDbEntity
  8
budynek_obrys
100
AcDbVertex
100
AcDb2dVertex
 10
7569135.37717560399
 20
5713896.48005688004
  0
SEQEND
  5
2D
100
AcDbEntity
  8
budynek_obrys
  0
POLYLINE
  5
2E
100
AcDbEntity
  8
dzialka_414
  6
CONTINUOUS
370
18
100
AcDb2dPolyline
 66
1
 70
128
  0
VERTEX
  5
2F
100
AcDbEntity
  8
dzialka_414
100
AcDbVertex
100
AcDb2dVertex
 10
7569133.8200000003
 20
5714030.48000000045
  0
VERTEX
  5
30
100
AcDbEntity
  8
dzialka_414
100
AcDbVertex
100
AcDb2dVertex
 10
7569119.91000000015
 20
5713874.53000000026
  0
SEQEND
  5
31
100
AcDbEntity
  8
dzialka_414
  0
POLYLINE
  5
32
100
AcDbEntity
  8
dzialka_414
  6
CONTINUOUS
370
18
100
AcDb2dPolyline
 66
1
 70
128
  0
VERTEX
  5
33
100
AcDbEntity
  8
dzialka_414
100
AcDbVertex
100
AcDb2dVertex
 10
7569119.91000000015
 20
5713874.53000000026
  0
VERTEX
  5
34
100
AcDbEntity
  8
dzialka_414
100
AcDbVertex
100
AcDb2dVertex
 10
7569136.69000000041
 20
5713875.78000000026
  0
SEQEND
  5
35
100
AcDbEntity
  8
dzialka_414
  0
POLYLINE
  5
36
100
AcDbEntity
  8
dzialka_414
  6
CONTINUOUS
370
18
100
AcDb2dPolyline
 66
1
 70
128
  0
VERTEX
  5
37
100
AcDbEntity
  8
dzialka_414
100
AcDbVertex
100
AcDb2dVertex
 10
7569136.69000000041
 20
5713875.78000000026
  0
VERTEX
  5
38
100
AcDbEntity
  8
dzialka_414
100
AcDbVertex
100
AcDb2dVertex
 10
7569148.08000000007
 20
5714014.66000000015
  0
SEQEND
  5
39
100
AcDbEntity
  8
dzialka_414
  0
POLYLINE
  5
3A
100
AcDbEntity
  8
garaz
  6
CONTINUOUS
370
18
100
AcDb2dPolyline
 66
1
 70
128
  0
VERTEX
  5
3B
100
AcDbEntity
  8
garaz
100
AcDbVertex
100
AcDb2dVertex
 10
7569129.02826988231
 20
5713896.88077214733
  0
VERTEX
  5
3C
100
AcDbEntity
  8
garaz
100
AcDbVertex
100
AcDb2dVertex
 10
7569128.57344706263
 20
5713891.33893102314
  0
VERTEX
  5
3D
100
AcDbEntity
  8
garaz
100
AcDbVertex
100
AcDb2dVertex
 10
7569134.59298418742
 20
5713890.84464992862
  0
VERTEX
  5
3E
100
AcDbEntity
  8
garaz
100
AcDbVertex
100
AcDb2dVertex
 10
7569135.04794618394
 20
5713896.38647962175
  0
SEQEND
  5
3F
100
AcDbEntity
  8
garaz
  0
POLYLINE
  5
40
100
AcDbEntity
  8
garaz
  6
CONTINUOUS
 62
7
370
18
100
AcDb2dPolyline
 66
1
 70
128
  0
VERTEX
  5
41
100
AcDbEntity
  8
garaz
100
AcDbVertex
100
AcDb2dVertex
 10
7569128.91775462218
 20
5713897.01003161538
  0
VERTEX
  5
42
100
AcDbEntity
  8
garaz
100
AcDbVertex
100
AcDb2dVertex
 10
7569128.44400000013
 20
5713891.22900000028
  0
VERTEX
  5
43
100
AcDbEntity
  8
garaz
100
AcDbVertex
100
AcDb2dVertex
 10
7569134.70299999975
 20
5713890.71600000002
  0
VERTEX
  5
44
100
AcDbEntity
  8
garaz
100
AcDbVertex
100
AcDb2dVertex
 10
7569135.17788649257
 20
5713896.49633881822
  0
SEQEND
  5
45
100
AcDbEntity
  8
garaz
  0
POLYLINE
  5
46
100
AcDbEntity
  8
garaz
  6
CONTINUOUS
 62
7
370
18
100
AcDb2dPolyline
 66
1
 70
128
  0
VERTEX
  5
47
100
AcDbEntity
  8
garaz
100
AcDbVertex
100
AcDb2dVertex
 10
7569129.14759760536
 20
5713896.87118099816
  0
VERTEX
  5
48
100
AcDbEntity
  8
garaz
100
AcDbVertex
100
AcDb2dVertex
 10
7569128.70241700299
 20
5713891.44878342096
  0
VERTEX
  5
49
100
AcDbEntity
  8
garaz
100
AcDbVertex
100
AcDb2dVertex
 10
7569134.48322276212
 20
5713890.9744116487
  0
VERTEX
  5
4A
100
AcDbEntity
  8
garaz
100
AcDbVertex
100
AcDb2dVertex
 10
7569134.92840253934
 20
5713896.39582076203
  0
SEQEND
  5
4B
100
AcDbEntity
  8
garaz
  0
POLYLINE
  5
4C
100
AcDbEntity
  8
Osie
  6
ByLayer
370
18
100
AcDb2dPolyline
 66
1
 70
128
  0
VERTEX
  5
4D
100
AcDbEntity
  8
Osie
100
AcDbVertex
100
AcDb2dVertex
 10
7569135.78316361736
 20
5713905.3369043516
  0
VERTEX
  5
4E
100
AcDbEntity
  8
Osie
100
AcDbVertex
100
AcDb2dVertex
 10
7569129.36378632952
 20
5713905.86293527018
  0
SEQEND
  5
4F
100
AcDbEntity
  8
Osie
  0
POLYLINE
  5
50
100
AcDbEntity
  8
Osie
  6
ByLayer
370
18
100
AcDb2dPolyline
 66
1
 70
128
  0
VERTEX
  5
51
100
AcDbEntity
  8
Osie
100
AcDbVertex
100
AcDb2dVertex
 10
7569128.66607272904
 20
5713897.35175963305
  0
VERTEX
  5
52
100
AcDbEntity
  8
Osie
100
AcDbVertex
100
AcDb2dVertex
 10
7569131.2772332849
 20
5713897.13784880377
  0
VERTEX
  5
53
100
AcDbEntity
  8
Osie
100
AcDbVertex
100
AcDb2dVertex
 10
7569135.0842166217
 20
5713896.82510071713
  0
SEQEND
  5
54
100
AcDbEntity
  8
Osie
  0
POLYLINE
  5
55
100
AcDbEntity
  8
Osie
  6
ByLayer
 62
7
370
18
100
AcDb2dPolyline
 66
1
 70
128
  0
VERTEX
  5
56
100
AcDbEntity
  8
Osie
100
AcDbVertex
100
AcDb2dVertex
 10
7569127.60988909192
 20
5713906.0068572918
  0
VERTEX
  5
57
100
AcDbEntity
  8
Osie
100
AcDbVertex
100
AcDb2dVertex
 10
7569126.91188909206
 20
5713897.49585729186
  0
SEQEND
  5
58
100
AcDbEntity
  8
Osie
  0
POLYLINE
  5
59
100
AcDbEntity
  8
Osie
  6
ByLayer
 62
7
370
18
100
AcDb2dPolyline
 66
1
 70
128
  0
VERTEX
  5
5A
100
AcDbEntity
  8
Osie
100
AcDbVertex
100
AcDb2dVertex
 10
7569136.00351030659
 20
5713908.02798034251
  0
VERTEX
  5
5B
100
AcDbEntity
  8
Osie
100
AcDbVertex
100
AcDb2dVertex
 10
7569129.58451030683
 20
5713908.55398034211
  0
SEQEND
  5
5C
100
AcDbEntity
  8
Osie
  0
POLYLINE
  5
5D
100
AcDbEntity
  8
Osie
  6
ByLayer
370
18
100
AcDb2dPolyline
 66
1
 70
128
  0
VERTEX
  5
5E
100
AcDbEntity
  8
Osie
100
AcDbVertex
100
AcDb2dVertex
 10
7569128.66607272904
 20
5713897.35175963305
  0
VERTEX
  5
5F
100
AcDbEntity
  8
Osie
100
AcDbVertex
100
AcDb2dVertex
 10
7569129.36378632952
 20
5713905.86293527018
  0
SEQEND
  5
60
100
AcDbEntity
  8
Osie
  0
POLYLINE
  5
61
100
AcDbEntity
  8
Osie
  6
ByLayer
370
18
100
AcDb2dPolyline
 66
1
 70
128
  0
VERTEX
  5
62
100
AcDbEntity
  8
Osie
100
AcDbVertex
100
AcDb2dVertex
 10
7569131.2772332849
 20
5713897.13784880377
  0
VERTEX
  5
63
100
AcDbEntity
  8
Osie
100
AcDbVertex
100
AcDb2dVertex
 10
7569131.97523328476
 20
5713905.64884880371
  0
SEQEND
  5
64
100
AcDbEntity
  8
Osie
  0
POLYLINE
  5
65
100
AcDbEntity
  8
Osie
  6
ByLayer
370
18
100
AcDb2dPolyline
 66
1
 70
128
  0
VERTEX
  5
66
100
AcDbEntity
  8
Osie
100
AcDbVertex
100
AcDb2dVertex
 10
7569135.0842166217
 20
5713896.82510071713
  0
VERTEX
  5
67
100
AcDbEntity
  8
Osie
100
AcDbVertex
100
AcDb2dVertex
 10
7569135.78316361736
 20
5713905.3369043516
  0
SEQEND
  5
68
100
AcDbEntity
  8
Osie
  0
POLYLINE
  5
69
100
AcDbEntity
  8
Osie
  6
ByLayer
370
18
100
AcDb2dPolyline
 66
1
 70
128
  0
VERTEX
  5
6A
100
AcDbEntity
  8
Osie
100
AcDbVertex
100
AcDb2dVertex
 10
7569135.78316361736
 20
5713905.3369043516
  0
VERTEX
  5
6B
100
AcDbEntity
  8
Osie
100
AcDbVertex
100
AcDb2dVertex
 10
7569131.97523328476
 20
5713905.64884880371
  0
VERTEX
  5
6C
100
AcDbEntity
  8
Osie
100
AcDbVertex
100
AcDb2dVertex
 10
7569129.36378632952
 20
5713905.86293527018
  0
SEQEND
  5
6D
100
AcDbEntity
  8
Osie
  0
POLYLINE
  5
6E
100
AcDbEntity
  8
Osie
  6
ByLayer
370
18
100
AcDb2dPolyline
 66
1
 70
128
  0
VERTEX
  5
6F
100
AcDbEntity
  8
Osie
100
AcDbVertex
100
AcDb2dVertex
 10
7569135.0842166217
 20
5713896.82510071713
  0
VERTEX
  5
70
100
AcDbEntity
  8
Osie
100
AcDbVertex
100
AcDb2dVertex
 10
7569131.2772332849
 20
5713897.13784880377
  0
VERTEX
  5
71
100
AcDbEntity
  8
Osie
100
AcDbVertex
100
AcDb2dVertex
 10
7569128.66607272904
 20
5713897.35175963305
  0
SEQEND
  5
72
100
AcDbEntity
  8
Osie
  0
POLYLINE
  5
73
100
AcDbEntity
  8
Osie
  6
ByLayer
 62
7
370
18
100
AcDb2dPolyline
 66
1
 70
128
  0
VERTEX
  5
74
100
AcDbEntity
  8
Osie
100
AcDbVertex
100
AcDb2dVertex
 10
7569129.0142758796
 20
5713901.59773951117
  0
VERTEX
  5
75
100
AcDbEntity
  8
Osie
100
AcDbVertex
100
AcDb2dVertex
 10
7569127.26056503504
 20
5713901.74171577208
  0
SEQEND
  5
76
100
AcDbEntity
  8
Osie
  0
POLYLINE
  5
77
100
AcDbEntity
  8
Osie
  6
ByLayer
 62
7
370
18
100
AcDb2dPolyline
 66
1
 70
128
  0
VERTEX
  5
78
100
AcDbEntity
  8
Osie
100
AcDbVertex
100
AcDb2dVertex
 10
7569129.0142758796
 20
5713901.59773951117
  0
VERTEX
  5
79
100
AcDbEntity
  8
Osie
100
AcDbVertex
100
AcDb2dVertex
 10
7569127.26056503504
 20
5713901.74171577208
  0
VERTEX
  5
7A
100
AcDbEntity
  8
Osie
100
AcDbVertex
100
AcDb2dVertex
 10
7569126.26391813997
 20
5713901.82353855018
  0
SEQEND
  5
7B
100
AcDbEntity
  8
Osie
  0
POLYLINE
  5
7C
100
AcDbEntity
  8
Osie
  6
ByLayer
 62
7
370
18
100
AcDb2dPolyline
 66
1
 70
128
  0
VERTEX
  5
7D
100
AcDbEntity
  8
Osie
100
AcDbVertex
100
AcDb2dVertex
 10
7569130.08158749156
 20
5713905.80410862807
  0
VERTEX
  5
7E
100
AcDbEntity
  8
Osie
100
AcDbVertex
100
AcDb2dVertex
 10
7569130.30258415267
 20
5713908.49506796803
  0
VERTEX
  5
7F
100
AcDbEntity
  8
Osie
100
AcDbVertex
100
AcDb2dVertex
 10
7569130.3844341971
 20
5713909.49171262421
  0
SEQEND
  5
80
100
AcDbEntity
  8
Osie
  0
POLYLINE
  5
81
100
AcDbEntity
  8
Osie
  6
ByLayer
 62
7
370
18
100
AcDb2dPolyline
 66
1
 70
128
  0
VERTEX
  5
82
100
AcDbEntity
  8
Osie
100
AcDbVertex
100
AcDb2dVertex
 10
7569135.06522328034
 20
5713905.39474977832
  0
VERTEX
  5
83
100
AcDbEntity
  8
Osie
100
AcDbVertex
100
AcDb2dVertex
 10
7569135.28622328024
 20
5713908.0857497789
  0
VERTEX
  5
84
100
AcDbEntity
  8
Osie
100
AcDbVertex
100
AcDb2dVertex
 10
7569135.36807332467
 20
5713909.08239443507
  0
SEQEND
  5
85
100
AcDbEntity
  8
Osie
  0
POLYLINE
  5
86
100
AcDbEntity
  8
Osie
  6
ByLayer
 62
7
370
18
100
AcDb2dPolyline
 66
1
 70
128
  0
VERTEX
  5
87
100
AcDbEntity
  8
Osie
100
AcDbVertex
100
AcDb2dVertex
 10
7569129.36378632952
 20
5713905.86293527018
  0
VERTEX
  5
88
100
AcDbEntity
  8
Osie
100
AcDbVertex
100
AcDb2dVertex
 10
7569127.60988909192
 20
5713906.0068572918
  0
VERTEX
  5
89
100
AcDbEntity
  8
Osie
100
AcDbVertex
100
AcDb2dVertex
 10
7569126.61323897541
 20
5713906.08864081744
  0
SEQEND
  5
8A
100
AcDbEntity
  8
Osie
  0
POLYLINE
  5
8B
100
AcDbEntity
  8
Osie
  6
ByLayer
 62
7
370
18
100
AcDb2dPolyline
 66
1
 70
128
  0
VERTEX
  5
8C
100
AcDbEntity
  8
Osie
100
AcDbVertex
100
AcDb2dVertex
 10
7569128.66607272904
 20
5713897.35175963305
  0
VERTEX
  5
8D
100
AcDbEntity
  8
Osie
100
AcDbVertex
100
AcDb2dVertex
 10
7569126.91188909206
 20
5713897.49585729186
  0
VERTEX
  5
8E
100
AcDbEntity
  8
Osie
100
AcDbVertex
100
AcDb2dVertex
 10
7569125.91524602473
 20
5713897.5777266752
  0
SEQEND
  5
8F
100
AcDbEntity
  8
Osie
  0
POLYLINE
  5
90
100
AcDbEntity
  8
Osie
  6
ByLayer
 62
7
370
18
100
AcDb2dPolyline
 66
1
 70
128
  0
VERTEX
  5
91
100
AcDbEntity
  8
Osie
100
AcDbVertex
100
AcDb2dVertex
 10
7569135.04794618394
 20
5713896.38647962175
  0
VERTEX
  5
92
100
AcDbEntity
  8
Osie
100
AcDbVertex
100
AcDb2dVertex
 10
7569134.59298418742
 20
5713890.84464992862
  0
SEQEND
  5
93
100
AcDbEntity
  8
Osie
  0
POLYLINE
  5
94
100
AcDbEntity
  8
Osie
  6
ByLayer
 62
7
370
18
100
AcDb2dPolyline
 66
1
 70
128
  0
VERTEX
  5
95
100
AcDbEntity
  8
Osie
100
AcDbVertex
100
AcDb2dVertex
 10
7569129.02826988231
 20
5713896.88077214733
  0
VERTEX
  5
96
100
AcDbEntity
  8
Osie
100
AcDbVertex
100
AcDb2dVertex
 10
7569128.57344706263
 20
5713891.33893102314
  0
SEQEND
  5
97
100
AcDbEntity
  8
Osie
  0
POLYLINE
  5
98
100
AcDbEntity
  8
Osie
  6
ByLayer
370
18
100
AcDb2dPolyline
 66
1
 70
128
  0
VERTEX
  5
99
100
AcDbEntity
  8
Osie
100
AcDbVertex
100
AcDb2dVertex
 10
7569135.04794618394
 20
5713896.38647962175
  0
VERTEX
  5
9A
100
AcDbEntity
  8
Osie
100
AcDbVertex
100
AcDb2dVertex
 10
7569129.02826988231
 20
5713896.88077214733
  0
SEQEND
  5
9B
100
AcDbEntity
  8
Osie
  0
POLYLINE
  5
9C
100
AcDbEntity
  8
Osie
  6
ByLayer
370
18
100
AcDb2dPolyline
 66
1
 70
128
  0
VERTEX
  5
9D
100
AcDbEntity
  8
Osie
100
AcDbVertex
100
AcDb2dVertex
 10
7569134.59298418742
 20
5713890.84464992862
  0
VERTEX
  5
9E
100
AcDbEntity
  8
Osie
100
AcDbVertex
100
AcDb2dVertex
 10
7569128.57344706263
 20
5713891.33893102314
  0
SEQEND
  5
9F
100
AcDbEntity
  8
Osie
  0
INSERT
  5
A0
100
AcDbEntity
  8
0
  6
CONTINUOUS
100
AcDbBlockReference
 66
1
  2
pikieta
 10
7569136.69000000041
 20
5713875.78000000026
 41
0.10
 42
0.10
 43
0.10
 50
0.00
  0
ATTRIB
  5
A1
100
AcDbEntity
  8
0
100
AcDbText
 10
7569136.69000000041
 20
5713875.78000000026
 40
0.2
  1
6-3460
 50
0.00
 41
0.62
 51
0.00
  7
STANDARD
100
AcDbAttribute
  2
Nr
 70
0
  0
SEQEND
  5
A2
100
AcDbEntity
  8
0
  0
INSERT
  5
A3
100
AcDbEntity
  8
0
  6
CONTINUOUS
100
AcDbBlockReference
 66
1
  2
pikieta
 10
7569119.91000000015
 20
5713874.53000000026
 41
0.10
 42
0.10
 43
0.10
 50
0.00
  0
ATTRIB
  5
A4
100
AcDbEntity
  8
0
100
AcDbText
 10
7569119.91000000015
 20
5713874.53000000026
 40
0.2
  1
6-3449
 50
0.00
 41
0.62
 51
0.00
  7
STANDARD
100
AcDbAttribute
  2
Nr
 70
0
  0
SEQEND
  5
A5
100
AcDbEntity
  8
0
  0
INSERT
  5
A6
100
AcDbEntity
  8
0
  6
CONTINUOUS
100
AcDbBlockReference
 66
1
  2
pikieta
 10
7569175.5700000003
 20
5714498.75999999978
 41
0.10
 42
0.10
 43
0.10
 50
0.00
  0
ATTRIB
  5
A7
100
AcDbEntity
  8
0
100
AcDbText
 10
7569175.5700000003
 20
5714498.75999999978
 40
0.2
  1
6-2991
 50
0.00
 41
0.62
 51
0.00
  7
STANDARD
100
AcDbAttribute
  2
Nr
 70
0
  0
SEQEND
  5
A8
100
AcDbEntity
  8
0
  0
INSERT
  5
A9
100
AcDbEntity
  8
0
  6
CONTINUOUS
100
AcDbBlockReference
 66
1
  2
pikieta
 10
7569186.58000000008
 20
5714484.30999999959
 41
0.10
 42
0.10
 43
0.10
 50
0.00
  0
ATTRIB
  5
AA
100
AcDbEntity
  8
0
100
AcDbText
 10
7569186.58000000008
 20
5714484.30999999959
 40
0.2
  1
6-2990
 50
0.00
 41
0.62
 51
0.00
  7
STANDARD
100
AcDbAttribute
  2
Nr
 70
0
  0
SEQEND
  5
AB
100
AcDbEntity
  8
0
  0
INSERT
  5
AC
100
AcDbEntity
  8
0
  6
CONTINUOUS
100
AcDbBlockReference
 66
1
  2
pikieta
 10
7569187.54000000004
 20
5714478.75999999978
 41
0.10
 42
0.10
 43
0.10
 50
0.00
  0
ATTRIB
  5
AD
100
AcDbEntity
  8
0
100
AcDbText
 10
7569187.54000000004
 20
5714478.75999999978
 40
0.2
  1
6-2989
 50
0.00
 41
0.62
 51
0.00
  7
STANDARD
100
AcDbAttribute
  2
Nr
 70
0
  0
SEQEND
  5
AE
100
AcDbEntity
  8
0
  0
INSERT
  5
AF
100
AcDbEntity
  8
0
  6
CONTINUOUS
100
AcDbBlockReference
 66
1
  2
pikieta
 10
7569148.08000000007
 20
5714014.66000000015
 41
0.10
 42
0.10
 43
0.10
 50
0.00
  0
ATTRIB
  5
B0
100
AcDbEntity
  8
0
100
AcDbText
 10
7569148.08000000007
 20
5714014.66000000015
 40
0.2
  1
6-51
 50
0.00
 41
0.62
 51
0.00
  7
STANDARD
100
AcDbAttribute
  2
Nr
 70
0
  0
SEQEND
  5
B1
100
AcDbEntity
  8
0
  0
INSERT
  5
B2
100
AcDbEntity
  8
0
  6
CONTINUOUS
100
AcDbBlockReference
 66
1
  2
pikieta
 10
7569161.65000000037
 20
5714342.58999999985
 41
0.10
 42
0.10
 43
0.10
 50
0.00
  0
ATTRIB
  5
B3
100
AcDbEntity
  8
0
100
AcDbText
 10
7569161.65000000037
 20
5714342.58999999985
 40
0.2
  1
6-27
 50
0.00
 41
0.62
 51
0.00
  7
STANDARD
100
AcDbAttribute
  2
Nr
 70
0
  0
SEQEND
  5
B4
100
AcDbEntity
  8
0
  0
INSERT
  5
B5
100
AcDbEntity
  8
0
  6
CONTINUOUS
100
AcDbBlockReference
 66
1
  2
pikieta
 10
7569147.73000000045
 20
5714186.54000000004
 41
0.10
 42
0.10
 43
0.10
 50
0.00
  0
ATTRIB
  5
B6
100
AcDbEntity
  8
0
100
AcDbText
 10
7569147.73000000045
 20
5714186.54000000004
 40
0.2
  1
6-24
 50
0.00
 41
0.62
 51
0.00
  7
STANDARD
100
AcDbAttribute
  2
Nr
 70
0
  0
SEQEND
  5
B7
100
AcDbEntity
  8
0
  0
INSERT
  5
B8
100
AcDbEntity
  8
0
  6
CONTINUOUS
100
AcDbBlockReference
 66
1
  2
pikieta
 10
7569133.8200000003
 20
5714030.48000000045
 41
0.10
 42
0.10
 43
0.10
 50
0.00
  0
ATTRIB
  5
B9
100
AcDbEntity
  8
0
100
AcDbText
 10
7569133.8200000003
 20
5714030.48000000045
 40
0.2
  1
6-23
 50
0.00
 41
0.62
 51
0.00
  7
STANDARD
100
AcDbAttribute
  2
Nr
 70
0
  0
SEQEND
  5
BA
100
AcDbEntity
  8
0
  0
INSERT
  5
BB
100
AcDbEntity
  8
0
  6
CONTINUOUS
100
AcDbBlockReference
 66
1
  2
pikieta
 10
7569133.70000000019
 20
5713876.03000000026
 41
0.10
 42
0.10
 43
0.10
 50
0.00
  0
ATTRIB
  5
BC
100
AcDbEntity
  8
0
100
AcDbText
 10
7569133.70000000019
 20
5713876.03000000026
 40
0.2
  1
38
 50
0.00
 41
0.62
 51
0.00
  7
STANDARD
100
AcDbAttribute
  2
Nr
 70
0
  0
SEQEND
  5
BD
100
AcDbEntity
  8
0
  0
INSERT
  5
BE
100
AcDbEntity
  8
0
  6
CONTINUOUS
100
AcDbBlockReference
 66
1
  2
pikieta
 10
7569145.08999999985
 20
5714014.91000000015
 41
0.10
 42
0.10
 43
0.10
 50
0.00
  0
ATTRIB
  5
BF
100
AcDbEntity
  8
0
100
AcDbText
 10
7569145.08999999985
 20
5714014.91000000015
 40
0.2
  1
39
 50
0.00
 41
0.62
 51
0.00
  7
STANDARD
100
AcDbAttribute
  2
Nr
 70
0
  0
SEQEND
  5
C0
100
AcDbEntity
  8
0
  0
INSERT
  5
C1
100
AcDbEntity
  8
0
  6
CONTINUOUS
100
AcDbBlockReference
 66
1
  2
pikieta
 10
7569135.37717560399
 20
5713896.48005688004
 41
0.10
 42
0.10
 43
0.10
 50
0.00
  0
ATTRIB
  5
C2
100
AcDbEntity
  8
0
100
AcDbText
 10
7569135.37717560399
 20
5713896.48005688004
 40
0.2
  1
40
 50
0.00
 41
0.62
 51
0.00
  7
STANDARD
100
AcDbAttribute
  2
Nr
 70
0
  0
SEQEND
  5
C3
100
AcDbEntity
  8
0
  0
INSERT
  5
C4
100
AcDbEntity
  8
0
  6
CONTINUOUS
100
AcDbBlockReference
 66
1
  2
pikieta
 10
7569136.12737543788
 20
5713905.62928066589
 41
0.10
 42
0.10
 43
0.10
 50
0.00
  0
ATTRIB
  5
C5
100
AcDbEntity
  8
0
100
AcDbText
 10
7569136.12737543788
 20
5713905.62928066589
 40
0.2
  1
41
 50
0.00
 41
0.62
 51
0.00
  7
STANDARD
100
AcDbAttribute
  2
Nr
 70
0
  0
SEQEND
  5
C6
100
AcDbEntity
  8
0
  0
INSERT
  5
C7
100
AcDbEntity
  8
0
  6
CONTINUOUS
100
AcDbBlockReference
 66
1
  2
pikieta
 10
7569136.16497595049
 20
5713906.08774135355
 41
0.10
 42
0.10
 43
0.10
 50
0.00
  0
ATTRIB
  5
C8
100
AcDbEntity
  8
0
100
AcDbText
 10
7569136.16497595049
 20
5713906.08774135355
 40
0.2
  1
42
 50
0.00
 41
0.62
 51
0.00
  7
STANDARD
100
AcDbAttribute
  2
Nr
 70
0
  0
SEQEND
  5
C9
100
AcDbEntity
  8
0
  0
INSERT
  5
CA
100
AcDbEntity
  8
0
  6
CONTINUOUS
100
AcDbBlockReference
 66
1
  2
pikieta
 10
7569135.52711760346
 20
5713906.14005510882
 41
0.10
 42
0.10
 43
0.10
 50
0.00
  0
ATTRIB
  5
CB
100
AcDbEntity
  8
0
100
AcDbText
 10
7569135.52711760346
 20
5713906.14005510882
 40
0.2
  1
43
 50
0.00
 41
0.62
 51
0.00
  7
STANDARD
100
AcDbAttribute
  2
Nr
 70
0
  0
SEQEND
  5
CC
100
AcDbEntity
  8
0
  0
INSERT
  5
CD
100
AcDbEntity
  8
0
  6
CONTINUOUS
100
AcDbBlockReference
 66
1
  2
pikieta
 10
7569135.48951709084
 20
5713905.68159442209
 41
0.10
 42
0.10
 43
0.10
 50
0.00
  0
ATTRIB
  5
CE
100
AcDbEntity
  8
0
100
AcDbText
 10
7569135.48951709084
 20
5713905.68159442209
 40
0.2
  1
44
 50
0.00
 41
0.62
 51
0.00
  7
STANDARD
100
AcDbAttribute
  2
Nr
 70
0
  0
SEQEND
  5
CF
100
AcDbEntity
  8
0
  0
INSERT
  5
D0
100
AcDbEntity
  8
0
  6
CONTINUOUS
100
AcDbBlockReference
 66
1
  2
pikieta
 10
7569129.07106747385
 20
5713906.2080015922
 41
0.10
 42
0.10
 43
0.10
 50
0.00
  0
ATTRIB
  5
D1
100
AcDbEntity
  8
0
100
AcDbText
 10
7569129.07106747385
 20
5713906.2080015922
 40
0.2
  1
45
 50
0.00
 41
0.62
 51
0.00
  7
STANDARD
100
AcDbAttribute
  2
Nr
 70
0
  0
SEQEND
  5
D2
100
AcDbEntity
  8
0
  0
INSERT
  5
D3
100
AcDbEntity
  8
0
  6
CONTINUOUS
100
AcDbBlockReference
 66
1
  2
pikieta
 10
7569128.32069203537
 20
5713897.05872092675
 41
0.10
 42
0.10
 43
0.10
 50
0.00
  0
ATTRIB
  5
D4
100
AcDbEntity
  8
0
100
AcDbText
 10
7569128.32069203537
 20
5713897.05872092675
 40
0.2
  1
46
 50
0.00
 41
0.62
 51
0.00
  7
STANDARD
100
AcDbAttribute
  2
Nr
 70
0
  0
SEQEND
  5
D5
100
AcDbEntity
  8
0
  0
INSERT
  5
D6
100
AcDbEntity
  8
0
  6
CONTINUOUS
100
AcDbBlockReference
 66
1
  2
pikieta
 10
7569128.91775462218
 20
5713897.01003161538
 41
0.10
 42
0.10
 43
0.10
 50
0.00
  0
ATTRIB
  5
D7
100
AcDbEntity
  8
0
100
AcDbText
 10
7569128.91775462218
 20
5713897.01003161538
 40
0.2
  1
47
 50
0.00
 41
0.62
 51
0.00
  7
STANDARD
100
AcDbAttribute
  2
Nr
 70
0
  0
SEQEND
  5
D8
100
AcDbEntity
  8
0
  0
INSERT
  5
D9
100
AcDbEntity
  8
0
  6
CONTINUOUS
100
AcDbBlockReference
 66
1
  2
pikieta
 10
7569135.17788649257
 20
5713896.49633881822
 41
0.10
 42
0.10
 43
0.10
 50
0.00
  0
ATTRIB
  5
DA
100
AcDbEntity
  8
0
100
AcDbText
 10
7569135.17788649257
 20
5713896.49633881822
 40
0.2
  1
48
 50
0.00
 41
0.62
 51
0.00
  7
STANDARD
100
AcDbAttribute
  2
Nr
 70
0
  0
SEQEND
  5
DB
100
AcDbEntity
  8
0
  0
INSERT
  5
DC
100
AcDbEntity
  8
0
  6
CONTINUOUS
100
AcDbBlockReference
 66
1
  2
pikieta
 10
7569128.44400000013
 20
5713891.22900000028
 41
0.10
 42
0.10
 43
0.10
 50
0.00
  0
ATTRIB
  5
DD
100
AcDbEntity
  8
0
100
AcDbText
 10
7569128.44400000013
 20
5713891.22900000028
 40
0.2
  1
49
 50
0.00
 41
0.62
 51
0.00
  7
STANDARD
100
AcDbAttribute
  2
Nr
 70
0
  0
SEQEND
  5
DE
100
AcDbEntity
  8
0
  0
INSERT
  5
DF
100
AcDbEntity
  8
0
  6
CONTINUOUS
100
AcDbBlockReference
 66
1
  2
pikieta
 10
7569134.70299999975
 20
5713890.71600000002
 41
0.10
 42
0.10
 43
0.10
 50
0.00
  0
ATTRIB
  5
E0
100
AcDbEntity
  8
0
100
AcDbText
 10
7569134.70299999975
 20
5713890.71600000002
 40
0.2
  1
50
 50
0.00
 41
0.62
 51
0.00
  7
STANDARD
100
AcDbAttribute
  2
Nr
 70
0
  0
SEQEND
  5
E1
100
AcDbEntity
  8
0
  0
INSERT
  5
E2
100
AcDbEntity
  8
0
  6
CONTINUOUS
100
AcDbBlockReference
 66
1
  2
pikieta
 10
7569128.27300000004
 20
5713870.36500000022
 41
0.10
 42
0.10
 43
0.10
 50
0.00
  0
ATTRIB
  5
E3
100
AcDbEntity
  8
0
100
AcDbText
 10
7569128.27300000004
 20
5713870.36500000022
 40
0.2
  1
ps10
 50
0.00
 41
0.62
 51
0.00
  7
STANDARD
100
AcDbAttribute
  2
Nr
 70
0
  0
SEQEND
  5
E4
100
AcDbEntity
  8
0
  0
INSERT
  5
E5
100
AcDbEntity
  8
0
  6
CONTINUOUS
100
AcDbBlockReference
 66
1
  2
pikieta
 10
7569136.33299999964
 20
5713920.64699999988
 41
0.10
 42
0.10
 43
0.10
 50
0.00
  0
ATTRIB
  5
E6
100
AcDbEntity
  8
0
100
AcDbText
 10
7569136.33299999964
 20
5713920.64699999988
 40
0.2
  1
ps11
 50
0.00
 41
0.62
 51
0.00
  7
STANDARD
100
AcDbAttribute
  2
Nr
 70
0
  0
SEQEND
  5
E7
100
AcDbEntity
  8
0
  0
INSERT
  5
E8
100
AcDbEntity
  8
0
  6
CONTINUOUS
100
AcDbBlockReference
 66
1
  2
pikieta
 10
7569145.82899999991
 20
5714024.31300000008
 41
0.10
 42
0.10
 43
0.10
 50
0.00
  0
ATTRIB
  5
E9
100
AcDbEntity
  8
0
100
AcDbText
 10
7569145.82899999991
 20
5714024.31300000008
 40
0.2
  1
ps12
 50
0.00
 41
0.62
 51
0.00
  7
STANDARD
100
AcDbAttribute
  2
Nr
 70
0
  0
SEQEND
  5
EA
100
AcDbEntity
  8
0
  0
INSERT
  5
EB
100
AcDbEntity
  8
0
  6
CONTINUOUS
100
AcDbBlockReference
 66
1
  2
pikieta
 10
7569130.40899999998
 20
5713868.62399999984
 41
0.10
 42
0.10
 43
0.10
 50
0.00
  0
ATTRIB
  5
EC
100
AcDbEntity
  8
0
100
AcDbText
 10
7569130.40899999998
 20
5713868.62399999984
 40
0.2
  1
76
 50
0.00
 41
0.62
 51
0.00
  7
STANDARD
100
AcDbAttribute
  2
Nr
 70
0
  0
SEQEND
  5
ED
100
AcDbEntity
  8
0
  0
TEXT
  5
EE
100
AcDbEntity
  8
budynek_obrys
370
18
100
AcDbText
 39
0.18
 10
7569135.54550641682
 20
5713900.75655547716
 40
0.18
  1
-9.180-
 50
-275.00
 41
0.66
  7
STANDARD
 72
1
 11
7569135.6327321576
 21
5713901.06512746215
100
AcDbText
 73
1
  0
TEXT
  5
EF
100
AcDbEntity
  8
budynek_obrys
370
18
100
AcDbText
 39
0.18
 10
7569138.92254593782
 20
5713905.30619866774
 40
0.18
  1
-0.461-
 50
-275.00
 41
0.66
  7
STANDARD
 72
1
 11
7569139.0097716786
 21
5713905.61477065273
100
AcDbText
 73
1
  0
TEXT
  5
F0
100
AcDbEntity
  8
budynek_obrys
370
18
100
AcDbText
 39
0.18
 10
7569135.54793348163
 20
5713906.32066733483
 40
0.18
  1
-0.640-
 50
-5.00
 41
0.66
  7
STANDARD
 72
1
 11
7569135.85650546662
 21
5713906.23344159406
100
AcDbText
 73
1
  0
TEXT
  5
F1
100
AcDbEntity
  8
budynek_obrys
370
18
100
AcDbText
 39
0.18
 10
7569131.98217898607
 20
5713906.15156711172
 40
0.18
  1
-6.441-
 50
-5.00
 41
0.66
  7
STANDARD
 72
1
 11
7569132.29075097106
 21
5713906.06434137095
100
AcDbText
 73
1
  0
TEXT
  5
F2
100
AcDbEntity
  8
budynek_obrys
370
18
100
AcDbText
 39
0.18
 10
7569128.4891106505
 20
5713901.33524796367
 40
0.18
  1
-9.180-
 50
-275.00
 41
0.66
  7
STANDARD
 72
1
 11
7569128.57633639127
 21
5713901.64381994866
100
AcDbText
 73
1
  0
TEXT
  5
F3
100
AcDbEntity
  8
budynek_obrys
370
18
100
AcDbText
 39
0.18
 10
7569131.5561986668
 20
5713896.82745405566
 40
0.18
  1
-7.080-
 50
-5.00
 41
0.66
  7
STANDARD
 72
1
 11
7569131.8647706518
 21
5713896.74022831488
100
AcDbText
 73
1
  0
TEXT
  5
F4
100
AcDbEntity
  8
garaz
370
18
100
AcDbText
 39
0.18
 10
7569133.56853472814
 20
5713905.55619364604
 40
0.18
  1
-3.821-
 50
-5.00
 41
0.66
  7
STANDARD
 72
1
 11
7569133.87710671313
 21
5713905.46896790527
100
AcDbText
 73
1
  0
TEXT
  5
F5
100
AcDbEntity
  8
garaz
370
18
100
AcDbText
 39
0.18
 10
7569130.35884608515
 20
5713905.8192091044
 40
0.18
  1
-2.620-
 50
-5.00
 41
0.66
  7
STANDARD
 72
1
 11
7569130.66741807014
 21
5713905.73198336363
100
AcDbText
 73
1
  0
TEXT
  5
F6
100
AcDbEntity
  8
garaz
370
18
100
AcDbText
 39
0.18
 10
7569128.95161246136
 20
5713901.2966837287
 40
0.18
  1
-8.540-
 50
-275.00
 41
0.66
  7
STANDARD
 72
1
 11
7569129.03883820213
 21
5713901.60525571369
100
AcDbText
 73
1
  0
TEXT
  5
F7
100
AcDbEntity
  8
garaz
370
18
100
AcDbText
 39
0.18
 10
7569128.17600900959
 20
5713905.99668957666
 40
0.18
  1
-1.760-
 50
-4.70
 41
0.66
  7
STANDARD
 72
1
 11
7569128.48503347579
 21
5713905.91108070314
100
AcDbText
 73
1
  0
TEXT
  5
F8
100
AcDbEntity
  8
garaz
370
18
100
AcDbText
 39
0.18
 10
7569127.47800900973
 20
5713897.48568957672
 40
0.18
  1
-1.760-
 50
-4.70
 41
0.66
  7
STANDARD
 72
1
 11
7569127.78703347594
 21
5713897.4000807032
100
AcDbText
 73
1
  0
TEXT
  5
F9
100
AcDbEntity
  8
garaz
370
18
100
AcDbText
 39
0.18
 10
7569129.66098928452
 20
5713897.30812128633
 40
0.18
  1
-2.620-
 50
-5.00
 41
0.66
  7
STANDARD
 72
1
 11
7569129.96956126951
 21
5713897.22089554556
100
AcDbText
 73
1
  0
TEXT
  5
FA
100
AcDbEntity
  8
garaz
370
18
100
AcDbText
 39
0.18
 10
7569132.87006123085
 20
5713897.04479182884
 40
0.18
  1
-3.820-
 50
-5.00
 41
0.66
  7
STANDARD
 72
1
 11
7569133.17863321584
 21
5713896.95756608807
100
AcDbText
 73
1
  0
TEXT
  5
FB
100
AcDbEntity
  8
Osie
370
25
100
AcDbText
 39
0.25
 10
7569129.03999999631
 20
5713908.43999999668
 40
0.25
  1
1
 50
0.00
 41
0.66
  7
STANDARD
 72
0
 11
7569129.03999999631
 21
5713908.68999999668
100
AcDbText
 73
3
  0
TEXT
  5
FC
100
AcDbEntity
  8
Osie
370
25
100
AcDbText
 39
0.25
 10
7569128.04999999609
 20
5713905.82999999728
 40
0.25
  1
2
 50
0.00
 41
0.66
  7
STANDARD
 72
0
 11
7569128.04999999609
 21
5713906.07999999728
100
AcDbText
 73
3
  0
TEXT
  5
FD
100
AcDbEntity
  8
Osie
370
25
100
AcDbText
 39
0.25
 10
7569136.31999999657
 20
5713905.13999999687
 40
0.25
  1
2
 50
0.00
 41
0.66
  7
STANDARD
 72
0
 11
7569136.31999999657
 21
5713905.38999999687
100
AcDbText
 73
3
  0
TEXT
  5
FE
100
AcDbEntity
  8
Osie
370
25
100
AcDbText
 39
0.25
 10
7569126.25999999605
 20
5713897.42999999691
 40
0.25
  1
3
 50
0.00
 41
0.66
  7
STANDARD
 72
0
 11
7569126.25999999605
 21
5713897.67999999691
100
AcDbText
 73
3
  0
TEXT
  5
FF
100
AcDbEntity
  8
Osie
370
25
100
AcDbText
 39
0.25
 10
7569135.74100000225
 20
5713896.54400000162
 40
0.25
  1
3
 50
0.00
 41
0.66
  7
STANDARD
 72
0
 11
7569135.74100000225
 21
5713896.79400000162
100
AcDbText
 73
3
  0
TEXT
  5
100
100
AcDbEntity
  8
Osie
370
25
100
AcDbText
 39
0.25
 10
7569136.45999999624
 20
5713907.84999999683
 40
0.25
  1
1
 50
0.00
 41
0.66
  7
STANDARD
 72
0
 11
7569136.45999999624
 21
5713908.09999999683
100
AcDbText
 73
3
  0
TEXT
  5
101
100
AcDbEntity
  8
Osie
370
25
100
AcDbText
 39
0.25
 10
7569126.97200000193
 20
5713898.98000000138
 40
0.25
  1
A
 50
0.00
 41
0.66
  7
STANDARD
 72
0
 11
7569126.97200000193
 21
5713899.23000000138
100
AcDbText
 73
3
  0
TEXT
  5
102
100
AcDbEntity
  8
Osie
370
25
100
AcDbText
 39
0.25
 10
7569127.38999999594
 20
5713904.5699999975
 40
0.25
  1
A
 50
0.00
 41
0.66
  7
STANDARD
 72
0
 11
7569127.38999999594
 21
5713904.8199999975
100
AcDbText
 73
3
  0
TEXT
  5
103
100
AcDbEntity
  8
Osie
370
25
100
AcDbText
 39
0.25
 10
7569128.7060000021
 20
5713898.61100000143
 40
0.25
  1
B
 50
0.00
 41
0.66
  7
STANDARD
 72
0
 11
7569128.7060000021
 21
5713898.86100000143
100
AcDbText
 73
3
  0
TEXT
  5
104
100
AcDbEntity
  8
Osie
370
25
100
AcDbText
 39
0.25
 10
7569129.13999999594
 20
5713904.53999999724
 40
0.25
  1
B
 50
0.00
 41
0.66
  7
STANDARD
 72
0
 11
7569129.13999999594
 21
5713904.78999999724
100
AcDbText
 73
3
  0
TEXT
  5
105
100
AcDbEntity
  8
Osie
370
25
100
AcDbText
 39
0.25
 10
7569131.19999999646
 20
5713896.28999999724
 40
0.25
  1
C
 50
0.00
 41
0.66
  7
STANDARD
 72
0
 11
7569131.19999999646
 21
5713896.53999999724
100
AcDbText
 73
3
  0
TEXT
  5
106
100
AcDbEntity
  8
Osie
370
25
100
AcDbText
 39
0.25
 10
7569131.88999999594
 20
5713906.43999999668
 40
0.25
  1
C
 50
0.00
 41
0.66
  7
STANDARD
 72
0
 11
7569131.88999999594
 21
5713906.68999999668
100
AcDbText
 73
3
  0
TEXT
  5
107
100
AcDbEntity
  8
Osie
370
25
100
AcDbText
 39
0.25
 10
7569131.88999999594
 20
5713906.43999999668
 40
0.25
  1
C
 50
0.00
 41
0.66
  7
STANDARD
 72
0
 11
7569131.88999999594
 21
5713906.68999999668
100
AcDbText
 73
3
  0
TEXT
  5
108
100
AcDbEntity
  8
Osie
370
25
100
AcDbText
 39
0.25
 10
7569135.5999999959
 20
5713903.87999999709
 40
0.25
  1
D
 50
0.00
 41
0.66
  7
STANDARD
 72
0
 11
7569135.5999999959
 21
5713904.12999999709
100
AcDbText
 73
3
  0
TEXT
  5
109
100
AcDbEntity
  8
Osie
370
25
100
AcDbText
 39
0.25
 10
7569135.12999999616
 20
5713898.0599999968
 40
0.25
  1
D
 50
0.00
 41
0.66
  7
STANDARD
 72
0
 11
7569135.12999999616
 21
5713898.3099999968
100
AcDbText
 73
3
  0
TEXT
  5
10A
100
AcDbEntity
  8
Osie
370
25
100
AcDbText
 39
0.25
 10
7569135.13999999594
 20
5713906.93999999668
 40
0.25
  1
C'
 50
0.00
 41
0.66
  7
STANDARD
 72
0
 11
7569135.13999999594
 21
5713907.18999999668
100
AcDbText
 73
3
  0
TEXT
  5
10B
100
AcDbEntity
  8
Osie
370
25
100
AcDbText
 39
0.25
 10
7569135.35999999661
 20
5713909.39999999758
 40
0.25
  1
C'
 50
0.00
 41
0.66
  7
STANDARD
 72
0
 11
7569135.35999999661
 21
5713909.64999999758
100
AcDbText
 73
3
  0
TEXT
  5
10C
100
AcDbEntity
  8
Osie
370
25
100
AcDbText
 39
0.25
 10
7569130.10999999661
 20
5713907.3099999968
 40
0.25
  1
B'
 50
0.00
 41
0.66
  7
STANDARD
 72
0
 11
7569130.10999999661
 21
5713907.5599999968
100
AcDbText
 73
3
  0
TEXT
  5
10D
100
AcDbEntity
  8
Osie
370
25
100
AcDbText
 39
0.25
 10
7569130.33999999613
 20
5713909.90999999736
 40
0.25
  1
B'
 50
0.00
 41
0.66
  7
STANDARD
 72
0
 11
7569130.33999999613
 21
5713910.15999999736
100
AcDbText
 73
3
  0
TEXT
  5
10E
100
AcDbEntity
  8
Osie
 62
7
370
25
100
AcDbText
 39
0.25
 10
7569130.14400000218
 20
5713896.6380000012
 40
0.25
  1
3'
 50
0.00
 41
0.66
  7
STANDARD
 72
0
 11
7569130.14400000218
 21
5713896.8880000012
100
AcDbText
 73
3
  0
TEXT
  5
10F
100
AcDbEntity
  8
Osie
 62
7
370
25
100
AcDbText
 39
0.25
 10
7569127.93400000222
 20
5713891.27600000147
 40
0.25
  1
4
 50
0.00
 41
0.66
  7
STANDARD
 72
0
 11
7569127.93400000222
 21
5713891.52600000147
100
AcDbText
 73
3
  0
TEXT
  5
110
100
AcDbEntity
  8
Osie
370
25
100
AcDbText
 39
0.25
 10
7569134.46500000171
 20
5713890.17600000091
 40
0.25
  1
D
 50
0.00
 41
0.66
  7
STANDARD
 72
0
 11
7569134.46500000171
 21
5713890.42600000091
100
AcDbText
 73
3
  0
TEXT
  5
111
100
AcDbEntity
  8
Osie
370
25
100
AcDbText
 39
0.25
 10
7569128.44700000156
 20
5713890.57400000095
 40
0.25
  1
B"
 50
0.00
 41
0.66
  7
STANDARD
 72
0
 11
7569128.44700000156
 21
5713890.82400000095
100
AcDbText
 73
3
  0
TEXT
  5
112
100
AcDbEntity
  8
Osie
370
18
100
AcDbText
 39
0.18
 10
7569131.27255190257
 20
5713891.1551075438
 40
0.18
  1
-6.040-
 50
-5.00
 41
0.66
  7
STANDARD
 72
1
 11
7569131.58112388756
 21
5713891.06788180303
100
AcDbText
 73
1
  0
TEXT
  5
113
100
AcDbEntity
  8
Osie
370
18
100
AcDbText
 39
0.18
 10
7569134.75714811776
 20
5713893.30490105227
 40
0.18
  1
-5.560-
 50
-275.00
 41
0.66
  7
STANDARD
 72
1
 11
7569134.84437385853
 21
5713893.61347303726
100
AcDbText
 73
1
  0
TEXT
  5
114
100
AcDbEntity
  8
Osie
370
18
100
AcDbText
 39
0.18
 10
7569128.73754140455
 20
5713893.79918786325
 40
0.18
  1
-5.561-
 50
-275.00
 41
0.66
  7
STANDARD
 72
1
 11
7569128.82476714533
 21
5713894.10775984824
100
AcDbText
 73
1
  0
ENDSEC
  0
SECTION
  2
OBJECTS
  0
DICTIONARY
  5
115
330
0
100
AcDbDictionary
280
0
281
1
  3
ACAD_GROUP
350
116
  3
ACAD_LAYOUT
350
117
  3
ACAD_MLINESTYLE
350
118
  3
ACAD_PLOTSETTINGS
350
119
  3
ACAD_PLOTSTYLENAME
350
11A
  3
ACAD_WIPEOUT_VARS
350
11B
  0
DICTIONARY
  5
116
102
{ACAD_REACTORS
330
115
102
}
330
115
100
AcDbDictionary
280
0
281
1
  0
DICTIONARY
  5
117
102
{ACAD_REACTORS
330
115
102
}
330
115
100
AcDbDictionary
280
0
281
1
  3
Layout
350
1C
  3
Model
350
1A
  0
DICTIONARY
  5
118
102
{ACAD_REACTORS
330
115
102
}
330
115
100
AcDbDictionary
280
0
281
1
  3
Standard
350
11C
  0
DICTIONARY
  5
119
102
{ACAD_REACTORS
330
115
102
}
330
115
100
AcDbDictionary
280
0
281
1
  0
ACDBDICTIONARYWDFLT
  5
11A
102
{ACAD_REACTORS
330
115
102
}
330
115
100
AcDbDictionary
281
1
  3
Normal
350
A
100
AcDbDictionaryWithDefault
340
A
  0
WIPEOUTVARIABLES
  5
11B
102
{ACAD_REACTORS
330
115
102
}
330
115
100
AcDbWipeoutVariables
 70
0
  0
LAYOUT
  5
1C
100
AcDbPlotSettings
  1

  2

  4

  6

 40
0.0
 41
0.0
 42
0.0
 43
0.0
 44
0.0
 45
0.0
 46
0.0
 47
0.0
 48
0.0
 49
0.0
140
0.0
141
0.0
142
1.0
143
1.0
 70
688
 72
1
 73
0
 74
5
  7

 75
0
147
1.0
148
0.0
149
0.0
100
AcDbLayout
  1
Layout
 70
1
 71
1
 10
0.0
 20
0.0
 11
420.0
 21
297.0
 12
0.0
 22
0.0
 32
0.0
 14
100000000000000000000.0
 24
100000000000000000000.0
 34
100000000000000000000.0
 15
-100000000000000000000.0
 25
-100000000000000000000.0
 35
-100000000000000000000.0
146
0.0
 13
0.0
 23
0.0
 33
0.0
 16
1.0
 26
0.0
 36
0.0
 17
0.0
 27
1.0
 37
0.0
 76
0
330
1B
  0
LAYOUT
  5
1A
100
AcDbPlotSettings
  1

  2

  4

  6

 40
0.0
 41
0.0
 42
0.0
 43
0.0
 44
0.0
 45
0.0
 46
0.0
 47
0.0
 48
0.0
 49
0.0
140
0.0
141
0.0
142
1.0
143
1.0
 70
1712
 72
1
 73
0
 74
0
  7

 75
0
147
1.0
148
0.0
149
0.0
100
AcDbLayout
  1
Model
 70
1
 71
0
 10
0.0
 20
0.0
 11
12.0
 21
9.0
 12
0.0
 22
0.0
 32
0.0
 14
0.0
 24
0.0
 34
0.0
 15
0.0
 25
0.0
 35
0.0
146
0.0
 13
0.0
 23
0.0
 33
0.0
 16
1.0
 26
0.0
 36
0.0
 17
0.0
 27
1.0
 37
0.0
 76
0
330
19
  0
MLINESTYLE
  5
11C
102
{ACAD_REACTORS
330
118
102
}
330
118
100
AcDbMlineStyle
  2
Standard
 70
0
  3

 62
256
 51
90.0
 52
90.0
  2
Standard
 71
2
 49
0.5
 62
256
  6
ByLayer
 49
-0.5
 62
256
  6
ByLayer
  0
ACDBPLACEHOLDER
  5
A
  0
ENDSEC
  0
EOF
