  0
SECTION
  2
HEADER
  9
$ACADVER
  1
AC1018
  9
$HANDSEED
  5
FFFFFF
  9
$EXTMAX
 10
7569447.44000000041
 20
5714376.55999999959
 30
1000000.00
  9
$EXTMIN
 10
7569346.86000000034
 20
5713888.28000000026
 30
0.00
  9
$LIMMIN
 10
7569346.86000000034
 20
5713888.28000000026
  9
$LIMMAX
 10
7569447.44000000041
 20
5714376.55999999959
  9
$DIMASZ
 40
2.5
  9
$DIMGAP
 40
0.625
  9
$INSUNITS
 70
6
  9
$DIMEXO
 40
0.625
  9
$DIMTXT
 40
2.5
  9
$DIMSTYLE
  2
Standard
  9
$PLIMMIN
 10
0.0
 20
0.0
  9
$PLIMMAX
 10
210.0
 20
297.0
  9
$DIMEXE
 40
1.25
  9
$TEXTSIZE
 40
2.5
  9
$TEXTSTYLE
  7
Standard
  9
$LWDISPLAY
290
1
  9
$TDCREATE
 40
43661.513582731
  9
$TDUCREATE
 40
43661.430249398
  9
$TDUPDATE
 40
43661.513582731
  9
$TDUUPDATE
 40
43661.430249398
  9
$TDINDWG
 40
0.0
  9
$TDUSRTIMER
 40
0.0
  9
$USRTIMER
 70
1
  0
ENDSEC
  0
SECTION
  2
TABLES
  0
TABLE
  2
VPORT
  5
1
100
AcDbSymbolTable
 70
1
  0
VPORT
  5
2
100
AcDbSymbolTableRecord
100
AcDbViewportTableRecord
  2
*ACTIVE
 70
0
 10
0.0
 20
0.0
 11
1.0
 21
1.0
 12
7569397.150
 22
5714132.420
 13
0.0
 23
0.0
 14
1.0
 24
1.0
 15
0.0
 25
0.0
 16
0.0
 26
0.0
 36
1.0
 17
0.0
 27
0.0
 37
0.0
 40
488.280
 41
0.206
 42
50.0
 43
0.0
 44
0.0
 50
0.0
 51
0.0
 71
0
 72
100
 73
1
 74
1
 75
0
 76
0
 77
0
 78
0
  0
ENDTAB
  0
TABLE
  2
LTYPE
  5
3
100
AcDbSymbolTable
 70
385
  0
LTYPE
  5
4
100
AcDbSymbolTableRecord
100
AcDbLinetypeTableRecord
  2
ByBlock
 70
0
  3

 72
65
 73
0
 40
0.0
  0
LTYPE
  5
5
100
AcDbSymbolTableRecord
100
AcDbLinetypeTableRecord
  2
ByLayer
 70
0
  3

 72
65
 73
0
 40
0.0
  0
LTYPE
  5
6
100
AcDbSymbolTableRecord
100
AcDbLinetypeTableRecord
  2
CONTINUOUS
 70
0
  3
Solid line
 72
65
 73
0
 40
0.0
  0
LTYPE
  5
7
100
AcDbSymbolTableRecord
100
AcDbLinetypeTableRecord
  2
L_0_02
 70
0
  3
Dzialka_ewidencyjna
 72
65
 73
0
 40
0.0
  0
LTYPE
  5
9
100
AcDbSymbolTableRecord
100
AcDbLinetypeTableRecord
  2
L_0_02_M
 70
0
  3
Dzialka_ewidencyjna (MLineStyle)
 72
65
 73
0
 40
0.0
  0
LTYPE
  5
A
100
AcDbSymbolTableRecord
100
AcDbLinetypeTableRecord
  2
L_0_4D
 70
0
  3
L_0_4D
 72
65
 73
4
 40
0.5
 49
0.30000000000000004
 74
0
 49
-0.10000000000000001
 74
0
 49
0.0
 74
0
 49
-0.10000000000000001
 74
0
  0
ENDTAB
  0
TABLE
  2
LAYER
  5
B
100
AcDbSymbolTable
 70
4
  0
LAYER
  5
C
100
AcDbSymbolTableRecord
100
AcDbLayerTableRecord
  2
0
 70
0
420
0
  6
CONTINUOUS
370
18
390
D
  0
LAYER
  5
E
100
AcDbSymbolTableRecord
100
AcDbLayerTableRecord
  2
dzialki
 70
0
420
0
  6
L_0_02
370
18
390
D
  0
LAYER
  5
F
100
AcDbSymbolTableRecord
100
AcDbLayerTableRecord
  2
obrys_budynek
 70
0
420
255
  6
CONTINUOUS
370
18
390
D
  0
LAYER
  5
10
100
AcDbSymbolTableRecord
100
AcDbLayerTableRecord
  2
osie
 70
0
420
16711680
  6
L_0_4D
370
18
390
D
  0
ENDTAB
  0
TABLE
  2
STYLE
  5
11
100
AcDbSymbolTable
 70
1
  0
STYLE
  5
12
100
AcDbSymbolTableRecord
100
AcDbTextStyleTableRecord
  2
STANDARD
 70
0
 40
0.0
 41
1.0
 50
0.0
 71
0
  3
simplex.shx
  4

  0
ENDTAB
  0
TABLE
  2
VIEW
  5
13
100
AcDbSymbolTable
 70
0
  0
ENDTAB
  0
TABLE
  2
UCS
  5
14
100
AcDbSymbolTable
 70
0
  0
ENDTAB
  0
TABLE
  2
APPID
  5
15
100
AcDbSymbolTable
 70
1
  0
APPID
  5
16
100
AcDbSymbolTableRecord
100
AcDbRegAppTableRecord
  2
ACAD
 70
0
  0
ENDTAB
  0
TABLE
  2
DIMSTYLE
  5
17
100
AcDbSymbolTable
 70
1
100
AcDbDimStyleTable
  0
DIMSTYLE
105
18
100
AcDbSymbolTableRecord
100
AcDbDimStyleTableRecord
  2
Standard
 70
0
340
12
  0
ENDTAB
  0
TABLE
  2
BLOCK_RECORD
  5
19
100
AcDbSymbolTable
 70
5
  0
BLOCK_RECORD
  5
1A
100
AcDbSymbolTableRecord
100
AcDbBlockTableRecord
  2
*Model_Space
340
1B
  0
BLOCK_RECORD
  5
1C
100
AcDbSymbolTableRecord
100
AcDbBlockTableRecord
  2
*Paper_Space
340
1D
  0
BLOCK_RECORD
  5
1E
100
AcDbSymbolTableRecord
100
AcDbBlockTableRecord
  2
GRO
340
1F
  0
BLOCK_RECORD
  5
20
100
AcDbSymbolTableRecord
100
AcDbBlockTableRecord
  2
L_0_02_1
340
21
  0
BLOCK_RECORD
  5
22
100
AcDbSymbolTableRecord
100
AcDbBlockTableRecord
  2
L_0_02_2
340
23
  0
ENDTAB
  0
ENDSEC
  0
SECTION
  2
BLOCKS
  0
BLOCK
  5
24
100
AcDbEntity
  8
0
100
AcDbBlockBegin
  2
*Model_Space
 70
0
 10
0.0
 20
0.0
 30
0.0
  3
*Model_Space
  1

  0
ENDBLK
  5
25
100
AcDbEntity
  8
0
100
AcDbBlockEnd
  0
BLOCK
  5
26
100
AcDbEntity
 67
1
  8
0
100
AcDbBlockBegin
  2
*Paper_Space
 70
0
 10
0.0
 20
0.0
 30
0.0
  3
*Paper_Space
  1

  0
ENDBLK
  5
27
100
AcDbEntity
 67
1
  8
0
100
AcDbBlockEnd
  0
BLOCK
  5
1F
100
AcDbEntity
  8
0
100
AcDbBlockBegin
 62
0
370
13
  2
GRO
 70
0
 10
0
 20
0
 30
0
  3
GRO
  0
HATCH
  5
28
100
AcDbEntity
  8
0
  6
CONTINUOUS
 62
0
370
13
100
AcDbHatch
 10
0.0
 20
0.0
 30
0.0
210
0.0
220
0.0
230
1.0
  2
SOLID
 70
1
 71
1
 91
1
 92
3
 72
1
 73
1
 93
2
 10
0.0
 20
-0.10000000000000001
 42
1.0
 10
0.0
 20
0.10000000000000001
 42
1.0
 97
0
 75
0
 76
1
 98
0
  0
CIRCLE
  5
29
100
AcDbEntity
  8
0
  6
CONTINUOUS
 62
0
370
13
100
AcDbCircle
 10
0.0
 20
-0.0
 40
0.10000000000000001
  0
ENDBLK
  5
2A
100
AcDbEntity
  8
0
100
AcDbBlockEnd
  0
BLOCK
  5
21
100
AcDbEntity
  8
0
100
AcDbBlockBegin
 62
0
370
13
  2
L_0_02_1
 70
0
 10
0
 20
0
 30
0
  3
L_0_02_1
  0
POINT
  5
2B
100
AcDbEntity
  8
0
100
AcDbPoint
 62
0
 10
0.0
 20
0.0
 30
0.000
  0
ENDBLK
  5
2C
100
AcDbEntity
  8
0
100
AcDbBlockEnd
  0
BLOCK
  5
23
100
AcDbEntity
  8
0
100
AcDbBlockBegin
 62
0
370
13
  2
L_0_02_2
 70
0
 10
0
 20
0
 30
0
  3
L_0_02_2
  0
POINT
  5
2D
100
AcDbEntity
  8
0
100
AcDbPoint
 62
0
 10
-0.0
 20
-0.0
 30
0.000
  0
ENDBLK
  5
2E
100
AcDbEntity
  8
0
100
AcDbBlockEnd
  0
ENDSEC
  0
SECTION
  2
ENTITIES
  0
INSERT
  5
2F
100
AcDbEntity
  8
dzialki
  6
CONTINUOUS
100
AcDbBlockReference
 66
0
  2
L_0_02_1
 10
7569346.86000000034
 20
5713888.28000000026
 41
0.20
 42
0.20
 43
0.20
 50
5.21
  0
INSERT
  5
30
100
AcDbEntity
  8
dzialki
  6
CONTINUOUS
100
AcDbBlockReference
 66
0
  2
L_0_02_2
 10
7569409.6799999997
 20
5713894.00999999978
 41
0.20
 42
0.20
 43
0.20
 50
185.21
  0
INSERT
  5
31
100
AcDbEntity
  8
dzialki
  6
CONTINUOUS
100
AcDbBlockReference
 66
0
  2
L_0_02_1
 10
7569409.6799999997
 20
5713894.00999999978
 41
0.20
 42
0.20
 43
0.20
 50
84.96
  0
INSERT
  5
32
100
AcDbEntity
  8
dzialki
  6
CONTINUOUS
100
AcDbBlockReference
 66
0
  2
L_0_02_2
 10
7569427.51999999955
 20
5714096.41999999993
 41
0.20
 42
0.20
 43
0.20
 50
264.96
  0
INSERT
  5
33
100
AcDbEntity
  8
dzialki
  6
CONTINUOUS
100
AcDbBlockReference
 66
0
  2
L_0_02_1
 10
7569427.51999999955
 20
5714096.41999999993
 41
0.20
 42
0.20
 43
0.20
 50
84.93
  0
INSERT
  5
34
100
AcDbEntity
  8
dzialki
  6
CONTINUOUS
100
AcDbBlockReference
 66
0
  2
L_0_02_2
 10
7569447.44000000041
 20
5714321.05999999959
 41
0.20
 42
0.20
 43
0.20
 50
264.93
  0
INSERT
  5
35
100
AcDbEntity
  8
dzialki
  6
CONTINUOUS
100
AcDbBlockReference
 66
0
  2
L_0_02_1
 10
7569447.44000000041
 20
5714321.05999999959
 41
0.20
 42
0.20
 43
0.20
 50
194.83
  0
INSERT
  5
36
100
AcDbEntity
  8
dzialki
  6
CONTINUOUS
100
AcDbBlockReference
 66
0
  2
L_0_02_2
 10
7569446.75999999978
 20
5714320.87999999989
 41
0.20
 42
0.20
 43
0.20
 50
14.83
  0
INSERT
  5
37
100
AcDbEntity
  8
dzialki
  6
CONTINUOUS
100
AcDbBlockReference
 66
0
  2
L_0_02_1
 10
7569446.75999999978
 20
5714320.87999999989
 41
0.20
 42
0.20
 43
0.20
 50
223.85
  0
INSERT
  5
38
100
AcDbEntity
  8
dzialki
  6
CONTINUOUS
100
AcDbBlockReference
 66
0
  2
L_0_02_2
 10
7569441.66999999993
 20
5714315.99000000022
 41
0.20
 42
0.20
 43
0.20
 50
43.85
  0
INSERT
  5
39
100
AcDbEntity
  8
dzialki
  6
CONTINUOUS
100
AcDbBlockReference
 66
0
  2
L_0_02_1
 10
7569441.66999999993
 20
5714315.99000000022
 41
0.20
 42
0.20
 43
0.20
 50
150.90
  0
INSERT
  5
3A
100
AcDbEntity
  8
dzialki
  6
CONTINUOUS
100
AcDbBlockReference
 66
0
  2
L_0_02_2
 10
7569428.13999999966
 20
5714323.51999999955
 41
0.20
 42
0.20
 43
0.20
 50
330.90
  0
INSERT
  5
3B
100
AcDbEntity
  8
dzialki
  6
CONTINUOUS
100
AcDbBlockReference
 66
0
  2
L_0_02_1
 10
7569428.13999999966
 20
5714323.51999999955
 41
0.20
 42
0.20
 43
0.20
 50
108.23
  0
INSERT
  5
3C
100
AcDbEntity
  8
dzialki
  6
CONTINUOUS
100
AcDbBlockReference
 66
0
  2
L_0_02_2
 10
7569424.75
 20
5714333.80999999959
 41
0.20
 42
0.20
 43
0.20
 50
288.23
  0
INSERT
  5
3D
100
AcDbEntity
  8
dzialki
  6
CONTINUOUS
100
AcDbBlockReference
 66
0
  2
L_0_02_1
 10
7569424.75
 20
5714333.80999999959
 41
0.20
 42
0.20
 43
0.20
 50
80.07
  0
INSERT
  5
3E
100
AcDbEntity
  8
dzialki
  6
CONTINUOUS
100
AcDbBlockReference
 66
0
  2
L_0_02_2
 10
7569427.12999999989
 20
5714347.41000000015
 41
0.20
 42
0.20
 43
0.20
 50
260.07
  0
INSERT
  5
3F
100
AcDbEntity
  8
dzialki
  6
CONTINUOUS
100
AcDbBlockReference
 66
0
  2
L_0_02_1
 10
7569427.12999999989
 20
5714347.41000000015
 41
0.20
 42
0.20
 43
0.20
 50
102.86
  0
INSERT
  5
40
100
AcDbEntity
  8
dzialki
  6
CONTINUOUS
100
AcDbBlockReference
 66
0
  2
L_0_02_2
 10
7569424.58000000007
 20
5714358.58000000007
 41
0.20
 42
0.20
 43
0.20
 50
282.86
  0
INSERT
  5
41
100
AcDbEntity
  8
dzialki
  6
CONTINUOUS
100
AcDbBlockReference
 66
0
  2
L_0_02_1
 10
7569424.58000000007
 20
5714358.58000000007
 41
0.20
 42
0.20
 43
0.20
 50
119.29
  0
INSERT
  5
42
100
AcDbEntity
  8
dzialki
  6
CONTINUOUS
100
AcDbBlockReference
 66
0
  2
L_0_02_2
 10
7569418.55999999959
 20
5714369.30999999959
 41
0.20
 42
0.20
 43
0.20
 50
299.29
  0
INSERT
  5
43
100
AcDbEntity
  8
dzialki
  6
CONTINUOUS
100
AcDbBlockReference
 66
0
  2
L_0_02_1
 10
7569418.55999999959
 20
5714369.30999999959
 41
0.20
 42
0.20
 43
0.20
 50
141.58
  0
INSERT
  5
44
100
AcDbEntity
  8
dzialki
  6
CONTINUOUS
100
AcDbBlockReference
 66
0
  2
L_0_02_2
 10
7569409.41999999992
 20
5714376.55999999959
 41
0.20
 42
0.20
 43
0.20
 50
321.58
  0
INSERT
  5
45
100
AcDbEntity
  8
dzialki
  6
CONTINUOUS
100
AcDbBlockReference
 66
0
  2
L_0_02_1
 10
7569409.41999999992
 20
5714376.55999999959
 41
0.20
 42
0.20
 43
0.20
 50
213.08
  0
INSERT
  5
46
100
AcDbEntity
  8
dzialki
  6
CONTINUOUS
100
AcDbBlockReference
 66
0
  2
L_0_02_2
 10
7569399.87000000011
 20
5714370.33999999985
 41
0.20
 42
0.20
 43
0.20
 50
33.08
  0
INSERT
  5
47
100
AcDbEntity
  8
dzialki
  6
CONTINUOUS
100
AcDbBlockReference
 66
0
  2
L_0_02_1
 10
7569399.87000000011
 20
5714370.33999999985
 41
0.20
 42
0.20
 43
0.20
 50
230.80
  0
INSERT
  5
48
100
AcDbEntity
  8
dzialki
  6
CONTINUOUS
100
AcDbBlockReference
 66
0
  2
L_0_02_2
 10
7569387.0
 20
5714354.55999999959
 41
0.20
 42
0.20
 43
0.20
 50
50.80
  0
INSERT
  5
49
100
AcDbEntity
  8
dzialki
  6
CONTINUOUS
100
AcDbBlockReference
 66
0
  2
L_0_02_1
 10
7569387.0
 20
5714354.55999999959
 41
0.20
 42
0.20
 43
0.20
 50
168.02
  0
INSERT
  5
4A
100
AcDbEntity
  8
dzialki
  6
CONTINUOUS
100
AcDbBlockReference
 66
0
  2
L_0_02_2
 10
7569386.66999999993
 20
5714354.62999999989
 41
0.20
 42
0.20
 43
0.20
 50
348.02
  0
INSERT
  5
4B
100
AcDbEntity
  8
dzialki
  6
CONTINUOUS
100
AcDbBlockReference
 66
0
  2
L_0_02_1
 10
7569386.66999999993
 20
5714354.62999999989
 41
0.20
 42
0.20
 43
0.20
 50
265.12
  0
INSERT
  5
4C
100
AcDbEntity
  8
dzialki
  6
CONTINUOUS
100
AcDbBlockReference
 66
0
  2
L_0_02_2
 10
7569346.86000000034
 20
5713888.28000000026
 41
0.20
 42
0.20
 43
0.20
 50
85.12
  0
MLINE
  5
4D
100
AcDbEntity
  8
dzialki
  6
L_0_02_M
370
18
100
AcDbMline
  2
L_0_02_M
340
8
 40
1.0
 70
1
 71
3
 72
15
 73
1
 10
7569346.86000000034
 20
5713888.28000000026
 30
0.0
210
0.0
220
0.0
230
1.0
 11
7569346.86000000034
 21
5713888.28000000026
 12
0.9958658738199222
 22
0.09083590347920081
 13
0.7050522533169169
 23
0.70915535681029596
 74
3
 41
0.0
 41
0.10000000000000001
 41
62.9807839196286636
 75
0
 11
7569409.6799999997
 21
5713894.00999999978
 12
0.08779757877799027
 22
0.99613833635731663
 13
-0.70818447923696692
 23
0.70602743811261748
 74
3
 41
0.0
 41
0.10000000000000001
 41
203.094669467619184
 75
0
 11
7569427.51999999955
 21
5714096.41999999993
 12
0.08832861677329307
 22
0.99609138910991335
 13
-0.99611489812126941
 23
0.08806310090414279
 74
3
 41
0.0
 41
0.10000000000000001
 41
225.421475695516648
 75
0
 11
7569447.44000000041
 21
5714321.05999999959
 12
-0.96670522802527159
 22
-0.2558925596976348
 13
-0.64439714476667054
 23
-0.76469099629625736
 74
3
 41
0.0
 41
0.10000000000000001
 41
0.6034202163387109
 75
0
 11
7569446.75999999978
 21
5714320.87999999989
 12
-0.72113246717797053
 22
-0.69279720321448568
 13
0.48997914423075734
 23
-0.87173415570281221
 74
3
 41
0.0
 41
0.10000000000000001
 41
6.95834258131496952
 75
0
 11
7569441.66999999993
 21
5714315.99000000022
 12
-0.8737914712549002
 22
0.48630079658807562
 13
0.12839931607623514
 23
-0.99172254972404206
 74
3
 41
0.0
 41
0.10000000000000001
 41
15.38424360428877868
 75
0
 11
7569428.13999999966
 21
5714323.51999999955
 12
-0.31290296287914893
 22
0.94978509981018866
 13
-0.77086617202047158
 23
-0.63699713094683919
 74
3
 41
0.0
 41
0.10000000000000001
 41
10.73402972113762921
 75
0
 11
7569424.75
 21
5714333.80999999959
 12
0.17238033173752196
 22
0.98503046715828124
 13
-0.99737294356443362
 23
-0.07243763832164143
 74
3
 41
0.0
 41
0.10000000000000001
 41
13.70667954341909223
 75
0
 11
7569427.12999999989
 21
5714347.41000000015
 12
-0.22256410449254357
 22
0.97491805778302831
 13
-0.99967236234287027
 23
-0.02559624909679324
 74
3
 41
0.0
 41
0.10000000000000001
 41
11.3573731717783204
 75
0
 11
7569424.58000000007
 21
5714358.58000000007
 12
-0.48929621008881086
 22
0.87211766338764529
 13
-0.93309792779700895
 23
-0.35962238131257601
 74
3
 41
0.0
 41
0.10000000000000001
 41
12.20338571269868133
 75
0
 11
7569418.55999999959
 21
5714369.30999999959
 12
-0.78345450578974873
 22
0.62144914301794696
 13
-0.76112924463035181
 23
-0.64860024126454807
 74
3
 41
0.0
 41
0.10000000000000001
 41
11.5662804695357444
 75
0
 11
7569409.41999999992
 21
5714376.55999999959
 12
-0.83794209564072064
 22
-0.54575914500192957
 13
-0.04663119462182069
 23
-0.99891217416154343
 74
3
 41
0.0
 41
0.10000000000000001
 41
11.29696889498248957
 75
0
 11
7569399.87000000011
 21
5714370.33999999985
 12
-0.63203360967561617
 22
-0.77494097597198386
 13
0.66832759821306043
 23
-0.74386707244423855
 74
3
 41
0.0
 41
0.10000000000000001
 41
20.2628411576358012
 75
0
 11
7569387.0
 21
5714354.55999999959
 12
-0.97823412493262274
 22
0.2075042091556358
 13
0.33235496126100156
 23
-0.9431543774617166
 74
3
 41
0.0
 41
0.10000000000000001
 41
0.23734255600338519
 75
0
 11
7569386.66999999993
 21
5714354.62999999989
 12
-0.08505572287636586
 22
-0.99637619602536609
 13
0.59583694698456824
 23
-0.80310543056818451
 74
3
 41
0.0
 41
0.10000000000000001
 41
467.946107343731569
 75
0
  0
POLYLINE
  5
4E
100
AcDbEntity
  8
obrys_budynek
  6
CONTINUOUS
370
18
100
AcDb3dPolyline
 66
1
 70
136
  0
VERTEX
  5
4F
100
AcDbEntity
  8
obrys_budynek
100
AcDbVertex
100
AcDb3dPolylineVertex
 10
7569367.56028963067
 20
5713954.39720090013
 30
120.800
 70
32
  0
VERTEX
  5
50
100
AcDbEntity
  8
obrys_budynek
100
AcDbVertex
100
AcDb3dPolylineVertex
 10
7569376.0990297962
 20
5713953.66769038979
 30
120.800
 70
32
  0
SEQEND
  5
51
100
AcDbEntity
  8
obrys_budynek
  0
POLYLINE
  5
52
100
AcDbEntity
  8
obrys_budynek
  6
CONTINUOUS
370
18
100
AcDb3dPolyline
 66
1
 70
136
  0
VERTEX
  5
53
100
AcDbEntity
  8
obrys_budynek
100
AcDbVertex
100
AcDb3dPolylineVertex
 10
7569376.0990297962
 20
5713953.66769038979
 30
120.800
 70
32
  0
VERTEX
  5
54
100
AcDbEntity
  8
obrys_budynek
100
AcDbVertex
100
AcDb3dPolylineVertex
 10
7569376.24374016654
 20
5713955.36148948967
 30
120.800
 70
32
  0
SEQEND
  5
55
100
AcDbEntity
  8
obrys_budynek
  0
POLYLINE
  5
56
100
AcDbEntity
  8
obrys_budynek
  6
CONTINUOUS
370
18
100
AcDb3dPolyline
 66
1
 70
136
  0
VERTEX
  5
57
100
AcDbEntity
  8
obrys_budynek
100
AcDbVertex
100
AcDb3dPolylineVertex
 10
7569376.24374016654
 20
5713955.36148948967
 30
120.800
 70
32
  0
VERTEX
  5
58
100
AcDbEntity
  8
obrys_budynek
100
AcDbVertex
100
AcDb3dPolylineVertex
 10
7569385.89839503262
 20
5713954.53664038237
 30
120.800
 70
32
  0
SEQEND
  5
59
100
AcDbEntity
  8
obrys_budynek
  0
POLYLINE
  5
5A
100
AcDbEntity
  8
obrys_budynek
  6
CONTINUOUS
370
18
100
AcDb3dPolyline
 66
1
 70
136
  0
VERTEX
  5
5B
100
AcDbEntity
  8
obrys_budynek
100
AcDbVertex
100
AcDb3dPolylineVertex
 10
7569385.89839503262
 20
5713954.53664038237
 30
120.800
 70
32
  0
VERTEX
  5
5C
100
AcDbEntity
  8
obrys_budynek
100
AcDbVertex
100
AcDb3dPolylineVertex
 10
7569385.75879208837
 20
5713952.90262242686
 30
120.800
 70
32
  0
SEQEND
  5
5D
100
AcDbEntity
  8
obrys_budynek
  0
POLYLINE
  5
5E
100
AcDbEntity
  8
obrys_budynek
  6
CONTINUOUS
370
18
100
AcDb3dPolyline
 66
1
 70
136
  0
VERTEX
  5
5F
100
AcDbEntity
  8
obrys_budynek
100
AcDbVertex
100
AcDb3dPolylineVertex
 10
7569385.75879208837
 20
5713952.90262242686
 30
120.800
 70
32
  0
VERTEX
  5
60
100
AcDbEntity
  8
obrys_budynek
100
AcDbVertex
100
AcDb3dPolylineVertex
 10
7569391.94614056312
 20
5713952.37400395889
 30
120.800
 70
32
  0
SEQEND
  5
61
100
AcDbEntity
  8
obrys_budynek
  0
POLYLINE
  5
62
100
AcDbEntity
  8
obrys_budynek
  6
CONTINUOUS
370
18
100
AcDb3dPolyline
 66
1
 70
136
  0
VERTEX
  5
63
100
AcDbEntity
  8
obrys_budynek
100
AcDbVertex
100
AcDb3dPolylineVertex
 10
7569391.94614056312
 20
5713952.37400395889
 30
120.800
 70
32
  0
VERTEX
  5
64
100
AcDbEntity
  8
obrys_budynek
100
AcDbVertex
100
AcDb3dPolylineVertex
 10
7569391.260709038
 20
5713944.34334623814
 30
120.800
 70
32
  0
SEQEND
  5
65
100
AcDbEntity
  8
obrys_budynek
  0
POLYLINE
  5
66
100
AcDbEntity
  8
obrys_budynek
  6
CONTINUOUS
370
18
100
AcDb3dPolyline
 66
1
 70
136
  0
VERTEX
  5
67
100
AcDbEntity
  8
obrys_budynek
100
AcDbVertex
100
AcDb3dPolylineVertex
 10
7569391.260709038
 20
5713944.34334623814
 30
120.800
 70
32
  0
VERTEX
  5
68
100
AcDbEntity
  8
obrys_budynek
100
AcDbVertex
100
AcDb3dPolylineVertex
 10
7569385.12315572053
 20
5713944.86744853947
 30
120.800
 70
32
  0
SEQEND
  5
69
100
AcDbEntity
  8
obrys_budynek
  0
POLYLINE
  5
6A
100
AcDbEntity
  8
obrys_budynek
  6
CONTINUOUS
370
18
100
AcDb3dPolyline
 66
1
 70
136
  0
VERTEX
  5
6B
100
AcDbEntity
  8
obrys_budynek
100
AcDbVertex
100
AcDb3dPolylineVertex
 10
7569385.12315572053
 20
5713944.86744853947
 30
120.800
 70
32
  0
VERTEX
  5
6C
100
AcDbEntity
  8
obrys_budynek
100
AcDbVertex
100
AcDb3dPolylineVertex
 10
7569384.68498577643
 20
5713939.73621484172
 30
120.800
 70
32
  0
SEQEND
  5
6D
100
AcDbEntity
  8
obrys_budynek
  0
POLYLINE
  5
6E
100
AcDbEntity
  8
obrys_budynek
  6
CONTINUOUS
370
18
100
AcDb3dPolyline
 66
1
 70
136
  0
VERTEX
  5
6F
100
AcDbEntity
  8
obrys_budynek
100
AcDbVertex
100
AcDb3dPolylineVertex
 10
7569384.68498577643
 20
5713939.73621484172
 30
120.800
 70
32
  0
VERTEX
  5
70
100
AcDbEntity
  8
obrys_budynek
100
AcDbVertex
100
AcDb3dPolylineVertex
 10
7569387.38511069398
 20
5713939.50564386137
 30
120.800
 70
32
  0
SEQEND
  5
71
100
AcDbEntity
  8
obrys_budynek
  0
POLYLINE
  5
72
100
AcDbEntity
  8
obrys_budynek
  6
CONTINUOUS
370
18
100
AcDb3dPolyline
 66
1
 70
136
  0
VERTEX
  5
73
100
AcDbEntity
  8
obrys_budynek
100
AcDbVertex
100
AcDb3dPolylineVertex
 10
7569387.38511069398
 20
5713939.50564386137
 30
120.800
 70
32
  0
VERTEX
  5
74
100
AcDbEntity
  8
obrys_budynek
100
AcDbVertex
100
AcDb3dPolylineVertex
 10
7569386.95970298164
 20
5713934.52386357076
 30
120.800
 70
32
  0
SEQEND
  5
75
100
AcDbEntity
  8
obrys_budynek
  0
POLYLINE
  5
76
100
AcDbEntity
  8
obrys_budynek
  6
CONTINUOUS
370
18
100
AcDb3dPolyline
 66
1
 70
136
  0
VERTEX
  5
77
100
AcDbEntity
  8
obrys_budynek
100
AcDbVertex
100
AcDb3dPolylineVertex
 10
7569386.95970298164
 20
5713934.52386357076
 30
120.800
 70
32
  0
VERTEX
  5
78
100
AcDbEntity
  8
obrys_budynek
100
AcDbVertex
100
AcDb3dPolylineVertex
 10
7569385.16628634464
 20
5713934.67728159949
 30
120.800
 70
32
  0
SEQEND
  5
79
100
AcDbEntity
  8
obrys_budynek
  0
POLYLINE
  5
7A
100
AcDbEntity
  8
obrys_budynek
  6
CONTINUOUS
370
18
100
AcDb3dPolyline
 66
1
 70
136
  0
VERTEX
  5
7B
100
AcDbEntity
  8
obrys_budynek
100
AcDbVertex
100
AcDb3dPolylineVertex
 10
7569385.16628634464
 20
5713934.67728159949
 30
120.800
 70
32
  0
VERTEX
  5
7C
100
AcDbEntity
  8
obrys_budynek
100
AcDbVertex
100
AcDb3dPolylineVertex
 10
7569385.11013144534
 20
5713934.01968669612
 30
120.800
 70
32
  0
SEQEND
  5
7D
100
AcDbEntity
  8
obrys_budynek
  0
POLYLINE
  5
7E
100
AcDbEntity
  8
obrys_budynek
  6
CONTINUOUS
370
18
100
AcDb3dPolyline
 66
1
 70
136
  0
VERTEX
  5
7F
100
AcDbEntity
  8
obrys_budynek
100
AcDbVertex
100
AcDb3dPolylineVertex
 10
7569385.11013144534
 20
5713934.01968669612
 30
120.800
 70
32
  0
VERTEX
  5
80
100
AcDbEntity
  8
obrys_budynek
100
AcDbVertex
100
AcDb3dPolylineVertex
 10
7569380.41729508527
 20
5713934.42042847443
 30
120.800
 70
32
  0
SEQEND
  5
81
100
AcDbEntity
  8
obrys_budynek
  0
POLYLINE
  5
82
100
AcDbEntity
  8
obrys_budynek
  6
CONTINUOUS
370
18
100
AcDb3dPolyline
 66
1
 70
136
  0
VERTEX
  5
83
100
AcDbEntity
  8
obrys_budynek
100
AcDbVertex
100
AcDb3dPolylineVertex
 10
7569380.41729508527
 20
5713934.42042847443
 30
120.800
 70
32
  0
VERTEX
  5
84
100
AcDbEntity
  8
obrys_budynek
100
AcDbVertex
100
AcDb3dPolylineVertex
 10
7569380.47344998363
 20
5713935.07802337874
 30
120.800
 70
32
  0
SEQEND
  5
85
100
AcDbEntity
  8
obrys_budynek
  0
POLYLINE
  5
86
100
AcDbEntity
  8
obrys_budynek
  6
CONTINUOUS
370
18
100
AcDb3dPolyline
 66
1
 70
136
  0
VERTEX
  5
87
100
AcDbEntity
  8
obrys_budynek
100
AcDbVertex
100
AcDb3dPolylineVertex
 10
7569380.47344998363
 20
5713935.07802337874
 30
120.800
 70
32
  0
VERTEX
  5
88
100
AcDbEntity
  8
obrys_budynek
100
AcDbVertex
100
AcDb3dPolylineVertex
 10
7569377.1456212271
 20
5713935.36220119987
 30
120.800
 70
32
  0
SEQEND
  5
89
100
AcDbEntity
  8
obrys_budynek
  0
POLYLINE
  5
8A
100
AcDbEntity
  8
obrys_budynek
  6
CONTINUOUS
370
18
100
AcDb3dPolyline
 66
1
 70
136
  0
VERTEX
  5
8B
100
AcDbEntity
  8
obrys_budynek
100
AcDbVertex
100
AcDb3dPolylineVertex
 10
7569377.1456212271
 20
5713935.36220119987
 30
120.800
 70
32
  0
VERTEX
  5
8C
100
AcDbEntity
  8
obrys_budynek
100
AcDbVertex
100
AcDb3dPolylineVertex
 10
7569377.40767742228
 20
5713938.43097741902
 30
120.800
 70
32
  0
SEQEND
  5
8D
100
AcDbEntity
  8
obrys_budynek
  0
POLYLINE
  5
8E
100
AcDbEntity
  8
obrys_budynek
  6
CONTINUOUS
370
18
100
AcDb3dPolyline
 66
1
 70
136
  0
VERTEX
  5
8F
100
AcDbEntity
  8
obrys_budynek
100
AcDbVertex
100
AcDb3dPolylineVertex
 10
7569377.40767742228
 20
5713938.43097741902
 30
120.800
 70
32
  0
VERTEX
  5
90
100
AcDbEntity
  8
obrys_budynek
100
AcDbVertex
100
AcDb3dPolylineVertex
 10
7569374.81715204287
 20
5713938.65219368692
 30
120.800
 70
32
  0
SEQEND
  5
91
100
AcDbEntity
  8
obrys_budynek
  0
POLYLINE
  5
92
100
AcDbEntity
  8
obrys_budynek
  6
CONTINUOUS
370
18
100
AcDb3dPolyline
 66
1
 70
136
  0
VERTEX
  5
93
100
AcDbEntity
  8
obrys_budynek
100
AcDbVertex
100
AcDb3dPolylineVertex
 10
7569374.81715204287
 20
5713938.65219368692
 30
120.800
 70
32
  0
VERTEX
  5
94
100
AcDbEntity
  8
obrys_budynek
100
AcDbVertex
100
AcDb3dPolylineVertex
 10
7569375.423795118
 20
5713945.75621136185
 30
120.800
 70
32
  0
SEQEND
  5
95
100
AcDbEntity
  8
obrys_budynek
  0
POLYLINE
  5
96
100
AcDbEntity
  8
obrys_budynek
  6
CONTINUOUS
370
18
100
AcDb3dPolyline
 66
1
 70
136
  0
VERTEX
  5
97
100
AcDbEntity
  8
obrys_budynek
100
AcDbVertex
100
AcDb3dPolylineVertex
 10
7569375.423795118
 20
5713945.75621136185
 30
120.800
 70
32
  0
VERTEX
  5
98
100
AcDbEntity
  8
obrys_budynek
100
AcDbVertex
100
AcDb3dPolylineVertex
 10
7569367.73169430997
 20
5713946.41307791043
 30
120.800
 70
32
  0
SEQEND
  5
99
100
AcDbEntity
  8
obrys_budynek
  0
POLYLINE
  5
9A
100
AcDbEntity
  8
obrys_budynek
  6
CONTINUOUS
370
18
100
AcDb3dPolyline
 66
1
 70
136
  0
VERTEX
  5
9B
100
AcDbEntity
  8
obrys_budynek
100
AcDbVertex
100
AcDb3dPolylineVertex
 10
7569367.73169430997
 20
5713946.41307791043
 30
120.800
 70
32
  0
VERTEX
  5
9C
100
AcDbEntity
  8
obrys_budynek
100
AcDbVertex
100
AcDb3dPolylineVertex
 10
7569368.06519773975
 20
5713950.31879486702
 30
120.800
 70
32
  0
SEQEND
  5
9D
100
AcDbEntity
  8
obrys_budynek
  0
POLYLINE
  5
9E
100
AcDbEntity
  8
obrys_budynek
  6
CONTINUOUS
370
18
100
AcDb3dPolyline
 66
1
 70
136
  0
VERTEX
  5
9F
100
AcDbEntity
  8
obrys_budynek
100
AcDbVertex
100
AcDb3dPolylineVertex
 10
7569368.06519773975
 20
5713950.31879486702
 30
120.800
 70
32
  0
VERTEX
  5
A0
100
AcDbEntity
  8
obrys_budynek
100
AcDbVertex
100
AcDb3dPolylineVertex
 10
7569367.2182948282
 20
5713950.39111066144
 30
120.800
 70
32
  0
SEQEND
  5
A1
100
AcDbEntity
  8
obrys_budynek
  0
POLYLINE
  5
A2
100
AcDbEntity
  8
obrys_budynek
  6
CONTINUOUS
370
18
100
AcDb3dPolyline
 66
1
 70
136
  0
VERTEX
  5
A3
100
AcDbEntity
  8
obrys_budynek
100
AcDbVertex
100
AcDb3dPolylineVertex
 10
7569367.2182948282
 20
5713950.39111066144
 30
120.800
 70
32
  0
VERTEX
  5
A4
100
AcDbEntity
  8
obrys_budynek
100
AcDbVertex
100
AcDb3dPolylineVertex
 10
7569367.56028963067
 20
5713954.39720090013
 30
120.800
 70
32
  0
SEQEND
  5
A5
100
AcDbEntity
  8
obrys_budynek
  0
POLYLINE
  5
A6
100
AcDbEntity
  8
osie
  6
ByLayer
370
18
100
AcDb3dPolyline
 66
1
 70
136
  0
VERTEX
  5
A7
100
AcDbEntity
  8
osie
100
AcDbVertex
100
AcDb3dPolylineVertex
 10
7569367.67563230731
 20
5713955.74725841824
 70
32
  0
VERTEX
  5
A8
100
AcDbEntity
  8
osie
100
AcDbVertex
100
AcDb3dPolylineVertex
 10
7569392.05663230643
 20
5713953.6642584037
 70
32
  0
SEQEND
  5
A9
100
AcDbEntity
  8
osie
  0
POLYLINE
  5
AA
100
AcDbEntity
  8
osie
  6
ByLayer
370
18
100
AcDb3dPolyline
 66
1
 70
136
  0
VERTEX
  5
AB
100
AcDbEntity
  8
osie
100
AcDbVertex
100
AcDb3dPolylineVertex
 10
7569367.5309219379
 20
5713954.05345931835
 70
32
  0
VERTEX
  5
AC
100
AcDbEntity
  8
osie
100
AcDbVertex
100
AcDb3dPolylineVertex
 10
7569391.9119219305
 20
5713951.97045923397
 70
32
  0
SEQEND
  5
AD
100
AcDbEntity
  8
osie
  0
POLYLINE
  5
AE
100
AcDbEntity
  8
osie
  6
ByLayer
370
18
100
AcDb3dPolyline
 66
1
 70
136
  0
VERTEX
  5
AF
100
AcDbEntity
  8
osie
100
AcDbVertex
100
AcDb3dPolylineVertex
 10
7569367.24745986052
 20
5713950.73560578842
 70
32
  0
VERTEX
  5
B0
100
AcDbEntity
  8
osie
100
AcDbVertex
100
AcDb3dPolylineVertex
 10
7569391.62845984194
 20
5713948.6526055662
 70
32
  0
SEQEND
  5
B1
100
AcDbEntity
  8
osie
  0
POLYLINE
  5
B2
100
AcDbEntity
  8
osie
  6
ByLayer
370
18
100
AcDb3dPolyline
 66
1
 70
136
  0
VERTEX
  5
B3
100
AcDbEntity
  8
osie
100
AcDbVertex
100
AcDb3dPolylineVertex
 10
7569366.91377477255
 20
5713946.82990433555
 70
32
  0
VERTEX
  5
B4
100
AcDbEntity
  8
osie
100
AcDbVertex
100
AcDb3dPolylineVertex
 10
7569391.29477474
 20
5713944.74690395128
 70
32
  0
SEQEND
  5
B5
100
AcDbEntity
  8
osie
  0
POLYLINE
  5
B6
100
AcDbEntity
  8
osie
  6
ByLayer
370
18
100
AcDb3dPolyline
 66
1
 70
136
  0
VERTEX
  5
B7
100
AcDbEntity
  8
osie
100
AcDbVertex
100
AcDb3dPolylineVertex
 10
7569366.40643724147
 20
5713940.89164396375
 70
32
  0
VERTEX
  5
B8
100
AcDbEntity
  8
osie
100
AcDbVertex
100
AcDb3dPolylineVertex
 10
7569390.78743718751
 20
5713938.80864333268
 70
32
  0
SEQEND
  5
B9
100
AcDbEntity
  8
osie
  0
POLYLINE
  5
BA
100
AcDbEntity
  8
osie
  6
ByLayer
370
18
100
AcDb3dPolyline
 66
1
 70
136
  0
VERTEX
  5
BB
100
AcDbEntity
  8
osie
100
AcDbVertex
100
AcDb3dPolylineVertex
 10
7569366.3068424575
 20
5713939.72591164242
 70
32
  0
VERTEX
  5
BC
100
AcDbEntity
  8
osie
100
AcDbVertex
100
AcDb3dPolylineVertex
 10
7569390.68784239981
 20
5713937.64291096292
 70
32
  0
SEQEND
  5
BD
100
AcDbEntity
  8
osie
  0
POLYLINE
  5
BE
100
AcDbEntity
  8
osie
  6
ByLayer
370
18
100
AcDb3dPolyline
 66
1
 70
136
  0
VERTEX
  5
BF
100
AcDbEntity
  8
osie
100
AcDbVertex
100
AcDb3dPolylineVertex
 10
7569366.04466131702
 20
5713936.65714621451
 70
32
  0
VERTEX
  5
C0
100
AcDbEntity
  8
osie
100
AcDbVertex
100
AcDb3dPolylineVertex
 10
7569390.42566124816
 20
5713934.57414540835
 70
32
  0
SEQEND
  5
C1
100
AcDbEntity
  8
osie
  0
POLYLINE
  5
C2
100
AcDbEntity
  8
osie
  6
ByLayer
370
18
100
AcDb3dPolyline
 66
1
 70
136
  0
VERTEX
  5
C3
100
AcDbEntity
  8
osie
100
AcDbVertex
100
AcDb3dPolylineVertex
 10
7569365.99358706921
 20
5713936.05933476798
 70
32
  0
VERTEX
  5
C4
100
AcDbEntity
  8
osie
100
AcDbVertex
100
AcDb3dPolylineVertex
 10
7569390.37458699848
 20
5713933.97633393668
 70
32
  0
SEQEND
  5
C5
100
AcDbEntity
  8
osie
  0
POLYLINE
  5
C6
100
AcDbEntity
  8
osie
  6
ByLayer
370
18
100
AcDb3dPolyline
 66
1
 70
136
  0
VERTEX
  5
C7
100
AcDbEntity
  8
osie
100
AcDbVertex
100
AcDb3dPolylineVertex
 10
7569367.27682755329
 20
5713951.07934737019
 70
32
  0
VERTEX
  5
C8
100
AcDbEntity
  8
osie
100
AcDbVertex
100
AcDb3dPolylineVertex
 10
7569391.65782753564
 20
5713948.99634716287
 70
32
  0
SEQEND
  5
C9
100
AcDbEntity
  8
osie
  0
POLYLINE
  5
CA
100
AcDbEntity
  8
osie
  6
ByLayer
370
18
100
AcDb3dPolyline
 66
1
 70
136
  0
VERTEX
  5
CB
100
AcDbEntity
  8
osie
100
AcDbVertex
100
AcDb3dPolylineVertex
 10
7569367.13424527738
 20
5713949.41045708116
 70
32
  0
VERTEX
  5
CC
100
AcDbEntity
  8
osie
100
AcDbVertex
100
AcDb3dPolylineVertex
 10
7569391.51524525322
 20
5713947.32745680399
 70
32
  0
SEQEND
  5
CD
100
AcDbEntity
  8
osie
  0
POLYLINE
  5
CE
100
AcDbEntity
  8
osie
  6
ByLayer
370
18
100
AcDb3dPolyline
 66
1
 70
136
  0
VERTEX
  5
CF
100
AcDbEntity
  8
osie
100
AcDbVertex
100
AcDb3dPolylineVertex
 10
7569366.30374294613
 20
5713935.62564829551
 70
32
  0
VERTEX
  5
D0
100
AcDbEntity
  8
osie
100
AcDbVertex
100
AcDb3dPolylineVertex
 10
7569368.04874294717
 20
5713956.06164829526
 70
32
  0
SEQEND
  5
D1
100
AcDbEntity
  8
osie
  0
POLYLINE
  5
D2
100
AcDbEntity
  8
osie
  6
ByLayer
370
18
100
AcDb3dPolyline
 66
1
 70
136
  0
VERTEX
  5
D3
100
AcDbEntity
  8
osie
100
AcDbVertex
100
AcDb3dPolylineVertex
 10
7569367.15064585768
 20
5713935.55333250109
 70
32
  0
VERTEX
  5
D4
100
AcDbEntity
  8
osie
100
AcDbVertex
100
AcDb3dPolylineVertex
 10
7569368.89564586151
 20
5713955.98933249991
 70
32
  0
SEQEND
  5
D5
100
AcDbEntity
  8
osie
  0
POLYLINE
  5
D6
100
AcDbEntity
  8
osie
  6
ByLayer
370
18
100
AcDb3dPolyline
 66
1
 70
136
  0
VERTEX
  5
D7
100
AcDbEntity
  8
osie
100
AcDbVertex
100
AcDb3dPolylineVertex
 10
7569372.33169896435
 20
5713935.11092999205
 70
32
  0
VERTEX
  5
D8
100
AcDbEntity
  8
osie
100
AcDbVertex
100
AcDb3dPolylineVertex
 10
7569374.07669898309
 20
5713955.54692998994
 70
32
  0
SEQEND
  5
D9
100
AcDbEntity
  8
osie
  0
POLYLINE
  5
DA
100
AcDbEntity
  8
osie
  6
ByLayer
370
18
100
AcDb3dPolyline
 66
1
 70
136
  0
VERTEX
  5
DB
100
AcDbEntity
  8
osie
100
AcDbVertex
100
AcDb3dPolylineVertex
 10
7569374.84251700807
 20
5713934.89653492998
 70
32
  0
VERTEX
  5
DC
100
AcDbEntity
  8
osie
100
AcDbVertex
100
AcDb3dPolylineVertex
 10
7569376.58751703426
 20
5713955.33253492694
 70
32
  0
SEQEND
  5
DD
100
AcDbEntity
  8
osie
  0
POLYLINE
  5
DE
100
AcDbEntity
  8
osie
  6
ByLayer
370
18
100
AcDb3dPolyline
 66
1
 70
136
  0
VERTEX
  5
DF
100
AcDbEntity
  8
osie
100
AcDbVertex
100
AcDb3dPolylineVertex
 10
7569377.43304356094
 20
5713934.675333675
 70
32
  0
VERTEX
  5
E0
100
AcDbEntity
  8
osie
100
AcDbVertex
100
AcDb3dPolylineVertex
 10
7569379.17804359552
 20
5713955.11133367196
 70
32
  0
SEQEND
  5
E1
100
AcDbEntity
  8
osie
  0
POLYLINE
  5
E2
100
AcDbEntity
  8
osie
  6
ByLayer
370
18
100
AcDb3dPolyline
 66
1
 70
136
  0
VERTEX
  5
E3
100
AcDbEntity
  8
osie
100
AcDbVertex
100
AcDb3dPolylineVertex
 10
7569380.82065520715
 20
5713934.3860704964
 70
32
  0
VERTEX
  5
E4
100
AcDbEntity
  8
osie
100
AcDbVertex
100
AcDb3dPolylineVertex
 10
7569382.56565525103
 20
5713954.82207049243
 70
32
  0
SEQEND
  5
E5
100
AcDbEntity
  8
osie
  0
POLYLINE
  5
E6
100
AcDbEntity
  8
osie
  6
ByLayer
370
18
100
AcDb3dPolyline
 66
1
 70
136
  0
VERTEX
  5
E7
100
AcDbEntity
  8
osie
100
AcDbVertex
100
AcDb3dPolylineVertex
 10
7569381.36865120847
 20
5713934.33927792311
 70
32
  0
VERTEX
  5
E8
100
AcDbEntity
  8
osie
100
AcDbVertex
100
AcDb3dPolylineVertex
 10
7569383.11365125421
 20
5713954.77527791914
 70
32
  0
SEQEND
  5
E9
100
AcDbEntity
  8
osie
  0
POLYLINE
  5
EA
100
AcDbEntity
  8
osie
  6
ByLayer
370
18
100
AcDb3dPolyline
 66
1
 70
136
  0
VERTEX
  5
EB
100
AcDbEntity
  8
osie
100
AcDbVertex
100
AcDb3dPolylineVertex
 10
7569383.80972430669
 20
5713934.13083827961
 70
32
  0
VERTEX
  5
EC
100
AcDbEntity
  8
osie
100
AcDbVertex
100
AcDb3dPolylineVertex
 10
7569385.55472435988
 20
5713954.56683827471
 70
32
  0
SEQEND
  5
ED
100
AcDbEntity
  8
osie
  0
POLYLINE
  5
EE
100
AcDbEntity
  8
osie
  6
ByLayer
370
18
100
AcDb3dPolyline
 66
1
 70
136
  0
VERTEX
  5
EF
100
AcDbEntity
  8
osie
100
AcDbVertex
100
AcDb3dPolylineVertex
 10
7569384.70644503646
 20
5713934.05426861532
 70
32
  0
VERTEX
  5
F0
100
AcDbEntity
  8
osie
100
AcDbVertex
100
AcDb3dPolylineVertex
 10
7569386.45144509245
 20
5713954.49026860949
 70
32
  0
SEQEND
  5
F1
100
AcDbEntity
  8
osie
  0
POLYLINE
  5
F2
100
AcDbEntity
  8
osie
  6
ByLayer
370
18
100
AcDb3dPolyline
 66
1
 70
136
  0
VERTEX
  5
F3
100
AcDbEntity
  8
osie
100
AcDbVertex
100
AcDb3dPolylineVertex
 10
7569386.49988649692
 20
5713933.90112928487
 70
32
  0
VERTEX
  5
F4
100
AcDbEntity
  8
osie
100
AcDbVertex
100
AcDb3dPolylineVertex
 10
7569388.24488655757
 20
5713954.33712927904
 70
32
  0
SEQEND
  5
F5
100
AcDbEntity
  8
osie
  0
POLYLINE
  5
F6
100
AcDbEntity
  8
osie
  6
ByLayer
370
18
100
AcDb3dPolyline
 66
1
 70
136
  0
VERTEX
  5
F7
100
AcDbEntity
  8
osie
100
AcDbVertex
100
AcDb3dPolylineVertex
 10
7569389.93731596135
 20
5713933.60761223547
 70
32
  0
VERTEX
  5
F8
100
AcDbEntity
  8
osie
100
AcDbVertex
100
AcDb3dPolylineVertex
 10
7569391.68231603224
 20
5713954.04361222964
 70
32
  0
SEQEND
  5
F9
100
AcDbEntity
  8
osie
  0
POLYLINE
  5
FA
100
AcDbEntity
  8
osie
  6
ByLayer
370
18
100
AcDb3dPolyline
 66
1
 70
136
  0
VERTEX
  5
FB
100
AcDbEntity
  8
osie
100
AcDbVertex
100
AcDb3dPolylineVertex
 10
7569382.2952626301
 20
5713934.2601559367
 70
32
  0
VERTEX
  5
FC
100
AcDbEntity
  8
osie
100
AcDbVertex
100
AcDb3dPolylineVertex
 10
7569384.04026267864
 20
5713954.6961559318
 70
32
  0
SEQEND
  5
FD
100
AcDbEntity
  8
osie
  0
POLYLINE
  5
FE
100
AcDbEntity
  8
osie
  6
ByLayer
370
18
100
AcDb3dPolyline
 66
1
 70
136
  0
VERTEX
  5
FF
100
AcDbEntity
  8
osie
100
AcDbVertex
100
AcDb3dPolylineVertex
 10
7569383.21191048715
 20
5713934.18188472278
 70
32
  0
VERTEX
  5
100
100
AcDbEntity
  8
osie
100
AcDbVertex
100
AcDb3dPolylineVertex
 10
7569384.95691053849
 20
5713954.61788471881
 70
32
  0
SEQEND
  5
101
100
AcDbEntity
  8
osie
  0
TEXT
  5
102
100
AcDbEntity
  8
obrys_budynek
370
9
100
AcDbText
 39
0.09
 10
7569371.58409726899
 20
5713954.09408236854
 40
0.20
  1
8.570
 50
-5.00
 41
0.66
  7
STANDARD
100
AcDbText
  0
TEXT
  5
103
100
AcDbEntity
  8
obrys_budynek
370
9
100
AcDbText
 39
0.09
 10
7569376.10974825732
 20
5713954.26902749483
 40
0.20
  1
1.700
 50
-275.00
 41
0.66
  7
STANDARD
100
AcDbText
  0
TEXT
  5
104
100
AcDbEntity
  8
obrys_budynek
370
9
100
AcDbText
 39
0.09
 10
7569380.64195132535
 20
5713954.72878893651
 40
0.20
  1
9.690
 50
-5.00
 41
0.66
  7
STANDARD
100
AcDbText
  0
TEXT
  5
105
100
AcDbEntity
  8
obrys_budynek
370
9
100
AcDbText
 39
0.09
 10
7569385.76695683692
 20
5713953.47406896018
 40
0.20
  1
1.640
 50
-275.00
 41
0.66
  7
STANDARD
100
AcDbText
  0
TEXT
  5
106
100
AcDbEntity
  8
obrys_budynek
370
9
100
AcDbText
 39
0.09
 10
7569388.60690388177
 20
5713952.69994991645
 40
0.20
  1
6.210
 50
-5.00
 41
0.66
  7
STANDARD
100
AcDbText
  0
TEXT
  5
107
100
AcDbEntity
  8
obrys_budynek
370
9
100
AcDbText
 39
0.09
 10
7569391.92621106375
 20
5713948.10395132564
 40
0.20
  1
8.060
 50
-275.00
 41
0.66
  7
STANDARD
100
AcDbText
  0
TEXT
  5
108
100
AcDbEntity
  8
obrys_budynek
370
9
100
AcDbText
 39
0.09
 10
7569387.94636993483
 20
5713944.66703411192
 40
0.20
  1
6.160
 50
-5.00
 41
0.66
  7
STANDARD
100
AcDbText
  0
TEXT
  5
109
100
AcDbEntity
  8
obrys_budynek
370
9
100
AcDbText
 39
0.09
 10
7569384.84243402444
 20
5713942.05626924615
 40
0.20
  1
5.150
 50
-275.00
 41
0.66
  7
STANDARD
100
AcDbText
  0
TEXT
  5
10A
100
AcDbEntity
  8
obrys_budynek
370
9
100
AcDbText
 39
0.09
 10
7569385.78948579077
 20
5713939.68256607465
 40
0.20
  1
2.710
 50
-5.00
 41
0.66
  7
STANDARD
100
AcDbText
  0
TEXT
  5
10B
100
AcDbEntity
  8
obrys_budynek
370
9
100
AcDbText
 39
0.09
 10
7569387.11077011377
 20
5713936.76919127163
 40
0.20
  1
5.000
 50
-275.00
 41
0.66
  7
STANDARD
100
AcDbText
  0
TEXT
  5
10C
100
AcDbEntity
  8
obrys_budynek
370
9
100
AcDbText
 39
0.09
 10
7569385.81743221823
 20
5713934.66220930871
 40
0.20
  1
1.800
 50
-5.00
 41
0.66
  7
STANDARD
100
AcDbText
  0
TEXT
  5
10D
100
AcDbEntity
  8
obrys_budynek
370
9
100
AcDbText
 39
0.09
 10
7569385.07657217141
 20
5713934.1029217029
 40
0.20
  1
0.660
 50
-275.00
 41
0.66
  7
STANDARD
100
AcDbText
  0
TEXT
  5
10E
100
AcDbEntity
  8
obrys_budynek
370
9
100
AcDbText
 39
0.09
 10
7569382.49595132563
 20
5713934.02078893594
 40
0.20
  1
4.710
 50
-5.00
 41
0.66
  7
STANDARD
100
AcDbText
  0
TEXT
  5
10F
100
AcDbEntity
  8
obrys_budynek
370
9
100
AcDbText
 39
0.09
 10
7569380.38373581134
 20
5713934.50366348214
 40
0.20
  1
0.660
 50
-275.00
 41
0.66
  7
STANDARD
100
AcDbText
  0
TEXT
  5
110
100
AcDbEntity
  8
obrys_budynek
370
9
100
AcDbText
 39
0.09
 10
7569378.56397316139
 20
5713935.28174901288
 40
0.20
  1
3.340
 50
-5.00
 41
0.66
  7
STANDARD
100
AcDbText
  0
TEXT
  5
111
100
AcDbEntity
  8
obrys_budynek
370
9
100
AcDbText
 39
0.09
 10
7569377.21501260064
 20
5713936.65102686454
 40
0.20
  1
3.080
 50
-275.00
 41
0.66
  7
STANDARD
100
AcDbText
  0
TEXT
  5
112
100
AcDbEntity
  8
obrys_budynek
370
9
100
AcDbText
 39
0.09
 10
7569375.86685228813
 20
5713938.60322227702
 40
0.20
  1
2.600
 50
-5.00
 41
0.66
  7
STANDARD
100
AcDbText
  0
TEXT
  5
113
100
AcDbEntity
  8
obrys_budynek
370
9
100
AcDbText
 39
0.09
 10
7569375.05883685686
 20
5713941.95864007995
 40
0.20
  1
7.130
 50
-275.00
 41
0.66
  7
STANDARD
100
AcDbText
  0
TEXT
  5
114
100
AcDbEntity
  8
obrys_budynek
370
9
100
AcDbText
 39
0.09
 10
7569371.33218226954
 20
5713946.14628135972
 40
0.20
  1
7.720
 50
-5.00
 41
0.66
  7
STANDARD
100
AcDbText
  0
TEXT
  5
115
100
AcDbEntity
  8
obrys_budynek
370
9
100
AcDbText
 39
0.09
 10
7569367.83680930175
 20
5713948.12037394475
 40
0.20
  1
3.920
 50
-275.00
 41
0.66
  7
STANDARD
100
AcDbText
  0
TEXT
  5
116
100
AcDbEntity
  8
obrys_budynek
370
9
100
AcDbText
 39
0.09
 10
7569367.39618384
 20
5713950.41658948734
 40
0.20
  1
0.850
 50
-5.00
 41
0.66
  7
STANDARD
100
AcDbText
  0
TEXT
  5
117
100
AcDbEntity
  8
obrys_budynek
370
9
100
AcDbText
 39
0.09
 10
7569367.60921106394
 20
5713952.15095132589
 40
0.20
  1
4.020
 50
-275.00
 41
0.66
  7
STANDARD
100
AcDbText
  0
TEXT
  5
118
100
AcDbEntity
  8
osie
370
18
100
AcDbText
 39
0.18
 10
7569392.54999999981
 20
5713948.87799999956
 40
0.36
  1
2.1
 50
0.00
 41
0.66
  7
STANDARD
100
AcDbText
  0
TEXT
  5
119
100
AcDbEntity
  8
osie
370
18
100
AcDbText
 39
0.18
 10
7569366.2360000005
 20
5713951.06400000025
 40
0.36
  1
2.1
 50
0.00
 41
0.66
  7
STANDARD
100
AcDbText
  0
TEXT
  5
11A
100
AcDbEntity
  8
osie
370
18
100
AcDbText
 39
0.18
 10
7569392.46900000051
 20
5713948.29699999932
 40
0.36
  1
2.2
 50
0.00
 41
0.66
  7
STANDARD
100
AcDbText
  0
TEXT
  5
11B
100
AcDbEntity
  8
osie
370
18
100
AcDbText
 39
0.18
 10
7569366.16899999976
 20
5713950.54699999932
 40
0.36
  1
2.2
 50
0.00
 41
0.66
  7
STANDARD
100
AcDbText
  0
TEXT
  5
11C
100
AcDbEntity
  8
osie
370
18
100
AcDbText
 39
0.18
 10
7569391.70999999996
 20
5713947.12000000011
 40
0.36
  1
2.3
 50
0.00
 41
0.66
  7
STANDARD
100
AcDbText
  0
TEXT
  5
11D
100
AcDbEntity
  8
osie
370
18
100
AcDbText
 39
0.18
 10
7569366.45000000019
 20
5713949.33999999985
 40
0.36
  1
2.3
 50
0.00
 41
0.66
  7
STANDARD
100
AcDbText
  0
TEXT
  5
11E
100
AcDbEntity
  8
osie
370
18
100
AcDbText
 39
0.18
 10
7569367.02099999972
 20
5713955.62000000011
 40
0.36
  1
1
 50
0.00
 41
0.66
  7
STANDARD
100
AcDbText
  0
TEXT
  5
11F
100
AcDbEntity
  8
osie
370
18
100
AcDbText
 39
0.18
 10
7569392.37999999989
 20
5713953.4299999997
 40
0.36
  1
1
 50
0.00
 41
0.66
  7
STANDARD
100
AcDbText
  0
TEXT
  5
120
100
AcDbEntity
  8
osie
370
18
100
AcDbText
 39
0.18
 10
7569367.02000000048
 20
5713953.84999999963
 40
0.36
  1
2
 50
0.00
 41
0.66
  7
STANDARD
100
AcDbText
  0
TEXT
  5
121
100
AcDbEntity
  8
osie
370
18
100
AcDbText
 39
0.18
 10
7569392.23000000045
 20
5713951.72999999952
 40
0.36
  1
2
 50
0.00
 41
0.66
  7
STANDARD
100
AcDbText
  0
TEXT
  5
122
100
AcDbEntity
  8
osie
370
18
100
AcDbText
 39
0.18
 10
7569391.66000000015
 20
5713944.52999999933
 40
0.36
  1
3
 50
0.00
 41
0.66
  7
STANDARD
100
AcDbText
  0
TEXT
  5
123
100
AcDbEntity
  8
osie
370
18
100
AcDbText
 39
0.18
 10
7569366.31000000052
 20
5713946.66999999993
 40
0.36
  1
3
 50
0.00
 41
0.66
  7
STANDARD
100
AcDbText
  0
TEXT
  5
124
100
AcDbEntity
  8
osie
370
18
100
AcDbText
 39
0.18
 10
7569391.16999999993
 20
5713938.66999999993
 40
0.36
  1
4
 50
0.00
 41
0.66
  7
STANDARD
100
AcDbText
  0
TEXT
  5
125
100
AcDbEntity
  8
osie
370
18
100
AcDbText
 39
0.18
 10
7569365.79999999981
 20
5713940.77999999933
 40
0.36
  1
4
 50
0.00
 41
0.66
  7
STANDARD
100
AcDbText
  0
TEXT
  5
126
100
AcDbEntity
  8
osie
370
18
100
AcDbText
 39
0.18
 10
7569365.6400000006
 20
5713939.55999999959
 40
0.36
  1
5
 50
0.00
 41
0.66
  7
STANDARD
100
AcDbText
  0
TEXT
  5
127
100
AcDbEntity
  8
osie
370
18
100
AcDbText
 39
0.18
 10
7569391.0700000003
 20
5713937.45999999996
 40
0.36
  1
5
 50
0.00
 41
0.66
  7
STANDARD
100
AcDbText
  0
TEXT
  5
128
100
AcDbEntity
  8
osie
370
18
100
AcDbText
 39
0.18
 10
7569390.78000000026
 20
5713934.46999999974
 40
0.36
  1
6
 50
0.00
 41
0.66
  7
STANDARD
100
AcDbText
  0
TEXT
  5
129
100
AcDbEntity
  8
osie
370
18
100
AcDbText
 39
0.18
 10
7569365.5
 20
5713936.52999999933
 40
0.36
  1
6
 50
0.00
 41
0.66
  7
STANDARD
100
AcDbText
  0
TEXT
  5
12A
100
AcDbEntity
  8
osie
370
18
100
AcDbText
 39
0.18
 10
7569365.45999999996
 20
5713935.91000000015
 40
0.36
  1
7
 50
0.00
 41
0.66
  7
STANDARD
100
AcDbText
  0
TEXT
  5
12B
100
AcDbEntity
  8
osie
370
18
100
AcDbText
 39
0.18
 10
7569390.69000000041
 20
5713933.76999999955
 40
0.36
  1
7
 50
0.00
 41
0.66
  7
STANDARD
100
AcDbText
  0
TEXT
  5
12C
100
AcDbEntity
  8
osie
370
18
100
AcDbText
 39
0.18
 10
7569366.18400000036
 20
5713935.10099999979
 40
0.36
  1
A
 50
0.00
 41
0.66
  7
STANDARD
100
AcDbText
  0
TEXT
  5
12D
100
AcDbEntity
  8
osie
370
18
100
AcDbText
 39
0.18
 10
7569368.02500000037
 20
5713956.47399999946
 40
0.36
  1
A
 50
0.00
 41
0.66
  7
STANDARD
100
AcDbText
  0
TEXT
  5
12E
100
AcDbEntity
  8
osie
370
18
100
AcDbText
 39
0.18
 10
7569368.90000000037
 20
5713956.20999999996
 40
0.36
  1
B
 50
0.00
 41
0.66
  7
STANDARD
100
AcDbText
  0
TEXT
  5
12F
100
AcDbEntity
  8
osie
370
18
100
AcDbText
 39
0.18
 10
7569366.95999999996
 20
5713934.89999999944
 40
0.36
  1
B
 50
0.00
 41
0.66
  7
STANDARD
100
AcDbText
  0
TEXT
  5
130
100
AcDbEntity
  8
osie
370
18
100
AcDbText
 39
0.18
 10
7569372.20999999996
 20
5713934.33000000007
 40
0.36
  1
C
 50
0.00
 41
0.66
  7
STANDARD
100
AcDbText
  0
TEXT
  5
131
100
AcDbEntity
  8
osie
370
18
100
AcDbText
 39
0.18
 10
7569374.02000000048
 20
5713955.84999999963
 40
0.36
  1
C
 50
0.00
 41
0.66
  7
STANDARD
100
AcDbText
  0
TEXT
  5
132
100
AcDbEntity
  8
osie
370
18
100
AcDbText
 39
0.18
 10
7569376.49000000022
 20
5713955.58999999985
 40
0.36
  1
D
 50
0.00
 41
0.66
  7
STANDARD
100
AcDbText
  0
TEXT
  5
133
100
AcDbEntity
  8
osie
370
18
100
AcDbText
 39
0.18
 10
7569374.73000000045
 20
5713934.18999999948
 40
0.36
  1
D
 50
0.00
 41
0.66
  7
STANDARD
100
AcDbText
  0
TEXT
  5
134
100
AcDbEntity
  8
osie
370
18
100
AcDbText
 39
0.18
 10
7569379.1799999997
 20
5713955.45999999996
 40
0.36
  1
E
 50
0.00
 41
0.66
  7
STANDARD
100
AcDbText
  0
TEXT
  5
135
100
AcDbEntity
  8
osie
370
18
100
AcDbText
 39
0.18
 10
7569377.33000000007
 20
5713933.79999999981
 40
0.36
  1
E
 50
0.00
 41
0.66
  7
STANDARD
100
AcDbText
  0
TEXT
  5
136
100
AcDbEntity
  8
osie
370
18
100
AcDbText
 39
0.18
 10
7569380.41999999993
 20
5713933.62000000011
 40
0.36
  1
E.1
 50
0.00
 41
0.66
  7
STANDARD
100
AcDbText
  0
TEXT
  5
137
100
AcDbEntity
  8
osie
370
18
100
AcDbText
 39
0.18
 10
7569382.27000000048
 20
5713955.24000000022
 40
0.36
  1
E.1
 50
0.00
 41
0.66
  7
STANDARD
100
AcDbText
  0
TEXT
  5
138
100
AcDbEntity
  8
osie
370
18
100
AcDbText
 39
0.18
 10
7569383.15000000037
 20
5713955.18999999948
 40
0.36
  1
F
 50
0.00
 41
0.66
  7
STANDARD
100
AcDbText
  0
TEXT
  5
139
100
AcDbEntity
  8
osie
370
18
100
AcDbText
 39
0.18
 10
7569381.20999999996
 20
5713933.43999999948
 40
0.36
  1
F
 50
0.00
 41
0.66
  7
STANDARD
100
AcDbText
  0
TEXT
  5
13A
100
AcDbEntity
  8
osie
370
18
100
AcDbText
 39
0.18
 10
7569385.45000000019
 20
5713954.9299999997
 40
0.36
  1
G
 50
0.00
 41
0.66
  7
STANDARD
100
AcDbText
  0
TEXT
  5
13B
100
AcDbEntity
  8
osie
370
18
100
AcDbText
 39
0.18
 10
7569383.6799999997
 20
5713933.30999999959
 40
0.36
  1
G
 50
0.00
 41
0.66
  7
STANDARD
100
AcDbText
  0
TEXT
  5
13C
100
AcDbEntity
  8
osie
370
18
100
AcDbText
 39
0.18
 10
7569386.24000000022
 20
5713954.87999999989
 40
0.36
  1
G.1
 50
0.00
 41
0.66
  7
STANDARD
100
AcDbText
  0
TEXT
  5
13D
100
AcDbEntity
  8
osie
370
18
100
AcDbText
 39
0.18
 10
7569384.4299999997
 20
5713933.21999999974
 40
0.36
  1
G.1
 50
0.00
 41
0.66
  7
STANDARD
100
AcDbText
  0
TEXT
  5
13E
100
AcDbEntity
  8
osie
370
18
100
AcDbText
 39
0.18
 10
7569388.1400000006
 20
5713954.66000000015
 40
0.36
  1
H
 50
0.00
 41
0.66
  7
STANDARD
100
AcDbText
  0
TEXT
  5
13F
100
AcDbEntity
  8
osie
370
18
100
AcDbText
 39
0.18
 10
7569386.41999999993
 20
5713933.08999999985
 40
0.36
  1
H
 50
0.00
 41
0.66
  7
STANDARD
100
AcDbText
  0
TEXT
  5
140
100
AcDbEntity
  8
osie
370
18
100
AcDbText
 39
0.18
 10
7569391.68400000036
 20
5713954.45000000019
 40
0.36
  1
I
 50
0.00
 41
0.66
  7
STANDARD
100
AcDbText
  0
TEXT
  5
141
100
AcDbEntity
  8
osie
370
18
100
AcDbText
 39
0.18
 10
7569389.8200000003
 20
5713932.64999999944
 40
0.36
  1
I
 50
0.00
 41
0.66
  7
STANDARD
100
AcDbText
  0
TEXT
  5
142
100
AcDbEntity
  8
osie
370
18
100
AcDbText
 39
0.18
 10
7569383.75999999978
 20
5713954.97999999952
 40
0.36
  1
F.1
 50
0.00
 41
0.66
  7
STANDARD
100
AcDbText
  0
TEXT
  5
143
100
AcDbEntity
  8
osie
370
18
100
AcDbText
 39
0.18
 10
7569384.65000000037
 20
5713954.97999999952
 40
0.36
  1
F.2
 50
0.00
 41
0.66
  7
STANDARD
100
AcDbText
  0
TEXT
  5
144
100
AcDbEntity
  8
osie
370
18
100
AcDbText
 39
0.18
 10
7569382.87000000011
 20
5713933.37000000011
 40
0.36
  1
F.2
 50
0.00
 41
0.66
  7
STANDARD
100
AcDbText
  0
TEXT
  5
145
100
AcDbEntity
  8
osie
370
18
100
AcDbText
 39
0.18
 10
7569381.91000000015
 20
5713933.46999999974
 40
0.36
  1
F.1
 50
0.00
 41
0.66
  7
STANDARD
100
AcDbText
  0
TEXT
  5
146
100
AcDbEntity
  8
osie
370
9
100
AcDbText
 39
0.09
 10
7569367.62887678575
 20
5713956.2179194605
 40
0.20
  1
0.345
 50
-4.80
 41
0.66
  7
STANDARD
100
AcDbText
  0
TEXT
  5
147
100
AcDbEntity
  8
osie
370
9
100
AcDbText
 39
0.09
 10
7569368.22683035303
 20
5713956.08670804277
 40
0.20
  1
0.850
 50
-4.90
 41
0.66
  7
STANDARD
100
AcDbText
  0
TEXT
  5
148
100
AcDbEntity
  8
osie
370
9
100
AcDbText
 39
0.09
 10
7569371.24083035253
 20
5713955.8292080434
 40
0.20
  1
5.200
 50
-4.90
 41
0.66
  7
STANDARD
100
AcDbText
  0
TEXT
  5
149
100
AcDbEntity
  8
osie
370
9
100
AcDbText
 39
0.09
 10
7569375.08683035243
 20
5713955.50120804273
 40
0.20
  1
2.520
 50
-4.90
 41
0.66
  7
STANDARD
100
AcDbText
  0
TEXT
  5
14A
100
AcDbEntity
  8
osie
370
9
100
AcDbText
 39
0.09
 10
7569380.62633035239
 20
5713955.02770804241
 40
0.20
  1
3.400
 50
-4.90
 41
0.66
  7
STANDARD
100
AcDbText
  0
TEXT
  5
14B
100
AcDbEntity
  8
osie
370
9
100
AcDbText
 39
0.09
 10
7569382.59433035273
 20
5713954.85970804282
 40
0.20
  1
0.550
 50
-4.90
 41
0.66
  7
STANDARD
100
AcDbText
  0
TEXT
  5
14C
100
AcDbEntity
  8
osie
370
9
100
AcDbText
 39
0.09
 10
7569384.25283035357
 20
5713954.7182080429
 40
0.20
  1
0.920
 50
-4.90
 41
0.66
  7
STANDARD
100
AcDbText
  0
TEXT
  5
14D
100
AcDbEntity
  8
osie
370
9
100
AcDbText
 39
0.09
 10
7569385.01033035293
 20
5713954.65370804258
 40
0.20
  1
0.600
 50
-4.90
 41
0.66
  7
STANDARD
100
AcDbText
  0
TEXT
  5
14E
100
AcDbEntity
  8
osie
370
9
100
AcDbText
 39
0.09
 10
7569389.71783035342
 20
5713954.25170804374
 40
0.20
  1
3.450
 50
-4.90
 41
0.66
  7
STANDARD
100
AcDbText
  0
TEXT
  5
14F
100
AcDbEntity
  8
osie
370
9
100
AcDbText
 39
0.09
 10
7569391.63854550477
 20
5713954.08806521725
 40
0.20
  1
0.405
 50
-5.10
 41
0.66
  7
STANDARD
100
AcDbText
  0
TEXT
  5
150
100
AcDbEntity
  8
osie
370
9
100
AcDbText
 39
0.09
 10
7569385.75733035337
 20
5713954.58970804326
 40
0.20
  1
0.900
 50
-4.90
 41
0.66
  7
STANDARD
100
AcDbText
  0
TEXT
  5
151
100
AcDbEntity
  8
osie
370
9
100
AcDbText
 39
0.09
 10
7569387.10233035311
 20
5713954.47470804304
 40
0.20
  1
1.800
 50
-4.90
 41
0.66
  7
STANDARD
100
AcDbText
  0
TEXT
  5
152
100
AcDbEntity
  8
osie
370
9
100
AcDbText
 39
0.09
 10
7569391.98508053925
 20
5713953.51887678541
 40
0.20
  1
0.345
 50
-274.80
 41
0.66
  7
STANDARD
100
AcDbText
  0
TEXT
  5
153
100
AcDbEntity
  8
osie
370
9
100
AcDbText
 39
0.09
 10
7569391.92329195701
 20
5713952.57133035269
 40
0.20
  1
1.700
 50
-274.90
 41
0.66
  7
STANDARD
100
AcDbText
  0
TEXT
  5
154
100
AcDbEntity
  8
osie
370
9
100
AcDbText
 39
0.09
 10
7569391.7237919569
 20
5713950.23733035289
 40
0.20
  1
2.984
 50
-274.90
 41
0.66
  7
STANDARD
100
AcDbText
  0
TEXT
  5
155
100
AcDbEntity
  8
osie
370
9
100
AcDbText
 39
0.09
 10
7569391.58136327565
 20
5713948.57893755566
 40
0.20
  1
0.344
 50
-275.00
 41
0.66
  7
STANDARD
100
AcDbText
  0
TEXT
  5
156
100
AcDbEntity
  8
osie
370
9
100
AcDbText
 39
0.09
 10
7569391.51029195636
 20
5713947.7443303531
 40
0.20
  1
1.330
 50
-274.90
 41
0.66
  7
STANDARD
100
AcDbText
  0
TEXT
  5
157
100
AcDbEntity
  8
osie
370
9
100
AcDbText
 39
0.09
 10
7569391.34379195608
 20
5713945.79133035336
 40
0.20
  1
2.590
 50
-274.90
 41
0.66
  7
STANDARD
100
AcDbText
  0
TEXT
  5
158
100
AcDbEntity
  8
osie
370
9
100
AcDbText
 39
0.09
 10
7569390.97979195602
 20
5713941.53233035374
 40
0.20
  1
5.960
 50
-274.90
 41
0.66
  7
STANDARD
100
AcDbText
  0
TEXT
  5
159
100
AcDbEntity
  8
osie
370
9
100
AcDbText
 39
0.09
 10
7569390.67629195657
 20
5713937.98033035267
 40
0.20
  1
1.170
 50
-274.90
 41
0.66
  7
STANDARD
100
AcDbText
  0
TEXT
  5
15A
100
AcDbEntity
  8
osie
370
9
100
AcDbText
 39
0.09
 10
7569390.49579195678
 20
5713935.86283035297
 40
0.20
  1
3.080
 50
-274.90
 41
0.66
  7
STANDARD
100
AcDbText
  0
TEXT
  5
15B
100
AcDbEntity
  8
osie
370
9
100
AcDbText
 39
0.09
 10
7569390.33929195628
 20
5713934.02933035325
 40
0.20
  1
0.600
 50
-274.90
 41
0.66
  7
STANDARD
100
AcDbText
  0
TEXT
  5
15C
100
AcDbEntity
  8
osie
370
9
100
AcDbText
 39
0.09
 10
7569387.97283035237
 20
5713933.81570804305
 40
0.20
  1
3.450
 50
-4.90
 41
0.66
  7
STANDARD
100
AcDbText
  0
TEXT
  5
15D
100
AcDbEntity
  8
osie
370
9
100
AcDbText
 39
0.09
 10
7569385.357330353
 20
5713934.03870804235
 40
0.20
  1
1.800
 50
-4.90
 41
0.66
  7
STANDARD
100
AcDbText
  0
TEXT
  5
15E
100
AcDbEntity
  8
osie
370
9
100
AcDbText
 39
0.09
 10
7569384.01233035233
 20
5713934.15370804258
 40
0.20
  1
0.900
 50
-4.90
 41
0.66
  7
STANDARD
100
AcDbText
  0
TEXT
  5
15F
100
AcDbEntity
  8
osie
370
9
100
AcDbText
 39
0.09
 10
7569383.26533035282
 20
5713934.21770804375
 40
0.20
  1
0.600
 50
-4.90
 41
0.66
  7
STANDARD
100
AcDbText
  0
TEXT
  5
160
100
AcDbEntity
  8
osie
370
9
100
AcDbText
 39
0.09
 10
7569382.48091367632
 20
5713934.28835423104
 40
0.20
  1
0.920
 50
-4.90
 41
0.66
  7
STANDARD
100
AcDbText
  0
TEXT
  5
161
100
AcDbEntity
  8
osie
370
9
100
AcDbText
 39
0.09
 10
7569381.58633035328
 20
5713934.36070804298
 40
0.20
  1
0.930
 50
-4.90
 41
0.66
  7
STANDARD
100
AcDbText
  0
TEXT
  5
162
100
AcDbEntity
  8
osie
370
9
100
AcDbText
 39
0.09
 10
7569380.84933035355
 20
5713934.42370804306
 40
0.20
  1
0.550
 50
-4.90
 41
0.66
  7
STANDARD
100
AcDbText
  0
TEXT
  5
163
100
AcDbEntity
  8
osie
370
9
100
AcDbText
 39
0.09
 10
7569378.88133035321
 20
5713934.59170804359
 40
0.20
  1
3.400
 50
-4.90
 41
0.66
  7
STANDARD
100
AcDbText
  0
TEXT
  5
164
100
AcDbEntity
  8
osie
370
9
100
AcDbText
 39
0.09
 10
7569375.89233035315
 20
5713934.84720804356
 40
0.20
  1
2.600
 50
-4.90
 41
0.66
  7
STANDARD
100
AcDbText
  0
TEXT
  5
165
100
AcDbEntity
  8
osie
370
9
100
AcDbText
 39
0.09
 10
7569373.34183035325
 20
5713935.06520804297
 40
0.20
  1
2.520
 50
-4.90
 41
0.66
  7
STANDARD
100
AcDbText
  0
TEXT
  5
166
100
AcDbEntity
  8
osie
370
9
100
AcDbText
 39
0.09
 10
7569369.49583035242
 20
5713935.39320804365
 40
0.20
  1
5.200
 50
-4.90
 41
0.66
  7
STANDARD
100
AcDbText
  0
TEXT
  5
167
100
AcDbEntity
  8
osie
370
9
100
AcDbText
 39
0.09
 10
7569366.48183035199
 20
5713935.65070804395
 40
0.20
  1
0.850
 50
-4.90
 41
0.66
  7
STANDARD
100
AcDbText
  0
TEXT
  5
168
100
AcDbEntity
  8
osie
370
9
100
AcDbText
 39
0.09
 10
7569365.88622389827
 20
5713935.70127917454
 40
0.20
  1
0.346
 50
-4.80
 41
0.66
  7
STANDARD
100
AcDbText
  0
TEXT
  5
169
100
AcDbEntity
  8
osie
370
9
100
AcDbText
 39
0.09
 10
7569365.91622082517
 20
5713935.61122389976
 40
0.20
  1
0.406
 50
-274.80
 41
0.66
  7
STANDARD
100
AcDbText
  0
TEXT
  5
16A
100
AcDbEntity
  8
osie
370
9
100
AcDbText
 39
0.09
 10
7569365.95829195716
 20
5713936.11233035289
 40
0.20
  1
0.600
 50
-274.90
 41
0.66
  7
STANDARD
100
AcDbText
  0
TEXT
  5
16B
100
AcDbEntity
  8
osie
370
9
100
AcDbText
 39
0.09
 10
7569366.11479195673
 20
5713937.9458303526
 40
0.20
  1
3.080
 50
-274.90
 41
0.66
  7
STANDARD
100
AcDbText
  0
TEXT
  5
16C
100
AcDbEntity
  8
osie
370
9
100
AcDbText
 39
0.09
 10
7569366.29529195651
 20
5713940.06333035324
 40
0.20
  1
1.170
 50
-274.90
 41
0.66
  7
STANDARD
100
AcDbText
  0
TEXT
  5
16D
100
AcDbEntity
  8
osie
370
9
100
AcDbText
 39
0.09
 10
7569366.5987919569
 20
5713943.61533035245
 40
0.20
  1
5.960
 50
-274.90
 41
0.66
  7
STANDARD
100
AcDbText
  0
TEXT
  5
16E
100
AcDbEntity
  8
osie
370
9
100
AcDbText
 39
0.09
 10
7569366.96279195696
 20
5713947.87433035299
 40
0.20
  1
2.590
 50
-274.90
 41
0.66
  7
STANDARD
100
AcDbText
  0
TEXT
  5
16F
100
AcDbEntity
  8
osie
370
9
100
AcDbText
 39
0.09
 10
7569367.12929195724
 20
5713949.82733035274
 40
0.20
  1
1.330
 50
-274.90
 41
0.66
  7
STANDARD
100
AcDbText
  0
TEXT
  5
170
100
AcDbEntity
  8
osie
370
9
100
AcDbText
 39
0.09
 10
7569367.20036327653
 20
5713950.6619375553
 40
0.20
  1
0.345
 50
-275.00
 41
0.66
  7
STANDARD
100
AcDbText
  0
TEXT
  5
171
100
AcDbEntity
  8
osie
370
9
100
AcDbText
 39
0.09
 10
7569367.34279195685
 20
5713952.32033035252
 40
0.20
  1
2.985
 50
-274.90
 41
0.66
  7
STANDARD
100
AcDbText
  0
TEXT
  5
172
100
AcDbEntity
  8
osie
370
9
100
AcDbText
 39
0.09
 10
7569367.54229195695
 20
5713954.65433035325
 40
0.20
  1
1.700
 50
-274.90
 41
0.66
  7
STANDARD
100
AcDbText
  0
TEXT
  5
173
100
AcDbEntity
  8
osie
370
9
100
AcDbText
 39
0.09
 10
7569367.58608053904
 20
5713955.60087678581
 40
0.20
  1
0.345
 50
-274.80
 41
0.66
  7
STANDARD
100
AcDbText
  0
TEXT
  5
174
100
AcDbEntity
  8
osie
370
9
100
AcDbText
 39
0.09
 10
7569377.63733035326
 20
5713955.28320804238
 40
0.20
  1
2.600
 50
-4.90
 41
0.66
  7
STANDARD
100
AcDbText
  0
TEXT
  5
175
100
AcDbEntity
  8
osie
370
9
100
AcDbText
 39
0.09
 10
7569383.33133035246
 20
5713954.79670804366
 40
0.20
  1
0.930
 50
-4.90
 41
0.66
  7
STANDARD
100
AcDbText
  0
ENDSEC
  0
SECTION
  2
OBJECTS
  0
DICTIONARY
  5
176
330
0
100
AcDbDictionary
280
0
281
1
  3
ACAD_GROUP
350
177
  3
ACAD_LAYOUT
350
178
  3
ACAD_MLINESTYLE
350
179
  3
ACAD_PLOTSETTINGS
350
17A
  3
ACAD_PLOTSTYLENAME
350
17B
  0
DICTIONARY
  5
177
102
{ACAD_REACTORS
330
176
102
}
330
176
100
AcDbDictionary
280
0
281
1
  0
DICTIONARY
  5
178
102
{ACAD_REACTORS
330
176
102
}
330
176
100
AcDbDictionary
280
0
281
1
  3
Layout
350
1D
  3
Model
350
1B
  0
DICTIONARY
  5
179
102
{ACAD_REACTORS
330
176
102
}
330
176
100
AcDbDictionary
280
0
281
1
  3
Standard
350
17C
  3
L_0_02_M
350
8
  0
DICTIONARY
  5
17A
102
{ACAD_REACTORS
330
176
102
}
330
176
100
AcDbDictionary
280
0
281
1
  0
ACDBDICTIONARYWDFLT
  5
17B
102
{ACAD_REACTORS
330
176
102
}
330
176
100
AcDbDictionary
281
1
  3
Normal
350
D
100
AcDbDictionaryWithDefault
340
D
  0
LAYOUT
  5
1D
100
AcDbPlotSettings
  1

  2

  4

  6

 40
0.0
 41
0.0
 42
0.0
 43
0.0
 44
0.0
 45
0.0
 46
0.0
 47
0.0
 48
0.0
 49
0.0
140
0.0
141
0.0
142
1.0
143
1.0
 70
688
 72
1
 73
0
 74
5
  7

 75
0
147
1.0
148
0.0
149
0.0
100
AcDbLayout
  1
Layout
 70
1
 71
1
 10
0.0
 20
0.0
 11
420.0
 21
297.0
 12
0.0
 22
0.0
 32
0.0
 14
100000000000000000000.0
 24
100000000000000000000.0
 34
100000000000000000000.0
 15
-100000000000000000000.0
 25
-100000000000000000000.0
 35
-100000000000000000000.0
146
0.0
 13
0.0
 23
0.0
 33
0.0
 16
1.0
 26
0.0
 36
0.0
 17
0.0
 27
1.0
 37
0.0
 76
0
330
1C
  0
LAYOUT
  5
1B
100
AcDbPlotSettings
  1

  2

  4

  6

 40
0.0
 41
0.0
 42
0.0
 43
0.0
 44
0.0
 45
0.0
 46
0.0
 47
0.0
 48
0.0
 49
0.0
140
0.0
141
0.0
142
1.0
143
1.0
 70
1712
 72
1
 73
0
 74
0
  7

 75
0
147
1.0
148
0.0
149
0.0
100
AcDbLayout
  1
Model
 70
1
 71
0
 10
0.0
 20
0.0
 11
12.0
 21
9.0
 12
0.0
 22
0.0
 32
0.0
 14
0.0
 24
0.0
 34
0.0
 15
0.0
 25
0.0
 35
0.0
146
0.0
 13
0.0
 23
0.0
 33
0.0
 16
1.0
 26
0.0
 36
0.0
 17
0.0
 27
1.0
 37
0.0
 76
0
330
1A
  0
MLINESTYLE
  5
17C
102
{ACAD_REACTORS
330
179
102
}
330
179
100
AcDbMlineStyle
  2
Standard
 70
0
  3

 62
256
 51
90.0
 52
90.0
  2
Standard
 71
2
 49
0.5
 62
256
  6
ByLayer
 49
-0.5
 62
256
  6
ByLayer
  0
MLINESTYLE
  5
8
100
AcDbMlineStyle
  2
L_0_02_M
 70
0
  3

 51
90.0
 52
90.0
 71
1
 49
0.0
 62
256
  6
CONTINUOUS
  0
ACDBPLACEHOLDER
  5
D
  0
ENDSEC
  0
EOF
