  0
SECTION
  2
HEADER
  9
$ACADVER
  1
AC1018
  9
$HANDSEED
  5
FFFFFF
  9
$EXTMAX
 10
7569042.18699999992
 20
5714839.99700000044
 30
1000000.00
  9
$EXTMIN
 10
7569026.10699999984
 20
5714810.12999999989
 30
0.00
  9
$LIMMIN
 10
7569026.10699999984
 20
5714810.12999999989
  9
$LIMMAX
 10
7569042.18699999992
 20
5714839.99700000044
  9
$DIMASZ
 40
2.5
  9
$DIMGAP
 40
0.625
  9
$INSUNITS
 70
6
  9
$DIMEXO
 40
0.625
  9
$DIMTXT
 40
2.5
  9
$DIMSTYLE
  2
Standard
  9
$PLIMMIN
 10
0.0
 20
0.0
  9
$PLIMMAX
 10
210.0
 20
297.0
  9
$DIMEXE
 40
1.25
  9
$TEXTSIZE
 40
2.5
  9
$TEXTSTYLE
  7
Standard
  9
$LWDISPLAY
290
1
  9
$TDCREATE
 40
45216.646207037
  9
$TDUCREATE
 40
45216.562873704
  9
$TDUPDATE
 40
45216.646207037
  9
$TDUUPDATE
 40
45216.562873704
  9
$TDINDWG
 40
0.0
  9
$TDUSRTIMER
 40
0.0
  9
$USRTIMER
 70
1
  0
ENDSEC
  0
SECTION
  2
TABLES
  0
TABLE
  2
VPORT
  5
1
100
AcDbSymbolTable
 70
1
  0
VPORT
  5
2
100
AcDbSymbolTableRecord
100
AcDbViewportTableRecord
  2
*ACTIVE
 70
0
 10
0.0
 20
0.0
 11
1.0
 21
1.0
 12
7569034.147
 22
5714825.064
 13
0.0
 23
0.0
 14
1.0
 24
1.0
 15
0.0
 25
0.0
 16
0.0
 26
0.0
 36
1.0
 17
0.0
 27
0.0
 37
0.0
 40
29.867
 41
0.538
 42
50.0
 43
0.0
 44
0.0
 50
0.0
 51
0.0
 71
0
 72
100
 73
1
 74
1
 75
0
 76
0
 77
0
 78
0
  0
ENDTAB
  0
TABLE
  2
LTYPE
  5
3
100
AcDbSymbolTable
 70
3
  0
LTYPE
  5
4
100
AcDbSymbolTableRecord
100
AcDbLinetypeTableRecord
  2
ByBlock
 70
0
  3

 72
65
 73
0
 40
0.0
  0
LTYPE
  5
5
100
AcDbSymbolTableRecord
100
AcDbLinetypeTableRecord
  2
ByLayer
 70
0
  3

 72
65
 73
0
 40
0.0
  0
LTYPE
  5
6
100
AcDbSymbolTableRecord
100
AcDbLinetypeTableRecord
  2
CONTINUOUS
 70
0
  3
Solid line
 72
65
 73
0
 40
0.0
  0
LTYPE
  5
8
100
AcDbSymbolTableRecord
100
AcDbLinetypeTableRecord
  2
L_0_02
 70
0
  3
Dzialka_ewidencyjna (MLineStyle)
 72
65
 73
0
 40
0.0
  0
LTYPE
  5
9
100
AcDbSymbolTableRecord
100
AcDbLinetypeTableRecord
  2
L_0_03
 70
0
  3
Uzytek_gruntowy
 72
65
 73
2
 40
0.2
 49
0.1
 74
0
 49
-0.1
 74
0
  0
LTYPE
  5
A
100
AcDbSymbolTableRecord
100
AcDbLinetypeTableRecord
  2
L_0_04
 70
0
  3
Budynek_projektowany
 72
65
 73
2
 40
0.3
 49
0.2
 74
0
 49
-0.1
 74
0
  0
LTYPE
  5
B
100
AcDbSymbolTableRecord
100
AcDbLinetypeTableRecord
  2
L_0_05
 70
0
  3
Szczyt_skarpy_nie_umocnionej_Podnoze_skarpy
 72
65
 73
2
 40
0.35
 49
0.25
 74
0
 49
-0.1
 74
0
  0
LTYPE
  5
C
100
AcDbSymbolTableRecord
100
AcDbLinetypeTableRecord
  2
L_0_06
 70
0
  3
Granica_konturu_klasyfikacyjnego_Krawedz_chodnika
 72
65
 73
2
 40
0.4
 49
0.3
 74
0
 49
-0.1
 74
0
  0
LTYPE
  5
D
100
AcDbSymbolTableRecord
100
AcDbLinetypeTableRecord
  2
L_0_17_SHX
 70
0
  3
L_0_17
 72
65
 73
12
 40
1.6
 49
0.0
 74
0
 49
-0.08
 74
0
 49
-0.16
 74
0
 49
-0.16
 74
0
 49
-0.16
 74
0
 49
-0.16
 74
0
 49
-0.16
 74
4
 75
1
340
E
 46
0.01
 50
0.0
 44
0.0
 45
0.0
 49
-0.16
 74
0
 49
-0.16
 74
0
 49
-0.16
 74
0
 49
-0.16
 74
0
 49
-0.08
 74
0
  0
LTYPE
  5
10
100
AcDbSymbolTableRecord
100
AcDbLinetypeTableRecord
  2
L_0_17
 70
0
  3
L_0_17 (MLineStyle)
 72
65
 73
0
 40
0.0
  0
ENDTAB
  0
TABLE
  2
LAYER
  5
11
100
AcDbSymbolTable
 70
3
  0
LAYER
  5
12
100
AcDbSymbolTableRecord
100
AcDbLayerTableRecord
  2
0
 70
0
420
0
  6
CONTINUOUS
370
18
390
13
  0
LAYER
  5
14
100
AcDbSymbolTableRecord
100
AcDbLayerTableRecord
  2
obrys
 70
0
420
255
  6
CONTINUOUS
370
25
390
13
  0
LAYER
  5
15
100
AcDbSymbolTableRecord
100
AcDbLayerTableRecord
  2
Osie
 70
0
420
16711680
  6
CONTINUOUS
370
18
390
13
  0
ENDTAB
  0
TABLE
  2
STYLE
  5
16
100
AcDbSymbolTable
 70
3
  0
STYLE
  5
17
100
AcDbSymbolTableRecord
100
AcDbTextStyleTableRecord
  2
STANDARD
 70
0
 40
0.0
 41
1.0
 50
0.0
 71
0
  3
simplex.shx
  4

  0
STYLE
  5
18
100
AcDbSymbolTableRecord
100
AcDbTextStyleTableRecord
  2
STANDARD_ITALIC
 70
0
 40
0.0
 41
1.0
 50
15.0
 71
0
  3
simplex.shx
  4

  0
STYLE
  5
E
100
AcDbSymbolTableRecord
100
AcDbTextStyleTableRecord
  2

 70
1
 40
0.0
 41
0.010
 50
0.0
 71
0
  3
kosm_301_3_proj_bud.shx
  4

  0
ENDTAB
  0
TABLE
  2
VIEW
  5
19
100
AcDbSymbolTable
 70
0
  0
ENDTAB
  0
TABLE
  2
UCS
  5
1A
100
AcDbSymbolTable
 70
0
  0
ENDTAB
  0
TABLE
  2
APPID
  5
1B
100
AcDbSymbolTable
 70
1
  0
APPID
  5
1C
100
AcDbSymbolTableRecord
100
AcDbRegAppTableRecord
  2
ACAD
 70
0
  0
ENDTAB
  0
TABLE
  2
DIMSTYLE
  5
1D
100
AcDbSymbolTable
 70
1
100
AcDbDimStyleTable
  0
DIMSTYLE
105
1E
100
AcDbSymbolTableRecord
100
AcDbDimStyleTableRecord
  2
Standard
 70
0
340
17
  0
ENDTAB
  0
TABLE
  2
BLOCK_RECORD
  5
1F
100
AcDbSymbolTable
 70
6
  0
BLOCK_RECORD
  5
20
100
AcDbSymbolTableRecord
100
AcDbBlockTableRecord
  2
*Model_Space
340
21
  0
BLOCK_RECORD
  5
22
100
AcDbSymbolTableRecord
100
AcDbBlockTableRecord
  2
*Paper_Space
340
23
  0
BLOCK_RECORD
  5
24
100
AcDbSymbolTableRecord
100
AcDbBlockTableRecord
  2
L_0_02_1
340
25
  0
BLOCK_RECORD
  5
26
100
AcDbSymbolTableRecord
100
AcDbBlockTableRecord
  2
L_0_02_2
340
27
  0
BLOCK_RECORD
  5
28
100
AcDbSymbolTableRecord
100
AcDbBlockTableRecord
  2
L_0_17_1
340
29
  0
BLOCK_RECORD
  5
2A
100
AcDbSymbolTableRecord
100
AcDbBlockTableRecord
  2
L_0_17_2
340
2B
  0
ENDTAB
  0
ENDSEC
  0
SECTION
  2
BLOCKS
  0
BLOCK
  5
2C
100
AcDbEntity
  8
0
100
AcDbBlockBegin
  2
*Model_Space
 70
0
 10
0.0
 20
0.0
 30
0.0
  3
*Model_Space
  1

  0
ENDBLK
  5
2D
100
AcDbEntity
  8
0
100
AcDbBlockEnd
  0
BLOCK
  5
2E
100
AcDbEntity
 67
1
  8
0
100
AcDbBlockBegin
  2
*Paper_Space
 70
0
 10
0.0
 20
0.0
 30
0.0
  3
*Paper_Space
  1

  0
ENDBLK
  5
2F
100
AcDbEntity
 67
1
  8
0
100
AcDbBlockEnd
  0
BLOCK
  5
25
100
AcDbEntity
  8
0
100
AcDbBlockBegin
 62
0
370
13
  2
L_0_02_1
 70
0
 10
0
 20
0
 30
0
  3
L_0_02_1
  0
POINT
  5
30
100
AcDbEntity
  8
0
100
AcDbPoint
 62
0
 10
0.0
 20
0.0
 30
0.000
  0
ENDBLK
  5
31
100
AcDbEntity
  8
0
100
AcDbBlockEnd
  0
BLOCK
  5
27
100
AcDbEntity
  8
0
100
AcDbBlockBegin
 62
0
370
13
  2
L_0_02_2
 70
0
 10
0
 20
0
 30
0
  3
L_0_02_2
  0
POINT
  5
32
100
AcDbEntity
  8
0
100
AcDbPoint
 62
0
 10
-0.0
 20
-0.0
 30
0.000
  0
ENDBLK
  5
33
100
AcDbEntity
  8
0
100
AcDbBlockEnd
  0
BLOCK
  5
29
100
AcDbEntity
  8
0
100
AcDbBlockBegin
 62
0
370
13
  2
L_0_17_1
 70
0
 10
0
 20
0
 30
0
  3
L_0_17_1
  0
CIRCLE
  5
34
100
AcDbEntity
  8
0
  6
CONTINUOUS
 62
0
370
13
100
AcDbCircle
 10
0.0
 20
0.0
 40
0.5
  0
ENDBLK
  5
35
100
AcDbEntity
  8
0
100
AcDbBlockEnd
  0
BLOCK
  5
2B
100
AcDbEntity
  8
0
100
AcDbBlockBegin
 62
0
370
13
  2
L_0_17_2
 70
0
 10
0
 20
0
 30
0
  3
L_0_17_2
  0
CIRCLE
  5
36
100
AcDbEntity
  8
0
  6
CONTINUOUS
 62
0
370
13
100
AcDbCircle
 10
-0.0
 20
-0.0
 40
0.5
  0
ENDBLK
  5
37
100
AcDbEntity
  8
0
100
AcDbBlockEnd
  0
ENDSEC
  0
SECTION
  2
ENTITIES
  0
POLYLINE
  5
38
100
AcDbEntity
  8
obrys
  6
CONTINUOUS
370
25
100
AcDb2dPolyline
 66
1
 70
128
  0
VERTEX
  5
39
100
AcDbEntity
  8
obrys
100
AcDbVertex
100
AcDb2dVertex
 10
7569036.22499999963
 20
5714838.625
  0
VERTEX
  5
3A
100
AcDbEntity
  8
obrys
100
AcDbVertex
100
AcDb2dVertex
 10
7569035.13900000043
 20
5714826.32299999986
  0
SEQEND
  5
3B
100
AcDbEntity
  8
obrys
  0
POLYLINE
  5
3C
100
AcDbEntity
  8
obrys
  6
CONTINUOUS
370
25
100
AcDb2dPolyline
 66
1
 70
129
  0
VERTEX
  5
3D
100
AcDbEntity
  8
obrys
100
AcDbVertex
100
AcDb2dVertex
 10
7569036.22499999963
 20
5714838.625
  0
VERTEX
  5
3E
100
AcDbEntity
  8
obrys
100
AcDbVertex
100
AcDb2dVertex
 10
7569035.13900000043
 20
5714826.32299999986
  0
VERTEX
  5
3F
100
AcDbEntity
  8
obrys
100
AcDbVertex
100
AcDb2dVertex
 10
7569026.67191430088
 20
5714827.07030166406
  0
VERTEX
  5
40
100
AcDbEntity
  8
obrys
100
AcDbVertex
100
AcDb2dVertex
 10
7569027.75792818423
 20
5714839.37245894875
  0
SEQEND
  5
41
100
AcDbEntity
  8
obrys
  0
POLYLINE
  5
42
100
AcDbEntity
  8
obrys
  6
CONTINUOUS
370
25
100
AcDb2dPolyline
 66
1
 70
129
  0
VERTEX
  5
43
100
AcDbEntity
  8
obrys
100
AcDbVertex
100
AcDb2dVertex
 10
7569041.33509995975
 20
5714816.93884324096
  0
VERTEX
  5
44
100
AcDbEntity
  8
obrys
100
AcDbVertex
100
AcDb2dVertex
 10
7569034.36257968657
 20
5714817.55848913174
  0
VERTEX
  5
45
100
AcDbEntity
  8
obrys
100
AcDbVertex
100
AcDb2dVertex
 10
7569034.78747972567
 20
5714822.33964589052
  0
VERTEX
  5
46
100
AcDbEntity
  8
obrys
100
AcDbVertex
100
AcDb2dVertex
 10
7569041.75999999978
 20
5714821.71999999974
  0
SEQEND
  5
47
100
AcDbEntity
  8
obrys
  0
POLYLINE
  5
48
100
AcDbEntity
  8
Osie
  6
CONTINUOUS
370
18
100
AcDb2dPolyline
 66
1
 70
128
  0
VERTEX
  5
49
100
AcDbEntity
  8
Osie
100
AcDbVertex
100
AcDb2dVertex
 10
7569035.87809852511
 20
5714838.33436237182
  0
VERTEX
  5
4A
100
AcDbEntity
  8
Osie
100
AcDbVertex
100
AcDb2dVertex
 10
7569034.84837778844
 20
5714826.66988307703
  0
SEQEND
  5
4B
100
AcDbEntity
  8
Osie
  0
POLYLINE
  5
4C
100
AcDbEntity
  8
Osie
  6
CONTINUOUS
370
18
100
AcDb2dPolyline
 66
1
 70
128
  0
VERTEX
  5
4D
100
AcDbEntity
  8
Osie
100
AcDbVertex
100
AcDb2dVertex
 10
7569034.84837778844
 20
5714826.66988307703
  0
VERTEX
  5
4E
100
AcDbEntity
  8
Osie
100
AcDbVertex
100
AcDb2dVertex
 10
7569027.01890147477
 20
5714827.36063762847
  0
SEQEND
  5
4F
100
AcDbEntity
  8
Osie
  0
POLYLINE
  5
50
100
AcDbEntity
  8
Osie
  6
CONTINUOUS
370
18
100
AcDb2dPolyline
 66
1
 70
128
  0
VERTEX
  5
51
100
AcDbEntity
  8
Osie
100
AcDbVertex
100
AcDb2dVertex
 10
7569027.01890147477
 20
5714827.36063762847
  0
VERTEX
  5
52
100
AcDbEntity
  8
Osie
100
AcDbVertex
100
AcDb2dVertex
 10
7569028.04862221237
 20
5714839.02511692327
  0
SEQEND
  5
53
100
AcDbEntity
  8
Osie
  0
POLYLINE
  5
54
100
AcDbEntity
  8
Osie
  6
CONTINUOUS
370
18
100
AcDb2dPolyline
 66
1
 70
128
  0
VERTEX
  5
55
100
AcDbEntity
  8
Osie
100
AcDbVertex
100
AcDb2dVertex
 10
7569028.04862221237
 20
5714839.02511692327
  0
VERTEX
  5
56
100
AcDbEntity
  8
Osie
100
AcDbVertex
100
AcDb2dVertex
 10
7569035.87809852511
 20
5714838.33436237182
  0
SEQEND
  5
57
100
AcDbEntity
  8
Osie
  0
POLYLINE
  5
58
100
AcDbEntity
  8
Osie
  6
CONTINUOUS
370
18
100
AcDb2dPolyline
 66
1
 70
128
  0
VERTEX
  5
59
100
AcDbEntity
  8
Osie
100
AcDbVertex
100
AcDb2dVertex
 10
7569041.57561548613
 20
5714821.56572376471
  0
VERTEX
  5
5A
100
AcDbEntity
  8
Osie
100
AcDbVertex
100
AcDb2dVertex
 10
7569034.94131768402
 20
5714822.15560827032
  0
SEQEND
  5
5B
100
AcDbEntity
  8
Osie
  0
POLYLINE
  5
5C
100
AcDbEntity
  8
Osie
  6
CONTINUOUS
370
18
100
AcDb2dPolyline
 66
1
 70
128
  0
VERTEX
  5
5D
100
AcDbEntity
  8
Osie
100
AcDbVertex
100
AcDb2dVertex
 10
7569034.94131768402
 20
5714822.15560827032
  0
VERTEX
  5
5E
100
AcDbEntity
  8
Osie
100
AcDbVertex
100
AcDb2dVertex
 10
7569034.54734820779
 20
5714817.7123015793
  0
SEQEND
  5
5F
100
AcDbEntity
  8
Osie
  0
POLYLINE
  5
60
100
AcDbEntity
  8
Osie
  6
CONTINUOUS
370
18
100
AcDb2dPolyline
 66
1
 70
128
  0
VERTEX
  5
61
100
AcDbEntity
  8
Osie
100
AcDbVertex
100
AcDb2dVertex
 10
7569034.54734820779
 20
5714817.7123015793
  0
VERTEX
  5
62
100
AcDbEntity
  8
Osie
100
AcDbVertex
100
AcDb2dVertex
 10
7569041.1807186259
 20
5714817.12336637359
  0
SEQEND
  5
63
100
AcDbEntity
  8
Osie
  0
POLYLINE
  5
64
100
AcDbEntity
  8
Osie
  6
CONTINUOUS
370
18
100
AcDb2dPolyline
 66
1
 70
128
  0
VERTEX
  5
65
100
AcDbEntity
  8
Osie
100
AcDbVertex
100
AcDb2dVertex
 10
7569041.1807186259
 20
5714817.12336637359
  0
VERTEX
  5
66
100
AcDbEntity
  8
Osie
100
AcDbVertex
100
AcDb2dVertex
 10
7569041.57561548613
 20
5714821.56572376471
  0
SEQEND
  5
67
100
AcDbEntity
  8
Osie
  0
POLYLINE
  5
68
100
AcDbEntity
  8
Osie
  6
CONTINUOUS
370
18
100
AcDb2dPolyline
 66
1
 70
128
  0
VERTEX
  5
69
100
AcDbEntity
  8
Osie
100
AcDbVertex
100
AcDb2dVertex
 10
7569032.50057258643
 20
5714822.37236552686
  0
VERTEX
  5
6A
100
AcDbEntity
  8
Osie
100
AcDbVertex
100
AcDb2dVertex
 10
7569032.10657258704
 20
5714817.92836552672
  0
SEQEND
  5
6B
100
AcDbEntity
  8
Osie
  0
POLYLINE
  5
6C
100
AcDbEntity
  8
Osie
  6
CONTINUOUS
370
18
100
AcDb2dPolyline
 66
1
 70
128
  0
VERTEX
  5
6D
100
AcDbEntity
  8
Osie
100
AcDbVertex
100
AcDb2dVertex
 10
7569030.00578748155
 20
5714822.5932227131
  0
VERTEX
  5
6E
100
AcDbEntity
  8
Osie
100
AcDbVertex
100
AcDb2dVertex
 10
7569029.61178748123
 20
5714818.14922271296
  0
SEQEND
  5
6F
100
AcDbEntity
  8
Osie
  0
POLYLINE
  5
70
100
AcDbEntity
  8
Osie
  6
CONTINUOUS
370
18
100
AcDb2dPolyline
 66
1
 70
128
  0
VERTEX
  5
71
100
AcDbEntity
  8
Osie
100
AcDbVertex
100
AcDb2dVertex
 10
7569041.57561548613
 20
5714821.56572376471
  0
VERTEX
  5
72
100
AcDbEntity
  8
Osie
100
AcDbVertex
100
AcDb2dVertex
 10
7569034.94131768402
 20
5714822.15560827032
  0
VERTEX
  5
73
100
AcDbEntity
  8
Osie
100
AcDbVertex
100
AcDb2dVertex
 10
7569030.00578748155
 20
5714822.5932227131
  0
SEQEND
  5
74
100
AcDbEntity
  8
Osie
  0
POLYLINE
  5
75
100
AcDbEntity
  8
Osie
  6
CONTINUOUS
370
18
100
AcDb2dPolyline
 66
1
 70
128
  0
VERTEX
  5
76
100
AcDbEntity
  8
Osie
100
AcDbVertex
100
AcDb2dVertex
 10
7569034.54734820779
 20
5714817.7123015793
  0
VERTEX
  5
77
100
AcDbEntity
  8
Osie
100
AcDbVertex
100
AcDb2dVertex
 10
7569029.61178748123
 20
5714818.14922271296
  0
SEQEND
  5
78
100
AcDbEntity
  8
Osie
  0
POINT
  5
79
100
AcDbEntity
  8
obrys
100
AcDbPoint
 62
256
 10
7569041.75999999978
 20
5714821.71999999974
  0
POINT
  5
7A
100
AcDbEntity
  8
obrys
100
AcDbPoint
 62
256
 10
7569040.73000000045
 20
5714810.12999999989
  0
POINT
  5
7B
100
AcDbEntity
  8
obrys
100
AcDbPoint
 62
256
 10
7569041.33509995975
 20
5714816.93884324096
  0
POINT
  5
7C
100
AcDbEntity
  8
obrys
100
AcDbPoint
 62
256
 10
7569034.36257968657
 20
5714817.55848913174
  0
POINT
  5
7D
100
AcDbEntity
  8
obrys
100
AcDbPoint
 62
256
 10
7569034.78747972567
 20
5714822.33964589052
  0
POINT
  5
7E
100
AcDbEntity
  8
obrys
100
AcDbPoint
 62
256
 10
7569036.22499999963
 20
5714838.625
  0
POINT
  5
7F
100
AcDbEntity
  8
obrys
100
AcDbPoint
 62
256
 10
7569035.13900000043
 20
5714826.32299999986
  0
POINT
  5
80
100
AcDbEntity
  8
obrys
100
AcDbPoint
 62
256
 10
7569027.75792818423
 20
5714839.37245894875
  0
POINT
  5
81
100
AcDbEntity
  8
obrys
100
AcDbPoint
 62
256
 10
7569026.67191430088
 20
5714827.07030166406
  0
TEXT
  5
82
100
AcDbEntity
  8
obrys
370
18
100
AcDbText
 39
0.18
 10
7569036.80862392858
 20
5714831.2313699061
 40
0.18
  1
-12.350-
 50
-275.00
 41
0.66
  7
STANDARD
 72
1
 11
7569036.89977167826
 21
5714831.58477065247
100
AcDbText
 73
1
  0
TEXT
  5
83
100
AcDbEntity
  8
obrys
370
18
100
AcDbText
 39
0.18
 10
7569030.41619866621
 20
5714825.53745405562
 40
0.18
  1
-8.500-
 50
-5.00
 41
0.66
  7
STANDARD
 72
1
 11
7569030.7247706512
 21
5714825.45022831485
100
AcDbText
 73
1
  0
TEXT
  5
84
100
AcDbEntity
  8
obrys
370
18
100
AcDbText
 39
0.18
 10
7569027.00423012953
 20
5714832.87843824923
 40
0.18
  1
-12.350-
 50
-275.00
 41
0.66
  7
STANDARD
 72
1
 11
7569027.09537787922
 21
5714833.23183899559
100
AcDbText
 73
1
  0
TEXT
  5
85
100
AcDbEntity
  8
obrys
370
18
100
AcDbText
 39
0.18
 10
7569031.69335079566
 20
5714839.20549857896
 40
0.18
  1
-8.500-
 50
-5.00
 41
0.66
  7
STANDARD
 72
1
 11
7569032.00192278065
 21
5714839.11827283818
100
AcDbText
 73
1
  0
TEXT
  5
86
100
AcDbEntity
  8
obrys
370
18
100
AcDbText
 39
0.18
 10
7569037.97562656738
 20
5714822.23659204971
 40
0.18
  1
-7.001-
 50
-5.00
 41
0.66
  7
STANDARD
 72
1
 11
7569038.28419855237
 21
5714822.14936630894
100
AcDbText
 73
1
  0
TEXT
  5
87
100
AcDbEntity
  8
obrys
370
18
100
AcDbText
 39
0.18
 10
7569034.36826060247
 20
5714819.65095421486
 40
0.18
  1
-4.801-
 50
-275.00
 41
0.66
  7
STANDARD
 72
1
 11
7569034.45548634324
 21
5714819.95952619985
100
AcDbText
 73
1
  0
TEXT
  5
88
100
AcDbEntity
  8
obrys
370
18
100
AcDbText
 39
0.18
 10
7569037.50519867241
 20
5714817.03145406023
 40
0.18
  1
-6.999-
 50
-5.00
 41
0.66
  7
STANDARD
 72
1
 11
7569037.81377065741
 21
5714816.94422831945
100
AcDbText
 73
1
  0
TEXT
  5
89
100
AcDbEntity
  8
obrys
370
18
100
AcDbText
 39
0.18
 10
7569041.34078087565
 20
5714819.03130832501
 40
0.18
  1
-4.800-
 50
-275.00
 41
0.66
  7
STANDARD
 72
1
 11
7569041.42800661642
 21
5714819.33988031
100
AcDbText
 73
1
  0
TEXT
  5
8A
100
AcDbEntity
  8
Osie
370
18
100
AcDbText
 39
0.18
 10
7569030.59619866684
 20
5714827.1174540557
 40
0.18
  1
-7.859-
 50
-5.00
 41
0.66
  7
STANDARD
 72
1
 11
7569030.90477065183
 21
5714827.03022831492
100
AcDbText
 73
1
  0
TEXT
  5
8B
100
AcDbEntity
  8
Osie
370
18
100
AcDbText
 39
0.18
 10
7569027.82862392906
 20
5714832.79136990663
 40
0.18
  1
-11.709-
 50
-275.00
 41
0.66
  7
STANDARD
 72
1
 11
7569027.91977167875
 21
5714833.14477065299
100
AcDbText
 73
1
  0
TEXT
  5
8C
100
AcDbEntity
  8
Osie
370
18
100
AcDbText
 39
0.18
 10
7569031.5561986668
 20
5714838.42745405622
 40
0.18
  1
-7.859-
 50
-5.00
 41
0.66
  7
STANDARD
 72
1
 11
7569031.8647706518
 21
5714838.34022831544
100
AcDbText
 73
1
  0
TEXT
  5
8D
100
AcDbEntity
  8
Osie
370
18
100
AcDbText
 39
0.18
 10
7569037.90924706683
 20
5714821.68300170451
 40
0.18
  1
-6.661-
 50
-5.10
 41
0.66
  7
STANDARD
 72
1
 11
7569038.21766634472
 21
5714821.59523753729
100
AcDbText
 73
1
  0
TEXT
  5
8E
100
AcDbEntity
  8
Osie
370
18
100
AcDbText
 39
0.18
 10
7569033.4232480377
 20
5714822.47128909547
 40
0.18
  1
-2.450-
 50
-5.10
 41
0.66
  7
STANDARD
 72
1
 11
7569033.73166731559
 21
5714822.38352492824
100
AcDbText
 73
1
  0
TEXT
  5
8F
100
AcDbEntity
  8
Osie
370
18
100
AcDbText
 39
0.18
 10
7569030.95574803744
 20
5714822.68978909496
 40
0.18
  1
-2.505-
 50
-5.10
 41
0.66
  7
STANDARD
 72
1
 11
7569031.26416731533
 21
5714822.60202492774
100
AcDbText
 73
1
  0
TEXT
  5
90
100
AcDbEntity
  8
Osie
370
18
100
AcDbText
 39
0.18
 10
7569029.5309982989
 20
5714819.92424706649
 40
0.18
  1
-4.461-
 50
-275.10
 41
0.66
  7
STANDARD
 72
1
 11
7569029.61876246612
 21
5714820.23266634438
100
AcDbText
 73
1
  0
TEXT
  5
91
100
AcDbEntity
  8
Osie
370
18
100
AcDbText
 39
0.18
 10
7569030.54894725978
 20
5714818.10235918127
 40
0.18
  1
-2.505-
 50
-5.10
 41
0.66
  7
STANDARD
 72
1
 11
7569030.85736653768
 21
5714818.01459501404
100
AcDbText
 73
1
  0
TEXT
  5
92
100
AcDbEntity
  8
Osie
370
18
100
AcDbText
 39
0.18
 10
7569033.01644725911
 20
5714817.88385918178
 40
0.18
  1
-2.450-
 50
-5.10
 41
0.66
  7
STANDARD
 72
1
 11
7569033.324866537
 21
5714817.79609501455
100
AcDbText
 73
1
  0
TEXT
  5
93
100
AcDbEntity
  8
Osie
370
18
100
AcDbText
 39
0.18
 10
7569037.55344725959
 20
5714817.48135918193
 40
0.18
  1
-6.660-
 50
-5.10
 41
0.66
  7
STANDARD
 72
1
 11
7569037.86186653748
 21
5714817.3935950147
100
AcDbText
 73
1
  0
TEXT
  5
94
100
AcDbEntity
  8
Osie
370
18
100
AcDbText
 39
0.18
 10
7569035.29576092307
 20
5714832.1465075165
 40
0.18
  1
-11.709-
 50
-275.00
 41
0.66
  7
STANDARD
 72
1
 11
7569035.38690867275
 21
5714832.49990826286
100
AcDbText
 73
1
  0
ENDSEC
  0
SECTION
  2
OBJECTS
  0
DICTIONARY
  5
95
330
0
100
AcDbDictionary
280
0
281
1
  3
ACAD_GROUP
350
96
  3
ACAD_LAYOUT
350
97
  3
ACAD_MLINESTYLE
350
98
  3
ACAD_PLOTSETTINGS
350
99
  3
ACAD_PLOTSTYLENAME
350
9A
  0
DICTIONARY
  5
96
102
{ACAD_REACTORS
330
95
102
}
330
95
100
AcDbDictionary
280
0
281
1
  0
DICTIONARY
  5
97
102
{ACAD_REACTORS
330
95
102
}
330
95
100
AcDbDictionary
280
0
281
1
  3
Layout
350
23
  3
Model
350
21
  0
DICTIONARY
  5
98
102
{ACAD_REACTORS
330
95
102
}
330
95
100
AcDbDictionary
280
0
281
1
  3
Standard
350
9B
  3
L_0_02
350
7
  3
L_0_17
350
F
  0
DICTIONARY
  5
99
102
{ACAD_REACTORS
330
95
102
}
330
95
100
AcDbDictionary
280
0
281
1
  0
ACDBDICTIONARYWDFLT
  5
9A
102
{ACAD_REACTORS
330
95
102
}
330
95
100
AcDbDictionary
281
1
  3
Normal
350
13
100
AcDbDictionaryWithDefault
340
13
  0
LAYOUT
  5
23
100
AcDbPlotSettings
  1

  2

  4

  6

 40
0.0
 41
0.0
 42
0.0
 43
0.0
 44
0.0
 45
0.0
 46
0.0
 47
0.0
 48
0.0
 49
0.0
140
0.0
141
0.0
142
1.0
143
1.0
 70
688
 72
1
 73
0
 74
5
  7

 75
0
147
1.0
148
0.0
149
0.0
100
AcDbLayout
  1
Layout
 70
1
 71
1
 10
0.0
 20
0.0
 11
420.0
 21
297.0
 12
0.0
 22
0.0
 32
0.0
 14
100000000000000000000.0
 24
100000000000000000000.0
 34
100000000000000000000.0
 15
-100000000000000000000.0
 25
-100000000000000000000.0
 35
-100000000000000000000.0
146
0.0
 13
0.0
 23
0.0
 33
0.0
 16
1.0
 26
0.0
 36
0.0
 17
0.0
 27
1.0
 37
0.0
 76
0
330
22
  0
LAYOUT
  5
21
100
AcDbPlotSettings
  1

  2

  4

  6

 40
0.0
 41
0.0
 42
0.0
 43
0.0
 44
0.0
 45
0.0
 46
0.0
 47
0.0
 48
0.0
 49
0.0
140
0.0
141
0.0
142
1.0
143
1.0
 70
1712
 72
1
 73
0
 74
0
  7

 75
0
147
1.0
148
0.0
149
0.0
100
AcDbLayout
  1
Model
 70
1
 71
0
 10
0.0
 20
0.0
 11
12.0
 21
9.0
 12
0.0
 22
0.0
 32
0.0
 14
0.0
 24
0.0
 34
0.0
 15
0.0
 25
0.0
 35
0.0
146
0.0
 13
0.0
 23
0.0
 33
0.0
 16
1.0
 26
0.0
 36
0.0
 17
0.0
 27
1.0
 37
0.0
 76
0
330
20
  0
MLINESTYLE
  5
9B
102
{ACAD_REACTORS
330
98
102
}
330
98
100
AcDbMlineStyle
  2
Standard
 70
0
  3

 62
256
 51
90.0
 52
90.0
  2
Standard
 71
2
 49
0.5
 62
256
  6
ByLayer
 49
-0.5
 62
256
  6
ByLayer
  0
MLINESTYLE
  5
7
100
AcDbMlineStyle
  2
L_0_02
 70
0
  3

 51
90.0
 52
90.0
 71
1
 49
0.0
 62
256
  6
CONTINUOUS
  0
MLINESTYLE
  5
F
100
AcDbMlineStyle
  2
L_0_17
 70
0
  3

 51
90.0
 52
90.0
 71
2
 49
0.0
 62
256
  6
CONTINUOUS
 49
0.0
 62
256
  6
L_0_17_SHX
  0
ACDBPLACEHOLDER
  5
13
  0
ENDSEC
  0
EOF
