  0
SECTION
  2
HEADER
  9
$ACADVER
  1
AC1018
  9
$HANDSEED
  5
FFFFFF
  9
$EXTMAX
 10
7569448.96999999974
 20
5714388.36000000034
 30
1000000.00
  9
$EXTMIN
 10
7569158.40000000037
 20
5713873.5
 30
0.00
  9
$LIMMIN
 10
7569158.40000000037
 20
5713873.5
  9
$LIMMAX
 10
7569448.96999999974
 20
5714388.36000000034
  9
$DIMASZ
 40
2.5
  9
$DIMGAP
 40
0.625
  9
$INSUNITS
 70
6
  9
$MEASUREMENT
 70
1
  9
$DIMEXO
 40
0.625
  9
$DIMTXT
 40
2.5
  9
$DIMSTYLE
  2
Standard
  9
$PLIMMIN
 10
0.0
 20
0.0
  9
$PLIMMAX
 10
210.0
 20
297.0
  9
$DIMEXE
 40
1.25
  9
$TEXTSIZE
 40
2.5
  9
$TEXTSTYLE
  7
Standard
  9
$LWDISPLAY
290
1
  9
$TDCREATE
 40
45539.519644213
  9
$TDUCREATE
 40
45539.436310880
  9
$TDUPDATE
 40
45539.519644213
  9
$TDUUPDATE
 40
45539.436310880
  9
$TDINDWG
 40
0.0
  9
$TDUSRTIMER
 40
0.0
  9
$USRTIMER
 70
1
  0
ENDSEC
  0
SECTION
  2
CLASSES
  0
CLASS
  1
WIPEOUT
  2
AcDbWipeout
  3
WipeOut
 90
127
 91
1
280
0
281
1
  0
CLASS
  1
WIPEOUTVARIABLES
  2
AcDbWipeoutVariables
  3
WipeOut
 90
0
 91
1
280
0
281
0
  0
ENDSEC
  0
SECTION
  2
TABLES
  0
TABLE
  2
VPORT
  5
1
100
AcDbSymbolTable
 70
1
  0
VPORT
  5
2
100
AcDbSymbolTableRecord
100
AcDbViewportTableRecord
  2
*ACTIVE
 70
0
 10
0.0
 20
0.0
 11
1.0
 21
1.0
 12
7569303.69
 22
5714130.93
 13
0.0
 23
0.0
 14
1.0
 24
1.0
 15
0.0
 25
0.0
 16
0.0
 26
0.0
 36
1.0
 17
0.0
 27
0.0
 37
0.0
 40
514.86
 41
0.56
 42
50.0
 43
0.0
 44
0.0
 50
0.0
 51
0.0
 71
0
 72
100
 73
1
 74
1
 75
0
 76
0
 77
0
 78
0
  0
ENDTAB
  0
TABLE
  2
LTYPE
  5
3
100
AcDbSymbolTable
 70
3
  0
LTYPE
  5
4
100
AcDbSymbolTableRecord
100
AcDbLinetypeTableRecord
  2
ByBlock
 70
0
  3

 72
65
 73
0
 40
0.0
  0
LTYPE
  5
5
100
AcDbSymbolTableRecord
100
AcDbLinetypeTableRecord
  2
ByLayer
 70
0
  3

 72
65
 73
0
 40
0.0
  0
LTYPE
  5
6
100
AcDbSymbolTableRecord
100
AcDbLinetypeTableRecord
  2
CONTINUOUS
 70
0
  3
Solid line
 72
65
 73
0
 40
0.0
  0
LTYPE
  5
8
100
AcDbSymbolTableRecord
100
AcDbLinetypeTableRecord
  2
L_0_02
 70
0
  3
Dzialka_ewidencyjna (MLineStyle)
 72
65
 73
0
 40
0.0
  0
LTYPE
  5
9
100
AcDbSymbolTableRecord
100
AcDbLinetypeTableRecord
  2
L_0_03
 70
0
  3
Uzytek_gruntowy
 72
65
 73
2
 40
2.0
 49
1.0
 74
0
 49
-1.0
 74
0
  0
LTYPE
  5
A
100
AcDbSymbolTableRecord
100
AcDbLinetypeTableRecord
  2
L_0_06
 70
0
  3
Granica_konturu_klasyfikacyjnego_Krawedz_chodnika
 72
65
 73
2
 40
4.0
 49
3.0
 74
0
 49
-1.0
 74
0
  0
LTYPE
  5
B
100
AcDbSymbolTableRecord
100
AcDbLinetypeTableRecord
  2
L_0_44
 70
0
  3
Uzytek_gruntowy_1_1000__1_2000
 72
65
 73
2
 40
1.4
 49
0.7
 74
0
 49
-0.7
 74
0
  0
LTYPE
  5
C
100
AcDbSymbolTableRecord
100
AcDbLinetypeTableRecord
  2
L_0_51
 70
0
  3
L_0_51
 72
65
 73
2
 40
2.8
 49
2.1
 74
0
 49
-0.7
 74
0
  0
ENDTAB
  0
TABLE
  2
LAYER
  5
D
100
AcDbSymbolTable
 70
291
  0
LAYER
  5
E
100
AcDbSymbolTableRecord
100
AcDbLayerTableRecord
  2
0
 70
0
 62
-7
  6
CONTINUOUS
370
18
390
F
  0
LAYER
  5
10
100
AcDbSymbolTableRecord
100
AcDbLayerTableRecord
  2
Dzialki
 70
0
 62
7
  6
CONTINUOUS
370
18
390
F
  0
LAYER
  5
11
100
AcDbSymbolTableRecord
100
AcDbLayerTableRecord
  2
EGBA
 70
0
 62
7
  6
CONTINUOUS
370
18
390
F
  0
LAYER
  5
12
100
AcDbSymbolTableRecord
100
AcDbLayerTableRecord
  2
EGBD
 70
0
 62
7
  6
CONTINUOUS
370
18
390
F
  0
LAYER
  5
13
100
AcDbSymbolTableRecord
100
AcDbLayerTableRecord
  2
EGBI
 70
0
 62
7
  6
CONTINUOUS
370
18
390
F
  0
LAYER
  5
14
100
AcDbSymbolTableRecord
100
AcDbLayerTableRecord
  2
EGBJ
 70
0
 62
7
  6
CONTINUOUS
370
18
390
F
  0
LAYER
  5
15
100
AcDbSymbolTableRecord
100
AcDbLayerTableRecord
  2
EGBL
 70
0
 62
7
  6
CONTINUOUS
370
18
390
F
  0
LAYER
  5
16
100
AcDbSymbolTableRecord
100
AcDbLayerTableRecord
  2
EGBN
 70
0
 62
7
  6
CONTINUOUS
370
13
390
F
  0
LAYER
  5
17
100
AcDbSymbolTableRecord
100
AcDbLayerTableRecord
  2
EGBO
 70
0
 62
7
  6
CONTINUOUS
370
18
390
F
  0
LAYER
  5
18
100
AcDbSymbolTableRecord
100
AcDbLayerTableRecord
  2
EGBO_P
 70
0
 62
7
  6
CONTINUOUS
370
18
390
F
  0
LAYER
  5
19
100
AcDbSymbolTableRecord
100
AcDbLayerTableRecord
  2
EGBP
 70
0
 62
7
  6
CONTINUOUS
370
18
390
F
  0
LAYER
  5
1A
100
AcDbSymbolTableRecord
100
AcDbLayerTableRecord
  2
EGBR
 70
0
 62
7
  6
CONTINUOUS
370
18
390
F
  0
LAYER
  5
1B
100
AcDbSymbolTableRecord
100
AcDbLayerTableRecord
  2
EGBS
 70
0
 62
7
  6
CONTINUOUS
370
18
390
F
  0
LAYER
  5
1C
100
AcDbSymbolTableRecord
100
AcDbLayerTableRecord
  2
EGBT
 70
0
 62
7
  6
CONTINUOUS
370
18
390
F
  0
LAYER
  5
1D
100
AcDbSymbolTableRecord
100
AcDbLayerTableRecord
  2
EGBU
 70
0
 62
7
  6
CONTINUOUS
370
13
390
F
  0
LAYER
  5
1E
100
AcDbSymbolTableRecord
100
AcDbLayerTableRecord
  2
EGBW
 70
0
 62
7
  6
CONTINUOUS
370
18
390
F
  0
LAYER
  5
1F
100
AcDbSymbolTableRecord
100
AcDbLayerTableRecord
  2
EGBY
 70
0
 62
7
  6
CONTINUOUS
370
18
390
F
  0
LAYER
  5
20
100
AcDbSymbolTableRecord
100
AcDbLayerTableRecord
  2
EGBZ
 70
0
 62
7
  6
CONTINUOUS
370
18
390
F
  0
LAYER
  5
21
100
AcDbSymbolTableRecord
100
AcDbLayerTableRecord
  2
EGB_AdresNieruchomosci
 70
0
 62
7
  6
CONTINUOUS
370
18
390
F
  0
LAYER
  5
22
100
AcDbSymbolTableRecord
100
AcDbLayerTableRecord
  2
EGB_BlokBudynku
 70
0
 62
7
  6
CONTINUOUS
370
18
390
F
  0
LAYER
  5
23
100
AcDbSymbolTableRecord
100
AcDbLayerTableRecord
  2
EGB_Budynek
 70
0
 62
7
  6
CONTINUOUS
370
35
390
F
  0
LAYER
  5
24
100
AcDbSymbolTableRecord
100
AcDbLayerTableRecord
  2
EGB_DzialkaEwidencyjna
 70
0
 62
7
  6
L_0_02
370
18
390
F
  0
LAYER
  5
25
100
AcDbSymbolTableRecord
100
AcDbLayerTableRecord
  2
EGB_JednostkaEwidencyjna
 70
0
 62
7
  6
CONTINUOUS
370
18
390
F
  0
LAYER
  5
26
100
AcDbSymbolTableRecord
100
AcDbLayerTableRecord
  2
EGB_Klasouzytek
 70
0
 62
96
  6
L_0_03
370
18
390
F
  0
LAYER
  5
27
100
AcDbSymbolTableRecord
100
AcDbLayerTableRecord
  2
EGB_KonturKlasyfikacyjny
 70
0
 62
96
  6
L_0_06
370
18
390
F
  0
LAYER
  5
28
100
AcDbSymbolTableRecord
100
AcDbLayerTableRecord
  2
EGB_KonturUzytkuGruntowego
 70
0
 62
96
  6
L_0_03
370
18
390
F
  0
LAYER
  5
29
100
AcDbSymbolTableRecord
100
AcDbLayerTableRecord
  2
EGB_ObiektTrwaleZwiazanyZBudynkiem
 70
0
 62
7
  6
CONTINUOUS
370
18
390
F
  0
LAYER
  5
2A
100
AcDbSymbolTableRecord
100
AcDbLayerTableRecord
  2
EGB_ObiektTrwaleZwiazanyZBudynkiem_P
 70
0
 62
7
  6
CONTINUOUS
370
18
390
F
  0
LAYER
  5
2B
100
AcDbSymbolTableRecord
100
AcDbLayerTableRecord
  2
EGB_ObrebEwidencyjny
 70
0
 62
7
  6
CONTINUOUS
370
18
390
F
  0
LAYER
  5
2C
100
AcDbSymbolTableRecord
100
AcDbLayerTableRecord
  2
EGB_PunktGraniczny
 70
0
 62
7
  6
CONTINUOUS
370
18
390
F
  0
LAYER
  5
2D
100
AcDbSymbolTableRecord
100
AcDbLayerTableRecord
  2
EGDE
 70
0
 62
7
  6
CONTINUOUS
370
13
390
F
  0
LAYER
  5
2E
100
AcDbSymbolTableRecord
100
AcDbLayerTableRecord
  2
EGJE
 70
0
 62
7
  6
CONTINUOUS
370
13
390
F
  0
LAYER
  5
2F
100
AcDbSymbolTableRecord
100
AcDbLayerTableRecord
  2
EGKK
 70
0
 62
7
  6
CONTINUOUS
370
13
390
F
  0
LAYER
  5
30
100
AcDbSymbolTableRecord
100
AcDbLayerTableRecord
  2
EGOE
 70
0
 62
7
  6
CONTINUOUS
370
13
390
F
  0
LAYER
  5
31
100
AcDbSymbolTableRecord
100
AcDbLayerTableRecord
  2
EGPG_N
 70
0
 62
7
  6
CONTINUOUS
370
13
390
F
  0
LAYER
  5
32
100
AcDbSymbolTableRecord
100
AcDbLayerTableRecord
  2
EGUG
 70
0
 62
7
  6
CONTINUOUS
370
13
390
F
  0
LAYER
  5
33
100
AcDbSymbolTableRecord
100
AcDbLayerTableRecord
  2
GES_InneUrzadzeniaTowarzyszace
 70
0
 62
7
  6
CONTINUOUS
370
18
390
F
  0
LAYER
  5
34
100
AcDbSymbolTableRecord
100
AcDbLayerTableRecord
  2
GES_InneUrzadzeniaTowarzyszace_Projektowane
 70
0
 62
7
  6
CONTINUOUS
370
18
390
F
  0
LAYER
  5
35
100
AcDbSymbolTableRecord
100
AcDbLayerTableRecord
  2
GES_InneUrzadzeniaTowarzyszace_P
 70
0
 62
7
  6
CONTINUOUS
370
18
390
F
  0
LAYER
  5
36
100
AcDbSymbolTableRecord
100
AcDbLayerTableRecord
  2
GES_InneUrzadzeniaTowarzyszace_P_Projektowane
 70
0
 62
7
  6
CONTINUOUS
370
18
390
F
  0
LAYER
  5
37
100
AcDbSymbolTableRecord
100
AcDbLayerTableRecord
  2
GES_PrzewodCieplowniczy
 70
0
 62
212
  6
CONTINUOUS
370
18
390
F
  0
LAYER
  5
38
100
AcDbSymbolTableRecord
100
AcDbLayerTableRecord
  2
GES_PrzewodCieplowniczy_Projektowany
 70
0
 62
7
  6
CONTINUOUS
370
18
390
F
  0
LAYER
  5
39
100
AcDbSymbolTableRecord
100
AcDbLayerTableRecord
  2
GES_PrzewodElektroenergetyczny
 70
0
 62
1
  6
CONTINUOUS
370
18
390
F
  0
LAYER
  5
3A
100
AcDbSymbolTableRecord
100
AcDbLayerTableRecord
  2
GES_PrzewodElektroenergetyczny_Projektowany
 70
0
 62
7
  6
CONTINUOUS
370
18
390
F
  0
LAYER
  5
3B
100
AcDbSymbolTableRecord
100
AcDbLayerTableRecord
  2
GES_PrzewodGazowy
 70
0
 62
52
  6
CONTINUOUS
370
18
390
F
  0
LAYER
  5
3C
100
AcDbSymbolTableRecord
100
AcDbLayerTableRecord
  2
GES_PrzewodGazowy_Projektowany
 70
0
 62
7
  6
CONTINUOUS
370
18
390
F
  0
LAYER
  5
3D
100
AcDbSymbolTableRecord
100
AcDbLayerTableRecord
  2
GES_PrzewodKanalizacyjny
 70
0
 62
36
  6
CONTINUOUS
370
18
390
F
  0
LAYER
  5
3E
100
AcDbSymbolTableRecord
100
AcDbLayerTableRecord
  2
GES_PrzewodKanalizacyjny_Projektowany
 70
0
 62
7
  6
CONTINUOUS
370
18
390
F
  0
LAYER
  5
3F
100
AcDbSymbolTableRecord
100
AcDbLayerTableRecord
  2
GES_PrzewodNiezidentyfikowany
 70
0
 62
7
  6
CONTINUOUS
370
18
390
F
  0
LAYER
  5
40
100
AcDbSymbolTableRecord
100
AcDbLayerTableRecord
  2
GES_PrzewodNiezidentyfikowany_Projektowany
 70
0
 62
7
  6
CONTINUOUS
370
18
390
F
  0
LAYER
  5
41
100
AcDbSymbolTableRecord
100
AcDbLayerTableRecord
  2
GES_PrzewodSpecjalny
 70
0
 62
7
  6
CONTINUOUS
370
18
390
F
  0
LAYER
  5
42
100
AcDbSymbolTableRecord
100
AcDbLayerTableRecord
  2
GES_PrzewodSpecjalny_Projektowany
 70
0
 62
7
  6
CONTINUOUS
370
18
390
F
  0
LAYER
  5
43
100
AcDbSymbolTableRecord
100
AcDbLayerTableRecord
  2
GES_PrzewodTelekomunikacyjny
 70
0
 62
30
  6
CONTINUOUS
370
18
390
F
  0
LAYER
  5
44
100
AcDbSymbolTableRecord
100
AcDbLayerTableRecord
  2
GES_PrzewodTelekomunikacyjny_Projektowany
 70
0
 62
7
  6
CONTINUOUS
370
18
390
F
  0
LAYER
  5
45
100
AcDbSymbolTableRecord
100
AcDbLayerTableRecord
  2
GES_PrzewodWodociagowy
 70
0
 62
5
  6
CONTINUOUS
370
18
390
F
  0
LAYER
  5
46
100
AcDbSymbolTableRecord
100
AcDbLayerTableRecord
  2
GES_PrzewodWodociagowy_Projektowany
 70
0
 62
7
  6
CONTINUOUS
370
18
390
F
  0
LAYER
  5
47
100
AcDbSymbolTableRecord
100
AcDbLayerTableRecord
  2
GES_Rzedna
 70
0
 62
7
  6
CONTINUOUS
370
18
390
F
  0
LAYER
  5
48
100
AcDbSymbolTableRecord
100
AcDbLayerTableRecord
  2
GES_UrzadzeniaSiecCieplownicza
 70
0
 62
7
  6
CONTINUOUS
370
18
390
F
  0
LAYER
  5
49
100
AcDbSymbolTableRecord
100
AcDbLayerTableRecord
  2
GES_UrzadzeniaSiecCieplownicza_Projektowane
 70
0
 62
7
  6
CONTINUOUS
370
18
390
F
  0
LAYER
  5
4A
100
AcDbSymbolTableRecord
100
AcDbLayerTableRecord
  2
GES_UrzadzeniaSiecCieplownicza_P
 70
0
 62
7
  6
CONTINUOUS
370
18
390
F
  0
LAYER
  5
4B
100
AcDbSymbolTableRecord
100
AcDbLayerTableRecord
  2
GES_UrzadzeniaSiecCieplownicza_P_Projektowane
 70
0
 62
7
  6
CONTINUOUS
370
18
390
F
  0
LAYER
  5
4C
100
AcDbSymbolTableRecord
100
AcDbLayerTableRecord
  2
GES_UrzadzeniaSiecElektroenergetyczna
 70
0
 62
7
  6
CONTINUOUS
370
18
390
F
  0
LAYER
  5
4D
100
AcDbSymbolTableRecord
100
AcDbLayerTableRecord
  2
GES_UrzadzeniaSiecElektroenergetyczna_Projektowane
 70
0
 62
7
  6
CONTINUOUS
370
18
390
F
  0
LAYER
  5
4E
100
AcDbSymbolTableRecord
100
AcDbLayerTableRecord
  2
GES_UrzadzeniaSiecElektroenergetyczna_P
 70
0
 62
7
  6
CONTINUOUS
370
18
390
F
  0
LAYER
  5
4F
100
AcDbSymbolTableRecord
100
AcDbLayerTableRecord
  2
GES_UrzadzeniaSiecElektroenergetyczna_P_Projektowane
 70
0
 62
7
  6
CONTINUOUS
370
18
390
F
  0
LAYER
  5
50
100
AcDbSymbolTableRecord
100
AcDbLayerTableRecord
  2
GES_UrzadzeniaSiecGazowa
 70
0
 62
7
  6
CONTINUOUS
370
18
390
F
  0
LAYER
  5
51
100
AcDbSymbolTableRecord
100
AcDbLayerTableRecord
  2
GES_UrzadzeniaSiecGazowa_Projektowane
 70
0
 62
7
  6
CONTINUOUS
370
18
390
F
  0
LAYER
  5
52
100
AcDbSymbolTableRecord
100
AcDbLayerTableRecord
  2
GES_UrzadzeniaSiecGazowa_P
 70
0
 62
7
  6
CONTINUOUS
370
18
390
F
  0
LAYER
  5
53
100
AcDbSymbolTableRecord
100
AcDbLayerTableRecord
  2
GES_UrzadzeniaSiecGazowa_P_Projektowane
 70
0
 62
7
  6
CONTINUOUS
370
18
390
F
  0
LAYER
  5
54
100
AcDbSymbolTableRecord
100
AcDbLayerTableRecord
  2
GES_UrzadzeniaSiecKanalizacyjna
 70
0
 62
7
  6
CONTINUOUS
370
18
390
F
  0
LAYER
  5
55
100
AcDbSymbolTableRecord
100
AcDbLayerTableRecord
  2
GES_UrzadzeniaSiecKanalizacyjna_Projektowane
 70
0
 62
7
  6
CONTINUOUS
370
18
390
F
  0
LAYER
  5
56
100
AcDbSymbolTableRecord
100
AcDbLayerTableRecord
  2
GES_UrzadzeniaSiecKanalizacyjna_P
 70
0
 62
7
  6
CONTINUOUS
370
18
390
F
  0
LAYER
  5
57
100
AcDbSymbolTableRecord
100
AcDbLayerTableRecord
  2
GES_UrzadzeniaSiecKanalizacyjna_P_Projektowane
 70
0
 62
7
  6
CONTINUOUS
370
18
390
F
  0
LAYER
  5
58
100
AcDbSymbolTableRecord
100
AcDbLayerTableRecord
  2
GES_UrzadzeniaSiecTelekomunikacyjna
 70
0
 62
7
  6
CONTINUOUS
370
18
390
F
  0
LAYER
  5
59
100
AcDbSymbolTableRecord
100
AcDbLayerTableRecord
  2
GES_UrzadzeniaSiecTelekomunikacyjna_Projektowane
 70
0
 62
7
  6
CONTINUOUS
370
18
390
F
  0
LAYER
  5
5A
100
AcDbSymbolTableRecord
100
AcDbLayerTableRecord
  2
GES_UrzadzeniaSiecTelekomunikacyjna_P
 70
0
 62
7
  6
CONTINUOUS
370
18
390
F
  0
LAYER
  5
5B
100
AcDbSymbolTableRecord
100
AcDbLayerTableRecord
  2
GES_UrzadzeniaSiecTelekomunikacyjna_P_Projektowane
 70
0
 62
7
  6
CONTINUOUS
370
18
390
F
  0
LAYER
  5
5C
100
AcDbSymbolTableRecord
100
AcDbLayerTableRecord
  2
GES_UrzadzeniaSiecWodociagowa
 70
0
 62
7
  6
CONTINUOUS
370
18
390
F
  0
LAYER
  5
5D
100
AcDbSymbolTableRecord
100
AcDbLayerTableRecord
  2
GES_UrzadzeniaSiecWodociagowa_Projektowane
 70
0
 62
7
  6
CONTINUOUS
370
18
390
F
  0
LAYER
  5
5E
100
AcDbSymbolTableRecord
100
AcDbLayerTableRecord
  2
GES_UrzadzeniaSiecWodociagowa_P
 70
0
 62
7
  6
CONTINUOUS
370
18
390
F
  0
LAYER
  5
5F
100
AcDbSymbolTableRecord
100
AcDbLayerTableRecord
  2
GES_UrzadzeniaSiecWodociagowa_P_Projektowane
 70
0
 62
7
  6
CONTINUOUS
370
18
390
F
  0
LAYER
  5
60
100
AcDbSymbolTableRecord
100
AcDbLayerTableRecord
  2
GES_UrzadzeniaTechniczneSieciSpecjalnej
 70
0
 62
7
  6
CONTINUOUS
370
18
390
F
  0
LAYER
  5
61
100
AcDbSymbolTableRecord
100
AcDbLayerTableRecord
  2
GES_UrzadzeniaTechniczneSieciSpecjalnej_Projektowane
 70
0
 62
7
  6
CONTINUOUS
370
18
390
F
  0
LAYER
  5
62
100
AcDbSymbolTableRecord
100
AcDbLayerTableRecord
  2
GES_UrzadzeniaTechniczneSieciSpecjalnej_P
 70
0
 62
7
  6
CONTINUOUS
370
18
390
F
  0
LAYER
  5
63
100
AcDbSymbolTableRecord
100
AcDbLayerTableRecord
  2
GES_UrzadzeniaTechniczneSieciSpecjalnej_P_Projektowane
 70
0
 62
7
  6
CONTINUOUS
370
18
390
F
  0
LAYER
  5
64
100
AcDbSymbolTableRecord
100
AcDbLayerTableRecord
  2
GES_UrzadzeniaTowarzyszczaceLiniowe
 70
0
 62
7
  6
CONTINUOUS
370
18
390
F
  0
LAYER
  5
65
100
AcDbSymbolTableRecord
100
AcDbLayerTableRecord
  2
GES_UrzadzeniaTowarzyszczaceLiniowe_Projektowane
 70
0
 62
7
  6
CONTINUOUS
370
18
390
F
  0
LAYER
  5
66
100
AcDbSymbolTableRecord
100
AcDbLayerTableRecord
  2
GES_UrzadzenieNiezidentyfikowane
 70
0
 62
7
  6
CONTINUOUS
370
18
390
F
  0
LAYER
  5
67
100
AcDbSymbolTableRecord
100
AcDbLayerTableRecord
  2
GES_UrzadzenieNiezidentyfikowane_Projektowane
 70
0
 62
7
  6
CONTINUOUS
370
18
390
F
  0
LAYER
  5
68
100
AcDbSymbolTableRecord
100
AcDbLayerTableRecord
  2
GES_UrzadzenieNiezidentyfikowane_P
 70
0
 62
7
  6
CONTINUOUS
370
18
390
F
  0
LAYER
  5
69
100
AcDbSymbolTableRecord
100
AcDbLayerTableRecord
  2
GES_UrzadzenieNiezidentyfikowane_P_Projektowane
 70
0
 62
7
  6
CONTINUOUS
370
18
390
F
  0
LAYER
  5
6A
100
AcDbSymbolTableRecord
100
AcDbLayerTableRecord
  2
Kontury
 70
0
 62
96
  6
L_0_51
370
18
390
F
  0
LAYER
  5
6B
100
AcDbSymbolTableRecord
100
AcDbLayerTableRecord
  2
KR_ObiektKarto
 70
0
 62
7
  6
CONTINUOUS
370
18
390
F
  0
LAYER
  5
6C
100
AcDbSymbolTableRecord
100
AcDbLayerTableRecord
  2
KR_ObiektKarto_P
 70
0
 62
7
  6
CONTINUOUS
370
18
390
F
  0
LAYER
  5
6D
100
AcDbSymbolTableRecord
100
AcDbLayerTableRecord
  2
KR_Punkty
 70
0
 62
7
  6
CONTINUOUS
370
13
390
F
  0
LAYER
  5
6E
100
AcDbSymbolTableRecord
100
AcDbLayerTableRecord
  2
Numery_dzialek
 70
0
 62
7
  6
CONTINUOUS
370
18
390
F
  0
LAYER
  5
6F
100
AcDbSymbolTableRecord
100
AcDbLayerTableRecord
  2
Numery_konturow
 70
0
 62
96
  6
CONTINUOUS
370
13
390
F
  0
LAYER
  5
70
100
AcDbSymbolTableRecord
100
AcDbLayerTableRecord
  2
Numery_uzytkow
 70
0
 62
96
  6
CONTINUOUS
370
13
390
F
  0
LAYER
  5
71
100
AcDbSymbolTableRecord
100
AcDbLayerTableRecord
  2
OSGB
 70
0
 62
7
  6
CONTINUOUS
370
18
390
F
  0
LAYER
  5
72
100
AcDbSymbolTableRecord
100
AcDbLayerTableRecord
  2
OSGF
 70
0
 62
7
  6
CONTINUOUS
370
18
390
F
  0
LAYER
  5
73
100
AcDbSymbolTableRecord
100
AcDbLayerTableRecord
  2
OSHB
 70
0
 62
7
  6
CONTINUOUS
370
18
390
F
  0
LAYER
  5
74
100
AcDbSymbolTableRecord
100
AcDbLayerTableRecord
  2
OSHF
 70
0
 62
7
  6
CONTINUOUS
370
18
390
F
  0
LAYER
  5
75
100
AcDbSymbolTableRecord
100
AcDbLayerTableRecord
  2
OSMB
 70
0
 62
7
  6
CONTINUOUS
370
18
390
F
  0
LAYER
  5
76
100
AcDbSymbolTableRecord
100
AcDbLayerTableRecord
  2
OSMF
 70
0
 62
7
  6
CONTINUOUS
370
18
390
F
  0
LAYER
  5
77
100
AcDbSymbolTableRecord
100
AcDbLayerTableRecord
  2
OSPB
 70
0
 62
7
  6
CONTINUOUS
370
18
390
F
  0
LAYER
  5
78
100
AcDbSymbolTableRecord
100
AcDbLayerTableRecord
  2
OSPF
 70
0
 62
7
  6
CONTINUOUS
370
18
390
F
  0
LAYER
  5
79
100
AcDbSymbolTableRecord
100
AcDbLayerTableRecord
  2
OSSH
 70
0
 62
7
  6
CONTINUOUS
370
18
390
F
  0
LAYER
  5
7A
100
AcDbSymbolTableRecord
100
AcDbLayerTableRecord
  2
OSSP
 70
0
 62
7
  6
CONTINUOUS
370
18
390
F
  0
LAYER
  5
7B
100
AcDbSymbolTableRecord
100
AcDbLayerTableRecord
  2
OS_PunktOsnowyGrawimetrycznej
 70
0
 62
7
  6
CONTINUOUS
370
18
390
F
  0
LAYER
  5
7C
100
AcDbSymbolTableRecord
100
AcDbLayerTableRecord
  2
OS_PunktOsnowyMagnetycznej
 70
0
 62
7
  6
CONTINUOUS
370
18
390
F
  0
LAYER
  5
7D
100
AcDbSymbolTableRecord
100
AcDbLayerTableRecord
  2
OS_PunktOsnowyPoziomej
 70
0
 62
7
  6
CONTINUOUS
370
18
390
F
  0
LAYER
  5
7E
100
AcDbSymbolTableRecord
100
AcDbLayerTableRecord
  2
OS_PunktOsnowyWysokosciowej
 70
0
 62
7
  6
CONTINUOUS
370
18
390
F
  0
LAYER
  5
7F
100
AcDbSymbolTableRecord
100
AcDbLayerTableRecord
  2
OTBA
 70
0
 62
7
  6
CONTINUOUS
370
18
390
F
  0
LAYER
  5
80
100
AcDbSymbolTableRecord
100
AcDbLayerTableRecord
  2
OTBB
 70
0
 62
7
  6
CONTINUOUS
370
18
390
F
  0
LAYER
  5
81
100
AcDbSymbolTableRecord
100
AcDbLayerTableRecord
  2
OTBD
 70
0
 62
7
  6
CONTINUOUS
370
18
390
F
  0
LAYER
  5
82
100
AcDbSymbolTableRecord
100
AcDbLayerTableRecord
  2
OTBI
 70
0
 62
7
  6
CONTINUOUS
370
18
390
F
  0
LAYER
  5
83
100
AcDbSymbolTableRecord
100
AcDbLayerTableRecord
  2
OTBJ
 70
0
 62
7
  6
CONTINUOUS
370
18
390
F
  0
LAYER
  5
84
100
AcDbSymbolTableRecord
100
AcDbLayerTableRecord
  2
OTBL
 70
0
 62
7
  6
CONTINUOUS
370
18
390
F
  0
LAYER
  5
85
100
AcDbSymbolTableRecord
100
AcDbLayerTableRecord
  2
OTBN
 70
0
 62
7
  6
CONTINUOUS
370
18
390
F
  0
LAYER
  5
86
100
AcDbSymbolTableRecord
100
AcDbLayerTableRecord
  2
OTBO
 70
0
 62
7
  6
CONTINUOUS
370
18
390
F
  0
LAYER
  5
87
100
AcDbSymbolTableRecord
100
AcDbLayerTableRecord
  2
OTBO_P
 70
0
 62
7
  6
CONTINUOUS
370
18
390
F
  0
LAYER
  5
88
100
AcDbSymbolTableRecord
100
AcDbLayerTableRecord
  2
OTBP
 70
0
 62
7
  6
CONTINUOUS
370
18
390
F
  0
LAYER
  5
89
100
AcDbSymbolTableRecord
100
AcDbLayerTableRecord
  2
OTBR
 70
0
 62
7
  6
CONTINUOUS
370
18
390
F
  0
LAYER
  5
8A
100
AcDbSymbolTableRecord
100
AcDbLayerTableRecord
  2
OTBS
 70
0
 62
7
  6
CONTINUOUS
370
18
390
F
  0
LAYER
  5
8B
100
AcDbSymbolTableRecord
100
AcDbLayerTableRecord
  2
OTBT
 70
0
 62
7
  6
CONTINUOUS
370
18
390
F
  0
LAYER
  5
8C
100
AcDbSymbolTableRecord
100
AcDbLayerTableRecord
  2
OTBU
 70
0
 62
7
  6
CONTINUOUS
370
18
390
F
  0
LAYER
  5
8D
100
AcDbSymbolTableRecord
100
AcDbLayerTableRecord
  2
OTBW
 70
0
 62
7
  6
CONTINUOUS
370
18
390
F
  0
LAYER
  5
8E
100
AcDbSymbolTableRecord
100
AcDbLayerTableRecord
  2
OTBY
 70
0
 62
7
  6
CONTINUOUS
370
18
390
F
  0
LAYER
  5
8F
100
AcDbSymbolTableRecord
100
AcDbLayerTableRecord
  2
OTBZ
 70
0
 62
7
  6
CONTINUOUS
370
18
390
F
  0
LAYER
  5
90
100
AcDbSymbolTableRecord
100
AcDbLayerTableRecord
  2
OTDA
 70
0
 62
7
  6
CONTINUOUS
370
13
390
F
  0
LAYER
  5
91
100
AcDbSymbolTableRecord
100
AcDbLayerTableRecord
  2
OTDB
 70
0
 62
7
  6
CONTINUOUS
370
13
390
F
  0
LAYER
  5
92
100
AcDbSymbolTableRecord
100
AcDbLayerTableRecord
  2
OTDC
 70
0
 62
7
  6
CONTINUOUS
370
18
390
F
  0
LAYER
  5
93
100
AcDbSymbolTableRecord
100
AcDbLayerTableRecord
  2
OTDD
 70
0
 62
7
  6
CONTINUOUS
370
18
390
F
  0
LAYER
  5
94
100
AcDbSymbolTableRecord
100
AcDbLayerTableRecord
  2
OTDD_P
 70
0
 62
7
  6
CONTINUOUS
370
18
390
F
  0
LAYER
  5
95
100
AcDbSymbolTableRecord
100
AcDbLayerTableRecord
  2
OTDF
 70
0
 62
7
  6
CONTINUOUS
370
18
390
F
  0
LAYER
  5
96
100
AcDbSymbolTableRecord
100
AcDbLayerTableRecord
  2
OTDI
 70
0
 62
7
  6
CONTINUOUS
370
13
390
F
  0
LAYER
  5
97
100
AcDbSymbolTableRecord
100
AcDbLayerTableRecord
  2
OTDI_P
 70
0
 62
7
  6
CONTINUOUS
370
13
390
F
  0
LAYER
  5
98
100
AcDbSymbolTableRecord
100
AcDbLayerTableRecord
  2
OTDK
 70
0
 62
7
  6
CONTINUOUS
370
18
390
F
  0
LAYER
  5
99
100
AcDbSymbolTableRecord
100
AcDbLayerTableRecord
  2
OTDM
 70
0
 62
7
  6
CONTINUOUS
370
18
390
F
  0
LAYER
  5
9A
100
AcDbSymbolTableRecord
100
AcDbLayerTableRecord
  2
OTDN
 70
0
 62
7
  6
CONTINUOUS
370
13
390
F
  0
LAYER
  5
9B
100
AcDbSymbolTableRecord
100
AcDbLayerTableRecord
  2
OTDO
 70
0
 62
7
  6
CONTINUOUS
370
18
390
F
  0
LAYER
  5
9C
100
AcDbSymbolTableRecord
100
AcDbLayerTableRecord
  2
OTDR
 70
0
 62
7
  6
CONTINUOUS
370
13
390
F
  0
LAYER
  5
9D
100
AcDbSymbolTableRecord
100
AcDbLayerTableRecord
  2
OTDS
 70
0
 62
7
  6
CONTINUOUS
370
18
390
F
  0
LAYER
  5
9E
100
AcDbSymbolTableRecord
100
AcDbLayerTableRecord
  2
OTDT_P
 70
0
 62
7
  6
CONTINUOUS
370
18
390
F
  0
LAYER
  5
9F
100
AcDbSymbolTableRecord
100
AcDbLayerTableRecord
  2
OTDW
 70
0
 62
7
  6
CONTINUOUS
370
18
390
F
  0
LAYER
  5
A0
100
AcDbSymbolTableRecord
100
AcDbLayerTableRecord
  2
OTDZ
 70
0
 62
7
  6
CONTINUOUS
370
18
390
F
  0
LAYER
  5
A1
100
AcDbSymbolTableRecord
100
AcDbLayerTableRecord
  2
OTKA
 70
0
 62
7
  6
CONTINUOUS
370
18
390
F
  0
LAYER
  5
A2
100
AcDbSymbolTableRecord
100
AcDbLayerTableRecord
  2
OTKB
 70
0
 62
7
  6
CONTINUOUS
370
18
390
F
  0
LAYER
  5
A3
100
AcDbSymbolTableRecord
100
AcDbLayerTableRecord
  2
OTKC
 70
0
 62
7
  6
CONTINUOUS
370
13
390
F
  0
LAYER
  5
A4
100
AcDbSymbolTableRecord
100
AcDbLayerTableRecord
  2
OTKE
 70
0
 62
7
  6
CONTINUOUS
370
18
390
F
  0
LAYER
  5
A5
100
AcDbSymbolTableRecord
100
AcDbLayerTableRecord
  2
OTKG
 70
0
 62
7
  6
CONTINUOUS
370
13
390
F
  0
LAYER
  5
A6
100
AcDbSymbolTableRecord
100
AcDbLayerTableRecord
  2
OTKI
 70
0
 62
7
  6
CONTINUOUS
370
18
390
F
  0
LAYER
  5
A7
100
AcDbSymbolTableRecord
100
AcDbLayerTableRecord
  2
OTKJ
 70
0
 62
7
  6
CONTINUOUS
370
13
390
F
  0
LAYER
  5
A8
100
AcDbSymbolTableRecord
100
AcDbLayerTableRecord
  2
OTKK
 70
0
 62
7
  6
CONTINUOUS
370
13
390
F
  0
LAYER
  5
A9
100
AcDbSymbolTableRecord
100
AcDbLayerTableRecord
  2
OTKL
 70
0
 62
7
  6
CONTINUOUS
370
18
390
F
  0
LAYER
  5
AA
100
AcDbSymbolTableRecord
100
AcDbLayerTableRecord
  2
OTKM
 70
0
 62
7
  6
CONTINUOUS
370
18
390
F
  0
LAYER
  5
AB
100
AcDbSymbolTableRecord
100
AcDbLayerTableRecord
  2
OTKN
 70
0
 62
7
  6
CONTINUOUS
370
18
390
F
  0
LAYER
  5
AC
100
AcDbSymbolTableRecord
100
AcDbLayerTableRecord
  2
OTKR
 70
0
 62
7
  6
CONTINUOUS
370
18
390
F
  0
LAYER
  5
AD
100
AcDbSymbolTableRecord
100
AcDbLayerTableRecord
  2
OTKS
 70
0
 62
7
  6
CONTINUOUS
370
18
390
F
  0
LAYER
  5
AE
100
AcDbSymbolTableRecord
100
AcDbLayerTableRecord
  2
OTKT
 70
0
 62
7
  6
CONTINUOUS
370
18
390
F
  0
LAYER
  5
AF
100
AcDbSymbolTableRecord
100
AcDbLayerTableRecord
  2
OTKU
 70
0
 62
7
  6
CONTINUOUS
370
13
390
F
  0
LAYER
  5
B0
100
AcDbSymbolTableRecord
100
AcDbLayerTableRecord
  2
OTKW
 70
0
 62
7
  6
CONTINUOUS
370
18
390
F
  0
LAYER
  5
B1
100
AcDbSymbolTableRecord
100
AcDbLayerTableRecord
  2
OTKY
 70
0
 62
7
  6
CONTINUOUS
370
18
390
F
  0
LAYER
  5
B2
100
AcDbSymbolTableRecord
100
AcDbLayerTableRecord
  2
OTKZ
 70
0
 62
7
  6
CONTINUOUS
370
13
390
F
  0
LAYER
  5
B3
100
AcDbSymbolTableRecord
100
AcDbLayerTableRecord
  2
OTOB
 70
0
 62
7
  6
CONTINUOUS
370
13
390
F
  0
LAYER
  5
B4
100
AcDbSymbolTableRecord
100
AcDbLayerTableRecord
  2
OTOF
 70
0
 62
7
  6
CONTINUOUS
370
13
390
F
  0
LAYER
  5
B5
100
AcDbSymbolTableRecord
100
AcDbLayerTableRecord
  2
OTOO
 70
0
 62
7
  6
CONTINUOUS
370
13
390
F
  0
LAYER
  5
B6
100
AcDbSymbolTableRecord
100
AcDbLayerTableRecord
  2
OTRK
 70
0
 62
7
  6
CONTINUOUS
370
18
390
F
  0
LAYER
  5
B7
100
AcDbSymbolTableRecord
100
AcDbLayerTableRecord
  2
OTRN
 70
0
 62
7
  6
CONTINUOUS
370
13
390
F
  0
LAYER
  5
B8
100
AcDbSymbolTableRecord
100
AcDbLayerTableRecord
  2
OTRS
 70
0
 62
7
  6
CONTINUOUS
370
13
390
F
  0
LAYER
  5
B9
100
AcDbSymbolTableRecord
100
AcDbLayerTableRecord
  2
OTRU
 70
0
 62
7
  6
CONTINUOUS
370
18
390
F
  0
LAYER
  5
BA
100
AcDbSymbolTableRecord
100
AcDbLayerTableRecord
  2
OTSB
 70
0
 62
7
  6
CONTINUOUS
370
18
390
F
  0
LAYER
  5
BB
100
AcDbSymbolTableRecord
100
AcDbLayerTableRecord
  2
OTSI
 70
0
 62
7
  6
CONTINUOUS
370
18
390
F
  0
LAYER
  5
BC
100
AcDbSymbolTableRecord
100
AcDbLayerTableRecord
  2
OTSP
 70
0
 62
7
  6
CONTINUOUS
370
18
390
F
  0
LAYER
  5
BD
100
AcDbSymbolTableRecord
100
AcDbLayerTableRecord
  2
OTSW
 70
0
 62
7
  6
CONTINUOUS
370
18
390
F
  0
LAYER
  5
BE
100
AcDbSymbolTableRecord
100
AcDbLayerTableRecord
  2
OTSZ
 70
0
 62
7
  6
CONTINUOUS
370
13
390
F
  0
LAYER
  5
BF
100
AcDbSymbolTableRecord
100
AcDbLayerTableRecord
  2
OTWG
 70
0
 62
7
  6
CONTINUOUS
370
18
390
F
  0
LAYER
  5
C0
100
AcDbSymbolTableRecord
100
AcDbLayerTableRecord
  2
OTWI
 70
0
 62
7
  6
CONTINUOUS
370
18
390
F
  0
LAYER
  5
C1
100
AcDbSymbolTableRecord
100
AcDbLayerTableRecord
  2
OTWI_P
 70
0
 62
7
  6
CONTINUOUS
370
13
390
F
  0
LAYER
  5
C2
100
AcDbSymbolTableRecord
100
AcDbLayerTableRecord
  2
OTWJ
 70
0
 62
7
  6
CONTINUOUS
370
18
390
F
  0
LAYER
  5
C3
100
AcDbSymbolTableRecord
100
AcDbLayerTableRecord
  2
OTWL
 70
0
 62
7
  6
CONTINUOUS
370
18
390
F
  0
LAYER
  5
C4
100
AcDbSymbolTableRecord
100
AcDbLayerTableRecord
  2
OTWM
 70
0
 62
7
  6
CONTINUOUS
370
18
390
F
  0
LAYER
  5
C5
100
AcDbSymbolTableRecord
100
AcDbLayerTableRecord
  2
OTWO
 70
0
 62
7
  6
CONTINUOUS
370
18
390
F
  0
LAYER
  5
C6
100
AcDbSymbolTableRecord
100
AcDbLayerTableRecord
  2
OTWP
 70
0
 62
7
  6
CONTINUOUS
370
18
390
F
  0
LAYER
  5
C7
100
AcDbSymbolTableRecord
100
AcDbLayerTableRecord
  2
OTWS
 70
0
 62
7
  6
CONTINUOUS
370
13
390
F
  0
LAYER
  5
C8
100
AcDbSymbolTableRecord
100
AcDbLayerTableRecord
  2
OTWT
 70
0
 62
7
  6
CONTINUOUS
370
18
390
F
  0
LAYER
  5
C9
100
AcDbSymbolTableRecord
100
AcDbLayerTableRecord
  2
OTWW
 70
0
 62
7
  6
CONTINUOUS
370
18
390
F
  0
LAYER
  5
CA
100
AcDbSymbolTableRecord
100
AcDbLayerTableRecord
  2
OTWZ
 70
0
 62
7
  6
CONTINUOUS
370
18
390
F
  0
LAYER
  5
CB
100
AcDbSymbolTableRecord
100
AcDbLayerTableRecord
  2
OTW_L_0
 70
0
 62
141
  6
CONTINUOUS
370
18
390
F
  0
LAYER
  5
CC
100
AcDbSymbolTableRecord
100
AcDbLayerTableRecord
  2
OTZC
 70
0
 62
7
  6
CONTINUOUS
370
18
390
F
  0
LAYER
  5
CD
100
AcDbSymbolTableRecord
100
AcDbLayerTableRecord
  2
OTZG
 70
0
 62
7
  6
CONTINUOUS
370
13
390
F
  0
LAYER
  5
CE
100
AcDbSymbolTableRecord
100
AcDbLayerTableRecord
  2
OTZI
 70
0
 62
7
  6
CONTINUOUS
370
18
390
F
  0
LAYER
  5
CF
100
AcDbSymbolTableRecord
100
AcDbLayerTableRecord
  2
OTZI_P
 70
0
 62
7
  6
CONTINUOUS
370
18
390
F
  0
LAYER
  5
D0
100
AcDbSymbolTableRecord
100
AcDbLayerTableRecord
  2
OTZK
 70
0
 62
7
  6
CONTINUOUS
370
13
390
F
  0
LAYER
  5
D1
100
AcDbSymbolTableRecord
100
AcDbLayerTableRecord
  2
OTZL
 70
0
 62
7
  6
CONTINUOUS
370
13
390
F
  0
LAYER
  5
D2
100
AcDbSymbolTableRecord
100
AcDbLayerTableRecord
  2
OTZT
 70
0
 62
7
  6
CONTINUOUS
370
18
390
F
  0
LAYER
  5
D3
100
AcDbSymbolTableRecord
100
AcDbLayerTableRecord
  2
OTZZ
 70
0
 62
7
  6
CONTINUOUS
370
13
390
F
  0
LAYER
  5
D4
100
AcDbSymbolTableRecord
100
AcDbLayerTableRecord
  2
OT_BlokBudynku
 70
0
 62
7
  6
CONTINUOUS
370
18
390
F
  0
LAYER
  5
D5
100
AcDbSymbolTableRecord
100
AcDbLayerTableRecord
  2
OT_Budowle
 70
0
 62
7
  6
CONTINUOUS
370
18
390
F
  0
LAYER
  5
D6
100
AcDbSymbolTableRecord
100
AcDbLayerTableRecord
  2
OT_Budowle_P
 70
0
 62
7
  6
CONTINUOUS
370
18
390
F
  0
LAYER
  5
D7
100
AcDbSymbolTableRecord
100
AcDbLayerTableRecord
  2
OT_BudynekNiewykazanyWEGIB
 70
0
 62
7
  6
CONTINUOUS
370
18
390
F
  0
LAYER
  5
D8
100
AcDbSymbolTableRecord
100
AcDbLayerTableRecord
  2
OT_Komunikacja
 70
0
 62
7
  6
CONTINUOUS
370
18
390
F
  0
LAYER
  5
D9
100
AcDbSymbolTableRecord
100
AcDbLayerTableRecord
  2
OT_ObiektTrwaleZwiazanyZBudynkami
 70
0
 62
7
  6
CONTINUOUS
370
18
390
F
  0
LAYER
  5
DA
100
AcDbSymbolTableRecord
100
AcDbLayerTableRecord
  2
OT_ObiektTrwaleZwiazanyZBudynkami_P
 70
0
 62
7
  6
CONTINUOUS
370
18
390
F
  0
LAYER
  5
DB
100
AcDbSymbolTableRecord
100
AcDbLayerTableRecord
  2
OT_Ogrodzenia
 70
0
 62
7
  6
CONTINUOUS
370
18
390
F
  0
LAYER
  5
DC
100
AcDbSymbolTableRecord
100
AcDbLayerTableRecord
  2
OT_Rzedna
 70
0
 62
7
  6
CONTINUOUS
370
18
390
F
  0
LAYER
  5
DD
100
AcDbSymbolTableRecord
100
AcDbLayerTableRecord
  2
OT_Skarpa
 70
0
 62
7
  6
CONTINUOUS
370
18
390
F
  0
LAYER
  5
DE
100
AcDbSymbolTableRecord
100
AcDbLayerTableRecord
  2
OT_SportIRekreacja
 70
0
 62
7
  6
CONTINUOUS
370
18
390
F
  0
LAYER
  5
DF
100
AcDbSymbolTableRecord
100
AcDbLayerTableRecord
  2
OT_Wody
 70
0
 62
7
  6
CONTINUOUS
370
18
390
F
  0
LAYER
  5
E0
100
AcDbSymbolTableRecord
100
AcDbLayerTableRecord
  2
OT_Wody_P
 70
0
 62
7
  6
CONTINUOUS
370
18
390
F
  0
LAYER
  5
E1
100
AcDbSymbolTableRecord
100
AcDbLayerTableRecord
  2
OT_ZagospodarowanieTerenu
 70
0
 62
7
  6
CONTINUOUS
370
18
390
F
  0
LAYER
  5
E2
100
AcDbSymbolTableRecord
100
AcDbLayerTableRecord
  2
OT_ZagospodarowanieTerenu_P
 70
0
 62
7
  6
CONTINUOUS
370
18
390
F
  0
LAYER
  5
E3
100
AcDbSymbolTableRecord
100
AcDbLayerTableRecord
  2
podzial
 70
0
 62
1
  6
CONTINUOUS
370
18
390
F
  0
LAYER
  5
E4
100
AcDbSymbolTableRecord
100
AcDbLayerTableRecord
  2
PrezentacjaGraficzna
 70
0
 62
7
  6
CONTINUOUS
370
13
390
F
  0
LAYER
  5
E5
100
AcDbSymbolTableRecord
100
AcDbLayerTableRecord
  2
PrezentacjaGraficzna_P
 70
0
 62
7
  6
CONTINUOUS
370
18
390
F
  0
LAYER
  5
E6
100
AcDbSymbolTableRecord
100
AcDbLayerTableRecord
  2
PRG_Granica
 70
0
 62
7
  6
CONTINUOUS
370
18
390
F
  0
LAYER
  5
E7
100
AcDbSymbolTableRecord
100
AcDbLayerTableRecord
  2
PRG_PunktGranicyPanstwa
 70
0
 62
7
  6
CONTINUOUS
370
18
390
F
  0
LAYER
  5
E8
100
AcDbSymbolTableRecord
100
AcDbLayerTableRecord
  2
SUCP
 70
0
 62
7
  6
CONTINUOUS
370
18
390
F
  0
LAYER
  5
E9
100
AcDbSymbolTableRecord
100
AcDbLayerTableRecord
  2
SUCU
 70
0
 62
7
  6
CONTINUOUS
370
18
390
F
  0
LAYER
  5
EA
100
AcDbSymbolTableRecord
100
AcDbLayerTableRecord
  2
SUCU_P
 70
0
 62
7
  6
CONTINUOUS
370
18
390
F
  0
LAYER
  5
EB
100
AcDbSymbolTableRecord
100
AcDbLayerTableRecord
  2
SUCW
 70
0
 62
7
  6
CONTINUOUS
370
18
390
F
  0
LAYER
  5
EC
100
AcDbSymbolTableRecord
100
AcDbLayerTableRecord
  2
SUEA
 70
0
 62
7
  6
CONTINUOUS
370
18
390
F
  0
LAYER
  5
ED
100
AcDbSymbolTableRecord
100
AcDbLayerTableRecord
  2
SUEA_P
 70
0
 62
7
  6
CONTINUOUS
370
18
390
F
  0
LAYER
  5
EE
100
AcDbSymbolTableRecord
100
AcDbLayerTableRecord
  2
SUEL
 70
0
 62
7
  6
CONTINUOUS
370
18
390
F
  0
LAYER
  5
EF
100
AcDbSymbolTableRecord
100
AcDbLayerTableRecord
  2
SUEM
 70
0
 62
7
  6
CONTINUOUS
370
18
390
F
  0
LAYER
  5
F0
100
AcDbSymbolTableRecord
100
AcDbLayerTableRecord
  2
SUEM_P
 70
0
 62
7
  6
CONTINUOUS
370
18
390
F
  0
LAYER
  5
F1
100
AcDbSymbolTableRecord
100
AcDbLayerTableRecord
  2
SUEO
 70
0
 62
7
  6
CONTINUOUS
370
13
390
F
  0
LAYER
  5
F2
100
AcDbSymbolTableRecord
100
AcDbLayerTableRecord
  2
SUEP
 70
0
 62
7
  6
CONTINUOUS
370
13
390
F
  0
LAYER
  5
F3
100
AcDbSymbolTableRecord
100
AcDbLayerTableRecord
  2
SUES
 70
0
 62
7
  6
CONTINUOUS
370
18
390
F
  0
LAYER
  5
F4
100
AcDbSymbolTableRecord
100
AcDbLayerTableRecord
  2
SUES_P
 70
0
 62
7
  6
CONTINUOUS
370
18
390
F
  0
LAYER
  5
F5
100
AcDbSymbolTableRecord
100
AcDbLayerTableRecord
  2
SUET
 70
0
 62
7
  6
CONTINUOUS
370
18
390
F
  0
LAYER
  5
F6
100
AcDbSymbolTableRecord
100
AcDbLayerTableRecord
  2
SUEU
 70
0
 62
7
  6
CONTINUOUS
370
18
390
F
  0
LAYER
  5
F7
100
AcDbSymbolTableRecord
100
AcDbLayerTableRecord
  2
SUEU_P
 70
0
 62
7
  6
CONTINUOUS
370
18
390
F
  0
LAYER
  5
F8
100
AcDbSymbolTableRecord
100
AcDbLayerTableRecord
  2
SUGN
 70
0
 62
7
  6
CONTINUOUS
370
18
390
F
  0
LAYER
  5
F9
100
AcDbSymbolTableRecord
100
AcDbLayerTableRecord
  2
SUGP
 70
0
 62
7
  6
CONTINUOUS
370
18
390
F
  0
LAYER
  5
FA
100
AcDbSymbolTableRecord
100
AcDbLayerTableRecord
  2
SUGS
 70
0
 62
7
  6
CONTINUOUS
370
18
390
F
  0
LAYER
  5
FB
100
AcDbSymbolTableRecord
100
AcDbLayerTableRecord
  2
SUGS_P
 70
0
 62
7
  6
CONTINUOUS
370
18
390
F
  0
LAYER
  5
FC
100
AcDbSymbolTableRecord
100
AcDbLayerTableRecord
  2
SUGU
 70
0
 62
7
  6
CONTINUOUS
370
18
390
F
  0
LAYER
  5
FD
100
AcDbSymbolTableRecord
100
AcDbLayerTableRecord
  2
SUGU_P
 70
0
 62
7
  6
CONTINUOUS
370
18
390
F
  0
LAYER
  5
FE
100
AcDbSymbolTableRecord
100
AcDbLayerTableRecord
  2
SUGV
 70
0
 62
7
  6
CONTINUOUS
370
18
390
F
  0
LAYER
  5
FF
100
AcDbSymbolTableRecord
100
AcDbLayerTableRecord
  2
SUKD
 70
0
 62
7
  6
CONTINUOUS
370
18
390
F
  0
LAYER
  5
100
100
AcDbSymbolTableRecord
100
AcDbLayerTableRecord
  2
SUKE
 70
0
 62
7
  6
CONTINUOUS
370
18
390
F
  0
LAYER
  5
101
100
AcDbSymbolTableRecord
100
AcDbLayerTableRecord
  2
SUKK
 70
0
 62
7
  6
CONTINUOUS
370
13
390
F
  0
LAYER
  5
102
100
AcDbSymbolTableRecord
100
AcDbLayerTableRecord
  2
SUKK_P
 70
0
 62
7
  6
CONTINUOUS
370
18
390
F
  0
LAYER
  5
103
100
AcDbSymbolTableRecord
100
AcDbLayerTableRecord
  2
SUKL
 70
0
 62
7
  6
CONTINUOUS
370
18
390
F
  0
LAYER
  5
104
100
AcDbSymbolTableRecord
100
AcDbLayerTableRecord
  2
SUKM
 70
0
 62
7
  6
CONTINUOUS
370
18
390
F
  0
LAYER
  5
105
100
AcDbSymbolTableRecord
100
AcDbLayerTableRecord
  2
SUKM_P
 70
0
 62
7
  6
CONTINUOUS
370
13
390
F
  0
LAYER
  5
106
100
AcDbSymbolTableRecord
100
AcDbLayerTableRecord
  2
SUKN
 70
0
 62
7
  6
CONTINUOUS
370
18
390
F
  0
LAYER
  5
107
100
AcDbSymbolTableRecord
100
AcDbLayerTableRecord
  2
SUKP
 70
0
 62
7
  6
CONTINUOUS
370
13
390
F
  0
LAYER
  5
108
100
AcDbSymbolTableRecord
100
AcDbLayerTableRecord
  2
SUKS
 70
0
 62
7
  6
CONTINUOUS
370
13
390
F
  0
LAYER
  5
109
100
AcDbSymbolTableRecord
100
AcDbLayerTableRecord
  2
SUKS_P
 70
0
 62
7
  6
CONTINUOUS
370
18
390
F
  0
LAYER
  5
10A
100
AcDbSymbolTableRecord
100
AcDbLayerTableRecord
  2
SUKU
 70
0
 62
7
  6
CONTINUOUS
370
18
390
F
  0
LAYER
  5
10B
100
AcDbSymbolTableRecord
100
AcDbLayerTableRecord
  2
SUKU_P
 70
0
 62
7
  6
CONTINUOUS
370
13
390
F
  0
LAYER
  5
10C
100
AcDbSymbolTableRecord
100
AcDbLayerTableRecord
  2
SUKW
 70
0
 62
7
  6
CONTINUOUS
370
18
390
F
  0
LAYER
  5
10D
100
AcDbSymbolTableRecord
100
AcDbLayerTableRecord
  2
SULL
 70
0
 62
7
  6
CONTINUOUS
370
18
390
F
  0
LAYER
  5
10E
100
AcDbSymbolTableRecord
100
AcDbLayerTableRecord
  2
SUNP
 70
0
 62
7
  6
CONTINUOUS
370
18
390
F
  0
LAYER
  5
10F
100
AcDbSymbolTableRecord
100
AcDbLayerTableRecord
  2
SUNU
 70
0
 62
7
  6
CONTINUOUS
370
18
390
F
  0
LAYER
  5
110
100
AcDbSymbolTableRecord
100
AcDbLayerTableRecord
  2
SUNU_P
 70
0
 62
7
  6
CONTINUOUS
370
18
390
F
  0
LAYER
  5
111
100
AcDbSymbolTableRecord
100
AcDbLayerTableRecord
  2
SUPB
 70
0
 62
7
  6
CONTINUOUS
370
18
390
F
  0
LAYER
  5
112
100
AcDbSymbolTableRecord
100
AcDbLayerTableRecord
  2
SUPI_P
 70
0
 62
7
  6
CONTINUOUS
370
18
390
F
  0
LAYER
  5
113
100
AcDbSymbolTableRecord
100
AcDbLayerTableRecord
  2
SUPK
 70
0
 62
7
  6
CONTINUOUS
370
13
390
F
  0
LAYER
  5
114
100
AcDbSymbolTableRecord
100
AcDbLayerTableRecord
  2
SUPK_P
 70
0
 62
7
  6
CONTINUOUS
370
13
390
F
  0
LAYER
  5
115
100
AcDbSymbolTableRecord
100
AcDbLayerTableRecord
  2
SUPN
 70
0
 62
7
  6
CONTINUOUS
370
18
390
F
  0
LAYER
  5
116
100
AcDbSymbolTableRecord
100
AcDbLayerTableRecord
  2
SUPN_P
 70
0
 62
7
  6
CONTINUOUS
370
18
390
F
  0
LAYER
  5
117
100
AcDbSymbolTableRecord
100
AcDbLayerTableRecord
  2
SUPP
 70
0
 62
7
  6
CONTINUOUS
370
13
390
F
  0
LAYER
  5
118
100
AcDbSymbolTableRecord
100
AcDbLayerTableRecord
  2
SUPP_P
 70
0
 62
7
  6
CONTINUOUS
370
13
390
F
  0
LAYER
  5
119
100
AcDbSymbolTableRecord
100
AcDbLayerTableRecord
  2
SUPW_O
 70
0
 62
7
  6
CONTINUOUS
370
13
390
F
  0
LAYER
  5
11A
100
AcDbSymbolTableRecord
100
AcDbLayerTableRecord
  2
SUPW_P
 70
0
 62
7
  6
CONTINUOUS
370
18
390
F
  0
LAYER
  5
11B
100
AcDbSymbolTableRecord
100
AcDbLayerTableRecord
  2
SUPY
 70
0
 62
7
  6
CONTINUOUS
370
18
390
F
  0
LAYER
  5
11C
100
AcDbSymbolTableRecord
100
AcDbLayerTableRecord
  2
SUP_T_2
 70
0
 62
7
  6
CONTINUOUS
370
18
390
F
  0
LAYER
  5
11D
100
AcDbSymbolTableRecord
100
AcDbLayerTableRecord
  2
SUSP
 70
0
 62
7
  6
CONTINUOUS
370
18
390
F
  0
LAYER
  5
11E
100
AcDbSymbolTableRecord
100
AcDbLayerTableRecord
  2
SUSU
 70
0
 62
7
  6
CONTINUOUS
370
18
390
F
  0
LAYER
  5
11F
100
AcDbSymbolTableRecord
100
AcDbLayerTableRecord
  2
SUSU_P
 70
0
 62
7
  6
CONTINUOUS
370
18
390
F
  0
LAYER
  5
120
100
AcDbSymbolTableRecord
100
AcDbLayerTableRecord
  2
SUTK
 70
0
 62
7
  6
CONTINUOUS
370
13
390
F
  0
LAYER
  5
121
100
AcDbSymbolTableRecord
100
AcDbLayerTableRecord
  2
SUTP
 70
0
 62
7
  6
CONTINUOUS
370
13
390
F
  0
LAYER
  5
122
100
AcDbSymbolTableRecord
100
AcDbLayerTableRecord
  2
SUTS
 70
0
 62
7
  6
CONTINUOUS
370
13
390
F
  0
LAYER
  5
123
100
AcDbSymbolTableRecord
100
AcDbLayerTableRecord
  2
SUTS_P
 70
0
 62
7
  6
CONTINUOUS
370
18
390
F
  0
LAYER
  5
124
100
AcDbSymbolTableRecord
100
AcDbLayerTableRecord
  2
SUTU
 70
0
 62
7
  6
CONTINUOUS
370
18
390
F
  0
LAYER
  5
125
100
AcDbSymbolTableRecord
100
AcDbLayerTableRecord
  2
SUTU_P
 70
0
 62
7
  6
CONTINUOUS
370
18
390
F
  0
LAYER
  5
126
100
AcDbSymbolTableRecord
100
AcDbLayerTableRecord
  2
SUTW
 70
0
 62
7
  6
CONTINUOUS
370
18
390
F
  0
LAYER
  5
127
100
AcDbSymbolTableRecord
100
AcDbLayerTableRecord
  2
SUTW_P
 70
0
 62
7
  6
CONTINUOUS
370
18
390
F
  0
LAYER
  5
128
100
AcDbSymbolTableRecord
100
AcDbLayerTableRecord
  2
SUWD
 70
0
 62
7
  6
CONTINUOUS
370
13
390
F
  0
LAYER
  5
129
100
AcDbSymbolTableRecord
100
AcDbLayerTableRecord
  2
SUWG
 70
0
 62
7
  6
CONTINUOUS
370
13
390
F
  0
LAYER
  5
12A
100
AcDbSymbolTableRecord
100
AcDbLayerTableRecord
  2
SUWH
 70
0
 62
7
  6
CONTINUOUS
370
13
390
F
  0
LAYER
  5
12B
100
AcDbSymbolTableRecord
100
AcDbLayerTableRecord
  2
SUWP
 70
0
 62
7
  6
CONTINUOUS
370
13
390
F
  0
LAYER
  5
12C
100
AcDbSymbolTableRecord
100
AcDbLayerTableRecord
  2
SUWR
 70
0
 62
7
  6
CONTINUOUS
370
18
390
F
  0
LAYER
  5
12D
100
AcDbSymbolTableRecord
100
AcDbLayerTableRecord
  2
SUWS
 70
0
 62
7
  6
CONTINUOUS
370
13
390
F
  0
LAYER
  5
12E
100
AcDbSymbolTableRecord
100
AcDbLayerTableRecord
  2
SUWU
 70
0
 62
7
  6
CONTINUOUS
370
18
390
F
  0
LAYER
  5
12F
100
AcDbSymbolTableRecord
100
AcDbLayerTableRecord
  2
SUWU_P
 70
0
 62
7
  6
CONTINUOUS
370
18
390
F
  0
LAYER
  5
130
100
AcDbSymbolTableRecord
100
AcDbLayerTableRecord
  2
SUWW
 70
0
 62
7
  6
CONTINUOUS
370
13
390
F
  0
LAYER
  5
131
100
AcDbSymbolTableRecord
100
AcDbLayerTableRecord
  2
Uzytki
 70
0
 62
96
  6
L_0_44
370
18
390
F
  0
ENDTAB
  0
TABLE
  2
STYLE
  5
132
100
AcDbSymbolTable
 70
2
  0
STYLE
  5
133
100
AcDbSymbolTableRecord
100
AcDbTextStyleTableRecord
  2
STANDARD
 70
0
 40
0.0
 41
1.0
 50
0.0
 71
0
  3
simplex.shx
  4

  0
STYLE
  5
134
100
AcDbSymbolTableRecord
100
AcDbTextStyleTableRecord
  2
STANDARD_ITALIC
 70
0
 40
0.0
 41
1.0
 50
15.0
 71
0
  3
simplex.shx
  4

  0
ENDTAB
  0
TABLE
  2
VIEW
  5
135
100
AcDbSymbolTable
 70
0
  0
ENDTAB
  0
TABLE
  2
UCS
  5
136
100
AcDbSymbolTable
 70
0
  0
ENDTAB
  0
TABLE
  2
APPID
  5
137
100
AcDbSymbolTable
 70
1
  0
APPID
  5
138
100
AcDbSymbolTableRecord
100
AcDbRegAppTableRecord
  2
ACAD
 70
0
  0
ENDTAB
  0
TABLE
  2
DIMSTYLE
  5
139
100
AcDbSymbolTable
 70
1
100
AcDbDimStyleTable
  0
DIMSTYLE
105
13A
100
AcDbSymbolTableRecord
100
AcDbDimStyleTableRecord
  2
Standard
 70
0
340
133
  0
ENDTAB
  0
TABLE
  2
BLOCK_RECORD
  5
13B
100
AcDbSymbolTable
 70
6
  0
BLOCK_RECORD
  5
13C
100
AcDbSymbolTableRecord
100
AcDbBlockTableRecord
  2
*Model_Space
340
13D
  0
BLOCK_RECORD
  5
13E
100
AcDbSymbolTableRecord
100
AcDbBlockTableRecord
  2
*Paper_Space
340
13F
  0
BLOCK_RECORD
  5
140
100
AcDbSymbolTableRecord
100
AcDbBlockTableRecord
  2
OTZL
340
141
  0
BLOCK_RECORD
  5
142
100
AcDbSymbolTableRecord
100
AcDbBlockTableRecord
  2
OTRN
340
143
  0
BLOCK_RECORD
  5
144
100
AcDbSymbolTableRecord
100
AcDbBlockTableRecord
  2
L_0_02_1
340
145
  0
BLOCK_RECORD
  5
146
100
AcDbSymbolTableRecord
100
AcDbBlockTableRecord
  2
L_0_02_2
340
147
  0
ENDTAB
  0
ENDSEC
  0
SECTION
  2
BLOCKS
  0
BLOCK
  5
148
100
AcDbEntity
  8
0
100
AcDbBlockBegin
  2
*Model_Space
 70
0
 10
0.0
 20
0.0
 30
0.0
  3
*Model_Space
  1

  0
ENDBLK
  5
149
100
AcDbEntity
  8
0
100
AcDbBlockEnd
  0
BLOCK
  5
14A
100
AcDbEntity
 67
1
  8
0
100
AcDbBlockBegin
  2
*Paper_Space
 70
0
 10
0.0
 20
0.0
 30
0.0
  3
*Paper_Space
  1

  0
ENDBLK
  5
14B
100
AcDbEntity
 67
1
  8
0
100
AcDbBlockEnd
  0
BLOCK
  5
141
100
AcDbEntity
  8
0
100
AcDbBlockBegin
 62
0
370
13
  2
OTZL
 70
0
 10
0
 20
0
 30
0
  3
OTZL
  0
ARC
  5
14C
100
AcDbEntity
  8
0
  6
CONTINUOUS
 62
0
370
18
100
AcDbCircle
 10
0.4800000000
 20
0.1400000000
 30
0
 40
0.5000000000
100
AcDbArc
 50
328.2405199152
 51
68.6293777307
  0
ARC
  5
14D
100
AcDbEntity
  8
0
  6
CONTINUOUS
 62
0
370
18
100
AcDbCircle
 10
0.0000000000
 20
0.4400000000
 30
0
 40
0.5400000000
100
AcDbArc
 50
41.9872124958
 51
135.0000000000
  0
ARC
  5
14E
100
AcDbEntity
  8
0
  6
CONTINUOUS
 62
0
370
18
100
AcDbCircle
 10
-0.4800000000
 20
0.1600000000
 30
0
 40
0.4800000000
100
AcDbArc
 50
112.2490236572
 51
214.9920201986
  0
ARC
  5
14F
100
AcDbEntity
  8
0
  6
CONTINUOUS
 62
0
370
18
100
AcDbCircle
 10
-0.2600000000
 20
-0.3600000000
 30
0
 40
0.5400000000
100
AcDbArc
 50
188.4269690215
 51
280.4914770123
  0
ARC
  5
150
100
AcDbEntity
  8
0
  6
CONTINUOUS
 62
0
370
18
100
AcDbCircle
 10
0.3200000000
 20
-0.4000000000
 30
0
 40
0.4800000000
100
AcDbArc
 50
255.9637565321
 51
357.6140559696
  0
HATCH
  5
151
100
AcDbEntity
  8
0
  6
CONTINUOUS
 62
0
370
18
100
AcDbHatch
 10
0.0
 20
0.0
 30
0.0
210
0.0
220
0.0
230
1.0
  2
SOLID
 70
1
 71
1
 91
1
 92
3
 72
1
 73
1
 93
2
 10
0.0
 20
-0.056568542495
 42
1.0
 10
0.0
 20
0.056568542495
 42
1.0
 97
0
 75
0
 76
1
 98
0
  0
CIRCLE
  5
152
100
AcDbEntity
  8
0
  6
CONTINUOUS
 62
0
370
18
100
AcDbCircle
 10
0.0
 20
-0.0
 40
0.056568542495
  0
ENDBLK
  5
153
100
AcDbEntity
  8
0
100
AcDbBlockEnd
  0
BLOCK
  5
143
100
AcDbEntity
  8
0
100
AcDbBlockBegin
 62
0
370
13
  2
OTRN
 70
0
 10
0
 20
0
 30
0
  3
OTRN
  0
HATCH
  5
154
100
AcDbEntity
  8
0
  6
CONTINUOUS
 62
0
370
13
100
AcDbHatch
 10
0.0
 20
0.0
 30
0.0
210
0.0
220
0.0
230
1.0
  2
SOLID
 70
1
 71
1
 91
1
 92
3
 72
1
 73
1
 93
2
 10
0.0
 20
-0.090553851381
 42
1.0
 10
0.0
 20
0.090553851381
 42
1.0
 97
0
 75
0
 76
1
 98
0
  0
CIRCLE
  5
155
100
AcDbEntity
  8
0
  6
CONTINUOUS
 62
0
370
13
100
AcDbCircle
 10
0.0
 20
-0.0
 40
0.090553851381
  0
ENDBLK
  5
156
100
AcDbEntity
  8
0
100
AcDbBlockEnd
  0
BLOCK
  5
145
100
AcDbEntity
  8
0
100
AcDbBlockBegin
 62
0
370
13
  2
L_0_02_1
 70
0
 10
0
 20
0
 30
0
  3
L_0_02_1
  0
POINT
  5
157
100
AcDbEntity
  8
0
100
AcDbPoint
 62
0
 10
0.0
 20
0.0
 30
0.00
  0
ENDBLK
  5
158
100
AcDbEntity
  8
0
100
AcDbBlockEnd
  0
BLOCK
  5
147
100
AcDbEntity
  8
0
100
AcDbBlockBegin
 62
0
370
13
  2
L_0_02_2
 70
0
 10
0
 20
0
 30
0
  3
L_0_02_2
  0
POINT
  5
159
100
AcDbEntity
  8
0
100
AcDbPoint
 62
0
 10
-0.0
 20
-0.0
 30
0.00
  0
ENDBLK
  5
15A
100
AcDbEntity
  8
0
100
AcDbBlockEnd
  0
ENDSEC
  0
SECTION
  2
ENTITIES
  0
POLYLINE
  5
15B
100
AcDbEntity
  8
Dzialki
  6
CONTINUOUS
370
18
100
AcDb2dPolyline
 66
1
 70
128
  0
VERTEX
  5
15C
100
AcDbEntity
  8
Dzialki
100
AcDbVertex
100
AcDb2dVertex
 10
7569351.69000000041
 20
5714376.41000000015
  0
VERTEX
  5
15D
100
AcDbEntity
  8
Dzialki
100
AcDbVertex
100
AcDb2dVertex
 10
7569342.25999999978
 20
5714376.19000000041
  0
SEQEND
  5
15E
100
AcDbEntity
  8
Dzialki
  0
POLYLINE
  5
15F
100
AcDbEntity
  8
Dzialki
  6
CONTINUOUS
370
18
100
AcDb2dPolyline
 66
1
 70
128
  0
VERTEX
  5
160
100
AcDbEntity
  8
Dzialki
100
AcDbVertex
100
AcDb2dVertex
 10
7569342.25999999978
 20
5714376.19000000041
  0
VERTEX
  5
161
100
AcDbEntity
  8
Dzialki
100
AcDbVertex
100
AcDb2dVertex
 10
7569318.19000000041
 20
5714094.00999999978
  0
SEQEND
  5
162
100
AcDbEntity
  8
Dzialki
  0
POLYLINE
  5
163
100
AcDbEntity
  8
Dzialki
  6
CONTINUOUS
370
18
100
AcDb2dPolyline
 66
1
 70
128
  0
VERTEX
  5
164
100
AcDbEntity
  8
Dzialki
100
AcDbVertex
100
AcDb2dVertex
 10
7569318.19000000041
 20
5714094.00999999978
  0
VERTEX
  5
165
100
AcDbEntity
  8
Dzialki
100
AcDbVertex
100
AcDb2dVertex
 10
7569301.16999999993
 20
5713888.0700000003
  0
SEQEND
  5
166
100
AcDbEntity
  8
Dzialki
  0
POLYLINE
  5
167
100
AcDbEntity
  8
Dzialki
  6
CONTINUOUS
370
18
100
AcDb2dPolyline
 66
1
 70
128
  0
VERTEX
  5
168
100
AcDbEntity
  8
Dzialki
100
AcDbVertex
100
AcDb2dVertex
 10
7569301.16999999993
 20
5713888.0700000003
  0
VERTEX
  5
169
100
AcDbEntity
  8
Dzialki
100
AcDbVertex
100
AcDb2dVertex
 10
7569347.19000000041
 20
5713891.50999999978
  0
SEQEND
  5
16A
100
AcDbEntity
  8
Dzialki
  0
POLYLINE
  5
16B
100
AcDbEntity
  8
Dzialki
  6
CONTINUOUS
370
18
100
AcDb2dPolyline
 66
1
 70
128
  0
VERTEX
  5
16C
100
AcDbEntity
  8
Dzialki
100
AcDbVertex
100
AcDb2dVertex
 10
7569342.25999999978
 20
5714376.19000000041
  0
VERTEX
  5
16D
100
AcDbEntity
  8
Dzialki
100
AcDbVertex
100
AcDb2dVertex
 10
7569321.30999999959
 20
5714372.04999999981
  0
SEQEND
  5
16E
100
AcDbEntity
  8
Dzialki
  0
POLYLINE
  5
16F
100
AcDbEntity
  8
Dzialki
  6
CONTINUOUS
370
18
100
AcDb2dPolyline
 66
1
 70
128
  0
VERTEX
  5
170
100
AcDbEntity
  8
Dzialki
100
AcDbVertex
100
AcDb2dVertex
 10
7569321.30999999959
 20
5714372.04999999981
  0
VERTEX
  5
171
100
AcDbEntity
  8
Dzialki
100
AcDbVertex
100
AcDb2dVertex
 10
7569289.15000000037
 20
5714372.21999999974
  0
SEQEND
  5
172
100
AcDbEntity
  8
Dzialki
  0
POLYLINE
  5
173
100
AcDbEntity
  8
Dzialki
  6
CONTINUOUS
370
18
100
AcDb2dPolyline
 66
1
 70
128
  0
VERTEX
  5
174
100
AcDbEntity
  8
Dzialki
100
AcDbVertex
100
AcDb2dVertex
 10
7569289.15000000037
 20
5714372.21999999974
  0
VERTEX
  5
175
100
AcDbEntity
  8
Dzialki
100
AcDbVertex
100
AcDb2dVertex
 10
7569287.95999999996
 20
5714373.00999999978
  0
SEQEND
  5
176
100
AcDbEntity
  8
Dzialki
  0
POLYLINE
  5
177
100
AcDbEntity
  8
Dzialki
  6
CONTINUOUS
370
18
100
AcDb2dPolyline
 66
1
 70
128
  0
VERTEX
  5
178
100
AcDbEntity
  8
Dzialki
100
AcDbVertex
100
AcDb2dVertex
 10
7569287.95999999996
 20
5714373.00999999978
  0
VERTEX
  5
179
100
AcDbEntity
  8
Dzialki
100
AcDbVertex
100
AcDb2dVertex
 10
7569263.37999999989
 20
5714094.25
  0
SEQEND
  5
17A
100
AcDbEntity
  8
Dzialki
  0
POLYLINE
  5
17B
100
AcDbEntity
  8
Dzialki
  6
CONTINUOUS
370
18
100
AcDb2dPolyline
 66
1
 70
128
  0
VERTEX
  5
17C
100
AcDbEntity
  8
Dzialki
100
AcDbVertex
100
AcDb2dVertex
 10
7569263.37999999989
 20
5714094.25
  0
VERTEX
  5
17D
100
AcDbEntity
  8
Dzialki
100
AcDbVertex
100
AcDb2dVertex
 10
7569245.84999999963
 20
5713883.9299999997
  0
SEQEND
  5
17E
100
AcDbEntity
  8
Dzialki
  0
POLYLINE
  5
17F
100
AcDbEntity
  8
Dzialki
  6
CONTINUOUS
370
18
100
AcDb2dPolyline
 66
1
 70
128
  0
VERTEX
  5
180
100
AcDbEntity
  8
Dzialki
100
AcDbVertex
100
AcDb2dVertex
 10
7569245.84999999963
 20
5713883.9299999997
  0
VERTEX
  5
181
100
AcDbEntity
  8
Dzialki
100
AcDbVertex
100
AcDb2dVertex
 10
7569301.16999999993
 20
5713888.0700000003
  0
SEQEND
  5
182
100
AcDbEntity
  8
Dzialki
  0
POLYLINE
  5
183
100
AcDbEntity
  8
Dzialki
  6
CONTINUOUS
370
18
100
AcDb2dPolyline
 66
1
 70
128
  0
VERTEX
  5
184
100
AcDbEntity
  8
Dzialki
100
AcDbVertex
100
AcDb2dVertex
 10
7569245.84999999963
 20
5713883.9299999997
  0
VERTEX
  5
185
100
AcDbEntity
  8
Dzialki
100
AcDbVertex
100
AcDb2dVertex
 10
7569228.38999999966
 20
5713882.62999999989
  0
SEQEND
  5
186
100
AcDbEntity
  8
Dzialki
  0
POLYLINE
  5
187
100
AcDbEntity
  8
Dzialki
  6
CONTINUOUS
370
18
100
AcDb2dPolyline
 66
1
 70
128
  0
VERTEX
  5
188
100
AcDbEntity
  8
Dzialki
100
AcDbVertex
100
AcDb2dVertex
 10
7569287.95999999996
 20
5714373.00999999978
  0
VERTEX
  5
189
100
AcDbEntity
  8
Dzialki
100
AcDbVertex
100
AcDb2dVertex
 10
7569270.75999999978
 20
5714384.44000000041
  0
SEQEND
  5
18A
100
AcDbEntity
  8
Dzialki
  0
POLYLINE
  5
18B
100
AcDbEntity
  8
Kontury
  6
L_0_51
370
18
100
AcDb2dPolyline
 66
1
 70
128
  0
VERTEX
  5
18C
100
AcDbEntity
  8
Kontury
100
AcDbVertex
100
AcDb2dVertex
 10
7569330.61000000034
 20
5714239.58000000007
  0
VERTEX
  5
18D
100
AcDbEntity
  8
Kontury
100
AcDbVertex
100
AcDb2dVertex
 10
7569354.28000000026
 20
5714257.45999999996
  0
SEQEND
  5
18E
100
AcDbEntity
  8
Kontury
  0
POLYLINE
  5
18F
100
AcDbEntity
  8
Kontury
  6
L_0_51
370
18
100
AcDb2dPolyline
 66
1
 70
128
  0
VERTEX
  5
190
100
AcDbEntity
  8
Kontury
100
AcDbVertex
100
AcDb2dVertex
 10
7569354.28000000026
 20
5714257.45999999996
  0
VERTEX
  5
191
100
AcDbEntity
  8
Kontury
100
AcDbVertex
100
AcDb2dVertex
 10
7569332.65000000037
 20
5714263.48000000045
  0
SEQEND
  5
192
100
AcDbEntity
  8
Kontury
  0
POLYLINE
  5
193
100
AcDbEntity
  8
Kontury
  6
L_0_51
370
18
100
AcDb2dPolyline
 66
1
 70
128
  0
VERTEX
  5
194
100
AcDbEntity
  8
Kontury
100
AcDbVertex
100
AcDb2dVertex
 10
7569332.65000000037
 20
5714263.48000000045
  0
VERTEX
  5
195
100
AcDbEntity
  8
Kontury
100
AcDbVertex
100
AcDb2dVertex
 10
7569314.20000000019
 20
5714262.95999999996
  0
SEQEND
  5
196
100
AcDbEntity
  8
Kontury
  0
POLYLINE
  5
197
100
AcDbEntity
  8
Kontury
  6
L_0_51
370
18
100
AcDb2dPolyline
 66
1
 70
128
  0
VERTEX
  5
198
100
AcDbEntity
  8
Kontury
100
AcDbVertex
100
AcDb2dVertex
 10
7569314.20000000019
 20
5714262.95999999996
  0
VERTEX
  5
199
100
AcDbEntity
  8
Kontury
100
AcDbVertex
100
AcDb2dVertex
 10
7569231.12999999989
 20
5714240.62000000011
  0
SEQEND
  5
19A
100
AcDbEntity
  8
Kontury
  0
POLYLINE
  5
19B
100
AcDbEntity
  8
Kontury
  6
L_0_51
370
18
100
AcDb2dPolyline
 66
1
 70
128
  0
VERTEX
  5
19C
100
AcDbEntity
  8
Kontury
100
AcDbVertex
100
AcDb2dVertex
 10
7569239.9299999997
 20
5714221.66000000015
  0
VERTEX
  5
19D
100
AcDbEntity
  8
Kontury
100
AcDbVertex
100
AcDb2dVertex
 10
7569306.40000000037
 20
5714231.04000000004
  0
SEQEND
  5
19E
100
AcDbEntity
  8
Kontury
  0
POLYLINE
  5
19F
100
AcDbEntity
  8
Kontury
  6
L_0_51
370
18
100
AcDb2dPolyline
 66
1
 70
128
  0
VERTEX
  5
1A0
100
AcDbEntity
  8
Kontury
100
AcDbVertex
100
AcDb2dVertex
 10
7569306.40000000037
 20
5714231.04000000004
  0
VERTEX
  5
1A1
100
AcDbEntity
  8
Kontury
100
AcDbVertex
100
AcDb2dVertex
 10
7569330.61000000034
 20
5714239.58000000007
  0
SEQEND
  5
1A2
100
AcDbEntity
  8
Kontury
  0
POLYLINE
  5
1A3
100
AcDbEntity
  8
Kontury
  6
L_0_51
370
18
100
AcDb2dPolyline
 66
1
 70
128
  0
VERTEX
  5
1A4
100
AcDbEntity
  8
Kontury
100
AcDbVertex
100
AcDb2dVertex
 10
7569438.49000000022
 20
5714220.11000000034
  0
VERTEX
  5
1A5
100
AcDbEntity
  8
Kontury
100
AcDbVertex
100
AcDb2dVertex
 10
7569328.12000000011
 20
5714210.44000000041
  0
SEQEND
  5
1A6
100
AcDbEntity
  8
Kontury
  0
POLYLINE
  5
1A7
100
AcDbEntity
  8
Kontury
  6
L_0_51
370
18
100
AcDb2dPolyline
 66
1
 70
128
  0
VERTEX
  5
1A8
100
AcDbEntity
  8
Kontury
100
AcDbVertex
100
AcDb2dVertex
 10
7569328.12000000011
 20
5714210.44000000041
  0
VERTEX
  5
1A9
100
AcDbEntity
  8
Kontury
100
AcDbVertex
100
AcDb2dVertex
 10
7569283.75
 20
5714179.4299999997
  0
SEQEND
  5
1AA
100
AcDbEntity
  8
Kontury
  0
POLYLINE
  5
1AB
100
AcDbEntity
  8
Kontury
  6
L_0_51
370
18
100
AcDb2dPolyline
 66
1
 70
128
  0
VERTEX
  5
1AC
100
AcDbEntity
  8
Kontury
100
AcDbVertex
100
AcDb2dVertex
 10
7569283.75
 20
5714179.4299999997
  0
VERTEX
  5
1AD
100
AcDbEntity
  8
Kontury
100
AcDbVertex
100
AcDb2dVertex
 10
7569321.96999999974
 20
5714138.26999999862
  0
SEQEND
  5
1AE
100
AcDbEntity
  8
Kontury
  0
POLYLINE
  5
1AF
100
AcDbEntity
  8
Kontury
  6
L_0_51
370
18
100
AcDb2dPolyline
 66
1
 70
128
  0
VERTEX
  5
1B0
100
AcDbEntity
  8
Kontury
100
AcDbVertex
100
AcDb2dVertex
 10
7569321.96999999974
 20
5714138.26999999862
  0
VERTEX
  5
1B1
100
AcDbEntity
  8
Kontury
100
AcDbVertex
100
AcDb2dVertex
 10
7569266.70000000019
 20
5714131.91000000015
  0
SEQEND
  5
1B2
100
AcDbEntity
  8
Kontury
  0
POLYLINE
  5
1B3
100
AcDbEntity
  8
Kontury
  6
L_0_51
370
18
100
AcDb2dPolyline
 66
1
 70
128
  0
VERTEX
  5
1B4
100
AcDbEntity
  8
Kontury
100
AcDbVertex
100
AcDb2dVertex
 10
7569266.70000000019
 20
5714131.91000000015
  0
VERTEX
  5
1B5
100
AcDbEntity
  8
Kontury
100
AcDbVertex
100
AcDb2dVertex
 10
7569158.40000000037
 20
5714136.08999999985
  0
SEQEND
  5
1B6
100
AcDbEntity
  8
Kontury
  0
POLYLINE
  5
1B7
100
AcDbEntity
  8
Kontury
  6
L_0_51
370
18
100
AcDb2dPolyline
 66
1
 70
128
  0
VERTEX
  5
1B8
100
AcDbEntity
  8
Kontury
100
AcDbVertex
100
AcDb2dVertex
 10
7569234.12000000011
 20
5714091.04000000004
  0
VERTEX
  5
1B9
100
AcDbEntity
  8
Kontury
100
AcDbVertex
100
AcDb2dVertex
 10
7569316.98000000045
 20
5714079.30999999959
  0
SEQEND
  5
1BA
100
AcDbEntity
  8
Kontury
  0
POLYLINE
  5
1BB
100
AcDbEntity
  8
Kontury
  6
L_0_51
370
18
100
AcDb2dPolyline
 66
1
 70
128
  0
VERTEX
  5
1BC
100
AcDbEntity
  8
Kontury
100
AcDbVertex
100
AcDb2dVertex
 10
7569316.98000000045
 20
5714079.30999999959
  0
VERTEX
  5
1BD
100
AcDbEntity
  8
Kontury
100
AcDbVertex
100
AcDb2dVertex
 10
7569448.96999999974
 20
5714088.34999999963
  0
SEQEND
  5
1BE
100
AcDbEntity
  8
Kontury
  0
POLYLINE
  5
1BF
100
AcDbEntity
  8
Kontury
  6
L_0_51
370
18
100
AcDb2dPolyline
 66
1
 70
128
  0
VERTEX
  5
1C0
100
AcDbEntity
  8
Kontury
100
AcDbVertex
100
AcDb2dVertex
 10
7569205.5
 20
5714006.5
  0
VERTEX
  5
1C1
100
AcDbEntity
  8
Kontury
100
AcDbVertex
100
AcDb2dVertex
 10
7569256.11000000034
 20
5714007.0700000003
  0
SEQEND
  5
1C2
100
AcDbEntity
  8
Kontury
  0
POLYLINE
  5
1C3
100
AcDbEntity
  8
Kontury
  6
L_0_51
370
18
100
AcDb2dPolyline
 66
1
 70
128
  0
VERTEX
  5
1C4
100
AcDbEntity
  8
Kontury
100
AcDbVertex
100
AcDb2dVertex
 10
7569256.11000000034
 20
5714007.0700000003
  0
VERTEX
  5
1C5
100
AcDbEntity
  8
Kontury
100
AcDbVertex
100
AcDb2dVertex
 10
7569255.48000000045
 20
5713999.44000000041
  0
SEQEND
  5
1C6
100
AcDbEntity
  8
Kontury
  0
POLYLINE
  5
1C7
100
AcDbEntity
  8
Kontury
  6
L_0_51
370
18
100
AcDb2dPolyline
 66
1
 70
128
  0
VERTEX
  5
1C8
100
AcDbEntity
  8
Kontury
100
AcDbVertex
100
AcDb2dVertex
 10
7569255.48000000045
 20
5713999.44000000041
  0
VERTEX
  5
1C9
100
AcDbEntity
  8
Kontury
100
AcDbVertex
100
AcDb2dVertex
 10
7569311.04000000004
 20
5714007.51999999862
  0
SEQEND
  5
1CA
100
AcDbEntity
  8
Kontury
  0
POLYLINE
  5
1CB
100
AcDbEntity
  8
Kontury
  6
L_0_51
370
18
100
AcDb2dPolyline
 66
1
 70
128
  0
VERTEX
  5
1CC
100
AcDbEntity
  8
Kontury
100
AcDbVertex
100
AcDb2dVertex
 10
7569311.04000000004
 20
5714007.51999999862
  0
VERTEX
  5
1CD
100
AcDbEntity
  8
Kontury
100
AcDbVertex
100
AcDb2dVertex
 10
7569311.53000000026
 20
5714013.45999999996
  0
SEQEND
  5
1CE
100
AcDbEntity
  8
Kontury
  0
POLYLINE
  5
1CF
100
AcDbEntity
  8
Kontury
  6
L_0_51
370
18
100
AcDb2dPolyline
 66
1
 70
128
  0
VERTEX
  5
1D0
100
AcDbEntity
  8
Kontury
100
AcDbVertex
100
AcDb2dVertex
 10
7569311.53000000026
 20
5714013.45999999996
  0
VERTEX
  5
1D1
100
AcDbEntity
  8
Kontury
100
AcDbVertex
100
AcDb2dVertex
 10
7569207.87000000011
 20
5714034.59999999963
  0
SEQEND
  5
1D2
100
AcDbEntity
  8
Kontury
  0
POLYLINE
  5
1D3
100
AcDbEntity
  8
Kontury
  6
L_0_51
370
18
100
AcDb2dPolyline
 66
1
 70
128
  0
VERTEX
  5
1D4
100
AcDbEntity
  8
Kontury
100
AcDbVertex
100
AcDb2dVertex
 10
7569225.45999999996
 20
5714242.91999999993
  0
VERTEX
  5
1D5
100
AcDbEntity
  8
Kontury
100
AcDbVertex
100
AcDb2dVertex
 10
7569310.24000000022
 20
5714272.65000000037
  0
SEQEND
  5
1D6
100
AcDbEntity
  8
Kontury
  0
POLYLINE
  5
1D7
100
AcDbEntity
  8
Kontury
  6
L_0_51
370
18
100
AcDb2dPolyline
 66
1
 70
128
  0
VERTEX
  5
1D8
100
AcDbEntity
  8
Kontury
100
AcDbVertex
100
AcDb2dVertex
 10
7569310.24000000022
 20
5714272.65000000037
  0
VERTEX
  5
1D9
100
AcDbEntity
  8
Kontury
100
AcDbVertex
100
AcDb2dVertex
 10
7569309.5
 20
5714291.83000000007
  0
SEQEND
  5
1DA
100
AcDbEntity
  8
Kontury
  0
POLYLINE
  5
1DB
100
AcDbEntity
  8
Kontury
  6
L_0_51
370
18
100
AcDb2dPolyline
 66
1
 70
128
  0
VERTEX
  5
1DC
100
AcDbEntity
  8
Kontury
100
AcDbVertex
100
AcDb2dVertex
 10
7569309.5
 20
5714291.83000000007
  0
VERTEX
  5
1DD
100
AcDbEntity
  8
Kontury
100
AcDbVertex
100
AcDb2dVertex
 10
7569279.75
 20
5714279.91000000015
  0
SEQEND
  5
1DE
100
AcDbEntity
  8
Kontury
  0
POLYLINE
  5
1DF
100
AcDbEntity
  8
Kontury
  6
L_0_51
370
18
100
AcDb2dPolyline
 66
1
 70
128
  0
VERTEX
  5
1E0
100
AcDbEntity
  8
Kontury
100
AcDbVertex
100
AcDb2dVertex
 10
7569279.75
 20
5714279.91000000015
  0
VERTEX
  5
1E1
100
AcDbEntity
  8
Kontury
100
AcDbVertex
100
AcDb2dVertex
 10
7569226.87000000011
 20
5714259.62999999989
  0
SEQEND
  5
1E2
100
AcDbEntity
  8
Kontury
  0
POLYLINE
  5
1E3
100
AcDbEntity
  8
Kontury
  6
L_0_51
370
18
100
AcDb2dPolyline
 66
1
 70
128
  0
VERTEX
  5
1E4
100
AcDbEntity
  8
Kontury
100
AcDbVertex
100
AcDb2dVertex
 10
7569351.69000000041
 20
5714376.41000000015
  0
VERTEX
  5
1E5
100
AcDbEntity
  8
Kontury
100
AcDbVertex
100
AcDb2dVertex
 10
7569342.25999999978
 20
5714376.19000000041
  0
SEQEND
  5
1E6
100
AcDbEntity
  8
Kontury
  0
POLYLINE
  5
1E7
100
AcDbEntity
  8
Kontury
  6
L_0_51
370
18
100
AcDb2dPolyline
 66
1
 70
128
  0
VERTEX
  5
1E8
100
AcDbEntity
  8
Kontury
100
AcDbVertex
100
AcDb2dVertex
 10
7569342.25999999978
 20
5714376.19000000041
  0
VERTEX
  5
1E9
100
AcDbEntity
  8
Kontury
100
AcDbVertex
100
AcDb2dVertex
 10
7569321.30999999959
 20
5714372.04999999981
  0
SEQEND
  5
1EA
100
AcDbEntity
  8
Kontury
  0
POLYLINE
  5
1EB
100
AcDbEntity
  8
Kontury
  6
L_0_51
370
18
100
AcDb2dPolyline
 66
1
 70
128
  0
VERTEX
  5
1EC
100
AcDbEntity
  8
Kontury
100
AcDbVertex
100
AcDb2dVertex
 10
7569321.30999999959
 20
5714372.04999999981
  0
VERTEX
  5
1ED
100
AcDbEntity
  8
Kontury
100
AcDbVertex
100
AcDb2dVertex
 10
7569289.15000000037
 20
5714372.21999999974
  0
SEQEND
  5
1EE
100
AcDbEntity
  8
Kontury
  0
POLYLINE
  5
1EF
100
AcDbEntity
  8
Kontury
  6
L_0_51
370
18
100
AcDb2dPolyline
 66
1
 70
128
  0
VERTEX
  5
1F0
100
AcDbEntity
  8
Kontury
100
AcDbVertex
100
AcDb2dVertex
 10
7569289.15000000037
 20
5714372.21999999974
  0
VERTEX
  5
1F1
100
AcDbEntity
  8
Kontury
100
AcDbVertex
100
AcDb2dVertex
 10
7569287.95999999996
 20
5714373.00999999978
  0
SEQEND
  5
1F2
100
AcDbEntity
  8
Kontury
  0
POLYLINE
  5
1F3
100
AcDbEntity
  8
Kontury
  6
L_0_51
370
18
100
AcDb2dPolyline
 66
1
 70
128
  0
VERTEX
  5
1F4
100
AcDbEntity
  8
Kontury
100
AcDbVertex
100
AcDb2dVertex
 10
7569287.95999999996
 20
5714373.00999999978
  0
VERTEX
  5
1F5
100
AcDbEntity
  8
Kontury
100
AcDbVertex
100
AcDb2dVertex
 10
7569268.49000000022
 20
5714385.95000000019
  0
SEQEND
  5
1F6
100
AcDbEntity
  8
Kontury
  0
POLYLINE
  5
1F7
100
AcDbEntity
  8
Kontury
  6
L_0_51
370
18
100
AcDb2dPolyline
 66
1
 70
128
  0
VERTEX
  5
1F8
100
AcDbEntity
  8
Kontury
100
AcDbVertex
100
AcDb2dVertex
 10
7569237.12000000011
 20
5714381.0
  0
VERTEX
  5
1F9
100
AcDbEntity
  8
Kontury
100
AcDbVertex
100
AcDb2dVertex
 10
7569339.87999999989
 20
5714348.13999999966
  0
SEQEND
  5
1FA
100
AcDbEntity
  8
Kontury
  0
POLYLINE
  5
1FB
100
AcDbEntity
  8
Kontury
  6
L_0_51
370
18
100
AcDb2dPolyline
 66
1
 70
128
  0
VERTEX
  5
1FC
100
AcDbEntity
  8
Kontury
100
AcDbVertex
100
AcDb2dVertex
 10
7569339.87999999989
 20
5714348.13999999966
  0
VERTEX
  5
1FD
100
AcDbEntity
  8
Kontury
100
AcDbVertex
100
AcDb2dVertex
 10
7569385.29000000004
 20
5714337.95000000019
  0
SEQEND
  5
1FE
100
AcDbEntity
  8
Kontury
  0
POLYLINE
  5
1FF
100
AcDbEntity
  8
Kontury
  6
L_0_51
370
18
100
AcDb2dPolyline
 66
1
 70
128
  0
VERTEX
  5
200
100
AcDbEntity
  8
Kontury
100
AcDbVertex
100
AcDb2dVertex
 10
7569311.53000000026
 20
5714013.45999999996
  0
VERTEX
  5
201
100
AcDbEntity
  8
Kontury
100
AcDbVertex
100
AcDb2dVertex
 10
7569331.8200000003
 20
5714009.33999999985
  0
SEQEND
  5
202
100
AcDbEntity
  8
Kontury
  0
POLYLINE
  5
203
100
AcDbEntity
  8
Kontury
  6
L_0_51
370
18
100
AcDb2dPolyline
 66
1
 70
128
  0
VERTEX
  5
204
100
AcDbEntity
  8
Kontury
100
AcDbVertex
100
AcDb2dVertex
 10
7569311.76999999955
 20
5713924.80999999959
  0
VERTEX
  5
205
100
AcDbEntity
  8
Kontury
100
AcDbVertex
100
AcDb2dVertex
 10
7569304.29999999981
 20
5713925.87999999989
  0
SEQEND
  5
206
100
AcDbEntity
  8
Kontury
  0
POLYLINE
  5
207
100
AcDbEntity
  8
Kontury
  6
L_0_51
370
18
100
AcDb2dPolyline
 66
1
 70
128
  0
VERTEX
  5
208
100
AcDbEntity
  8
Kontury
100
AcDbVertex
100
AcDb2dVertex
 10
7569304.29999999981
 20
5713925.87999999989
  0
VERTEX
  5
209
100
AcDbEntity
  8
Kontury
100
AcDbVertex
100
AcDb2dVertex
 10
7569249.48000000045
 20
5713927.50999999978
  0
SEQEND
  5
20A
100
AcDbEntity
  8
Kontury
  0
POLYLINE
  5
20B
100
AcDbEntity
  8
Kontury
  6
L_0_51
370
18
100
AcDb2dPolyline
 66
1
 70
128
  0
VERTEX
  5
20C
100
AcDbEntity
  8
Kontury
100
AcDbVertex
100
AcDb2dVertex
 10
7569249.48000000045
 20
5713927.50999999978
  0
VERTEX
  5
20D
100
AcDbEntity
  8
Kontury
100
AcDbVertex
100
AcDb2dVertex
 10
7569249.19000000041
 20
5713923.98000000045
  0
SEQEND
  5
20E
100
AcDbEntity
  8
Kontury
  0
POLYLINE
  5
20F
100
AcDbEntity
  8
Kontury
  6
L_0_51
370
18
100
AcDb2dPolyline
 66
1
 70
128
  0
VERTEX
  5
210
100
AcDbEntity
  8
Kontury
100
AcDbVertex
100
AcDb2dVertex
 10
7569249.19000000041
 20
5713923.98000000045
  0
VERTEX
  5
211
100
AcDbEntity
  8
Kontury
100
AcDbVertex
100
AcDb2dVertex
 10
7569234.91999999993
 20
5713923.9299999997
  0
SEQEND
  5
212
100
AcDbEntity
  8
Kontury
  0
POLYLINE
  5
213
100
AcDbEntity
  8
Kontury
  6
L_0_51
370
18
100
AcDb2dPolyline
 66
1
 70
128
  0
VERTEX
  5
214
100
AcDbEntity
  8
Kontury
100
AcDbVertex
100
AcDb2dVertex
 10
7569194.83000000007
 20
5713880.12000000011
  0
VERTEX
  5
215
100
AcDbEntity
  8
Kontury
100
AcDbVertex
100
AcDb2dVertex
 10
7569245.84999999963
 20
5713883.9299999997
  0
SEQEND
  5
216
100
AcDbEntity
  8
Kontury
  0
POLYLINE
  5
217
100
AcDbEntity
  8
Kontury
  6
L_0_51
370
18
100
AcDb2dPolyline
 66
1
 70
128
  0
VERTEX
  5
218
100
AcDbEntity
  8
Kontury
100
AcDbVertex
100
AcDb2dVertex
 10
7569245.84999999963
 20
5713883.9299999997
  0
VERTEX
  5
219
100
AcDbEntity
  8
Kontury
100
AcDbVertex
100
AcDb2dVertex
 10
7569301.16999999993
 20
5713888.0700000003
  0
SEQEND
  5
21A
100
AcDbEntity
  8
Kontury
  0
POLYLINE
  5
21B
100
AcDbEntity
  8
Kontury
  6
L_0_51
370
18
100
AcDb2dPolyline
 66
1
 70
128
  0
VERTEX
  5
21C
100
AcDbEntity
  8
Kontury
100
AcDbVertex
100
AcDb2dVertex
 10
7569301.16999999993
 20
5713888.0700000003
  0
VERTEX
  5
21D
100
AcDbEntity
  8
Kontury
100
AcDbVertex
100
AcDb2dVertex
 10
7569347.19000000041
 20
5713891.50999999978
  0
SEQEND
  5
21E
100
AcDbEntity
  8
Kontury
  0
POLYLINE
  5
21F
100
AcDbEntity
  8
OTW_L_0
  6
CONTINUOUS
 62
141
370
18
100
AcDb2dPolyline
 66
1
 70
128
  0
VERTEX
  5
220
100
AcDbEntity
  8
OTW_L_0
100
AcDbVertex
100
AcDb2dVertex
 10
7569289.66970620956
 20
5714372.07166821975
  0
VERTEX
  5
221
100
AcDbEntity
  8
OTW_L_0
100
AcDbVertex
100
AcDb2dVertex
 10
7569266.5159619404
 20
5714383.19749339111
  0
SEQEND
  5
222
100
AcDbEntity
  8
OTW_L_0
  0
POLYLINE
  5
223
100
AcDbEntity
  8
OTW_L_0
  6
CONTINUOUS
 62
141
370
18
100
AcDb2dPolyline
 66
1
 70
128
  0
VERTEX
  5
224
100
AcDbEntity
  8
OTW_L_0
100
AcDbVertex
100
AcDb2dVertex
 10
7569321.87258024979
 20
5714372.33477894962
  0
VERTEX
  5
225
100
AcDbEntity
  8
OTW_L_0
100
AcDbVertex
100
AcDb2dVertex
 10
7569289.66970620956
 20
5714372.07166821975
  0
SEQEND
  5
226
100
AcDbEntity
  8
OTW_L_0
  0
POLYLINE
  5
227
100
AcDbEntity
  8
OTW_L_0
  6
CONTINUOUS
 62
141
370
18
100
AcDb2dPolyline
 66
1
 70
128
  0
VERTEX
  5
228
100
AcDbEntity
  8
OTW_L_0
100
AcDbVertex
100
AcDb2dVertex
 10
7569341.99741885997
 20
5714376.21096380986
  0
VERTEX
  5
229
100
AcDbEntity
  8
OTW_L_0
100
AcDbVertex
100
AcDb2dVertex
 10
7569321.87258024979
 20
5714372.33477894962
  0
SEQEND
  5
22A
100
AcDbEntity
  8
OTW_L_0
  0
POLYLINE
  5
22B
100
AcDbEntity
  8
OTW_L_0
  6
CONTINUOUS
 62
141
370
18
100
AcDb2dPolyline
 66
1
 70
128
  0
VERTEX
  5
22C
100
AcDbEntity
  8
OTW_L_0
100
AcDbVertex
100
AcDb2dVertex
 10
7569361.33918980975
 20
5714376.28927057982
  0
VERTEX
  5
22D
100
AcDbEntity
  8
OTW_L_0
100
AcDbVertex
100
AcDb2dVertex
 10
7569341.99741885997
 20
5714376.21096380986
  0
SEQEND
  5
22E
100
AcDbEntity
  8
OTW_L_0
  0
POLYLINE
  5
22F
100
AcDbEntity
  8
podzial
  6
CONTINUOUS
370
18
100
AcDb2dPolyline
 66
1
 70
128
  0
VERTEX
  5
230
100
AcDbEntity
  8
podzial
100
AcDbVertex
100
AcDb2dVertex
 10
7569295.11547768116
 20
5713887.61689583492
  0
VERTEX
  5
231
100
AcDbEntity
  8
podzial
100
AcDbVertex
100
AcDb2dVertex
 10
7569298.44672532566
 20
5713927.96617185883
  0
VERTEX
  5
232
100
AcDbEntity
  8
podzial
100
AcDbVertex
100
AcDb2dVertex
 10
7569249.21495772433
 20
5713924.28379574604
  0
SEQEND
  5
233
100
AcDbEntity
  8
podzial
  0
POLYLINE
  5
234
100
AcDbEntity
  8
podzial
  6
CONTINUOUS
370
18
100
AcDb2dPolyline
 66
1
 70
128
  0
VERTEX
  5
235
100
AcDbEntity
  8
podzial
100
AcDbVertex
100
AcDb2dVertex
 10
7569298.44887232594
 20
5713927.96633244772
  0
VERTEX
  5
236
100
AcDbEntity
  8
podzial
100
AcDbVertex
100
AcDb2dVertex
 10
7569301.78000000026
 20
5713968.33999999985
  0
VERTEX
  5
237
100
AcDbEntity
  8
podzial
100
AcDbVertex
100
AcDb2dVertex
 10
7569307.84126540832
 20
5713968.79152750317
  0
SEQEND
  5
238
100
AcDbEntity
  8
podzial
  0
POLYLINE
  5
239
100
AcDbEntity
  8
podzial
  6
CONTINUOUS
370
18
100
AcDb2dPolyline
 66
1
 70
128
  0
VERTEX
  5
23A
100
AcDbEntity
  8
podzial
100
AcDbVertex
100
AcDb2dVertex
 10
7569301.78000000026
 20
5713968.33999999985
  0
VERTEX
  5
23B
100
AcDbEntity
  8
podzial
100
AcDbVertex
100
AcDb2dVertex
 10
7569252.58000000007
 20
5713964.66000000015
  0
SEQEND
  5
23C
100
AcDbEntity
  8
podzial
  0
CIRCLE
  5
23D
100
AcDbEntity
  8
SUP_T_2
  6
CONTINUOUS
 62
7
370
18
100
AcDbCircle
 10
7569302.58134168107
 20
5713888.66805332992
 40
0.25
  0
CIRCLE
  5
23E
100
AcDbEntity
  8
SUP_T_2
  6
CONTINUOUS
 62
7
370
18
100
AcDbCircle
 10
7569252.43843941018
 20
5713887.36683001928
 40
0.25
  0
CIRCLE
  5
23F
100
AcDbEntity
  8
SUP_T_2
  6
CONTINUOUS
 62
7
370
18
100
AcDbCircle
 10
7569250.6644532308
 20
5713885.40095101018
 40
0.25
  0
POLYLINE
  5
240
100
AcDbEntity
  8
SUP_T_2
  6
CONTINUOUS
 62
7
370
18
100
AcDb2dPolyline
 66
1
 70
128
  0
VERTEX
  5
241
100
AcDbEntity
  8
SUP_T_2
100
AcDbVertex
100
AcDb2dVertex
 10
7569252.1034675315
 20
5713886.99562409241
  0
VERTEX
  5
242
100
AcDbEntity
  8
SUP_T_2
100
AcDbVertex
100
AcDb2dVertex
 10
7569251.76849565282
 20
5713886.62441816553
  0
SEQEND
  5
243
100
AcDbEntity
  8
SUP_T_2
  0
POLYLINE
  5
244
100
AcDbEntity
  8
SUP_T_2
  6
CONTINUOUS
 62
7
370
18
100
AcDb2dPolyline
 66
1
 70
128
  0
VERTEX
  5
245
100
AcDbEntity
  8
SUP_T_2
100
AcDbVertex
100
AcDb2dVertex
 10
7569251.33439698722
 20
5713886.14336286485
  0
VERTEX
  5
246
100
AcDbEntity
  8
SUP_T_2
100
AcDbVertex
100
AcDb2dVertex
 10
7569250.99942510854
 20
5713885.77215693705
  0
SEQEND
  5
247
100
AcDbEntity
  8
SUP_T_2
  0
POLYLINE
  5
248
100
AcDbEntity
  8
Uzytki
  6
L_0_44
370
18
100
AcDb2dPolyline
 66
1
 70
128
  0
VERTEX
  5
249
100
AcDbEntity
  8
Uzytki
100
AcDbVertex
100
AcDb2dVertex
 10
7569225.45999999996
 20
5714242.91999999993
  0
VERTEX
  5
24A
100
AcDbEntity
  8
Uzytki
100
AcDbVertex
100
AcDb2dVertex
 10
7569310.24000000022
 20
5714272.65000000037
  0
SEQEND
  5
24B
100
AcDbEntity
  8
Uzytki
  0
POLYLINE
  5
24C
100
AcDbEntity
  8
Uzytki
  6
L_0_44
370
18
100
AcDb2dPolyline
 66
1
 70
128
  0
VERTEX
  5
24D
100
AcDbEntity
  8
Uzytki
100
AcDbVertex
100
AcDb2dVertex
 10
7569310.24000000022
 20
5714272.65000000037
  0
VERTEX
  5
24E
100
AcDbEntity
  8
Uzytki
100
AcDbVertex
100
AcDb2dVertex
 10
7569309.5
 20
5714291.83000000007
  0
SEQEND
  5
24F
100
AcDbEntity
  8
Uzytki
  0
POLYLINE
  5
250
100
AcDbEntity
  8
Uzytki
  6
L_0_44
370
18
100
AcDb2dPolyline
 66
1
 70
128
  0
VERTEX
  5
251
100
AcDbEntity
  8
Uzytki
100
AcDbVertex
100
AcDb2dVertex
 10
7569309.5
 20
5714291.83000000007
  0
VERTEX
  5
252
100
AcDbEntity
  8
Uzytki
100
AcDbVertex
100
AcDb2dVertex
 10
7569279.75
 20
5714279.91000000015
  0
SEQEND
  5
253
100
AcDbEntity
  8
Uzytki
  0
POLYLINE
  5
254
100
AcDbEntity
  8
Uzytki
  6
L_0_44
370
18
100
AcDb2dPolyline
 66
1
 70
128
  0
VERTEX
  5
255
100
AcDbEntity
  8
Uzytki
100
AcDbVertex
100
AcDb2dVertex
 10
7569279.75
 20
5714279.91000000015
  0
VERTEX
  5
256
100
AcDbEntity
  8
Uzytki
100
AcDbVertex
100
AcDb2dVertex
 10
7569226.87000000011
 20
5714259.62999999989
  0
SEQEND
  5
257
100
AcDbEntity
  8
Uzytki
  0
POLYLINE
  5
258
100
AcDbEntity
  8
Uzytki
  6
L_0_44
370
18
100
AcDb2dPolyline
 66
1
 70
128
  0
VERTEX
  5
259
100
AcDbEntity
  8
Uzytki
100
AcDbVertex
100
AcDb2dVertex
 10
7569340.16000000015
 20
5714101.50999999978
  0
VERTEX
  5
25A
100
AcDbEntity
  8
Uzytki
100
AcDbVertex
100
AcDb2dVertex
 10
7569319.04999999981
 20
5714101.3200000003
  0
SEQEND
  5
25B
100
AcDbEntity
  8
Uzytki
  0
POLYLINE
  5
25C
100
AcDbEntity
  8
Uzytki
  6
L_0_44
370
18
100
AcDb2dPolyline
 66
1
 70
128
  0
VERTEX
  5
25D
100
AcDbEntity
  8
Uzytki
100
AcDbVertex
100
AcDb2dVertex
 10
7569319.04999999981
 20
5714101.3200000003
  0
VERTEX
  5
25E
100
AcDbEntity
  8
Uzytki
100
AcDbVertex
100
AcDb2dVertex
 10
7569248.69000000041
 20
5714100.70999999996
  0
SEQEND
  5
25F
100
AcDbEntity
  8
Uzytki
  0
POLYLINE
  5
260
100
AcDbEntity
  8
Uzytki
  6
L_0_44
370
18
100
AcDb2dPolyline
 66
1
 70
128
  0
VERTEX
  5
261
100
AcDbEntity
  8
Uzytki
100
AcDbVertex
100
AcDb2dVertex
 10
7569247.54000000004
 20
5714094.75
  0
VERTEX
  5
262
100
AcDbEntity
  8
Uzytki
100
AcDbVertex
100
AcDb2dVertex
 10
7569318.54999999981
 20
5714095.33999999985
  0
SEQEND
  5
263
100
AcDbEntity
  8
Uzytki
  0
POLYLINE
  5
264
100
AcDbEntity
  8
Uzytki
  6
L_0_44
370
18
100
AcDb2dPolyline
 66
1
 70
128
  0
VERTEX
  5
265
100
AcDbEntity
  8
Uzytki
100
AcDbVertex
100
AcDb2dVertex
 10
7569318.54999999981
 20
5714095.33999999985
  0
VERTEX
  5
266
100
AcDbEntity
  8
Uzytki
100
AcDbVertex
100
AcDb2dVertex
 10
7569339.62000000011
 20
5714095.51999999862
  0
SEQEND
  5
267
100
AcDbEntity
  8
Uzytki
  0
POLYLINE
  5
268
100
AcDbEntity
  8
Uzytki
  6
L_0_44
370
18
100
AcDb2dPolyline
 66
1
 70
128
  0
VERTEX
  5
269
100
AcDbEntity
  8
Uzytki
100
AcDbVertex
100
AcDb2dVertex
 10
7569331.8200000003
 20
5714009.33999999985
  0
VERTEX
  5
26A
100
AcDbEntity
  8
Uzytki
100
AcDbVertex
100
AcDb2dVertex
 10
7569311.53000000026
 20
5714013.45999999996
  0
SEQEND
  5
26B
100
AcDbEntity
  8
Uzytki
  0
POLYLINE
  5
26C
100
AcDbEntity
  8
Uzytki
  6
L_0_44
370
18
100
AcDb2dPolyline
 66
1
 70
128
  0
VERTEX
  5
26D
100
AcDbEntity
  8
Uzytki
100
AcDbVertex
100
AcDb2dVertex
 10
7569311.53000000026
 20
5714013.45999999996
  0
VERTEX
  5
26E
100
AcDbEntity
  8
Uzytki
100
AcDbVertex
100
AcDb2dVertex
 10
7569311.04000000004
 20
5714007.51999999862
  0
SEQEND
  5
26F
100
AcDbEntity
  8
Uzytki
  0
POLYLINE
  5
270
100
AcDbEntity
  8
Uzytki
  6
L_0_44
370
18
100
AcDb2dPolyline
 66
1
 70
128
  0
VERTEX
  5
271
100
AcDbEntity
  8
Uzytki
100
AcDbVertex
100
AcDb2dVertex
 10
7569311.04000000004
 20
5714007.51999999862
  0
VERTEX
  5
272
100
AcDbEntity
  8
Uzytki
100
AcDbVertex
100
AcDb2dVertex
 10
7569255.48000000045
 20
5713999.44000000041
  0
SEQEND
  5
273
100
AcDbEntity
  8
Uzytki
  0
POLYLINE
  5
274
100
AcDbEntity
  8
Uzytki
  6
L_0_44
370
18
100
AcDb2dPolyline
 66
1
 70
128
  0
VERTEX
  5
275
100
AcDbEntity
  8
Uzytki
100
AcDbVertex
100
AcDb2dVertex
 10
7569255.48000000045
 20
5713999.44000000041
  0
VERTEX
  5
276
100
AcDbEntity
  8
Uzytki
100
AcDbVertex
100
AcDb2dVertex
 10
7569256.11000000034
 20
5714007.0700000003
  0
SEQEND
  5
277
100
AcDbEntity
  8
Uzytki
  0
POLYLINE
  5
278
100
AcDbEntity
  8
Uzytki
  6
L_0_44
370
18
100
AcDb2dPolyline
 66
1
 70
128
  0
VERTEX
  5
279
100
AcDbEntity
  8
Uzytki
100
AcDbVertex
100
AcDb2dVertex
 10
7569256.11000000034
 20
5714007.0700000003
  0
VERTEX
  5
27A
100
AcDbEntity
  8
Uzytki
100
AcDbVertex
100
AcDb2dVertex
 10
7569205.5
 20
5714006.5
  0
SEQEND
  5
27B
100
AcDbEntity
  8
Uzytki
  0
POLYLINE
  5
27C
100
AcDbEntity
  8
Uzytki
  6
L_0_44
370
18
100
AcDb2dPolyline
 66
1
 70
128
  0
VERTEX
  5
27D
100
AcDbEntity
  8
Uzytki
100
AcDbVertex
100
AcDb2dVertex
 10
7569234.91999999993
 20
5713923.9299999997
  0
VERTEX
  5
27E
100
AcDbEntity
  8
Uzytki
100
AcDbVertex
100
AcDb2dVertex
 10
7569249.19000000041
 20
5713923.98000000045
  0
SEQEND
  5
27F
100
AcDbEntity
  8
Uzytki
  0
POLYLINE
  5
280
100
AcDbEntity
  8
Uzytki
  6
L_0_44
370
18
100
AcDb2dPolyline
 66
1
 70
128
  0
VERTEX
  5
281
100
AcDbEntity
  8
Uzytki
100
AcDbVertex
100
AcDb2dVertex
 10
7569249.19000000041
 20
5713923.98000000045
  0
VERTEX
  5
282
100
AcDbEntity
  8
Uzytki
100
AcDbVertex
100
AcDb2dVertex
 10
7569249.48000000045
 20
5713927.50999999978
  0
SEQEND
  5
283
100
AcDbEntity
  8
Uzytki
  0
POLYLINE
  5
284
100
AcDbEntity
  8
Uzytki
  6
L_0_44
370
18
100
AcDb2dPolyline
 66
1
 70
128
  0
VERTEX
  5
285
100
AcDbEntity
  8
Uzytki
100
AcDbVertex
100
AcDb2dVertex
 10
7569249.48000000045
 20
5713927.50999999978
  0
VERTEX
  5
286
100
AcDbEntity
  8
Uzytki
100
AcDbVertex
100
AcDb2dVertex
 10
7569304.29999999981
 20
5713925.87999999989
  0
SEQEND
  5
287
100
AcDbEntity
  8
Uzytki
  0
POLYLINE
  5
288
100
AcDbEntity
  8
Uzytki
  6
L_0_44
370
18
100
AcDb2dPolyline
 66
1
 70
128
  0
VERTEX
  5
289
100
AcDbEntity
  8
Uzytki
100
AcDbVertex
100
AcDb2dVertex
 10
7569304.29999999981
 20
5713925.87999999989
  0
VERTEX
  5
28A
100
AcDbEntity
  8
Uzytki
100
AcDbVertex
100
AcDb2dVertex
 10
7569311.76999999955
 20
5713924.80999999959
  0
SEQEND
  5
28B
100
AcDbEntity
  8
Uzytki
  0
POLYLINE
  5
28C
100
AcDbEntity
  8
Uzytki
  6
L_0_44
370
18
100
AcDb2dPolyline
 66
1
 70
128
  0
VERTEX
  5
28D
100
AcDbEntity
  8
Uzytki
100
AcDbVertex
100
AcDb2dVertex
 10
7569311.76999999955
 20
5713924.80999999959
  0
VERTEX
  5
28E
100
AcDbEntity
  8
Uzytki
100
AcDbVertex
100
AcDb2dVertex
 10
7569305.91999999993
 20
5713888.4299999997
  0
SEQEND
  5
28F
100
AcDbEntity
  8
Uzytki
  0
POLYLINE
  5
290
100
AcDbEntity
  8
Uzytki
  6
L_0_44
370
18
100
AcDb2dPolyline
 66
1
 70
128
  0
VERTEX
  5
291
100
AcDbEntity
  8
Uzytki
100
AcDbVertex
100
AcDb2dVertex
 10
7569305.91999999993
 20
5713888.4299999997
  0
VERTEX
  5
292
100
AcDbEntity
  8
Uzytki
100
AcDbVertex
100
AcDb2dVertex
 10
7569347.19000000041
 20
5713891.50999999978
  0
SEQEND
  5
293
100
AcDbEntity
  8
Uzytki
  0
POLYLINE
  5
294
100
AcDbEntity
  8
Uzytki
  6
L_0_44
370
18
100
AcDb2dPolyline
 66
1
 70
128
  0
VERTEX
  5
295
100
AcDbEntity
  8
Uzytki
100
AcDbVertex
100
AcDb2dVertex
 10
7569194.83000000007
 20
5713880.12000000011
  0
VERTEX
  5
296
100
AcDbEntity
  8
Uzytki
100
AcDbVertex
100
AcDb2dVertex
 10
7569245.84999999963
 20
5713883.9299999997
  0
SEQEND
  5
297
100
AcDbEntity
  8
Uzytki
  0
POLYLINE
  5
298
100
AcDbEntity
  8
Uzytki
  6
L_0_44
370
18
100
AcDb2dPolyline
 66
1
 70
128
  0
VERTEX
  5
299
100
AcDbEntity
  8
Uzytki
100
AcDbVertex
100
AcDb2dVertex
 10
7569245.84999999963
 20
5713883.9299999997
  0
VERTEX
  5
29A
100
AcDbEntity
  8
Uzytki
100
AcDbVertex
100
AcDb2dVertex
 10
7569301.16999999993
 20
5713888.0700000003
  0
SEQEND
  5
29B
100
AcDbEntity
  8
Uzytki
  0
POLYLINE
  5
29C
100
AcDbEntity
  8
Uzytki
  6
L_0_44
370
18
100
AcDb2dPolyline
 66
1
 70
128
  0
VERTEX
  5
29D
100
AcDbEntity
  8
Uzytki
100
AcDbVertex
100
AcDb2dVertex
 10
7569301.16999999993
 20
5713888.0700000003
  0
VERTEX
  5
29E
100
AcDbEntity
  8
Uzytki
100
AcDbVertex
100
AcDb2dVertex
 10
7569305.91999999993
 20
5713888.4299999997
  0
SEQEND
  5
29F
100
AcDbEntity
  8
Uzytki
  0
POLYLINE
  5
2A0
100
AcDbEntity
  8
Uzytki
  6
L_0_44
370
18
100
AcDb2dPolyline
 66
1
 70
128
  0
VERTEX
  5
2A1
100
AcDbEntity
  8
Uzytki
100
AcDbVertex
100
AcDb2dVertex
 10
7569351.69000000041
 20
5714376.41000000015
  0
VERTEX
  5
2A2
100
AcDbEntity
  8
Uzytki
100
AcDbVertex
100
AcDb2dVertex
 10
7569342.25999999978
 20
5714376.19000000041
  0
SEQEND
  5
2A3
100
AcDbEntity
  8
Uzytki
  0
POLYLINE
  5
2A4
100
AcDbEntity
  8
Uzytki
  6
L_0_44
370
18
100
AcDb2dPolyline
 66
1
 70
128
  0
VERTEX
  5
2A5
100
AcDbEntity
  8
Uzytki
100
AcDbVertex
100
AcDb2dVertex
 10
7569342.25999999978
 20
5714376.19000000041
  0
VERTEX
  5
2A6
100
AcDbEntity
  8
Uzytki
100
AcDbVertex
100
AcDb2dVertex
 10
7569321.30999999959
 20
5714372.04999999981
  0
SEQEND
  5
2A7
100
AcDbEntity
  8
Uzytki
  0
POLYLINE
  5
2A8
100
AcDbEntity
  8
Uzytki
  6
L_0_44
370
18
100
AcDb2dPolyline
 66
1
 70
128
  0
VERTEX
  5
2A9
100
AcDbEntity
  8
Uzytki
100
AcDbVertex
100
AcDb2dVertex
 10
7569321.30999999959
 20
5714372.04999999981
  0
VERTEX
  5
2AA
100
AcDbEntity
  8
Uzytki
100
AcDbVertex
100
AcDb2dVertex
 10
7569289.15000000037
 20
5714372.21999999974
  0
SEQEND
  5
2AB
100
AcDbEntity
  8
Uzytki
  0
POLYLINE
  5
2AC
100
AcDbEntity
  8
Uzytki
  6
L_0_44
370
18
100
AcDb2dPolyline
 66
1
 70
128
  0
VERTEX
  5
2AD
100
AcDbEntity
  8
Uzytki
100
AcDbVertex
100
AcDb2dVertex
 10
7569289.15000000037
 20
5714372.21999999974
  0
VERTEX
  5
2AE
100
AcDbEntity
  8
Uzytki
100
AcDbVertex
100
AcDb2dVertex
 10
7569287.95999999996
 20
5714373.00999999978
  0
SEQEND
  5
2AF
100
AcDbEntity
  8
Uzytki
  0
POLYLINE
  5
2B0
100
AcDbEntity
  8
Uzytki
  6
L_0_44
370
18
100
AcDb2dPolyline
 66
1
 70
128
  0
VERTEX
  5
2B1
100
AcDbEntity
  8
Uzytki
100
AcDbVertex
100
AcDb2dVertex
 10
7569287.95999999996
 20
5714373.00999999978
  0
VERTEX
  5
2B2
100
AcDbEntity
  8
Uzytki
100
AcDbVertex
100
AcDb2dVertex
 10
7569268.49000000022
 20
5714385.95000000019
  0
SEQEND
  5
2B3
100
AcDbEntity
  8
Uzytki
  0
POINT
  5
2B4
100
AcDbEntity
  8
0
100
AcDbPoint
 62
256
 10
7569295.11547768116
 20
5713887.61689583492
  0
POINT
  5
2B5
100
AcDbEntity
  8
0
100
AcDbPoint
 62
256
 10
7569245.84999999963
 20
5713883.9299999997
  0
POINT
  5
2B6
100
AcDbEntity
  8
0
100
AcDbPoint
 62
256
 10
7569252.58000000007
 20
5713964.66000000015
  0
POINT
  5
2B7
100
AcDbEntity
  8
0
100
AcDbPoint
 62
256
 10
7569301.78000000026
 20
5713968.33999999985
  0
TEXT
  5
2B8
100
AcDbEntity
  8
Numery_dzialek
 62
7
370
20
100
AcDbText
 39
0.20
 10
7569290.89999999851
 20
5713987.89999999851
 40
2.00
  1
%%U6-417
 50
0.00
 41
0.66
  7
STANDARD
 72
0
 11
7569290.89999999851
 21
5713989.89999999851
100
AcDbText
 73
3
  0
TEXT
  5
2B9
100
AcDbEntity
  8
Numery_dzialek
 62
7
370
20
100
AcDbText
 39
0.20
 10
7569322.38794945646
 20
5714109.66618977487
 40
2.00
  1
6-418
 50
0.00
 41
0.66
  7
STANDARD
 72
0
 11
7569322.38794945646
 21
5714111.66618977487
100
AcDbText
 73
3
  0
TEXT
  5
2BA
100
AcDbEntity
  8
Numery_dzialek
 62
7
370
20
100
AcDbText
 39
0.20
 10
7569279.83999999613
 20
5713883.62999999709
 40
2.00
  1
6-429
 50
0.00
 41
0.66
  7
STANDARD
 72
0
 11
7569279.83999999613
 21
5713885.62999999709
100
AcDbText
 73
3
  0
TEXT
  5
2BB
100
AcDbEntity
  8
Numery_dzialek
 62
7
370
20
100
AcDbText
 39
0.20
 10
7569241.39999999851
 20
5714057.19999999832
 40
2.00
  1
6-416/2
 50
0.00
 41
0.66
  7
STANDARD
 72
0
 11
7569241.39999999851
 21
5714059.19999999832
100
AcDbText
 73
3
  0
TEXT
  5
2BC
100
AcDbEntity
  8
Numery_dzialek
 62
7
370
20
100
AcDbText
 39
0.20
 10
7569314.47890495416
 20
5714372.97592408583
 40
2.00
  1
6-330
 50
0.00
 41
0.66
  7
STANDARD
 72
0
 11
7569314.47890495416
 21
5714374.97592408583
100
AcDbText
 73
3
  0
TEXT
  5
2BD
100
AcDbEntity
  8
Numery_dzialek
370
20
100
AcDbText
 39
0.20
 10
7569290.69999999832
 20
5713984.5999999987
 40
2.00
  1
2.6602 ha
 50
0.00
 41
0.66
  7
STANDARD
 72
0
 11
7569290.69999999832
 21
5713986.5999999987
100
AcDbText
 73
3
  0
TEXT
  5
2BE
100
AcDbEntity
  8
Numery_konturow
370
20
100
AcDbText
 39
0.20
 10
7569289.05999999959
 20
5714241.58000000007
 40
2.00
  1
RV
 50
0.00
 41
0.66
  7
STANDARD
 72
0
 11
7569289.05999999959
 21
5714243.58000000007
100
AcDbText
 73
3
  0
TEXT
  5
2BF
100
AcDbEntity
  8
Numery_konturow
370
20
100
AcDbText
 39
0.20
 10
7569344.62000000011
 20
5714371.00999999978
 40
2.00
  1
RV
 50
0.00
 41
0.66
  7
STANDARD
 72
0
 11
7569344.62000000011
 21
5714373.00999999978
100
AcDbText
 73
3
  0
TEXT
  5
2C0
100
AcDbEntity
  8
Numery_konturow
370
20
100
AcDbText
 39
0.20
 10
7569287.11999999639
 20
5713910.89999999758
 40
2.00
  1
RVI
 50
0.00
 41
0.66
  7
STANDARD
 72
0
 11
7569287.11999999639
 21
5713912.89999999758
100
AcDbText
 73
3
  0
TEXT
  5
2C1
100
AcDbEntity
  8
Numery_konturow
370
20
100
AcDbText
 39
0.20
 10
7569278.79721852019
 20
5713958.83196345996
 40
2.00
  1
PsV
 50
0.00
 41
0.66
  7
STANDARD
 72
0
 11
7569278.79721852019
 21
5713960.83196345996
100
AcDbText
 73
3
  0
TEXT
  5
2C2
100
AcDbEntity
  8
Numery_konturow
370
20
100
AcDbText
 39
0.20
 10
7569289.74718370661
 20
5714104.80202650465
 40
2.00
  1
RIVa
 50
0.00
 41
0.66
  7
STANDARD
 72
0
 11
7569289.74718370661
 21
5714106.80202650465
100
AcDbText
 73
3
  0
TEXT
  5
2C3
100
AcDbEntity
  8
Numery_konturow
370
20
100
AcDbText
 39
0.20
 10
7569265.98328432627
 20
5714010.37229107134
 40
2.00
  1
RV
 50
0.00
 41
0.66
  7
STANDARD
 72
0
 11
7569265.98328432627
 21
5714012.37229107134
100
AcDbText
 73
3
  0
TEXT
  5
2C4
100
AcDbEntity
  8
Numery_konturow
370
20
100
AcDbText
 39
0.20
 10
7569284.77060487121
 20
5714274.34504394885
 40
2.00
  1
PsIV
 50
0.00
 41
0.66
  7
STANDARD
 72
0
 11
7569284.77060487121
 21
5714276.34504394885
100
AcDbText
 73
3
  0
TEXT
  5
2C5
100
AcDbEntity
  8
Numery_konturow
370
20
100
AcDbText
 39
0.20
 10
7569282.02534312755
 20
5714047.68027908728
 40
2.00
  1
RIVb
 50
0.00
 41
0.66
  7
STANDARD
 72
0
 11
7569282.02534312755
 21
5714049.68027908728
100
AcDbText
 73
3
  0
TEXT
  5
2C6
100
AcDbEntity
  8
Numery_konturow
370
20
100
AcDbText
 39
0.20
 10
7569282.38723471481
 20
5714202.50516748521
 40
2.00
  1
RIVb
 50
0.00
 41
0.66
  7
STANDARD
 72
0
 11
7569282.38723471481
 21
5714204.50516748521
100
AcDbText
 73
3
  0
TEXT
  5
2C7
100
AcDbEntity
  8
Numery_konturow
370
20
100
AcDbText
 39
0.20
 10
7569297.98153131641
 20
5714319.65396694653
 40
2.00
  1
RIVb
 50
0.00
 41
0.66
  7
STANDARD
 72
0
 11
7569297.98153131641
 21
5714321.65396694653
100
AcDbText
 73
3
  0
TEXT
  5
2C8
100
AcDbEntity
  8
Numery_uzytkow
370
20
100
AcDbText
 39
0.20
 10
7569265.79000000004
 20
5713971.1799999997
 40
2.00
  1
Ps
 50
0.00
 41
0.66
  7
STANDARD
 72
0
 11
7569265.79000000004
 21
5713973.1799999997
100
AcDbText
 73
3
  0
TEXT
  5
2C9
100
AcDbEntity
  8
Numery_uzytkow
370
20
100
AcDbText
 39
0.20
 10
7569257.7055680342
 20
5713896.07500000019
 40
2.00
  1
Lzr
 50
0.00
 41
0.66
  7
STANDARD
 72
0
 11
7569257.7055680342
 21
5713898.07500000019
100
AcDbText
 73
3
  0
TEXT
  5
2CA
100
AcDbEntity
  8
Numery_uzytkow
370
20
100
AcDbText
 39
0.20
 10
7569292.72384378687
 20
5714275.59504394885
 40
2.00
  1
Ps
 50
0.00
 41
0.66
  7
STANDARD
 72
0
 11
7569292.72384378687
 21
5714277.59504394885
100
AcDbText
 73
3
  0
TEXT
  5
2CB
100
AcDbEntity
  8
Numery_uzytkow
370
20
100
AcDbText
 39
0.20
 10
7569288.38469926734
 20
5714097.42386263795
 40
2.00
  1
W
 50
0.00
 41
0.66
  7
STANDARD
 72
0
 11
7569288.38469926734
 21
5714099.42386263795
100
AcDbText
 73
3
  0
TEXT
  5
2CC
100
AcDbEntity
  8
Numery_uzytkow
370
20
100
AcDbText
 39
0.20
 10
7569310.1699999962
 20
5713900.08999999706
 40
2.00
  1
R
 50
0.00
 41
0.66
  7
STANDARD
 72
0
 11
7569310.1699999962
 21
5713902.08999999706
100
AcDbText
 73
3
  0
TEXT
  5
2CD
100
AcDbEntity
  8
Numery_uzytkow
370
20
100
AcDbText
 39
0.20
 10
7569289.41584455036
 20
5714046.58910724707
 40
2.00
  1
R
 50
0.00
 41
0.66
  7
STANDARD
 72
0
 11
7569289.41584455036
 21
5714048.58910724707
100
AcDbText
 73
3
  0
TEXT
  5
2CE
100
AcDbEntity
  8
Numery_uzytkow
370
20
100
AcDbText
 39
0.20
 10
7569303.16124697682
 20
5714241.64866580069
 40
2.00
  1
R
 50
0.00
 41
0.66
  7
STANDARD
 72
0
 11
7569303.16124697682
 21
5714243.64866580069
100
AcDbText
 73
3
  0
TEXT
  5
2CF
100
AcDbEntity
  8
Numery_uzytkow
370
20
100
AcDbText
 39
0.20
 10
7569270.77117814403
 20
5713882.56700917333
 40
2.00
  1
dr
 50
0.00
 41
0.66
  7
STANDARD
 72
0
 11
7569270.77117814403
 21
5713884.56700917333
100
AcDbText
 73
3
  0
TEXT
  5
2D0
100
AcDbEntity
  8
Numery_uzytkow
370
20
100
AcDbText
 39
0.20
 10
7569314.47891444527
 20
5714374.22594149504
 40
2.00
  1
6-13/Wp
 50
0.00
 41
0.66
  7
STANDARD
 72
0
 11
7569314.47891444527
 21
5714376.22594149504
100
AcDbText
 73
3
  0
MTEXT
  5
2D1
100
AcDbEntity
  8
podzial
370
20
100
AcDbMText
 10
7569265.69999999832
 20
5713908.0999999987
 40
2.0000
 41
0.0
 71
4
 72
1
  1
\W0.6563x;\L6-417/1
  7
STANDARD
 11
1.00000000
 21
0.00000000
 44
0.90
 90
3
 63
0
 45
1.0
  0
MTEXT
  5
2D2
100
AcDbEntity
  8
podzial
370
20
100
AcDbMText
 10
7569272.99999999814
 20
5713946.19999999832
 40
2.0000
 41
0.0
 71
4
 72
1
  1
\W0.6563x;\L6-417/2
  7
STANDARD
 11
1.00000000
 21
0.00000000
 44
0.90
 90
3
 63
0
 45
1.0
  0
MTEXT
  5
2D3
100
AcDbEntity
  8
podzial
370
20
100
AcDbMText
 10
7569301.45999999624
 20
5713947.43999999668
 40
2.0000
 41
0.0
 71
4
 72
1
  1
\W0.6563x;\L6-417/3
  7
STANDARD
 11
1.00000000
 21
0.00000000
 44
0.90
 90
3
 63
0
 45
1.0
  0
MTEXT
  5
2D4
100
AcDbEntity
  8
podzial
370
20
100
AcDbMText
 10
7569273.89999999851
 20
5713981.89999999851
 40
2.0000
 41
0.0
 71
4
 72
1
  1
\W0.6563x;\L6-417/4
  7
STANDARD
 11
1.00000000
 21
0.00000000
 44
0.90
 90
3
 63
0
 45
1.0
  0
TEXT
  5
2D5
100
AcDbEntity
  8
podzial
370
20
100
AcDbText
 39
0.20
 10
7569301.19999999832
 20
5713943.39999999851
 40
2.00
  1
0.0486 ha
 50
0.00
 41
0.66
  7
STANDARD
 72
0
 11
7569301.19999999832
 21
5713945.39999999851
100
AcDbText
 73
3
  0
MTEXT
  5
2D6
100
AcDbEntity
  8
podzial
370
20
100
AcDbMText
 10
7569272.89999999851
 20
5713942.89999999851
 40
2.0000
 41
0.0
 71
4
 72
1
  1
\W0.6563x;0.1975 ha
  7
STANDARD
 11
1.00000000
 21
0.00000000
 44
0.90
 90
3
 63
0
 45
1.0
  0
MTEXT
  5
2D7
100
AcDbEntity
  8
podzial
370
20
100
AcDbMText
 10
7569265.99999999814
 20
5713904.89999999851
 40
2.0000
 41
0.0
 71
4
 72
1
  1
\W0.6563x;0.1975 ha
  7
STANDARD
 11
1.00000000
 21
0.00000000
 44
0.90
 90
3
 63
0
 45
1.0
  0
MTEXT
  5
2D8
100
AcDbEntity
  8
podzial
370
20
100
AcDbMText
 10
7569273.19999999832
 20
5713978.69999999832
 40
2.0000
 41
0.0
 71
4
 72
1
  1
\W0.6563x;2.2166 ha
  7
STANDARD
 11
1.00000000
 21
0.00000000
 44
0.90
 90
3
 63
0
 45
1.0
  0
ENDSEC
  0
SECTION
  2
OBJECTS
  0
DICTIONARY
  5
2D9
330
0
100
AcDbDictionary
280
0
281
1
  3
ACAD_GROUP
350
2DA
  3
ACAD_LAYOUT
350
2DB
  3
ACAD_MLINESTYLE
350
2DC
  3
ACAD_PLOTSETTINGS
350
2DD
  3
ACAD_PLOTSTYLENAME
350
2DE
  0
DICTIONARY
  5
2DA
102
{ACAD_REACTORS
330
2D9
102
}
330
2D9
100
AcDbDictionary
280
0
281
1
  0
DICTIONARY
  5
2DB
102
{ACAD_REACTORS
330
2D9
102
}
330
2D9
100
AcDbDictionary
280
0
281
1
  3
Layout
350
13F
  3
Model
350
13D
  0
DICTIONARY
  5
2DC
102
{ACAD_REACTORS
330
2D9
102
}
330
2D9
100
AcDbDictionary
280
0
281
1
  3
Standard
350
2DF
  3
L_0_02
350
7
  0
DICTIONARY
  5
2DD
102
{ACAD_REACTORS
330
2D9
102
}
330
2D9
100
AcDbDictionary
280
0
281
1
  0
ACDBDICTIONARYWDFLT
  5
2DE
102
{ACAD_REACTORS
330
2D9
102
}
330
2D9
100
AcDbDictionary
281
1
  3
Normal
350
F
100
AcDbDictionaryWithDefault
340
F
  0
LAYOUT
  5
13F
100
AcDbPlotSettings
  1

  2

  4

  6

 40
0.0
 41
0.0
 42
0.0
 43
0.0
 44
0.0
 45
0.0
 46
0.0
 47
0.0
 48
0.0
 49
0.0
140
0.0
141
0.0
142
1.0
143
1.0
 70
688
 72
1
 73
0
 74
5
  7

 75
0
147
1.0
148
0.0
149
0.0
100
AcDbLayout
  1
Layout
 70
1
 71
1
 10
0.0
 20
0.0
 11
420.0
 21
297.0
 12
0.0
 22
0.0
 32
0.0
 14
100000000000000000000.0
 24
100000000000000000000.0
 34
100000000000000000000.0
 15
-100000000000000000000.0
 25
-100000000000000000000.0
 35
-100000000000000000000.0
146
0.0
 13
0.0
 23
0.0
 33
0.0
 16
1.0
 26
0.0
 36
0.0
 17
0.0
 27
1.0
 37
0.0
 76
0
330
13E
  0
LAYOUT
  5
13D
100
AcDbPlotSettings
  1

  2

  4

  6

 40
0.0
 41
0.0
 42
0.0
 43
0.0
 44
0.0
 45
0.0
 46
0.0
 47
0.0
 48
0.0
 49
0.0
140
0.0
141
0.0
142
1.0
143
1.0
 70
1712
 72
1
 73
0
 74
0
  7

 75
0
147
1.0
148
0.0
149
0.0
100
AcDbLayout
  1
Model
 70
1
 71
0
 10
0.0
 20
0.0
 11
12.0
 21
9.0
 12
0.0
 22
0.0
 32
0.0
 14
0.0
 24
0.0
 34
0.0
 15
0.0
 25
0.0
 35
0.0
146
0.0
 13
0.0
 23
0.0
 33
0.0
 16
1.0
 26
0.0
 36
0.0
 17
0.0
 27
1.0
 37
0.0
 76
0
330
13C
  0
MLINESTYLE
  5
2DF
102
{ACAD_REACTORS
330
2DC
102
}
330
2DC
100
AcDbMlineStyle
  2
Standard
 70
0
  3

 62
256
 51
90.0
 52
90.0
  2
Standard
 71
2
 49
0.5
 62
256
  6
ByLayer
 49
-0.5
 62
256
  6
ByLayer
  0
MLINESTYLE
  5
7
100
AcDbMlineStyle
  2
L_0_02
 70
0
  3

 51
90.0
 52
90.0
 71
1
 49
0.0
 62
256
  6
CONTINUOUS
  0
ACDBPLACEHOLDER
  5
F
  0
ENDSEC
  0
EOF
