  0
SECTION
  2
HEADER
  9
$ACADVER
  1
AC1018
  9
$HANDSEED
  5
FFFFFF
  9
$EXTMAX
 10
7568724.11000000034
 20
5715022.25
 30
1000000.00
  9
$EXTMIN
 10
7568570.8200000003
 20
5714930.53000000026
 30
0.00
  9
$LIMMIN
 10
7568570.8200000003
 20
5714930.53000000026
  9
$LIMMAX
 10
7568724.11000000034
 20
5715022.25
  9
$DIMASZ
 40
2.5
  9
$DIMGAP
 40
0.625
  9
$INSUNITS
 70
6
  9
$DIMEXO
 40
0.625
  9
$DIMTXT
 40
2.5
  9
$DIMSTYLE
  2
Standard
  9
$PLIMMIN
 10
0.0
 20
0.0
  9
$PLIMMAX
 10
210.0
 20
297.0
  9
$DIMEXE
 40
1.25
  9
$TEXTSIZE
 40
2.5
  9
$TEXTSTYLE
  7
Standard
  9
$LWDISPLAY
290
1
  9
$TDCREATE
 40
43626.443678368
  9
$TDUCREATE
 40
43626.360345035
  9
$TDUPDATE
 40
43626.443678368
  9
$TDUUPDATE
 40
43626.360345035
  9
$TDINDWG
 40
0.0
  9
$TDUSRTIMER
 40
0.0
  9
$USRTIMER
 70
1
  0
ENDSEC
  0
SECTION
  2
TABLES
  0
TABLE
  2
VPORT
  5
1
100
AcDbSymbolTable
 70
1
  0
VPORT
  5
2
100
AcDbSymbolTableRecord
100
AcDbViewportTableRecord
  2
*ACTIVE
 70
0
 10
0.0
 20
0.0
 11
1.0
 21
1.0
 12
7568647.46
 22
5714976.39
 13
0.0
 23
0.0
 14
1.0
 24
1.0
 15
0.0
 25
0.0
 16
0.0
 26
0.0
 36
1.0
 17
0.0
 27
0.0
 37
0.0
 40
91.72
 41
1.67
 42
50.0
 43
0.0
 44
0.0
 50
0.0
 51
0.0
 71
0
 72
100
 73
1
 74
1
 75
0
 76
0
 77
0
 78
0
  0
ENDTAB
  0
TABLE
  2
LTYPE
  5
3
100
AcDbSymbolTable
 70
385
  0
LTYPE
  5
4
100
AcDbSymbolTableRecord
100
AcDbLinetypeTableRecord
  2
ByBlock
 70
0
  3

 72
65
 73
0
 40
0.0
  0
LTYPE
  5
5
100
AcDbSymbolTableRecord
100
AcDbLinetypeTableRecord
  2
ByLayer
 70
0
  3

 72
65
 73
0
 40
0.0
  0
LTYPE
  5
6
100
AcDbSymbolTableRecord
100
AcDbLinetypeTableRecord
  2
CONTINUOUS
 70
0
  3
Solid line
 72
65
 73
0
 40
0.0
  0
LTYPE
  5
7
100
AcDbSymbolTableRecord
100
AcDbLinetypeTableRecord
  2
L_0_03
 70
0
  3
Uzytek_gruntowy
 72
65
 73
2
 40
1.0
 49
0.5
 74
0
 49
-0.5
 74
0
  0
LTYPE
  5
8
100
AcDbSymbolTableRecord
100
AcDbLinetypeTableRecord
  2
L_0_04
 70
0
  3
Budynek_projektowany
 72
65
 73
2
 40
1.5
 49
1.0
 74
0
 49
-0.5
 74
0
  0
LTYPE
  5
9
100
AcDbSymbolTableRecord
100
AcDbLinetypeTableRecord
  2
L_0_06
 70
0
  3
Granica_konturu_klasyfikacyjnego_Krawedz_chodnika
 72
65
 73
2
 40
2.0
 49
1.5
 74
0
 49
-0.5
 74
0
  0
LTYPE
  5
A
100
AcDbSymbolTableRecord
100
AcDbLinetypeTableRecord
  2
L_0_55
 70
0
  3
L_0_55
 72
65
 73
2
 40
1.5
 49
1.0
 74
0
 49
-0.5
 74
0
  0
ENDTAB
  0
TABLE
  2
LAYER
  5
B
100
AcDbSymbolTable
 70
7
  0
LAYER
  5
C
100
AcDbSymbolTableRecord
100
AcDbLayerTableRecord
  2
0
 70
0
420
0
  6
CONTINUOUS
370
18
390
D
  0
LAYER
  5
E
100
AcDbSymbolTableRecord
100
AcDbLayerTableRecord
  2
EDZPD_L_0_L_0
 70
0
420
0
  6
CONTINUOUS
370
18
390
D
  0
LAYER
  5
F
100
AcDbSymbolTableRecord
100
AcDbLayerTableRecord
  2
SUPW_E_T_2_T_0
 70
0
420
255
  6
CONTINUOUS
370
18
390
D
  0
LAYER
  5
10
100
AcDbSymbolTableRecord
100
AcDbLayerTableRecord
  2
SUPW_L_0_L_0
 70
0
420
255
  6
CONTINUOUS
370
18
390
D
  0
LAYER
  5
11
100
AcDbSymbolTableRecord
100
AcDbLayerTableRecord
  2
SUPW_L_2_L_0
 70
0
420
255
  6
CONTINUOUS
370
18
390
D
  0
LAYER
  5
12
100
AcDbSymbolTableRecord
100
AcDbLayerTableRecord
  2
SUTW_T_0_T_0
 70
0
420
255
  6
CONTINUOUS
370
18
390
D
  0
LAYER
  5
13
100
AcDbSymbolTableRecord
100
AcDbLayerTableRecord
  2
w40_proj
 70
0
420
255
  6
CONTINUOUS
370
18
390
D
  0
ENDTAB
  0
TABLE
  2
STYLE
  5
14
100
AcDbSymbolTable
 70
1
  0
STYLE
  5
15
100
AcDbSymbolTableRecord
100
AcDbTextStyleTableRecord
  2
STANDARD
 70
0
 40
0.0
 41
1.0
 50
0.0
 71
0
  3
simplex.shx
  4

  0
ENDTAB
  0
TABLE
  2
VIEW
  5
16
100
AcDbSymbolTable
 70
0
  0
ENDTAB
  0
TABLE
  2
UCS
  5
17
100
AcDbSymbolTable
 70
0
  0
ENDTAB
  0
TABLE
  2
APPID
  5
18
100
AcDbSymbolTable
 70
1
  0
APPID
  5
19
100
AcDbSymbolTableRecord
100
AcDbRegAppTableRecord
  2
ACAD
 70
0
  0
ENDTAB
  0
TABLE
  2
DIMSTYLE
  5
1A
100
AcDbSymbolTable
 70
1
100
AcDbDimStyleTable
  0
DIMSTYLE
105
1B
100
AcDbSymbolTableRecord
100
AcDbDimStyleTableRecord
  2
Standard
 70
0
340
15
  0
ENDTAB
  0
TABLE
  2
BLOCK_RECORD
  5
1C
100
AcDbSymbolTable
 70
11
  0
BLOCK_RECORD
  5
1D
100
AcDbSymbolTableRecord
100
AcDbBlockTableRecord
  2
*Model_Space
340
1E
  0
BLOCK_RECORD
  5
1F
100
AcDbSymbolTableRecord
100
AcDbBlockTableRecord
  2
*Paper_Space
340
20
  0
BLOCK_RECORD
  5
21
100
AcDbSymbolTableRecord
100
AcDbBlockTableRecord
  2
BGB
340
22
  0
BLOCK_RECORD
  5
23
100
AcDbSymbolTableRecord
100
AcDbBlockTableRecord
  2
ZAS
340
24
  0
BLOCK_RECORD
  5
25
100
AcDbSymbolTableRecord
100
AcDbBlockTableRecord
  2
SLS
340
26
  0
BLOCK_RECORD
  5
27
100
AcDbSymbolTableRecord
100
AcDbBlockTableRecord
  2
LAT
340
28
  0
BLOCK_RECORD
  5
29
100
AcDbSymbolTableRecord
100
AcDbBlockTableRecord
  2
WSP
340
2A
  0
BLOCK_RECORD
  5
2B
100
AcDbSymbolTableRecord
100
AcDbBlockTableRecord
  2
DIG
340
2C
  0
BLOCK_RECORD
  5
2D
100
AcDbSymbolTableRecord
100
AcDbBlockTableRecord
  2
DLI
340
2E
  0
BLOCK_RECORD
  5
2F
100
AcDbSymbolTableRecord
100
AcDbBlockTableRecord
  2
PNN
340
30
  0
BLOCK_RECORD
  5
31
100
AcDbSymbolTableRecord
100
AcDbBlockTableRecord
  2
pikieta
340
32
  0
ENDTAB
  0
ENDSEC
  0
SECTION
  2
BLOCKS
  0
BLOCK
  5
33
100
AcDbEntity
  8
0
100
AcDbBlockBegin
  2
*Model_Space
 70
0
 10
0.0
 20
0.0
 30
0.0
  3
*Model_Space
  1

  0
ENDBLK
  5
34
100
AcDbEntity
  8
0
100
AcDbBlockEnd
  0
BLOCK
  5
35
100
AcDbEntity
 67
1
  8
0
100
AcDbBlockBegin
  2
*Paper_Space
 70
0
 10
0.0
 20
0.0
 30
0.0
  3
*Paper_Space
  1

  0
ENDBLK
  5
36
100
AcDbEntity
 67
1
  8
0
100
AcDbBlockEnd
  0
BLOCK
  5
22
100
AcDbEntity
  8
0
100
AcDbBlockBegin
 62
0
370
13
  2
BGB
 70
0
 10
0
 20
0
 30
0
  3
BGB
  0
ARC
  5
37
100
AcDbEntity
  8
0
  6
CONTINUOUS
 62
0
370
35
100
AcDbCircle
 10
3.0000000000
 20
-0.0000000000
 30
0
 40
2.9954579942
100
AcDbArc
 50
119.9816393688
 51
180.0000000000
  0
ARC
  5
38
100
AcDbEntity
  8
0
  6
CONTINUOUS
 62
0
370
35
100
AcDbCircle
 10
-3.0000000000
 20
-0.0000000000
 30
0
 40
2.9954579942
100
AcDbArc
 50
0.0000000000
 51
60.0183606312
  0
ENDBLK
  5
39
100
AcDbEntity
  8
0
100
AcDbBlockEnd
  0
BLOCK
  5
24
100
AcDbEntity
  8
0
100
AcDbBlockBegin
 62
0
370
13
  2
ZAS
 70
0
 10
0
 20
0
 30
0
  3
ZAS
  0
HATCH
  5
3A
100
AcDbEntity
  8
0
  6
CONTINUOUS
420
16777215
370
18
100
AcDbHatch
 10
0.0
 20
0.0
 30
0.0
210
0.0
220
0.0
230
1.0
  2
SOLID
 70
1
 71
1
 91
1
 92
3
 72
0
 73
1
 93
5
 10
-0.40000000000000002
 20
0.40000000000000002
 10
-0.40000000000000002
 20
-0.40000000000000002
 10
0.40000000000000002
 20
-0.40000000000000002
 10
0.40000000000000002
 20
0.40000000000000002
 10
-0.40000000000000002
 20
0.40000000000000002
 97
0
 75
0
 76
1
 98
0
  0
POLYLINE
  5
3B
100
AcDbEntity
  8
0
  6
CONTINUOUS
 62
0
370
18
100
AcDb2dPolyline
 66
1
 70
129
  0
VERTEX
  5
3C
100
AcDbEntity
  8
0
100
AcDbVertex
100
AcDb2dVertex
 10
-0.40000000000000002
 20
0.40000000000000002
  0
VERTEX
  5
3D
100
AcDbEntity
  8
0
100
AcDbVertex
100
AcDb2dVertex
 10
-0.40000000000000002
 20
-0.40000000000000002
  0
VERTEX
  5
3E
100
AcDbEntity
  8
0
100
AcDbVertex
100
AcDb2dVertex
 10
0.40000000000000002
 20
-0.40000000000000002
  0
VERTEX
  5
3F
100
AcDbEntity
  8
0
100
AcDbVertex
100
AcDb2dVertex
 10
0.40000000000000002
 20
0.40000000000000002
  0
VERTEX
  5
40
100
AcDbEntity
  8
0
100
AcDbVertex
100
AcDb2dVertex
 10
-0.40000000000000002
 20
0.40000000000000002
  0
SEQEND
  5
41
100
AcDbEntity
  8
0
  0
ENDBLK
  5
42
100
AcDbEntity
  8
0
100
AcDbBlockEnd
  0
BLOCK
  5
26
100
AcDbEntity
  8
0
100
AcDbBlockBegin
 62
0
370
13
  2
SLS
 70
0
 10
0
 20
0
 30
0
  3
SLS
  0
HATCH
  5
43
100
AcDbEntity
  8
0
  6
CONTINUOUS
420
16777215
370
18
100
AcDbHatch
 10
0.0
 20
0.0
 30
0.0
210
0.0
220
0.0
230
1.0
  2
SOLID
 70
1
 71
1
 91
1
 92
3
 72
1
 73
1
 93
2
 10
0.0
 20
-0.5
 42
1.0
 10
0.0
 20
0.5
 42
1.0
 97
0
 75
0
 76
1
 98
0
  0
CIRCLE
  5
44
100
AcDbEntity
  8
0
  6
CONTINUOUS
 62
0
370
18
100
AcDbCircle
 10
0.0
 20
-0.0
 40
0.5
  0
ENDBLK
  5
45
100
AcDbEntity
  8
0
100
AcDbBlockEnd
  0
BLOCK
  5
28
100
AcDbEntity
  8
0
100
AcDbBlockBegin
 62
0
370
13
  2
LAT
 70
0
 10
0
 20
0
 30
0
  3
LAT
  0
POLYLINE
  5
46
100
AcDbEntity
  8
0
  6
CONTINUOUS
 62
0
370
18
100
AcDb2dPolyline
 66
1
 70
128
  0
VERTEX
  5
47
100
AcDbEntity
  8
0
100
AcDbVertex
100
AcDb2dVertex
 10
0.0
 20
2.5
  0
VERTEX
  5
48
100
AcDbEntity
  8
0
100
AcDbVertex
100
AcDb2dVertex
 10
0.0
 20
1.5
  0
SEQEND
  5
49
100
AcDbEntity
  8
0
  0
POLYLINE
  5
4A
100
AcDbEntity
  8
0
  6
CONTINUOUS
 62
0
370
18
100
AcDb2dPolyline
 66
1
 70
128
  0
VERTEX
  5
4B
100
AcDbEntity
  8
0
100
AcDbVertex
100
AcDb2dVertex
 10
0.0
 20
-1.5
  0
VERTEX
  5
4C
100
AcDbEntity
  8
0
100
AcDbVertex
100
AcDb2dVertex
 10
0.0
 20
-2.5
  0
SEQEND
  5
4D
100
AcDbEntity
  8
0
  0
POLYLINE
  5
4E
100
AcDbEntity
  8
0
  6
CONTINUOUS
 62
0
370
18
100
AcDb2dPolyline
 66
1
 70
128
  0
VERTEX
  5
4F
100
AcDbEntity
  8
0
100
AcDbVertex
100
AcDb2dVertex
 10
1.5
 20
-0.0
  0
VERTEX
  5
50
100
AcDbEntity
  8
0
100
AcDbVertex
100
AcDb2dVertex
 10
2.5
 20
-0.0
  0
SEQEND
  5
51
100
AcDbEntity
  8
0
  0
POLYLINE
  5
52
100
AcDbEntity
  8
0
  6
CONTINUOUS
 62
0
370
18
100
AcDb2dPolyline
 66
1
 70
128
  0
VERTEX
  5
53
100
AcDbEntity
  8
0
100
AcDbVertex
100
AcDb2dVertex
 10
-1.5
 20
-0.0
  0
VERTEX
  5
54
100
AcDbEntity
  8
0
100
AcDbVertex
100
AcDb2dVertex
 10
-2.5
 20
-0.0
  0
SEQEND
  5
55
100
AcDbEntity
  8
0
  0
ENDBLK
  5
56
100
AcDbEntity
  8
0
100
AcDbBlockEnd
  0
BLOCK
  5
2A
100
AcDbEntity
  8
0
100
AcDbBlockBegin
 62
0
370
13
  2
WSP
 70
0
 10
0
 20
0
 30
0
  3
WSP
  0
HATCH
  5
57
100
AcDbEntity
  8
0
  6
CONTINUOUS
 62
0
370
13
100
AcDbHatch
 10
0.0
 20
0.0
 30
0.0
210
0.0
220
0.0
230
1.0
  2
SOLID
 70
1
 71
1
 91
1
 92
3
 72
1
 73
1
 93
2
 10
0.0
 20
-0.10000000000000001
 42
1.0
 10
0.0
 20
0.10000000000000001
 42
1.0
 97
0
 75
0
 76
1
 98
0
  0
CIRCLE
  5
58
100
AcDbEntity
  8
0
  6
CONTINUOUS
 62
0
370
13
100
AcDbCircle
 10
0.0
 20
-0.0
 40
0.10000000000000001
  0
ENDBLK
  5
59
100
AcDbEntity
  8
0
100
AcDbBlockEnd
  0
BLOCK
  5
2C
100
AcDbEntity
  8
0
100
AcDbBlockBegin
 62
0
370
13
  2
DIG
 70
0
 10
0
 20
0
 30
0
  3
DIG
  0
HATCH
  5
5A
100
AcDbEntity
  8
0
  6
CONTINUOUS
 62
0
370
18
100
AcDbHatch
 10
0.0
 20
0.0
 30
0.0
210
0.0
220
0.0
230
1.0
  2
SOLID
 70
1
 71
1
 91
1
 92
3
 72
1
 73
1
 93
2
 10
0.0
 20
-0.10000000000000001
 42
1.0
 10
0.0
 20
0.10000000000000001
 42
1.0
 97
0
 75
0
 76
1
 98
0
  0
CIRCLE
  5
5B
100
AcDbEntity
  8
0
  6
CONTINUOUS
 62
0
370
18
100
AcDbCircle
 10
0.0
 20
-0.0
 40
0.10000000000000001
  0
POLYLINE
  5
5C
100
AcDbEntity
  8
0
  6
CONTINUOUS
 62
0
370
18
100
AcDb2dPolyline
 66
1
 70
128
  0
VERTEX
  5
5D
100
AcDbEntity
  8
0
100
AcDbVertex
100
AcDb2dVertex
 10
-1.0
 20
1.30000000000000004
  0
VERTEX
  5
5E
100
AcDbEntity
  8
0
100
AcDbVertex
100
AcDb2dVertex
 10
0.0
 20
0.59999999999999998
  0
VERTEX
  5
5F
100
AcDbEntity
  8
0
100
AcDbVertex
100
AcDb2dVertex
 10
1.0
 20
1.30000000000000004
  0
VERTEX
  5
60
100
AcDbEntity
  8
0
100
AcDbVertex
100
AcDb2dVertex
 10
0.5
 20
0.20000000000000001
  0
VERTEX
  5
61
100
AcDbEntity
  8
0
100
AcDbVertex
100
AcDb2dVertex
 10
1.39999999999999991
 20
-0.40000000000000002
  0
VERTEX
  5
62
100
AcDbEntity
  8
0
100
AcDbVertex
100
AcDb2dVertex
 10
0.29999999999999999
 20
-0.40000000000000002
  0
VERTEX
  5
63
100
AcDbEntity
  8
0
100
AcDbVertex
100
AcDb2dVertex
 10
0.0
 20
-1.5
  0
VERTEX
  5
64
100
AcDbEntity
  8
0
100
AcDbVertex
100
AcDb2dVertex
 10
-0.29999999999999999
 20
-0.40000000000000002
  0
VERTEX
  5
65
100
AcDbEntity
  8
0
100
AcDbVertex
100
AcDb2dVertex
 10
-1.39999999999999991
 20
-0.40000000000000002
  0
VERTEX
  5
66
100
AcDbEntity
  8
0
100
AcDbVertex
100
AcDb2dVertex
 10
-0.5
 20
0.20000000000000001
  0
VERTEX
  5
67
100
AcDbEntity
  8
0
100
AcDbVertex
100
AcDb2dVertex
 10
-1.0
 20
1.30000000000000004
  0
SEQEND
  5
68
100
AcDbEntity
  8
0
  0
ENDBLK
  5
69
100
AcDbEntity
  8
0
100
AcDbBlockEnd
  0
BLOCK
  5
2E
100
AcDbEntity
  8
0
100
AcDbBlockBegin
 62
0
370
13
  2
DLI
 70
0
 10
0
 20
0
 30
0
  3
DLI
  0
HATCH
  5
6A
100
AcDbEntity
  8
0
  6
CONTINUOUS
 62
0
370
13
100
AcDbHatch
 10
0.0
 20
0.0
 30
0.0
210
0.0
220
0.0
230
1.0
  2
SOLID
 70
1
 71
1
 91
1
 92
3
 72
1
 73
1
 93
2
 10
0.0
 20
-0.22360679774997899
 42
1.0
 10
0.0
 20
0.22360679774997899
 42
1.0
 97
0
 75
0
 76
1
 98
0
  0
CIRCLE
  5
6B
100
AcDbEntity
  8
0
  6
CONTINUOUS
 62
0
370
13
100
AcDbCircle
 10
0.0
 20
-0.0
 40
0.22360679774997899
  0
POLYLINE
  5
6C
100
AcDbEntity
  8
0
  6
CONTINUOUS
 62
0
370
18
100
AcDb2dPolyline
 66
1
 70
128
  0
VERTEX
  5
6D
100
AcDbEntity
  8
0
100
AcDbVertex
100
AcDb2dVertex
 10
0.10000000000000001
 20
-1.39999999999999991
  0
VERTEX
  5
6E
100
AcDbEntity
  8
0
100
AcDbVertex
100
AcDb2dVertex
 10
0.40000000000000002
 20
-1.5
  0
VERTEX
  5
6F
100
AcDbEntity
  8
0
100
AcDbVertex
100
AcDb2dVertex
 10
0.69999999999999996
 20
-1.5
  0
VERTEX
  5
70
100
AcDbEntity
  8
0
100
AcDbVertex
100
AcDb2dVertex
 10
1.10000000000000009
 20
-1.30000000000000004
  0
VERTEX
  5
71
100
AcDbEntity
  8
0
100
AcDbVertex
100
AcDb2dVertex
 10
1.30000000000000004
 20
-1.0
  0
VERTEX
  5
72
100
AcDbEntity
  8
0
100
AcDbVertex
100
AcDb2dVertex
 10
1.39999999999999991
 20
-0.59999999999999998
  0
SEQEND
  5
73
100
AcDbEntity
  8
0
  0
POLYLINE
  5
74
100
AcDbEntity
  8
0
  6
CONTINUOUS
 62
0
370
18
100
AcDb2dPolyline
 66
1
 70
128
  0
VERTEX
  5
75
100
AcDbEntity
  8
0
100
AcDbVertex
100
AcDb2dVertex
 10
1.5
 20
-0.29999999999999999
  0
VERTEX
  5
76
100
AcDbEntity
  8
0
100
AcDbVertex
100
AcDb2dVertex
 10
1.60000000000000009
 20
-0.0
  0
VERTEX
  5
77
100
AcDbEntity
  8
0
100
AcDbVertex
100
AcDb2dVertex
 10
1.60000000000000009
 20
0.29999999999999999
  0
VERTEX
  5
78
100
AcDbEntity
  8
0
100
AcDbVertex
100
AcDb2dVertex
 10
1.5
 20
0.69999999999999996
  0
VERTEX
  5
79
100
AcDbEntity
  8
0
100
AcDbVertex
100
AcDb2dVertex
 10
1.30000000000000004
 20
1.0
  0
VERTEX
  5
7A
100
AcDbEntity
  8
0
100
AcDbVertex
100
AcDb2dVertex
 10
1.0
 20
1.10000000000000009
  0
SEQEND
  5
7B
100
AcDbEntity
  8
0
  0
POLYLINE
  5
7C
100
AcDbEntity
  8
0
  6
CONTINUOUS
 62
0
370
18
100
AcDb2dPolyline
 66
1
 70
128
  0
VERTEX
  5
7D
100
AcDbEntity
  8
0
100
AcDbVertex
100
AcDb2dVertex
 10
0.69999999999999996
 20
1.30000000000000004
  0
VERTEX
  5
7E
100
AcDbEntity
  8
0
100
AcDbVertex
100
AcDb2dVertex
 10
0.40000000000000002
 20
1.5
  0
VERTEX
  5
7F
100
AcDbEntity
  8
0
100
AcDbVertex
100
AcDb2dVertex
 10
0.10000000000000001
 20
1.60000000000000009
  0
VERTEX
  5
80
100
AcDbEntity
  8
0
100
AcDbVertex
100
AcDb2dVertex
 10
-0.20000000000000001
 20
1.60000000000000009
  0
VERTEX
  5
81
100
AcDbEntity
  8
0
100
AcDbVertex
100
AcDb2dVertex
 10
-0.5
 20
1.5
  0
VERTEX
  5
82
100
AcDbEntity
  8
0
100
AcDbVertex
100
AcDb2dVertex
 10
-0.69999999999999996
 20
1.30000000000000004
  0
SEQEND
  5
83
100
AcDbEntity
  8
0
  0
POLYLINE
  5
84
100
AcDbEntity
  8
0
  6
CONTINUOUS
 62
0
370
18
100
AcDb2dPolyline
 66
1
 70
128
  0
VERTEX
  5
85
100
AcDbEntity
  8
0
100
AcDbVertex
100
AcDb2dVertex
 10
-0.90000000000000002
 20
1.10000000000000009
  0
VERTEX
  5
86
100
AcDbEntity
  8
0
100
AcDbVertex
100
AcDb2dVertex
 10
-1.10000000000000009
 20
1.10000000000000009
  0
VERTEX
  5
87
100
AcDbEntity
  8
0
100
AcDbVertex
100
AcDb2dVertex
 10
-1.30000000000000004
 20
1.0
  0
VERTEX
  5
88
100
AcDbEntity
  8
0
100
AcDbVertex
100
AcDb2dVertex
 10
-1.5
 20
0.80000000000000004
  0
VERTEX
  5
89
100
AcDbEntity
  8
0
100
AcDbVertex
100
AcDb2dVertex
 10
-1.60000000000000009
 20
0.5
  0
VERTEX
  5
8A
100
AcDbEntity
  8
0
100
AcDbVertex
100
AcDb2dVertex
 10
-1.60000000000000009
 20
0.10000000000000001
  0
VERTEX
  5
8B
100
AcDbEntity
  8
0
100
AcDbVertex
100
AcDb2dVertex
 10
-1.5
 20
-0.20000000000000001
  0
SEQEND
  5
8C
100
AcDbEntity
  8
0
  0
POLYLINE
  5
8D
100
AcDbEntity
  8
0
  6
CONTINUOUS
 62
0
370
18
100
AcDb2dPolyline
 66
1
 70
128
  0
VERTEX
  5
8E
100
AcDbEntity
  8
0
100
AcDbVertex
100
AcDb2dVertex
 10
-1.39999999999999991
 20
-0.5
  0
VERTEX
  5
8F
100
AcDbEntity
  8
0
100
AcDbVertex
100
AcDb2dVertex
 10
-1.39999999999999991
 20
-0.80000000000000004
  0
VERTEX
  5
90
100
AcDbEntity
  8
0
100
AcDbVertex
100
AcDb2dVertex
 10
-1.30000000000000004
 20
-1.10000000000000009
  0
VERTEX
  5
91
100
AcDbEntity
  8
0
100
AcDbVertex
100
AcDb2dVertex
 10
-1.10000000000000009
 20
-1.30000000000000004
  0
VERTEX
  5
92
100
AcDbEntity
  8
0
100
AcDbVertex
100
AcDb2dVertex
 10
-0.80000000000000004
 20
-1.5
  0
VERTEX
  5
93
100
AcDbEntity
  8
0
100
AcDbVertex
100
AcDb2dVertex
 10
-0.5
 20
-1.5
  0
VERTEX
  5
94
100
AcDbEntity
  8
0
100
AcDbVertex
100
AcDb2dVertex
 10
-0.20000000000000001
 20
-1.39999999999999991
  0
SEQEND
  5
95
100
AcDbEntity
  8
0
  0
ENDBLK
  5
96
100
AcDbEntity
  8
0
100
AcDbBlockEnd
  0
BLOCK
  5
30
100
AcDbEntity
  8
0
100
AcDbBlockBegin
 62
0
370
13
  2
PNN
 70
0
 10
0
 20
0
 30
0
  3
PNN
  0
POLYLINE
  5
97
100
AcDbEntity
  8
0
  6
CONTINUOUS
 62
0
370
18
100
AcDb2dPolyline
 66
1
 70
128
  0
VERTEX
  5
98
100
AcDbEntity
  8
0
100
AcDbVertex
100
AcDb2dVertex
 10
0.5
 20
-0.0
  0
VERTEX
  5
99
100
AcDbEntity
  8
0
100
AcDbVertex
100
AcDb2dVertex
 10
10.0
 20
-0.0
  0
SEQEND
  5
9A
100
AcDbEntity
  8
0
  0
POLYLINE
  5
9B
100
AcDbEntity
  8
0
  6
CONTINUOUS
 62
0
370
18
100
AcDb2dPolyline
 66
1
 70
128
  0
VERTEX
  5
9C
100
AcDbEntity
  8
0
100
AcDbVertex
100
AcDb2dVertex
 10
9.0
 20
-0.0
  0
VERTEX
  5
9D
100
AcDbEntity
  8
0
100
AcDbVertex
100
AcDb2dVertex
 10
7.40000000000000036
 20
0.90000000000000002
  0
SEQEND
  5
9E
100
AcDbEntity
  8
0
  0
POLYLINE
  5
9F
100
AcDbEntity
  8
0
  6
CONTINUOUS
 62
0
370
18
100
AcDb2dPolyline
 66
1
 70
128
  0
VERTEX
  5
A0
100
AcDbEntity
  8
0
100
AcDbVertex
100
AcDb2dVertex
 10
9.0
 20
-0.0
  0
VERTEX
  5
A1
100
AcDbEntity
  8
0
100
AcDbVertex
100
AcDb2dVertex
 10
7.40000000000000036
 20
-0.90000000000000002
  0
SEQEND
  5
A2
100
AcDbEntity
  8
0
  0
ENDBLK
  5
A3
100
AcDbEntity
  8
0
100
AcDbBlockEnd
  0
BLOCK
  5
32
100
AcDbEntity
  8
0
100
AcDbBlockBegin
 62
0
370
13
  2
pikieta
 70
0
 10
0
 20
0
 30
0
  3
pikieta
  0
POINT
  5
A4
100
AcDbEntity
  8
0
100
AcDbPoint
 62
0
 10
0.0
 20
0.0
 30
0.000
  0
ENDBLK
  5
A5
100
AcDbEntity
  8
0
100
AcDbBlockEnd
  0
ENDSEC
  0
SECTION
  2
ENTITIES
  0
POLYLINE
  5
A6
100
AcDbEntity
  8
SUPW_L_0_L_0
  6
CONTINUOUS
420
255
370
18
100
AcDb2dPolyline
 66
1
 70
128
  0
VERTEX
  5
A7
100
AcDbEntity
  8
SUPW_L_0_L_0
100
AcDbVertex
100
AcDb2dVertex
 10
7568629.31879159994
 20
5714970.40303841978
  0
VERTEX
  5
A8
100
AcDbEntity
  8
SUPW_L_0_L_0
100
AcDbVertex
100
AcDb2dVertex
 10
7568630.23714980017
 20
5714970.43977274746
  0
SEQEND
  5
A9
100
AcDbEntity
  8
SUPW_L_0_L_0
  0
POLYLINE
  5
AA
100
AcDbEntity
  8
SUPW_L_0_L_0
  6
CONTINUOUS
420
255
370
18
100
AcDb2dPolyline
 66
1
 70
128
  0
VERTEX
  5
AB
100
AcDbEntity
  8
SUPW_L_0_L_0
100
AcDbVertex
100
AcDb2dVertex
 10
7568629.97160586994
 20
5714966.37739248015
  0
VERTEX
  5
AC
100
AcDbEntity
  8
SUPW_L_0_L_0
100
AcDbVertex
100
AcDb2dVertex
 10
7568629.31879159994
 20
5714970.40303841978
  0
SEQEND
  5
AD
100
AcDbEntity
  8
SUPW_L_0_L_0
  0
POLYLINE
  5
AE
100
AcDbEntity
  8
SUPW_L_2_L_0
  6
CONTINUOUS
420
255
370
18
100
AcDb2dPolyline
 66
1
 70
128
  0
VERTEX
  5
AF
100
AcDbEntity
  8
SUPW_L_2_L_0
100
AcDbVertex
100
AcDb2dVertex
 10
7568629.97160586994
 20
5714966.37739248015
  0
VERTEX
  5
B0
100
AcDbEntity
  8
SUPW_L_2_L_0
100
AcDbVertex
100
AcDb2dVertex
 10
7568630.71132331993
 20
5714958.49765015021
  0
SEQEND
  5
B1
100
AcDbEntity
  8
SUPW_L_2_L_0
  0
POLYLINE
  5
B2
100
AcDbEntity
  8
SUPW_L_2_L_0
  6
CONTINUOUS
420
255
370
18
100
AcDb2dPolyline
 66
1
 70
128
  0
VERTEX
  5
B3
100
AcDbEntity
  8
SUPW_L_2_L_0
100
AcDbVertex
100
AcDb2dVertex
 10
7568602.00671000034
 20
5714943.88147115987
  0
VERTEX
  5
B4
100
AcDbEntity
  8
SUPW_L_2_L_0
100
AcDbVertex
100
AcDb2dVertex
 10
7568634.68736277986
 20
5714953.85211651027
  0
SEQEND
  5
B5
100
AcDbEntity
  8
SUPW_L_2_L_0
  0
POLYLINE
  5
B6
100
AcDbEntity
  8
SUPW_L_2_L_0
  6
CONTINUOUS
420
255
370
18
100
AcDb2dPolyline
 66
1
 70
128
  0
VERTEX
  5
B7
100
AcDbEntity
  8
SUPW_L_2_L_0
100
AcDbVertex
100
AcDb2dVertex
 10
7568630.71132331993
 20
5714958.49765015021
  0
VERTEX
  5
B8
100
AcDbEntity
  8
SUPW_L_2_L_0
100
AcDbVertex
100
AcDb2dVertex
 10
7568634.68736277986
 20
5714953.85211651027
  0
SEQEND
  5
B9
100
AcDbEntity
  8
SUPW_L_2_L_0
  0
POLYLINE
  5
BA
100
AcDbEntity
  8
SUPW_L_2_L_0
  6
CONTINUOUS
420
255
370
18
100
AcDb2dPolyline
 66
1
 70
128
  0
VERTEX
  5
BB
100
AcDbEntity
  8
SUPW_L_2_L_0
100
AcDbVertex
100
AcDb2dVertex
 10
7568634.68736277986
 20
5714953.85211651027
  0
VERTEX
  5
BC
100
AcDbEntity
  8
SUPW_L_2_L_0
100
AcDbVertex
100
AcDb2dVertex
 10
7568652.88305134978
 20
5714958.67468798999
  0
SEQEND
  5
BD
100
AcDbEntity
  8
SUPW_L_2_L_0
  0
POLYLINE
  5
BE
100
AcDbEntity
  8
SUPW_L_2_L_0
  6
CONTINUOUS
420
255
370
18
100
AcDb2dPolyline
 66
1
 70
128
  0
VERTEX
  5
BF
100
AcDbEntity
  8
SUPW_L_2_L_0
100
AcDbVertex
100
AcDb2dVertex
 10
7568602.00671000034
 20
5714943.88147115987
  0
VERTEX
  5
C0
100
AcDbEntity
  8
SUPW_L_2_L_0
100
AcDbVertex
100
AcDb2dVertex
 10
7568634.68736277986
 20
5714953.85211651027
  0
SEQEND
  5
C1
100
AcDbEntity
  8
SUPW_L_2_L_0
  0
POLYLINE
  5
C2
100
AcDbEntity
  8
SUPW_L_2_L_0
  6
CONTINUOUS
420
255
370
18
100
AcDb2dPolyline
 66
1
 70
128
  0
VERTEX
  5
C3
100
AcDbEntity
  8
SUPW_L_2_L_0
100
AcDbVertex
100
AcDb2dVertex
 10
7568594.44978263043
 20
5714940.83201199956
  0
VERTEX
  5
C4
100
AcDbEntity
  8
SUPW_L_2_L_0
100
AcDbVertex
100
AcDb2dVertex
 10
7568602.00671000034
 20
5714943.88147115987
  0
SEQEND
  5
C5
100
AcDbEntity
  8
SUPW_L_2_L_0
  0
POLYLINE
  5
C6
100
AcDbEntity
  8
SUPW_L_2_L_0
  6
CONTINUOUS
420
255
370
18
100
AcDb2dPolyline
 66
1
 70
128
  0
VERTEX
  5
C7
100
AcDbEntity
  8
SUPW_L_2_L_0
100
AcDbVertex
100
AcDb2dVertex
 10
7568634.68736277986
 20
5714953.85211651027
  0
VERTEX
  5
C8
100
AcDbEntity
  8
SUPW_L_2_L_0
100
AcDbVertex
100
AcDb2dVertex
 10
7568652.88305134978
 20
5714958.67468798999
  0
SEQEND
  5
C9
100
AcDbEntity
  8
SUPW_L_2_L_0
  0
POLYLINE
  5
CA
100
AcDbEntity
  8
SUTW_T_0_T_0
  6
CONTINUOUS
420
255
370
18
100
AcDb2dPolyline
 66
1
 70
128
  0
VERTEX
  5
CB
100
AcDbEntity
  8
SUTW_T_0_T_0
100
AcDbVertex
100
AcDb2dVertex
 10
7568634.68736271281
 20
5714953.85211652424
  0
VERTEX
  5
CC
100
AcDbEntity
  8
SUTW_T_0_T_0
100
AcDbVertex
100
AcDb2dVertex
 10
7568632.30147652049
 20
5714954.00032201316
  0
SEQEND
  5
CD
100
AcDbEntity
  8
SUTW_T_0_T_0
  0
POLYLINE
  5
CE
100
AcDbEntity
  8
SUTW_T_0_T_0
  6
CONTINUOUS
420
255
370
18
100
AcDb2dPolyline
 66
1
 70
128
  0
VERTEX
  5
CF
100
AcDbEntity
  8
SUTW_T_0_T_0
100
AcDbVertex
100
AcDb2dVertex
 10
7568629.80435171258
 20
5714954.00032201316
  0
VERTEX
  5
D0
100
AcDbEntity
  8
SUTW_T_0_T_0
100
AcDbVertex
100
AcDb2dVertex
 10
7568632.30147652049
 20
5714954.00032201316
  0
SEQEND
  5
D1
100
AcDbEntity
  8
SUTW_T_0_T_0
  0
POLYLINE
  5
D2
100
AcDbEntity
  8
w40_proj
  6
CONTINUOUS
420
255
370
18
100
AcDb2dPolyline
 66
1
 70
128
  0
VERTEX
  5
D3
100
AcDbEntity
  8
w40_proj
100
AcDbVertex
100
AcDb2dVertex
 10
7568630.15000000037
 20
5714975.62000000011
  0
VERTEX
  5
D4
100
AcDbEntity
  8
w40_proj
100
AcDbVertex
100
AcDb2dVertex
 10
7568629.00999999978
 20
5714975.62000000011
  0
VERTEX
  5
D5
100
AcDbEntity
  8
w40_proj
100
AcDbVertex
100
AcDb2dVertex
 10
7568629.3200000003
 20
5714970.40000000037
  0
SEQEND
  5
D6
100
AcDbEntity
  8
w40_proj
  0
INSERT
  5
D7
100
AcDbEntity
  8
SUTW_T_0_T_0
  6
CONTINUOUS
100
AcDbBlockReference
 66
0
  2
WSP
 10
7568634.68736277986
 20
5714953.85211651027
 41
0.50
 42
0.50
 43
0.50
 50
0.00
  0
TEXT
  5
D8
100
AcDbEntity
  8
SUPW_E_T_2_T_0
370
15
100
AcDbText
 39
0.15
 10
7568629.70268961042
 20
5714965.22978753783
 40
0.75
  1
w40
 50
275.40
 41
0.66
  7
STANDARD
100
AcDbText
  0
TEXT
  5
D9
100
AcDbEntity
  8
SUTW_T_0_T_0
370
15
100
AcDbText
 39
0.15
 10
7568630.05817222316
 20
5714954.25032201316
 40
0.75
  1
118.35
 50
0.00
 41
0.66
  7
STANDARD
100
AcDbText
  0
ENDSEC
  0
SECTION
  2
OBJECTS
  0
DICTIONARY
  5
DA
330
0
100
AcDbDictionary
280
0
281
1
  3
ACAD_GROUP
350
DB
  3
ACAD_LAYOUT
350
DC
  3
ACAD_MLINESTYLE
350
DD
  3
ACAD_PLOTSETTINGS
350
DE
  3
ACAD_PLOTSTYLENAME
350
DF
  0
DICTIONARY
  5
DB
102
{ACAD_REACTORS
330
DA
102
}
330
DA
100
AcDbDictionary
280
0
281
1
  0
DICTIONARY
  5
DC
102
{ACAD_REACTORS
330
DA
102
}
330
DA
100
AcDbDictionary
280
0
281
1
  3
Layout
350
20
  3
Model
350
1E
  0
DICTIONARY
  5
DD
102
{ACAD_REACTORS
330
DA
102
}
330
DA
100
AcDbDictionary
280
0
281
1
  3
Standard
350
E0
  0
DICTIONARY
  5
DE
102
{ACAD_REACTORS
330
DA
102
}
330
DA
100
AcDbDictionary
280
0
281
1
  0
ACDBDICTIONARYWDFLT
  5
DF
102
{ACAD_REACTORS
330
DA
102
}
330
DA
100
AcDbDictionary
281
1
  3
Normal
350
D
100
AcDbDictionaryWithDefault
340
D
  0
LAYOUT
  5
20
100
AcDbPlotSettings
  1

  2

  4

  6

 40
0.0
 41
0.0
 42
0.0
 43
0.0
 44
0.0
 45
0.0
 46
0.0
 47
0.0
 48
0.0
 49
0.0
140
0.0
141
0.0
142
1.0
143
1.0
 70
688
 72
1
 73
0
 74
5
  7

 75
0
147
1.0
148
0.0
149
0.0
100
AcDbLayout
  1
Layout
 70
1
 71
1
 10
0.0
 20
0.0
 11
420.0
 21
297.0
 12
0.0
 22
0.0
 32
0.0
 14
100000000000000000000.0
 24
100000000000000000000.0
 34
100000000000000000000.0
 15
-100000000000000000000.0
 25
-100000000000000000000.0
 35
-100000000000000000000.0
146
0.0
 13
0.0
 23
0.0
 33
0.0
 16
1.0
 26
0.0
 36
0.0
 17
0.0
 27
1.0
 37
0.0
 76
0
330
1F
  0
LAYOUT
  5
1E
100
AcDbPlotSettings
  1

  2

  4

  6

 40
0.0
 41
0.0
 42
0.0
 43
0.0
 44
0.0
 45
0.0
 46
0.0
 47
0.0
 48
0.0
 49
0.0
140
0.0
141
0.0
142
1.0
143
1.0
 70
1712
 72
1
 73
0
 74
0
  7

 75
0
147
1.0
148
0.0
149
0.0
100
AcDbLayout
  1
Model
 70
1
 71
0
 10
0.0
 20
0.0
 11
12.0
 21
9.0
 12
0.0
 22
0.0
 32
0.0
 14
0.0
 24
0.0
 34
0.0
 15
0.0
 25
0.0
 35
0.0
146
0.0
 13
0.0
 23
0.0
 33
0.0
 16
1.0
 26
0.0
 36
0.0
 17
0.0
 27
1.0
 37
0.0
 76
0
330
1D
  0
MLINESTYLE
  5
E0
102
{ACAD_REACTORS
330
DD
102
}
330
DD
100
AcDbMlineStyle
  2
Standard
 70
0
  3

 62
256
 51
90.0
 52
90.0
  2
Standard
 71
2
 49
0.5
 62
256
  6
ByLayer
 49
-0.5
 62
256
  6
ByLayer
  0
ACDBPLACEHOLDER
  5
D
  0
ENDSEC
  0
EOF
