0
SECTION
2
HEADER
999
Generator: RTK PowerGPS [AND] 2.18
999
Project: krasnik_pom2_11
0
ENDSEC
0
SECTION
2
TABLES
0
TABLE
2
LAYER
0
LAYER
100
AcDbSymbolTableRecord
100
AcDbLayerTableRecord
2
braki_01_12_2021
70
0
62
7
6
CONTINUOUS
370
18
0
ENDTAB
0
ENDSEC
0
SECTION
2
BLOCKS
0
ENDSEC
0
SECTION
2
ENTITIES
0
POINT
8
0
10
7588367.647
20
5644951.173
30
237.017
0
POINT
8
0
10
7588353.651
20
5644939.867
30
236.844
0
POINT
8
0
10
7588352.043
20
5644938.616
30
236.874
0
POINT
8
0
10
7588350.343
20
5644937.614
30
236.838
0
POINT
8
0
10
7588348.594
20
5644936.669
30
236.805
0
POINT
8
0
10
7588346.764
20
5644935.867
30
236.796
0
POINT
8
0
10
7588344.819
20
5644935.309
30
236.850
0
POINT
8
0
10
7588340.856
20
5644934.881
30
236.789
0
POINT
8
0
10
7588326.883
20
5644934.275
30
236.568
0
POINT
8
0
10
7588322.885
20
5644933.984
30
236.588
0
POINT
8
0
10
7588320.939
20
5644933.634
30
236.546
0
POINT
8
0
10
7588318.992
20
5644933.078
30
236.509
0
POINT
8
0
10
7588317.121
20
5644932.398
30
236.519
0
POINT
8
0
10
7588315.302
20
5644931.621
30
236.436
0
POINT
8
0
10
7588313.337
20
5644931.213
30
236.434
0
POINT
8
0
10
7588311.373
20
5644931.379
30
236.386
0
POINT
8
0
10
7588303.509
20
5644932.960
30
236.234
0
POINT
8
0
10
7588299.659
20
5644934.059
30
236.182
0
POINT
8
0
10
7588279.301
20
5644942.337
30
235.138
0
POINT
8
0
10
7588260.857
20
5644949.972
30
234.587
0
POINT
8
0
10
7588242.409
20
5644957.643
30
234.366
0
POINT
8
0
10
7588223.980
20
5644965.352
30
233.805
0
POINT
8
0
10
7588294.857
20
5644913.859
30
236.375
0
POINT
8
0
10
7588293.050
20
5644910.337
30
236.430
0
POINT
8
0
10
7588296.238
20
5644908.060
30
236.531
0
POINT
8
0
10
7588297.537
20
5644906.535
30
236.591
0
POINT
8
0
10
7588298.323
20
5644904.698
30
236.581
0
POINT
8
0
10
7588298.901
20
5644900.714
30
236.597
0
POINT
8
0
10
7588299.983
20
5644896.907
30
236.596
0
POINT
8
0
10
7588301.642
20
5644893.238
30
236.740
0
POINT
8
0
10
7588302.350
20
5644891.366
30
236.716
0
POINT
8
0
10
7588302.812
20
5644889.428
30
236.767
0
POINT
8
0
10
7588302.909
20
5644887.423
30
236.770
0
POINT
8
0
10
7588302.455
20
5644885.488
30
236.788
0
POINT
8
0
10
7588300.182
20
5644879.899
30
236.660
0
POINT
8
0
10
7588297.068
20
5644872.543
30
236.618
0
POINT
8
0
10
7588294.582
20
5644867.059
30
236.795
0
POLYLINE
8
0
66
1
70
0
10
0.0
20
0.0
30
0.0
0
VERTEX
8
0
10
7588292.664
20
5644862.214
30
236.831
0
VERTEX
8
0
10
7588288.869
20
5644864.048
30
236.693
0
VERTEX
8
0
10
7588290.127
20
5644866.729
30
236.665
0
VERTEX
8
0
10
7588293.917
20
5644864.936
30
236.832
0
SEQEND
0
POINT
8
0
10
7588293.917
20
5644864.936
30
236.832
0
POINT
8
0
10
7588290.127
20
5644866.729
30
236.665
0
POINT
8
0
10
7588288.869
20
5644864.048
30
236.693
0
POINT
8
0
10
7588292.664
20
5644862.214
30
236.831
0
POINT
8
0
10
7588400.390
20
5644961.314
30
237.307
0
POINT
8
0
10
7588397.120
20
5644960.583
30
237.071
0
POINT
8
0
10
7588398.974
20
5644964.405
30
237.542
0
POINT
8
0
10
7588377.436
20
5644935.770
30
237.095
0
POINT
8
0
10
7588378.786
20
5644940.033
30
237.039
0
POINT
8
0
10
7588379.137
20
5644938.267
30
237.106
0
POINT
8
0
10
7588376.556
20
5644940.078
30
236.972
0
POINT
8
0
10
7588358.083
20
5644919.919
30
236.773
0
POINT
8
0
10
7588360.069
20
5644920.290
30
236.721
0
POINT
8
0
10
7588358.273
20
5644918.270
30
236.825
0
POLYLINE
8
0
66
1
70
0
10
0.0
20
0.0
30
0.0
0
VERTEX
8
0
10
7584826.507
20
5646983.357
30
198.977
0
VERTEX
8
0
10
7584830.385
20
5646984.639
30
199.180
0
VERTEX
8
0
10
7584832.402
20
5646984.883
30
198.972
0
VERTEX
8
0
10
7584833.566
20
5646984.800
30
198.827
0
VERTEX
8
0
10
7584835.847
20
5646984.204
30
198.748
0
VERTEX
8
0
10
7584840.180
20
5646982.306
30
198.857
0
VERTEX
8
0
10
7584842.822
20
5646982.196
30
198.900
0
SEQEND
0
POINT
8
0
10
7584842.822
20
5646982.196
30
198.900
0
POINT
8
0
10
7584840.180
20
5646982.306
30
198.857
0
POINT
8
0
10
7584835.847
20
5646984.204
30
198.748
0
POINT
8
0
10
7584833.566
20
5646984.800
30
198.827
0
POINT
8
0
10
7584832.402
20
5646984.883
30
198.972
0
POINT
8
0
10
7584830.385
20
5646984.639
30
199.180
0
POINT
8
0
10
7584826.507
20
5646983.357
30
198.977
0
POLYLINE
8
0
66
1
70
0
10
0.0
20
0.0
30
0.0
0
VERTEX
8
0
10
7584843.978
20
5646883.699
30
196.333
0
VERTEX
8
0
10
7584847.869
20
5646885.635
30
196.332
0
VERTEX
8
0
10
7584849.697
20
5646887.206
30
196.371
0
SEQEND
0
POLYLINE
8
0
66
1
70
0
10
0.0
20
0.0
30
0.0
0
VERTEX
8
0
10
7584838.581
20
5646877.720
30
195.901
0
VERTEX
8
0
10
7584839.467
20
5646879.216
30
196.061
0
VERTEX
8
0
10
7584841.253
20
5646881.872
30
196.218
0
VERTEX
8
0
10
7584843.978
20
5646883.699
30
196.333
0
SEQEND
0
POINT
8
0
10
7584838.581
20
5646877.720
30
195.901
0
POINT
8
0
10
7584839.467
20
5646879.216
30
196.061
0
POINT
8
0
10
7584841.253
20
5646881.872
30
196.218
0
POINT
8
0
10
7584843.978
20
5646883.699
30
196.333
0
POINT
8
0
10
7584847.869
20
5646885.635
30
196.332
0
POINT
8
0
10
7584849.697
20
5646887.206
30
196.371
0
POLYLINE
8
0
66
1
70
0
10
0.0
20
0.0
30
0.0
0
VERTEX
8
0
10
7582662.486
20
5648297.956
30
207.537
0
VERTEX
8
0
10
7582661.727
20
5648298.202
30
207.557
0
SEQEND
0
POLYLINE
8
0
66
1
70
0
10
0.0
20
0.0
30
0.0
0
VERTEX
8
0
10
7582666.723
20
5648292.779
30
207.839
0
VERTEX
8
0
10
7582665.557
20
5648293.810
30
207.720
0
VERTEX
8
0
10
7582662.836
20
5648297.018
30
207.710
0
VERTEX
8
0
10
7582662.486
20
5648297.956
30
207.537
0
SEQEND
0
POLYLINE
8
0
66
1
70
0
10
0.0
20
0.0
30
0.0
0
VERTEX
8
0
10
7582666.673
20
5648292.443
30
206.942
0
VERTEX
8
0
10
7582666.723
20
5648292.779
30
207.839
0
SEQEND
0
POINT
8
0
10
7582661.727
20
5648298.202
30
207.557
0
POINT
8
0
10
7582662.836
20
5648297.018
30
207.710
0
POINT
8
0
10
7582665.557
20
5648293.810
30
207.720
0
POINT
8
0
10
7582666.723
20
5648292.779
30
207.839
0
POINT
8
0
10
7582666.673
20
5648292.443
30
206.942
0
POINT
8
0
10
7582666.769
20
5648292.367
30
206.896
0
POINT
8
0
10
7582662.655
20
5648297.804
30
207.505
0
POINT
8
0
10
7582662.486
20
5648297.956
30
207.537
0
POINT
8
0
10
7582801.218
20
5648136.548
30
206.277
0
POINT
8
0
10
7582801.453
20
5648136.286
30
206.267
0
POINT
8
0
10
7583332.122
20
5647497.917
30
200.112
0
POINT
8
0
10
7583328.217
20
5647502.933
30
200.373
0
POINT
8
0
10
7583322.863
20
5647508.677
30
200.544
0
POINT
8
0
10
7583319.378
20
5647510.819
30
200.701
0
POINT
8
0
10
7583312.412
20
5647513.089
30
200.758
0
POINT
8
0
10
7583305.232
20
5647514.980
30
200.708
0
POLYLINE
8
0
66
1
70
0
10
0.0
20
0.0
30
0.0
0
VERTEX
8
0
10
7583284.446
20
5647551.079
30
201.171
0
VERTEX
8
0
10
7583282.203
20
5647549.675
30
201.104
0
VERTEX
8
0
10
7583279.950
20
5647548.838
30
200.944
0
VERTEX
8
0
10
7583277.459
20
5647548.186
30
200.883
0
VERTEX
8
0
10
7583274.343
20
5647547.187
30
200.723
0
VERTEX
8
0
10
7583274.523
20
5647545.608
30
200.682
0
VERTEX
8
0
10
7583274.432
20
5647544.763
30
200.957
0
VERTEX
8
0
10
7583272.129
20
5647543.948
30
200.950
0
VERTEX
8
0
10
7583269.906
20
5647543.430
30
200.952
0
VERTEX
8
0
10
7583270.119
20
5647540.808
30
200.978
0
VERTEX
8
0
10
7583269.403
20
5647539.794
30
200.713
0
SEQEND
0
POINT
8
0
10
7583284.446
20
5647551.079
30
201.171
0
POINT
8
0
10
7583282.203
20
5647549.675
30
201.104
0
POINT
8
0
10
7583279.950
20
5647548.838
30
200.944
0
POINT
8
0
10
7583277.459
20
5647548.186
30
200.883
0
POINT
8
0
10
7583274.343
20
5647547.187
30
200.723
0
POINT
8
0
10
7583274.523
20
5647545.608
30
200.682
0
POINT
8
0
10
7583274.432
20
5647544.763
30
200.957
0
POINT
8
0
10
7583272.129
20
5647543.948
30
200.950
0
POINT
8
0
10
7583269.906
20
5647543.430
30
200.952
0
POINT
8
0
10
7583270.119
20
5647540.808
30
200.978
0
POINT
8
0
10
7583269.403
20
5647539.794
30
200.713
0
POLYLINE
8
0
66
1
70
0
10
0.0
20
0.0
30
0.0
0
VERTEX
8
0
10
7582806.769
20
5648131.754
30
205.861
0
VERTEX
8
0
10
7582801.918
20
5648128.068
30
205.625
0
VERTEX
8
0
10
7582798.290
20
5648132.617
30
205.663
0
VERTEX
8
0
10
7582797.083
20
5648132.303
30
205.713
0
VERTEX
8
0
10
7582792.528
20
5648137.584
30
205.795
0
VERTEX
8
0
10
7582790.733
20
5648138.538
30
205.819
0
VERTEX
8
0
10
7582788.610
20
5648138.764
30
205.699
0
VERTEX
8
0
10
7582781.043
20
5648137.926
30
205.822
0
VERTEX
8
0
10
7582774.502
20
5648137.821
30
206.055
0
VERTEX
8
0
10
7582773.556
20
5648138.174
30
205.962
0
VERTEX
8
0
10
7582772.978
20
5648138.830
30
205.969
0
SEQEND
0
POLYLINE
8
0
66
1
70
0
10
0.0
20
0.0
30
0.0
0
VERTEX
8
0
10
7582807.198
20
5648132.134
30
205.855
0
VERTEX
8
0
10
7582806.769
20
5648131.754
30
205.861
0
VERTEX
8
0
10
7582807.139
20
5648131.245
30
205.825
0
SEQEND
0
POINT
8
0
10
7582807.198
20
5648132.134
30
205.855
0
POINT
8
0
10
7582807.139
20
5648131.245
30
205.825
0
POINT
8
0
10
7582806.769
20
5648131.754
30
205.861
0
POINT
8
0
10
7582801.918
20
5648128.068
30
205.625
0
POINT
8
0
10
7582798.290
20
5648132.617
30
205.663
0
POINT
8
0
10
7582797.083
20
5648132.303
30
205.713
0
POINT
8
0
10
7582792.528
20
5648137.584
30
205.795
0
POINT
8
0
10
7582790.733
20
5648138.538
30
205.819
0
POINT
8
0
10
7582788.610
20
5648138.764
30
205.699
0
POINT
8
0
10
7582781.043
20
5648137.926
30
205.822
0
POINT
8
0
10
7582772.978
20
5648138.830
30
205.969
0
POINT
8
0
10
7582773.556
20
5648138.174
30
205.962
0
POINT
8
0
10
7582774.502
20
5648137.821
30
206.055
0
POLYLINE
8
0
66
1
70
0
10
0.0
20
0.0
30
0.0
0
VERTEX
8
0
10
7582884.278
20
5648071.735
30
205.168
0
VERTEX
8
0
10
7582884.957
20
5648072.275
30
205.213
0
VERTEX
8
0
10
7582882.467
20
5648074.913
30
205.211
0
VERTEX
8
0
10
7582877.725
20
5648081.267
30
205.275
0
VERTEX
8
0
10
7582869.654
20
5648092.691
30
205.482
0
VERTEX
8
0
10
7582867.132
20
5648096.102
30
205.474
0
VERTEX
8
0
10
7582866.526
20
5648096.868
30
205.438
0
SEQEND
0
POINT
8
0
10
7582884.278
20
5648071.735
30
205.168
0
POINT
8
0
10
7582884.957
20
5648072.275
30
205.213
0
POINT
8
0
10
7582882.467
20
5648074.913
30
205.211
0
POINT
8
0
10
7582877.725
20
5648081.267
30
205.275
0
POINT
8
0
10
7582869.654
20
5648092.691
30
205.482
0
POINT
8
0
10
7582867.132
20
5648096.102
30
205.474
0
POINT
8
0
10
7582866.526
20
5648096.868
30
205.438
0
POINT
8
0
10
7582649.725
20
5648343.978
30
208.382
0
POLYLINE
8
0
66
1
70
0
10
0.0
20
0.0
30
0.0
0
VERTEX
8
0
10
7582821.678
20
5648157.149
30
205.059
0
VERTEX
8
0
10
7582827.549
20
5648149.999
30
205.755
0
VERTEX
8
0
10
7582826.796
20
5648149.420
30
205.824
0
VERTEX
8
0
10
7582824.692
20
5648147.515
30
205.819
0
SEQEND
0
POINT
8
0
10
7582824.692
20
5648147.515
30
205.819
0
POINT
8
0
10
7582826.796
20
5648149.420
30
205.824
0
POINT
8
0
10
7582827.549
20
5648149.999
30
205.755
0
POLYLINE
8
0
66
1
70
0
10
0.0
20
0.0
30
0.0
0
VERTEX
8
0
10
7582809.158
20
5648172.204
30
204.981
0
VERTEX
8
0
10
7582815.815
20
5648164.704
30
204.960
0
VERTEX
8
0
10
7582821.678
20
5648157.149
30
205.059
0
SEQEND
0
POINT
8
0
10
7582821.678
20
5648157.149
30
205.059
0
POINT
8
0
10
7582815.815
20
5648164.704
30
204.960
0
POLYLINE
8
0
66
1
70
0
10
0.0
20
0.0
30
0.0
0
VERTEX
8
0
10
7582804.519
20
5648179.315
30
205.107
0
VERTEX
8
0
10
7582809.158
20
5648172.204
30
204.981
0
SEQEND
0
POINT
8
0
10
7582809.158
20
5648172.204
30
204.981
0
POLYLINE
8
0
66
1
70
0
10
0.0
20
0.0
30
0.0
0
VERTEX
8
0
10
7582800.065
20
5648182.991
30
205.394
0
VERTEX
8
0
10
7582804.519
20
5648179.315
30
205.107
0
VERTEX
8
0
10
7582804.052
20
5648176.503
30
205.994
0
VERTEX
8
0
10
7582802.615
20
5648175.578
30
206.136
0
SEQEND
0
POINT
8
0
10
7582804.519
20
5648179.315
30
205.107
0
POINT
8
0
10
7582802.615
20
5648175.578
30
206.136
0
POINT
8
0
10
7582804.052
20
5648176.503
30
205.994
0
POLYLINE
8
0
66
1
70
0
10
0.0
20
0.0
30
0.0
0
VERTEX
8
0
10
7582790.964
20
5648193.071
30
205.556
0
VERTEX
8
0
10
7582800.065
20
5648182.991
30
205.394
0
SEQEND
0
POINT
8
0
10
7582800.065
20
5648182.991
30
205.394
0
POLYLINE
8
0
66
1
70
0
10
0.0
20
0.0
30
0.0
0
VERTEX
8
0
10
7582783.198
20
5648201.394
30
205.810
0
VERTEX
8
0
10
7582786.411
20
5648197.488
30
205.736
0
VERTEX
8
0
10
7582788.850
20
5648194.684
30
205.575
0
VERTEX
8
0
10
7582790.964
20
5648193.071
30
205.556
0
SEQEND
0
POLYLINE
8
0
66
1
70
0
10
0.0
20
0.0
30
0.0
0
VERTEX
8
0
10
7582669.135
20
5648331.879
30
206.952
0
VERTEX
8
0
10
7582673.107
20
5648328.263
30
206.756
0
VERTEX
8
0
10
7582673.764
20
5648326.195
30
206.832
0
VERTEX
8
0
10
7582678.300
20
5648327.040
30
207.118
0
SEQEND
0
POINT
8
0
10
7582673.764
20
5648326.195
30
206.832
0
POINT
8
0
10
7582673.107
20
5648328.263
30
206.756
0
POINT
8
0
10
7582669.135
20
5648331.879
30
206.952
0
POLYLINE
8
0
66
1
70
0
10
0.0
20
0.0
30
0.0
0
VERTEX
8
0
10
7582670.817
20
5648342.377
30
206.892
0
VERTEX
8
0
10
7582667.983
20
5648346.215
30
207.120
0
SEQEND
0
POINT
8
0
10
7582667.983
20
5648346.215
30
207.120
0
POLYLINE
8
0
66
1
70
0
10
0.0
20
0.0
30
0.0
0
VERTEX
8
0
10
7582679.445
20
5648334.395
30
207.031
0
VERTEX
8
0
10
7582670.817
20
5648342.377
30
206.892
0
SEQEND
0
POINT
8
0
10
7582670.817
20
5648342.377
30
206.892
0
POLYLINE
8
0
66
1
70
0
10
0.0
20
0.0
30
0.0
0
VERTEX
8
0
10
7582678.193
20
5648332.988
30
207.048
0
VERTEX
8
0
10
7582679.445
20
5648334.395
30
207.031
0
SEQEND
0
POLYLINE
8
0
66
1
70
0
10
0.0
20
0.0
30
0.0
0
VERTEX
8
0
10
7582678.300
20
5648327.040
30
207.118
0
VERTEX
8
0
10
7582677.763
20
5648329.353
30
207.099
0
VERTEX
8
0
10
7582678.193
20
5648332.988
30
207.048
0
SEQEND
0
POINT
8
0
10
7582679.445
20
5648334.395
30
207.031
0
POINT
8
0
10
7582678.193
20
5648332.988
30
207.048
0
POINT
8
0
10
7582677.763
20
5648329.353
30
207.099
0
POLYLINE
8
0
66
1
70
0
10
0.0
20
0.0
30
0.0
0
VERTEX
8
0
10
7582678.300
20
5648327.040
30
207.118
0
SEQEND
0
POLYLINE
8
0
66
1
70
0
10
0.0
20
0.0
30
0.0
0
VERTEX
8
0
10
7582685.601
20
5648311.754
30
207.263
0
VERTEX
8
0
10
7582681.832
20
5648317.060
30
207.194
0
VERTEX
8
0
10
7582678.613
20
5648320.690
30
207.199
0
VERTEX
8
0
10
7582678.353
20
5648324.240
30
207.167
0
VERTEX
8
0
10
7582678.338
20
5648326.148
30
207.115
0
VERTEX
8
0
10
7582678.300
20
5648327.040
30
207.118
0
SEQEND
0
POINT
8
0
10
7582678.338
20
5648326.148
30
207.115
0
POINT
8
0
10
7582678.300
20
5648327.040
30
207.118
0
POINT
8
0
10
7582678.353
20
5648324.240
30
207.167
0
POINT
8
0
10
7582678.613
20
5648320.690
30
207.199
0
POINT
8
0
10
7582681.832
20
5648317.060
30
207.194
0
POINT
8
0
10
7582685.601
20
5648311.754
30
207.263
0
POINT
8
0
10
7582790.964
20
5648193.071
30
205.556
0
POINT
8
0
10
7582786.411
20
5648197.488
30
205.736
0
POINT
8
0
10
7582788.850
20
5648194.684
30
205.575
0
POINT
8
0
10
7582783.198
20
5648201.394
30
205.810
0
POLYLINE
8
braki_01_12_2021
66
1
70
0
10
0.0
20
0.0
30
0.0
0
VERTEX
8
0
10
7585101.060
20
5646828.920
30
0.000
0
VERTEX
8
0
10
7585100.594
20
5646828.655
30
0.000
0
VERTEX
8
0
10
7585100.061
20
5646828.588
30
0.000
0
VERTEX
8
0
10
7585099.544
20
5646828.731
30
0.000
0
VERTEX
8
0
10
7585099.120
20
5646829.060
30
0.000
0
VERTEX
8
0
10
7585098.855
20
5646829.526
30
0.000
0
VERTEX
8
0
10
7585098.788
20
5646830.059
30
0.000
0
VERTEX
8
0
10
7585098.931
20
5646830.576
30
0.000
0
VERTEX
8
0
10
7585099.260
20
5646831.000
30
0.000
0
VERTEX
8
0
10
7585099.726
20
5646831.265
30
0.000
0
VERTEX
8
0
10
7585100.259
20
5646831.332
30
0.000
0
VERTEX
8
0
10
7585100.776
20
5646831.189
30
0.000
0
VERTEX
8
0
10
7585101.200
20
5646830.860
30
0.000
0
VERTEX
8
0
10
7585101.465
20
5646830.394
30
0.000
0
VERTEX
8
0
10
7585101.532
20
5646829.861
30
0.000
0
VERTEX
8
0
10
7585101.389
20
5646829.344
30
0.000
0
SEQEND
0
POLYLINE
8
braki_01_12_2021
66
1
70
0
10
0.0
20
0.0
30
0.0
0
VERTEX
8
0
10
7585082.480
20
5646838.760
30
0.000
0
VERTEX
8
0
10
7585082.145
20
5646838.596
30
0.000
0
VERTEX
8
0
10
7585081.773
20
5646838.572
30
0.000
0
VERTEX
8
0
10
7585081.420
20
5646838.693
30
0.000
0
VERTEX
8
0
10
7585081.140
20
5646838.940
30
0.000
0
VERTEX
8
0
10
7585080.976
20
5646839.275
30
0.000
0
VERTEX
8
0
10
7585080.952
20
5646839.647
30
0.000
0
VERTEX
8
0
10
7585081.073
20
5646840.000
30
0.000
0
VERTEX
8
0
10
7585081.320
20
5646840.280
30
0.000
0
VERTEX
8
0
10
7585081.655
20
5646840.444
30
0.000
0
VERTEX
8
0
10
7585082.027
20
5646840.468
30
0.000
0
VERTEX
8
0
10
7585082.380
20
5646840.347
30
0.000
0
VERTEX
8
0
10
7585082.660
20
5646840.100
30
0.000
0
VERTEX
8
0
10
7585082.824
20
5646839.765
30
0.000
0
VERTEX
8
0
10
7585082.848
20
5646839.393
30
0.000
0
VERTEX
8
0
10
7585082.727
20
5646839.040
30
0.000
0
SEQEND
0
POLYLINE
8
braki_01_12_2021
66
1
70
0
10
0.0
20
0.0
30
0.0
0
VERTEX
8
0
10
7582748.540
20
5648274.340
30
0.000
0
VERTEX
8
0
10
7582748.105
20
5648274.072
30
0.000
0
VERTEX
8
0
10
7582747.601
20
5648273.992
30
0.000
0
VERTEX
8
0
10
7582747.104
20
5648274.110
30
0.000
0
VERTEX
8
0
10
7582746.690
20
5648274.410
30
0.000
0
VERTEX
8
0
10
7582746.422
20
5648274.845
30
0.000
0
VERTEX
8
0
10
7582746.342
20
5648275.349
30
0.000
0
VERTEX
8
0
10
7582746.460
20
5648275.846
30
0.000
0
VERTEX
8
0
10
7582746.760
20
5648276.260
30
0.000
0
VERTEX
8
0
10
7582747.195
20
5648276.528
30
0.000
0
VERTEX
8
0
10
7582747.699
20
5648276.608
30
0.000
0
VERTEX
8
0
10
7582748.196
20
5648276.490
30
0.000
0
VERTEX
8
0
10
7582748.610
20
5648276.190
30
0.000
0
VERTEX
8
0
10
7582748.878
20
5648275.755
30
0.000
0
VERTEX
8
0
10
7582748.958
20
5648275.251
30
0.000
0
VERTEX
8
0
10
7582748.840
20
5648274.754
30
0.000
0
SEQEND
0
POLYLINE
8
braki_01_12_2021
66
1
70
0
10
0.0
20
0.0
30
0.0
0
VERTEX
8
0
10
7588290.130
20
5644854.960
30
0.000
0
VERTEX
8
0
10
7588289.272
20
5644854.446
30
0.000
0
VERTEX
8
0
10
7588288.283
20
5644854.300
30
0.000
0
VERTEX
8
0
10
7588287.313
20
5644854.544
30
0.000
0
VERTEX
8
0
10
7588286.510
20
5644855.140
30
0.000
0
VERTEX
8
0
10
7588285.996
20
5644855.998
30
0.000
0
VERTEX
8
0
10
7588285.850
20
5644856.987
30
0.000
0
VERTEX
8
0
10
7588286.094
20
5644857.957
30
0.000
0
VERTEX
8
0
10
7588286.690
20
5644858.760
30
0.000
0
VERTEX
8
0
10
7588287.548
20
5644859.274
30
0.000
0
VERTEX
8
0
10
7588288.537
20
5644859.420
30
0.000
0
VERTEX
8
0
10
7588289.507
20
5644859.176
30
0.000
0
VERTEX
8
0
10
7588290.310
20
5644858.580
30
0.000
0
VERTEX
8
0
10
7588290.824
20
5644857.722
30
0.000
0
VERTEX
8
0
10
7588290.970
20
5644856.733
30
0.000
0
VERTEX
8
0
10
7588290.726
20
5644855.763
30
0.000
0
SEQEND
0
POLYLINE
8
braki_01_12_2021
66
1
70
0
10
0.0
20
0.0
30
0.0
0
VERTEX
8
0
10
7588401.370
20
5644959.790
30
0.000
0
VERTEX
8
0
10
7588400.349
20
5644959.615
30
0.000
0
VERTEX
8
0
10
7588399.338
20
5644959.845
30
0.000
0
VERTEX
8
0
10
7588398.492
20
5644960.443
30
0.000
0
VERTEX
8
0
10
7588397.940
20
5644961.320
30
0.000
0
VERTEX
8
0
10
7588397.765
20
5644962.341
30
0.000
0
VERTEX
8
0
10
7588397.995
20
5644963.352
30
0.000
0
VERTEX
8
0
10
7588398.593
20
5644964.198
30
0.000
0
VERTEX
8
0
10
7588399.470
20
5644964.750
30
0.000
0
VERTEX
8
0
10
7588400.491
20
5644964.925
30
0.000
0
VERTEX
8
0
10
7588401.502
20
5644964.695
30
0.000
0
VERTEX
8
0
10
7588402.348
20
5644964.097
30
0.000
0
VERTEX
8
0
10
7588402.900
20
5644963.220
30
0.000
0
VERTEX
8
0
10
7588403.075
20
5644962.199
30
0.000
0
VERTEX
8
0
10
7588402.845
20
5644961.188
30
0.000
0
VERTEX
8
0
10
7588402.247
20
5644960.342
30
0.000
0
SEQEND
0
POLYLINE
8
braki_01_12_2021
66
1
70
0
10
0.0
20
0.0
30
0.0
0
VERTEX
8
0
10
7588379.910
20
5644939.050
30
0.000
0
VERTEX
8
0
10
7588379.011
20
5644938.791
30
0.000
0
VERTEX
8
0
10
7588378.082
20
5644938.896
30
0.000
0
VERTEX
8
0
10
7588377.263
20
5644939.349
30
0.000
0
VERTEX
8
0
10
7588376.680
20
5644940.080
30
0.000
0
VERTEX
8
0
10
7588376.421
20
5644940.979
30
0.000
0
VERTEX
8
0
10
7588376.526
20
5644941.908
30
0.000
0
VERTEX
8
0
10
7588376.979
20
5644942.727
30
0.000
0
VERTEX
8
0
10
7588377.710
20
5644943.310
30
0.000
0
VERTEX
8
0
10
7588378.609
20
5644943.569
30
0.000
0
VERTEX
8
0
10
7588379.538
20
5644943.464
30
0.000
0
VERTEX
8
0
10
7588380.357
20
5644943.011
30
0.000
0
VERTEX
8
0
10
7588380.940
20
5644942.280
30
0.000
0
VERTEX
8
0
10
7588381.199
20
5644941.381
30
0.000
0
VERTEX
8
0
10
7588381.094
20
5644940.452
30
0.000
0
VERTEX
8
0
10
7588380.641
20
5644939.633
30
0.000
0
SEQEND
0
POLYLINE
8
braki_01_12_2021
66
1
70
0
10
0.0
20
0.0
30
0.0
0
VERTEX
8
0
10
7588358.880
20
5644918.400
30
0.000
0
VERTEX
8
0
10
7588358.190
20
5644917.992
30
0.000
0
VERTEX
8
0
10
7588357.397
20
5644917.879
30
0.000
0
VERTEX
8
0
10
7588356.621
20
5644918.079
30
0.000
0
VERTEX
8
0
10
7588355.980
20
5644918.560
30
0.000
0
VERTEX
8
0
10
7588355.572
20
5644919.250
30
0.000
0
VERTEX
8
0
10
7588355.459
20
5644920.043
30
0.000
0
VERTEX
8
0
10
7588355.659
20
5644920.819
30
0.000
0
VERTEX
8
0
10
7588356.140
20
5644921.460
30
0.000
0
VERTEX
8
0
10
7588356.830
20
5644921.868
30
0.000
0
VERTEX
8
0
10
7588357.623
20
5644921.981
30
0.000
0
VERTEX
8
0
10
7588358.399
20
5644921.781
30
0.000
0
VERTEX
8
0
10
7588359.040
20
5644921.300
30
0.000
0
VERTEX
8
0
10
7588359.448
20
5644920.610
30
0.000
0
VERTEX
8
0
10
7588359.561
20
5644919.817
30
0.000
0
VERTEX
8
0
10
7588359.361
20
5644919.041
30
0.000
0
SEQEND
0
POLYLINE
8
braki_01_12_2021
66
1
70
0
10
0.0
20
0.0
30
0.0
0
VERTEX
8
0
10
7582733.340
20
5648266.090
30
0.000
0
VERTEX
8
0
10
7582728.730
20
5648264.770
30
0.000
0
VERTEX
8
0
10
7582723.940
20
5648265.430
30
0.000
0
VERTEX
8
0
10
7582720.910
20
5648268.290
30
0.000
0
VERTEX
8
0
10
7582710.990
20
5648281.550
30
0.000
0
VERTEX
8
0
10
7582707.250
20
5648286.320
30
0.000
0
VERTEX
8
0
10
7582707.610
20
5648287.490
30
0.000
0
VERTEX
8
0
10
7582703.640
20
5648291.980
30
0.000
0
VERTEX
8
0
10
7582698.910
20
5648297.680
30
0.000
0
VERTEX
8
0
10
7582700.610
20
5648298.200
30
0.000
0
VERTEX
8
0
10
7582701.950
20
5648297.280
30
0.000
0
VERTEX
8
0
10
7582707.190
20
5648290.980
30
0.000
0
VERTEX
8
0
10
7582709.080
20
5648288.020
30
0.000
0
VERTEX
8
0
10
7582711.120
20
5648285.140
30
0.000
0
VERTEX
8
0
10
7582712.510
20
5648283.840
30
0.000
0
VERTEX
8
0
10
7582720.040
20
5648274.650
30
0.000
0
VERTEX
8
0
10
7582724.310
20
5648268.290
30
0.000
0
VERTEX
8
0
10
7582728.650
20
5648268.000
30
0.000
0
VERTEX
8
0
10
7582733.870
20
5648269.140
30
0.000
0
VERTEX
8
0
10
7582736.420
20
5648268.820
30
0.000
0
VERTEX
8
0
10
7582738.010
20
5648266.480
30
0.000
0
VERTEX
8
0
10
7582736.640
20
5648265.840
30
0.000
0
SEQEND
0
POLYLINE
8
braki_01_12_2021
66
1
70
0
10
0.0
20
0.0
30
0.0
0
VERTEX
8
0
10
7585074.460
20
5646826.400
30
0.000
0
VERTEX
8
0
10
7585081.940
20
5646839.270
30
0.000
0
VERTEX
8
0
10
7585093.510
20
5646833.120
30
0.000
0
VERTEX
8
0
10
7585098.870
20
5646830.250
30
0.000
0
VERTEX
8
0
10
7585100.700
20
5646829.240
30
0.000
0
SEQEND
0
POLYLINE
8
braki_01_12_2021
66
1
70
0
10
0.0
20
0.0
30
0.0
0
VERTEX
8
0
10
7584825.382
20
5646960.531
30
0.000
0
VERTEX
8
0
10
7584829.200
20
5646969.100
30
0.000
0
VERTEX
8
0
10
7584832.150
20
5646980.170
30
0.000
0
VERTEX
8
0
10
7584842.710
20
5646981.220
30
0.000
0
VERTEX
8
0
10
7584842.860
20
5646981.710
30
0.000
0
VERTEX
8
0
10
7584838.040
20
5646982.190
30
0.000
0
VERTEX
8
0
10
7584831.220
20
5646985.930
30
0.000
0
VERTEX
8
0
10
7584825.980
20
5646982.940
30
0.000
0
SEQEND
0
POLYLINE
8
braki_01_12_2021
66
1
70
0
10
0.0
20
0.0
30
0.0
0
VERTEX
8
0
10
7584838.550
20
5646877.660
30
0.000
0
VERTEX
8
0
10
7584841.280
20
5646882.620
30
0.000
0
VERTEX
8
0
10
7584844.080
20
5646883.620
30
0.000
0
VERTEX
8
0
10
7584849.690
20
5646886.430
30
0.000
0
VERTEX
8
0
10
7584850.071
20
5646887.679
30
0.000
0
SEQEND
0
POLYLINE
8
braki_01_12_2021
66
1
70
0
10
0.0
20
0.0
30
0.0
0
VERTEX
8
0
10
7582643.075
20
5648291.910
30
0.000
0
VERTEX
8
0
10
7582652.560
20
5648293.790
30
0.000
0
VERTEX
8
0
10
7582660.100
20
5648295.710
30
0.000
0
SEQEND
0
POLYLINE
8
braki_01_12_2021
66
1
70
0
10
0.0
20
0.0
30
0.0
0
VERTEX
8
0
10
7582805.100
20
5648177.870
30
0.000
0
VERTEX
8
0
10
7582798.490
20
5648185.080
30
0.000
0
VERTEX
8
0
10
7582790.250
20
5648193.740
30
0.000
0
VERTEX
8
0
10
7582786.250
20
5648198.660
30
0.000
0
VERTEX
8
0
10
7582783.760
20
5648201.880
30
0.000
0
VERTEX
8
0
10
7582779.172
20
5648198.230
30
0.000
0
SEQEND
0
POLYLINE
8
braki_01_12_2021
66
1
70
0
10
0.0
20
0.0
30
0.0
0
VERTEX
8
0
10
7582818.678
20
5648153.393
30
0.000
0
VERTEX
8
0
10
7582823.090
20
5648156.620
30
0.000
0
VERTEX
8
0
10
7582805.100
20
5648177.930
30
0.000
0
VERTEX
8
0
10
7582800.755
20
5648173.970
30
0.000
0
SEQEND
0
POLYLINE
8
braki_01_12_2021
66
1
70
0
10
0.0
20
0.0
30
0.0
0
VERTEX
8
0
10
7583305.690
20
5647514.710
30
0.000
0
VERTEX
8
0
10
7583313.170
20
5647512.860
30
0.000
0
VERTEX
8
0
10
7583318.280
20
5647511.640
30
0.000
0
VERTEX
8
0
10
7583322.180
20
5647509.470
30
0.000
0
VERTEX
8
0
10
7583333.050
20
5647497.360
30
0.000
0
SEQEND
0
POLYLINE
8
braki_01_12_2021
66
1
70
0
10
0.0
20
0.0
30
0.0
0
VERTEX
8
0
10
7583270.140
20
5647540.260
30
0.000
0
VERTEX
8
0
10
7583269.550
20
5647543.060
30
0.000
0
VERTEX
8
0
10
7583273.960
20
5647544.720
30
0.000
0
VERTEX
8
0
10
7583274.020
20
5647547.600
30
0.000
0
VERTEX
8
0
10
7583283.990
20
5647549.710
30
0.000
0
VERTEX
8
0
10
7583285.330
20
5647553.920
30
0.000
0
SEQEND
0
POLYLINE
8
braki_01_12_2021
66
1
70
0
10
0.0
20
0.0
30
0.0
0
VERTEX
8
0
10
7581715.140
20
5649441.840
30
0.000
0
VERTEX
8
0
10
7581717.950
20
5649437.820
30
0.000
0
VERTEX
8
0
10
7581719.550
20
5649439.030
30
0.000
0
VERTEX
8
0
10
7581716.740
20
5649443.180
30
0.000
0
VERTEX
8
0
10
7581715.140
20
5649441.840
30
0.000
0
SEQEND
0
POLYLINE
8
braki_01_12_2021
66
1
70
0
10
0.0
20
0.0
30
0.0
0
VERTEX
8
0
10
7581684.600
20
5649476.990
30
0.000
0
VERTEX
8
0
10
7581688.110
20
5649472.700
30
0.000
0
VERTEX
8
0
10
7581689.970
20
5649473.340
30
0.000
0
VERTEX
8
0
10
7581686.200
20
5649478.070
30
0.000
0
VERTEX
8
0
10
7581684.600
20
5649476.990
30
0.000
0
SEQEND
0
POLYLINE
8
braki_01_12_2021
66
1
70
0
10
0.0
20
0.0
30
0.0
0
VERTEX
8
0
10
7581659.560
20
5649508.740
30
0.000
0
VERTEX
8
0
10
7581658.280
20
5649507.910
30
0.000
0
VERTEX
8
0
10
7581661.350
20
5649503.890
30
0.000
0
VERTEX
8
0
10
7581662.880
20
5649504.780
30
0.000
0
VERTEX
8
0
10
7581659.560
20
5649508.740
30
0.000
0
SEQEND
0
POLYLINE
8
braki_01_12_2021
66
1
70
0
10
0.0
20
0.0
30
0.0
0
VERTEX
8
0
10
7581823.150
20
5649290.480
30
0.000
0
VERTEX
8
0
10
7581827.960
20
5649284.080
30
0.000
0
VERTEX
8
0
10
7581824.500
20
5649276.350
30
0.000
0
VERTEX
8
0
10
7581817.270
20
5649283.180
30
0.000
0
VERTEX
8
0
10
7581799.140
20
5649300.990
30
0.000
0
VERTEX
8
0
10
7581793.540
20
5649310.900
30
0.000
0
VERTEX
8
0
10
7581780.610
20
5649329.900
30
0.000
0
VERTEX
8
0
10
7581769.820
20
5649344.430
30
0.000
0
VERTEX
8
0
10
7581773.120
20
5649346.980
30
0.000
0
VERTEX
8
0
10
7581776.400
20
5649347.310
30
0.000
0
VERTEX
8
0
10
7581782.464
20
5649342.334
30
0.000
0
VERTEX
8
0
10
7581780.020
20
5649340.670
30
0.000
0
VERTEX
8
0
10
7581799.650
20
5649313.670
30
0.000
0
VERTEX
8
0
10
7581799.390
20
5649311.200
30
0.000
0
VERTEX
8
0
10
7581805.380
20
5649304.370
30
0.000
0
VERTEX
8
0
10
7581807.630
20
5649303.900
30
0.000
0
VERTEX
8
0
10
7581818.190
20
5649294.850
30
0.000
0
VERTEX
8
0
10
7581823.147
20
5649290.488
30
0.000
0
SEQEND
0
POLYLINE
8
braki_01_12_2021
66
1
70
0
10
0.0
20
0.0
30
0.0
0
VERTEX
8
0
10
7582802.440
20
5648127.960
30
0.000
0
VERTEX
8
0
10
7582795.170
20
5648121.650
30
0.000
0
VERTEX
8
0
10
7582799.240
20
5648118.690
30
0.000
0
VERTEX
8
0
10
7582806.750
20
5648124.840
30
0.000
0
VERTEX
8
0
10
7582803.320
20
5648128.680
30
0.000
0
VERTEX
8
0
10
7582802.440
20
5648127.960
30
0.000
0
SEQEND
0
ENDSEC
0
EOF
